  0
SECTION
  2
HEADER
  9
$ACADVER
  1
AC1009
  9
$DWGCODEPAGE
  3
ansi_932
  9
$INSBASE
 10
0.0
 20
0.0
 30
0.0
  9
$EXTMIN
 10
0.0
 20
0.0
 30
0.0
  9
$EXTMAX
 10
243.6405860032496
 20
358.006297734999
 30
0.0
  9
$LIMMIN
 10
0.0
 20
0.0
  9
$LIMMAX
 10
420.0
 20
420.0
  9
$ORTHOMODE
 70
     0
  9
$REGENMODE
 70
     1
  9
$FILLMODE
 70
     1
  9
$QTEXTMODE
 70
     0
  9
$MIRRTEXT
 70
     0
  9
$DRAGMODE
 70
     2
  9
$LTSCALE
 40
10.0
  9
$OSMODE
 70
 15359
  9
$ATTMODE
 70
     1
  9
$TEXTSIZE
 40
3.5
  9
$TRACEWID
 40
1.0
  9
$TEXTSTYLE
  7
STANDARD
  9
$CLAYER
  8
0
  9
$CELTYPE
  6
BYLAYER
  9
$CECOLOR
 62
   256
  9
$DIMSCALE
 40
1.0
  9
$DIMASZ
 40
2.5
  9
$DIMEXO
 40
1.0
  9
$DIMDLI
 40
7.0
  9
$DIMRND
 40
0.0
  9
$DIMDLE
 40
0.0
  9
$DIMEXE
 40
1.0
  9
$DIMTP
 40
0.1
  9
$DIMTM
 40
0.1
  9
$DIMTXT
 40
3.0
  9
$DIMCEN
 40
0.0
  9
$DIMTSZ
 40
0.0
  9
$DIMTOL
 70
     0
  9
$DIMLIM
 70
     0
  9
$DIMTIH
 70
     0
  9
$DIMTOH
 70
     0
  9
$DIMSE1
 70
     0
  9
$DIMSE2
 70
     0
  9
$DIMTAD
 70
     3
  9
$DIMZIN
 70
     8
  9
$DIMBLK
  1
OPEN
  9
$DIMASO
 70
     1
  9
$DIMSHO
 70
     1
  9
$DIMPOST
  1

  9
$DIMAPOST
  1
"
  9
$DIMALT
 70
     0
  9
$DIMALTD
 70
     2
  9
$DIMALTF
 40
0.0393701
  9
$DIMLFAC
 40
1.0
  9
$DIMTOFL
 70
     1
  9
$DIMTVP
 40
0.0
  9
$DIMTIX
 70
     0
  9
$DIMSOXD
 70
     0
  9
$DIMSAH
 70
     0
  9
$DIMBLK1
  1

  9
$DIMBLK2
  1

  9
$DIMSTYLE
  2
AM_JIS
  9
$DIMCLRD
 70
   256
  9
$DIMCLRE
 70
   256
  9
$DIMCLRT
 70
     2
  9
$DIMTFAC
 40
0.71
  9
$DIMGAP
 40
1.0
  9
$LUNITS
 70
     2
  9
$LUPREC
 70
     2
  9
$SKETCHINC
 40
1.0
  9
$FILLETRAD
 40
2.5
  9
$AUNITS
 70
     0
  9
$AUPREC
 70
     0
  9
$MENU
  1
.
  9
$ELEVATION
 40
0.0
  9
$PELEVATION
 40
0.0
  9
$THICKNESS
 40
0.0
  9
$LIMCHECK
 70
     0
  9
$CHAMFERA
 40
2.5
  9
$CHAMFERB
 40
2.5
  9
$SKPOLY
 70
     1
  9
$TDCREATE
 40
2460208.73398632
  9
$TDUPDATE
 40
2460210.732538993
  9
$TDINDWG
 40
0.1277011111
  9
$TDUSRTIMER
 40
0.1276037847
  9
$USRTIMER
 70
     1
  9
$ANGBASE
 50
0.0
  9
$ANGDIR
 70
     0
  9
$PDMODE
 70
     0
  9
$PDSIZE
 40
0.0
  9
$PLINEWID
 40
0.0
  9
$COORDS
 70
     2
  9
$SPLFRAME
 70
     0
  9
$SPLINETYPE
 70
     6
  9
$SPLINESEGS
 70
     8
  9
$ATTDIA
 70
     1
  9
$ATTREQ
 70
     1
  9
$HANDLING
 70
     1
  9
$HANDSEED
  5
2AC1
  9
$SURFTAB1
 70
     6
  9
$SURFTAB2
 70
     6
  9
$SURFTYPE
 70
     6
  9
$SURFU
 70
     6
  9
$SURFV
 70
     6
  9
$UCSNAME
  2

  9
$UCSORG
 10
0.0
 20
0.0
 30
0.0
  9
$UCSXDIR
 10
1.0
 20
0.0
 30
0.0
  9
$UCSYDIR
 10
0.0
 20
1.0
 30
0.0
  9
$PUCSNAME
  2

  9
$PUCSORG
 10
0.0
 20
0.0
 30
0.0
  9
$PUCSXDIR
 10
1.0
 20
0.0
 30
0.0
  9
$PUCSYDIR
 10
0.0
 20
1.0
 30
0.0
  9
$USERI1
 70
     0
  9
$USERI2
 70
     0
  9
$USERI3
 70
     0
  9
$USERI4
 70
     0
  9
$USERI5
 70
     0
  9
$USERR1
 40
0.0
  9
$USERR2
 40
0.0
  9
$USERR3
 40
0.0
  9
$USERR4
 40
0.0
  9
$USERR5
 40
0.0
  9
$WORLDVIEW
 70
     1
  9
$SHADEDGE
 70
     3
  9
$SHADEDIF
 70
    70
  9
$TILEMODE
 70
     1
  9
$MAXACTVP
 70
    48
  9
$PLIMCHECK
 70
     0
  9
$PEXTMIN
 10
1.000000000000000E+20
 20
1.000000000000000E+20
 30
1.000000000000000E+20
  9
$PEXTMAX
 10
-1.000000000000000E+20
 20
-1.000000000000000E+20
 30
-1.000000000000000E+20
  9
$PLIMMIN
 10
-0.2500002402958907
 20
-0.2499999962453767
  9
$PLIMMAX
 10
10.74999951940822
 20
8.249999763458732
  9
$UNITMODE
 70
     0
  9
$VISRETAIN
 70
     1
  9
$PLINEGEN
 70
     0
  9
$PSLTSCALE
 70
     1
  0
ENDSEC
  0
SECTION
  2
TABLES
  0
TABLE
  2
VPORT
 70
     1
  0
VPORT
  2
*ACTIVE
 70
     0
 10
0.0
 20
0.0
 11
1.0
 21
1.0
 12
121.8202930016248
 22
179.003148867499
 13
0.0
 23
0.0
 14
2.5
 24
2.5
 15
10.0
 25
10.0
 16
0.0
 26
0.0
 36
1.0
 17
0.0
 27
0.0
 37
0.0
 40
361.2279517078673
 41
2.164994425863992
 42
50.0
 43
0.0
 44
0.0
 50
0.0
 51
0.0
 71
     0
 72
   100
 73
     1
 74
     3
 75
     0
 76
     0
 77
     0
 78
     0
  0
ENDTAB
  0
TABLE
  2
LTYPE
 70
    14
  0
LTYPE
  2
CONTINUOUS
 70
     0
  3
Solid line
 72
    65
 73
     0
 40
0.0
  0
LTYPE
  2
PHANTOM2
 70
     0
  3
___ _ _ ___ _ _ ___ _ _ ___ _ _ ___ _ _ ___ _ _
 72
    65
 73
     6
 40
1.25
 49
0.625
 49
-0.125
 49
0.125
 49
-0.125
 49
0.125
 49
-0.125
  0
LTYPE
  2
ACJISTGB
 70
     0
  3
__ . . __ . .
 72
    65
 73
     6
 40
9.0
 49
4.0
 49
-1.0
 49
1.0
 49
-1.0
 49
1.0
 49
-1.0
  0
LTYPE
  2
ACJISTGL
 70
     0
  3
_ _ _ _ _
 72
    65
 73
     2
 40
3.0
 49
2.0
 49
-1.0
  0
LTYPE
  2
AM_ISO02W050
 70
     0
  3
__ __ __ __ __ __ __ __ __ __ __ __ __ __ __
 72
    65
 73
     2
 40
7.5
 49
6.0
 49
-1.5
  0
LTYPE
  2
AM_ISO08W050
 70
     0
  3
____ . ____ . ____ . ____ . ____ . ____ . ____
 72
    65
 73
     4
 40
18.0
 49
12.0
 49
-1.5
 49
3.0
 49
-1.5
  0
LTYPE
  2
AM_ISO09W050
 70
     0
  3
_____ . . _____ . . _____ . . ____ .. ____
 72
    65
 73
     6
 40
22.5
 49
12.0
 49
-1.5
 49
3.0
 49
-1.5
 49
3.0
 49
-1.5
  0
LTYPE
  2
AM_ISO02W050X2
 70
     0
  3
 _ _ _ _ _ _ _ _ _ _ _ _
 72
    65
 73
     2
 40
3.75
 49
3.0
 49
-0.75
  0
LTYPE
  2
AM_ISO08W050X2
 70
     0
  3
__ . __ . __ . __ . __ . __
 72
    65
 73
     4
 40
9.0
 49
6.0
 49
-0.75
 49
1.5
 49
-0.75
  0
LTYPE
  2
AMZIGZAG
 70
     0
  3
/\/-/\/-/\/-/\/-/\/-/\/
 72
    65
 73
     2
 40
11.0001
 49
0.0001
 49
-11.0
  0
LTYPE
  2
AMCONSTR
 70
     0
  3
_______________________
 72
    65
 73
     2
 40
9999.0
 49
9999.0
 49
0.0
  0
LTYPE
  2
CENTER2
 70
     0
  3
Center (.5x) ___ _ ___ _ ___ _ ___ _ ___ _ ___
 72
    65
 73
     4
 40
1.125
 49
0.75
 49
-0.125
 49
0.125
 49
-0.125
  0
LTYPE
  2
HIDDEN2
 70
     0
  3
Hidden (.5x) _ _ _ _ _ _ _ _ _ _ _ _ _ _ _ _ _
 72
    65
 73
     2
 40
0.1875
 49
0.125
 49
-0.0625
  0
LTYPE
  2
ACJISWELD
 70
     0
  3
_ _ _ _ _
 72
    65
 73
     2
 40
2.0
 49
2.0
 49
-1.0
  0
ENDTAB
  0
TABLE
  2
LAYER
 70
     4
  0
LAYER
  2
0
 70
     0
 62
     7
  6
CONTINUOUS
  0
LAYER
  2
7
 70
     0
 62
     4
  6
CENTER2
  0
LAYER
  2
AM_0
 70
     0
 62
     7
  6
CONTINUOUS
  0
LAYER
  2
10
 70
     0
 62
     2
  6
CONTINUOUS
  0
ENDTAB
  0
TABLE
  2
STYLE
 70
     4
  0
STYLE
  2
STANDARD
 70
     0
 40
0.0
 41
1.0
 50
0.0
 71
     0
 42
3.5
  3
isocp.shx
  4
extfont.shx
  0
STYLE
  2
ACJISTS
 70
     0
 40
1.0
 41
1.0
 50
0.0
 71
     0
 42
3.5
  3
isocp.shx
  4
extfont.shx
  0
STYLE
  2
ACJISGDT
 70
     0
 40
0.0
 41
1.0
 50
0.0
 71
     0
 42
3.5
  3
amgdt.shx
  4
extfont.shx
  0
STYLE
  2

 70
     1
 40
0.0
 41
1.0
 50
0.0
 71
     0
 42
3.5
  3
ltypeshp.shx
  4

  0
ENDTAB
  0
TABLE
  2
VIEW
 70
     3
  0
VIEW
  2
AMDTVIEW1
 70
     0
 40
329.0721649484536
 10
210.0
 20
164.5360824742268
 41
420.0
 11
0.0
 21
0.0
 31
1.0
 12
0.0
 22
0.0
 32
0.0
 42
50.0
 43
0.0
 44
0.0
 50
0.0
 71
     0
  0
VIEW
  2
AMDTVIEW2
 70
     0
 40
329.0721649484536
 10
210.0
 20
164.5360824742268
 41
420.0
 11
0.0
 21
0.0
 31
1.0
 12
0.0
 22
0.0
 32
0.0
 42
50.0
 43
0.0
 44
0.0
 50
0.0
 71
     0
  0
VIEW
  2
AMDTVIEW3
 70
     0
 40
329.0721649484536
 10
210.0
 20
164.5360824742268
 41
420.0
 11
0.0
 21
0.0
 31
1.0
 12
0.0
 22
0.0
 32
0.0
 42
50.0
 43
0.0
 44
0.0
 50
0.0
 71
     0
  0
ENDTAB
  0
TABLE
  2
UCS
 70
     0
  0
ENDTAB
  0
TABLE
  2
APPID
 70
    66
  0
APPID
  2
ACAD
 70
     0
  0
APPID
  2
AD_DRAW
 70
     0
  0
APPID
  2
DESIGNERASSEMBLIES
 70
     0
  0
APPID
  2
MCAD_NO_VIS
 70
     0
  0
APPID
  2
ASURF_PCURVE_APPNAME
 70
     0
  0
APPID
  2
ACAD_TEMP_GRAPHIC
 70
     0
  0
APPID
  2
ACATTRIBSERVICES
 70
     0
  0
APPID
  2
ACADM_DIM_EDIT
 70
     0
  0
APPID
  2
GENIUS_GENDIM_13
 70
     0
  0
APPID
  2
GENIUS_GENDTOL_13
 70
     0
  0
APPID
  2
GENIUS_GE3DTOL_13
 70
     0
  0
APPID
  2
AMG_3D2D_5_0
 70
     0
  0
APPID
  2
AMDT_DM_ADJ
 70
     0
  0
APPID
  2
ACAD_PSEXT
 70
     0
  0
APPID
  2
ACAD_DSTYLE_DIMTEXT_FILL
 70
     0
  0
APPID
  2
ACAECLAYERSTANDARD
 70
     0
  0
APPID
  2
GENIUS_GENREC_14
 70
     0
  0
APPID
  2
GENIUS_GENODEF_13
 70
     0
  0
APPID
  2
GENIUS_GENOBJ-N-REC_13
 70
     0
  0
APPID
  2
DCO15
 70
     0
  0
APPID
  2
ACAD_DSTYLE_DIMJAG
 70
     0
  0
APPID
  2
ACAD_DSTYLE_DIMTALN
 70
     0
  0
APPID
  2
ACAD_MLEADERVER
 70
     0
  0
APPID
  2
GENIUS_GENSCREG_15
 70
     0
  0
APPID
  2
GENIUS_GENOBJ-N-SDF_13
 70
     0
  0
APPID
  2
ACAD_NAV_VCDISPLAY
 70
     0
  0
APPID
  2
ACAD_EXEMPT_FROM_CAD_STAND
 70
     0
  0
APPID
  2
ACCMTRANSPARENCY
 70
     0
  0
APPID
  2
HC_SUPERPART
 70
     0
  0
APPID
  2
HC_SP4BLOCK
 70
     0
  0
APPID
  2
HC_XDATA_SPRING
 70
     0
  0
APPID
  2
HCCAD_FRAME
 70
     0
  0
APPID
  2
GENIUS_GENOLIS_13
 70
     0
  0
APPID
  2
GENIUS_GENOENT_13
 70
     0
  0
APPID
  2
GENIUS_GENOREF_13
 70
     0
  0
APPID
  2
GENIUS_GENOBJ-N-TIT_13
 70
     0
  0
APPID
  2
GENIUS_GENOBJ-N-ZOO_13
 70
     0
  0
APPID
  2
GENIUS_GENTITLE_13
 70
     0
  0
APPID
  2
GENIUS_GENSYMENT_13
 70
     0
  0
APPID
  2
GENIUS_GENSCSYM_13
 70
     0
  0
APPID
  2
GENIUS_GENOBJ-N-REV_13
 70
     0
  0
APPID
  2
GENIUS_GENOBJ-N-RSSYM_13
 70
     0
  0
APPID
  2
GENIUS_GENREV_15
 70
     0
  0
APPID
  2
HRA
 70
     0
  0
APPID
  2
HTIT
 70
     0
  0
APPID
  2
GENIUS_GENZOO_17
 70
     0
  0
APPID
  2
GENIUS_GENOBJ-N-CEN_13
 70
     0
  0
APPID
  2
GENIUS_GENCEN_19
 70
     0
  0
APPID
  2
GENIUS_GENOBJ-N-CRS_13
 70
     0
  0
APPID
  2
GENIUS_GENCRS_20
 70
     0
  0
APPID
  2
GENIUS_GENOBJ-N-CRC_13
 70
     0
  0
APPID
  2
GENIUS_GENCRC_14
 70
     0
  0
APPID
  2
GENIUS_GENFIL_13
 70
     0
  0
APPID
  2
GENIUS_GENOBJ-N-CHA_13
 70
     0
  0
APPID
  2
GENIUS_GENOBJ-N-FIL_13
 70
     0
  0
APPID
  2
GENIUS_GENHATCH_13
 70
     0
  0
APPID
  2
GENIUS_GENOBJ-N-HTC_13
 70
     0
  0
APPID
  2
GENIUS_GENOBJ-N-DIM_13
 70
     0
  0
APPID
  2
GENIUS_GENOBJ-N-DIMLI_13
 70
     0
  0
APPID
  2
GENIUS_GENOBJ-N-FITL_13
 70
     0
  0
APPID
  2
GENIUS_GENFITL_13
 70
     0
  0
APPID
  2
GENLAYCOLOR
 70
     0
  0
APPID
  2
ACAD_DSTYLE_DIMBREAK
 70
     0
  0
APPID
  2
ACADANNOTATIVE
 70
     0
  0
APPID
  2
ACADANNOPO
 70
     0
  0
APPID
  2
PLOTTRANSPARENCY
 70
     0
  0
ENDTAB
  0
TABLE
  2
DIMSTYLE
 70
     8
  0
DIMSTYLE
  2
STANDARD
 70
     0
  3

  4

  5

  6

  7

 40
1.0
 41
2.5
 42
0.625
 43
3.75
 44
1.25
 45
0.0
 46
0.0
 47
0.0
 48
0.0
140
2.5
141
2.5
142
0.0
143
0.0394
144
1.0
145
0.0
146
1.0
147
0.625
 71
     0
 72
     0
 73
     0
 74
     0
 75
     0
 76
     0
 77
     1
 78
     8
170
     0
171
     4
172
     1
173
     0
174
     0
175
     0
176
     0
177
     0
178
     0
  0
DIMSTYLE
  2
ISO-25
 70
     0
  3

  4

  5

  6

  7

 40
1.0
 41
2.5
 42
0.625
 43
3.75
 44
1.25
 45
0.0
 46
0.0
 47
0.0
 48
0.0
140
2.5
141
2.5
142
0.0
143
0.0394
144
1.0
145
0.0
146
1.0
147
0.625
 71
     0
 72
     0
 73
     0
 74
     0
 75
     0
 76
     0
 77
     1
 78
     8
170
     0
171
     4
172
     1
173
     0
174
     0
175
     0
176
     0
177
     0
178
     0
  0
DIMSTYLE
  2
AM_JIS
 70
     0
  3

  4
"
  5
OPEN
  6

  7

 40
1.0
 41
2.5
 42
1.0
 43
7.0
 44
1.0
 45
0.0
 46
0.0
 47
0.1
 48
0.1
140
3.0
141
0.0
142
0.0
143
0.0393701
144
1.0
145
0.0
146
0.71
147
1.0
 71
     0
 72
     0
 73
     0
 74
     0
 75
     0
 76
     0
 77
     3
 78
     8
170
     0
171
     2
172
     1
173
     0
174
     0
175
     0
176
   256
177
   256
178
     2
  0
DIMSTYLE
  2
AM_JIS$3
 70
     0
  3

  4
"
  5
OPEN
  6

  7

 40
1.0
 41
2.5
 42
1.0
 43
10.0
 44
1.0
 45
0.0
 46
0.0
 47
0.1
 48
0.1
140
3.0
141
0.0
142
0.0
143
0.0393701
144
1.0
145
0.0
146
0.71
147
1.0
 71
     0
 72
     0
 73
     0
 74
     0
 75
     0
 76
     0
 77
     3
 78
     8
170
     0
171
     2
172
     1
173
     0
174
     0
175
     0
176
   256
177
   256
178
     2
  0
DIMSTYLE
  2
AM_JIS$4
 70
     0
  3

  4
"
  5

  6
OPEN30
  7
OPEN
 40
1.0
 41
2.5
 42
1.0
 43
10.0
 44
1.0
 45
0.0
 46
0.0
 47
0.1
 48
0.1
140
3.0
141
0.0
142
0.0
143
0.0393701
144
1.0
145
0.0
146
0.71
147
1.0
 71
     0
 72
     0
 73
     0
 74
     0
 75
     1
 76
     0
 77
     3
 78
     8
170
     0
171
     2
172
     1
173
     1
174
     0
175
     0
176
   256
177
   256
178
     2
  0
DIMSTYLE
  2
AM_JIS$6
 70
     0
  3

  4
"
  5
OPEN30
  6
OPEN30
  7
OPEN30
 40
1.0
 41
2.5
 42
1.0
 43
10.0
 44
1.0
 45
0.0
 46
0.0
 47
0.1
 48
0.1
140
3.5
141
0.0
142
0.0
143
0.0393701
144
1.0
145
0.0
146
0.71
147
1.5
 71
     0
 72
     0
 73
     0
 74
     0
 75
     0
 76
     0
 77
     0
 78
     8
170
     0
171
     2
172
     1
173
     0
174
     0
175
     0
176
   256
177
   256
178
     2
  0
DIMSTYLE
  2
AM_JIS$7
 70
     0
  3

  4
"
  5
OPEN30
  6

  7

 40
1.0
 41
2.5
 42
1.0
 43
10.0
 44
1.0
 45
0.0
 46
0.0
 47
0.1
 48
0.1
140
3.0
141
0.0
142
0.0
143
0.0393701
144
1.0
145
0.0
146
0.71
147
1.0
 71
     0
 72
     0
 73
     0
 74
     0
 75
     0
 76
     0
 77
     3
 78
     8
170
     0
171
     2
172
     1
173
     0
174
     0
175
     0
176
   256
177
   256
178
     2
  0
DIMSTYLE
  2
AM_JIS$0
 70
     0
  3

  4
"
  5
OPEN
  6

  7

 40
1.0
 41
2.5
 42
1.0
 43
7.0
 44
1.0
 45
0.0
 46
0.0
 47
0.1
 48
0.1
140
3.0
141
0.0
142
0.0
143
0.0393701
144
1.0
145
0.0
146
0.71
147
1.0
 71
     0
 72
     0
 73
     0
 74
     0
 75
     0
 76
     0
 77
     3
 78
     8
170
     0
171
     2
172
     1
173
     0
174
     0
175
     0
176
   256
177
   256
178
     2
  0
ENDTAB
  0
ENDSEC
  0
SECTION
  2
BLOCKS
  0
BLOCK
  8
0
  2
$MODEL_SPACE
 70
     0
 10
0.0
 20
0.0
 30
0.0
  3
$MODEL_SPACE
  1

  0
ENDBLK
  5
1C
  8
0
  0
BLOCK
 67
     1
  8
0
  2
$PAPER_SPACE
 70
     0
 10
0.0
 20
0.0
 30
0.0
  3
$PAPER_SPACE
  1

  0
ENDBLK
  5
19
 67
     1
  8
0
  0
BLOCK
  8
0
  2
_OPEN30
 70
     0
 10
0.0
 20
0.0
 30
0.0
  3
_OPEN30
  1

  0
LINE
  5
2EF
  8
0
  6
BYBLOCK
 62
     0
 10
-1.0
 20
0.26794919
 30
0.0
 11
0.0
 21
0.0
 31
0.0
  0
LINE
  5
2F0
  8
0
  6
BYBLOCK
 62
     0
 10
0.0
 20
0.0
 30
0.0
 11
-1.0
 21
-0.26794919
 31
0.0
  0
LINE
  5
2F1
  8
0
  6
BYBLOCK
 62
     0
 10
0.0
 20
0.0
 30
0.0
 11
-1.0
 21
0.0
 31
0.0
  0
ENDBLK
  5
2F3
  8
0
  0
BLOCK
  8
0
  2
_OPEN
 70
     0
 10
0.0
 20
0.0
 30
0.0
  3
_OPEN
  1

  0
LINE
  5
597
  8
0
  6
BYBLOCK
 62
     0
 10
-1.0
 20
0.1666666666666667
 30
0.0
 11
0.0
 21
0.0
 31
0.0
  0
LINE
  5
598
  8
0
  6
BYBLOCK
 62
     0
 10
-1.0
 20
-0.1666666666666667
 30
0.0
 11
0.0
 21
0.0
 31
0.0
  0
LINE
  5
599
  8
0
  6
BYBLOCK
 62
     0
 10
0.0
 20
0.0
 30
0.0
 11
-1.0
 21
0.0
 31
0.0
  0
ENDBLK
  5
59B
  8
0
  0
BLOCK
  8
0
  2
_TAGCIRCLE
 70
     2
 10
0.0
 20
0.0
 30
0.0
  3
_TAGCIRCLE
  1

  0
CIRCLE
  5
1151
  8
0
  6
BYBLOCK
 62
     0
 10
0.0
 20
0.0
 30
0.0
 40
4.0
  0
ATTDEF
  5
1152
  8
0
 62
     0
 10
-7.1
 20
-1.5
 30
0.0
 40
3.0
  1
タグ番号
 72
     1
 11
0.0
 21
-1.5
 31
0.0
  3
タグ番号を入力
  2
タグ番号
 70
     0
  0
ENDBLK
  5
1154
  8
0
  0
BLOCK
  8
AM_0
  2
_ACMOPEN30
 70
     0
 10
0.0
 20
0.0
 30
0.0
  3
_ACMOPEN30
  1
Acad:XRef
  0
LINE
  5
1CA4
  8
AM_0
 62
     0
 10
-1.0
 20
0.0
 30
0.0
 11
0.0
 21
0.0
 31
0.0
  0
LINE
  5
1CA5
  8
AM_0
 62
     0
 10
-1.0
 20
-0.2679491924311227
 30
0.0
 11
0.0
 21
0.0
 31
0.0
  0
LINE
  5
1CA6
  8
AM_0
 62
     0
 10
-1.0
 20
0.2679491924311227
 30
0.0
 11
0.0
 21
0.0
 31
0.0
  0
ENDBLK
  5
1CA7
  8
AM_0
  0
ENDSEC
  0
SECTION
  2
ENTITIES
  0
LINE
  5
28EC
  8
0
 10
172.8905860032494
 20
135.4057952237254
 30
0.0
 11
172.8905860032494
 21
125.3499318461254
 31
0.0
  0
LINE
  5
28ED
  8
0
 10
172.3905860032494
 20
82.12786353482534
 30
0.0
 11
172.3905860032494
 21
75.12786353502537
 31
0.0
  0
LINE
  5
28EE
  8
0
 10
174.0547995656493
 20
83.79207709722539
 30
0.0
 11
172.3905860032494
 21
82.12786353482534
 31
0.0
  0
LINE
  5
28EF
  8
0
 10
172.3905860032494
 20
75.12786353502537
 30
0.0
 11
174.0547995656493
 21
73.46364997262538
 31
0.0
  0
LINE
  5
28F0
  8
0
 10
172.8905860033494
 20
141.8278635349245
 30
0.0
 11
172.8905860033494
 21
135.4057952237254
 31
0.0
  0
LINE
  5
28F1
  8
0
 10
206.3905860031493
 20
141.0706311029254
 30
0.0
 11
206.3905860031493
 21
141.8278635349247
 31
0.0
  0
LINE
  5
28F2
  8
0
 10
172.8905860033494
 20
125.3499318461254
 30
0.0
 11
172.8905860033494
 21
120.1278635349254
 31
0.0
  0
LINE
  5
28F3
  8
0
 10
174.0547995657494
 20
113.7920770973254
 30
0.0
 11
173.3905860033495
 21
113.1278635349254
 31
0.0
  0
LINE
  5
28F4
  8
0
 10
206.3905860031493
 20
141.8278635349245
 30
0.0
 11
205.6405860030493
 21
142.2608762368245
 31
0.0
  0
LINE
  5
28F5
  8
0
 10
173.6405860033494
 20
142.2608762368245
 30
0.0
 11
172.8905860033494
 21
141.8278635349245
 31
0.0
  0
LINE
  5
28F6
  8
0
 10
172.8905860033494
 20
120.1278635349254
 30
0.0
 11
174.0547995657494
 21
118.9636499725254
 31
0.0
  0
LINE
  5
28F7
  8
0
 10
239.6405860032539
 20
117.1278635349254
 30
0.0
 11
223.6573739359494
 21
117.1278635349254
 31
0.0
  0
LINE
  5
28F8
  8
0
 10
218.3831930729493
 20
84.12786353492538
 30
0.0
 11
239.6405860032542
 21
84.12786353492538
 31
0.0
  0
ARC
  5
28F9
  8
0
 10
172.6405860033494
 20
143.9929270444245
 30
0.0
 40
2.000000000000061
 50
300.0000000004053
 51
0.0
  0
ARC
  5
28FA
  8
0
 10
206.6405860030493
 20
143.9929270444245
 30
0.0
 40
2.000000000000061
 50
180.0
 51
239.9999999995947
  0
ARC
  5
28FB
  8
0
 10
172.6405860032494
 20
85.20629065962538
 30
0.0
 40
2.000000000000076
 50
314.9999999999896
 51
0.0
  0
ARC
  5
28FC
  8
0
 10
172.6405860032494
 20
72.04943641022538
 30
0.0
 40
2.000000000000028
 50
0.0
 51
45.00000000000949
  0
ARC
  5
28FD
  8
0
 10
206.746833231316
 20
72.02830252254323
 30
0.0
 40
2.106353253224346
 50
128.6902605514999
 51
179.4251187998132
  0
ARC
  5
28FE
  8
0
 10
172.6405860033494
 20
115.2062906597254
 30
0.0
 40
2.000000000000016
 50
314.9999999999908
 51
0.0
  0
ARC
  5
28FF
  8
0
 10
172.6405860033494
 20
117.5494364102254
 30
0.0
 40
2.000000000000016
 50
0.0
 51
45.00000000000922
  0
LINE
  5
2900
  8
0
 10
174.6405860032494
 20
88.12897310452536
 30
0.0
 11
174.6405860032494
 21
85.20629065962538
 31
0.0
  0
LINE
  5
2901
  8
0
 10
174.6405860032494
 20
72.04943641022538
 30
0.0
 11
174.6405860032494
 21
54.12786353492538
 31
0.0
  0
LINE
  5
2902
  8
0
 10
204.6405860031493
 20
54.12786353492538
 30
0.0
 11
204.6405860031493
 21
72.04943641022538
 31
0.0
  0
LINE
  5
2903
  8
0
 10
174.6405860032494
 20
54.12786353492538
 30
0.0
 11
175.5547995656493
 21
53.21364997252539
 31
0.0
  0
LINE
  5
2904
  8
0
 10
203.7263724407494
 20
53.21364997252539
 30
0.0
 11
204.6405860031493
 21
54.12786353492538
 31
0.0
  0
LINE
  5
2905
  8
0
 10
174.6405860033494
 20
117.5494364102254
 30
0.0
 11
174.6405860033494
 21
115.2062906597254
 31
0.0
  0
LINE
  5
2906
  8
0
 10
174.6405860033494
 20
155.7994364100791
 30
0.0
 11
174.6405860033494
 21
143.9929270444245
 31
0.0
  0
ARC
  5
2907
  8
0
 10
172.6405860033494
 20
155.7994364100791
 30
0.0
 40
2.0
 50
0.0
 51
45.00000000000922
1001
GENIUS_GENOBJ-N-FIL_13
1002
{
1000
OWNER
1000
GEN
1002
}
1001
GENIUS_GENODEF_13
1002
{
1000
HIER
1070
     0
1002
}
1002
{
1000
MANEDIT
1070
     0
1002
}
1002
{
1000
NOSEL
1070
     0
1002
}
1002
{
1000
BEHIND
1070
     0
1002
}
1002
{
1000
OTHER
1070
     0
1002
}
1002
{
1000
REACTOR
1002
}
  0
LINE
  5
2908
  8
0
 10
204.6405860030493
 20
143.9929270444245
 30
0.0
 11
204.6405860031998
 21
155.7994364101551
 31
0.0
  0
ARC
  5
2909
  8
0
 10
206.6405860031998
 20
155.7994364101296
 30
0.0
 40
2.0
 50
134.9999999999908
 51
180.0
1001
GENIUS_GENODEF_13
1002
{
1000
HIER
1070
     0
1002
}
1002
{
1000
MANEDIT
1070
     0
1002
}
1002
{
1000
NOSEL
1070
     0
1002
}
1002
{
1000
BEHIND
1070
     0
1002
}
1002
{
1000
OTHER
1070
     0
1002
}
1002
{
1000
REACTOR
1002
}
1001
GENIUS_GENOBJ-N-FIL_13
1002
{
1000
OWNER
1000
GEN
1002
}
  0
ARC
  5
290A
  8
0
 10
174.1405860032494
 20
51.79943641022538
 30
0.0
 40
2.000000000000006
 50
0.0
 51
45.00000000000891
  0
ARC
  5
290B
  8
0
 10
205.1405860031493
 20
51.79943641022538
 30
0.0
 40
2.000000000000006
 50
134.9999999999911
 51
180.0
  0
LINE
  5
290C
  8
0
 10
176.1405860032494
 20
51.79943641022538
 30
0.0
 11
176.1405860032494
 21
36.62786353492572
 31
0.0
  0
LINE
  5
290D
  8
0
 10
203.1405860031493
 20
36.62786353482528
 30
0.0
 11
203.1405860031493
 21
51.79943641022538
 31
0.0
  0
ARC
  5
290E
  8
0
 10
160.4690131279494
 20
115.1278635349254
 30
0.0
 40
2.0
 50
264.8816344651278
 51
270.0
  0
LINE
  5
290F
  8
0
 10
160.2905860032424
 20
88.12786353492537
 30
0.0
 11
174.6415086313493
 21
88.12786353492538
 31
0.0
  0
LINE
  5
2910
  8
0
 10
173.3905860033495
 20
113.1278635349254
 30
0.0
 11
160.4690131279494
 21
113.1278635349254
 31
0.0
  0
POLYLINE
  5
2911
  8
0
 66
     1
 10
0.0
 20
0.0
 30
0.0
  0
VERTEX
  5
2A74
  8
0
 10
221.6516213363948
 20
119.136133333601
 30
0.0
  0
VERTEX
  5
2A75
  8
0
 10
221.651621482306
 20
119.1361654310788
 30
0.0
  0
VERTEX
  5
2A76
  8
0
 10
221.6516216284755
 20
119.1361975285594
 30
0.0
  0
VERTEX
  5
2A77
  8
0
 10
221.6516217749036
 20
119.1362296260425
 30
0.0
  0
VERTEX
  5
2A78
  8
0
 10
221.6516219215899
 20
119.1362617235276
 30
0.0
  0
VERTEX
  5
2A79
  8
0
 10
221.6516220685348
 20
119.1362938210143
 30
0.0
  0
VERTEX
  5
2A7A
  8
0
 10
221.6516222157379
 20
119.1363259185021
 30
0.0
  0
VERTEX
  5
2A7B
  8
0
 10
221.6516223631996
 20
119.1363580159907
 30
0.0
  0
VERTEX
  5
2A7C
  8
0
 10
221.6516225109197
 20
119.1363901134795
 30
0.0
  0
VERTEX
  5
2A7D
  8
0
 10
221.6516226588982
 20
119.1364222109682
 30
0.0
  0
VERTEX
  5
2A7E
  8
0
 10
221.6516228071351
 20
119.1364543084562
 30
0.0
  0
VERTEX
  5
2A7F
  8
0
 10
221.6516229556306
 20
119.1364864059432
 30
0.0
  0
VERTEX
  5
2A80
  8
0
 10
221.6516231043844
 20
119.1365185034288
 30
0.0
  0
VERTEX
  5
2A81
  8
0
 10
221.6516232533968
 20
119.1365506009124
 30
0.0
  0
VERTEX
  5
2A82
  8
0
 10
221.6516234026678
 20
119.1365826983938
 30
0.0
  0
VERTEX
  5
2A83
  8
0
 10
221.6516235521971
 20
119.1366147958723
 30
0.0
  0
VERTEX
  5
2A84
  8
0
 10
221.651623701985
 20
119.1366468933476
 30
0.0
  0
VERTEX
  5
2A85
  8
0
 10
221.6516238520314
 20
119.1366789908193
 30
0.0
  0
VERTEX
  5
2A86
  8
0
 10
221.6516240023363
 20
119.1367110882869
 30
0.0
  0
VERTEX
  5
2A87
  8
0
 10
221.6516241528997
 20
119.1367431857499
 30
0.0
  0
VERTEX
  5
2A88
  8
0
 10
221.6516243037217
 20
119.136775283208
 30
0.0
  0
VERTEX
  5
2A89
  8
0
 10
221.6516244548023
 20
119.1368073806607
 30
0.0
  0
VERTEX
  5
2A8A
  8
0
 10
221.6516246061414
 20
119.1368394781076
 30
0.0
  0
VERTEX
  5
2A8B
  8
0
 10
221.6516247577391
 20
119.1368715755482
 30
0.0
  0
VERTEX
  5
2A8C
  8
0
 10
221.6516249095953
 20
119.136903672982
 30
0.0
  0
SEQEND
  5
2ABE
  8
0
  0
LINE
  5
2912
  8
0
 10
172.3905860032494
 20
82.12786353482534
 30
0.0
 11
201.9642009427123
 21
82.12786353482532
 31
0.0
  0
LINE
  5
2913
  8
0
 10
172.3905860032494
 20
75.12786353502537
 30
0.0
 11
204.6009728692686
 21
75.12786353502537
 31
0.0
  0
LINE
  5
2914
  8
0
 10
174.1596489301494
 20
112.6278635349254
 30
0.0
 11
204.3752729130495
 21
112.6278635349254
 31
0.0
  0
LINE
  5
2915
  8
0
 10
204.8577637966494
 20
92.12786353492538
 30
0.0
 11
204.8577637966494
 21
105.1809951695254
 31
0.0
  0
LINE
  5
2916
  8
0
 10
174.1596489301742
 20
92.12786353492538
 30
0.0
 11
204.8577637966494
 21
92.12786353492538
 31
0.0
  0
LINE
  5
2917
  8
0
 10
172.8905860033494
 20
141.8278635349245
 30
0.0
 11
206.3905860031493
 21
141.8278635349245
 31
0.0
  0
LINE
  5
2918
  8
0
 10
172.8905860033494
 20
120.1278635349254
 30
0.0
 11
201.7333950961493
 21
120.1278635349254
 31
0.0
  0
POLYLINE
  5
2919
  8
0
 66
     1
 10
0.0
 20
0.0
 30
0.0
  0
VERTEX
  5
2A8D
  8
0
 10
203.4792959331435
 20
83.79207709726148
 30
0.0
  0
VERTEX
  5
2A8E
  8
0
 10
203.480804547772
 20
83.79399748303837
 30
0.0
  0
VERTEX
  5
2A8F
  8
0
 10
203.4823121831066
 20
83.79592054809082
 30
0.0
  0
VERTEX
  5
2A90
  8
0
 10
203.4838188360196
 20
83.79784629651877
 30
0.0
  0
VERTEX
  5
2A91
  8
0
 10
203.4853245033832
 20
83.799774732422
 30
0.0
  0
VERTEX
  5
2A92
  8
0
 10
203.4868291820695
 20
83.80170585990032
 30
0.0
  0
VERTEX
  5
2A93
  8
0
 10
203.4883328689505
 20
83.8036396830536
 30
0.0
  0
VERTEX
  5
2A94
  8
0
 10
203.4898355608987
 20
83.80557620598168
 30
0.0
  0
VERTEX
  5
2A95
  8
0
 10
203.491337254786
 20
83.80751543278436
 30
0.0
  0
VERTEX
  5
2A96
  8
0
 10
203.4928379474846
 20
83.80945736756146
 30
0.0
  0
VERTEX
  5
2A97
  8
0
 10
203.4943376358669
 20
83.81140201441285
 30
0.0
  0
VERTEX
  5
2A98
  8
0
 10
203.4958363168048
 20
83.81334937743834
 30
0.0
  0
VERTEX
  5
2A99
  8
0
 10
203.4973339871706
 20
83.81529946073778
 30
0.0
  0
VERTEX
  5
2A9A
  8
0
 10
203.4988306438364
 20
83.817252268411
 30
0.0
  0
VERTEX
  5
2A9B
  8
0
 10
203.5003262836744
 20
83.81920780455778
 30
0.0
  0
VERTEX
  5
2A9C
  8
0
 10
203.5018209035568
 20
83.82116607327801
 30
0.0
  0
VERTEX
  5
2A9D
  8
0
 10
203.5033145003557
 20
83.82312707867149
 30
0.0
  0
VERTEX
  5
2A9E
  8
0
 10
203.5048070709433
 20
83.82509082483807
 30
0.0
  0
VERTEX
  5
2A9F
  8
0
 10
203.5062986121918
 20
83.8270573158776
 30
0.0
  0
VERTEX
  5
2AA0
  8
0
 10
203.5077891209734
 20
83.82902655588985
 30
0.0
  0
VERTEX
  5
2AA1
  8
0
 10
203.5092785941601
 20
83.83099854897469
 30
0.0
  0
VERTEX
  5
2AA2
  8
0
 10
203.5107670286242
 20
83.83297329923197
 30
0.0
  0
VERTEX
  5
2AA3
  8
0
 10
203.5122544212378
 20
83.83495081076148
 30
0.0
  0
VERTEX
  5
2AA4
  8
0
 10
203.5137407688732
 20
83.8369310876631
 30
0.0
  0
VERTEX
  5
2AA5
  8
0
 10
203.5152260684024
 20
83.8389141340366
 30
0.0
  0
SEQEND
  5
2ABF
  8
0
  0
LINE
  5
291A
  8
0
 10
174.7157744466494
 20
89.54943641022538
 30
0.0
 11
174.7157744466494
 21
88.2181898889254
 31
0.0
  0
LINE
  5
291B
  8
0
 10
202.9070851645492
 20
85.20629065962538
 30
0.0
 11
202.9070851645492
 21
89.54943641022538
 31
0.0
  0
LINE
  5
291C
  8
0
 10
174.6405860032494
 20
54.12786353492538
 30
0.0
 11
204.6405860031493
 21
54.12786353492538
 31
0.0
  0
LINE
  5
291D
  8
0
 10
174.0547995656493
 20
83.79207709722539
 30
0.0
 11
203.4792959331494
 21
83.79207709722539
 31
0.0
  0
LINE
  5
291E
  8
0
 10
174.0547995657494
 20
113.7920770973254
 30
0.0
 11
204.0556352565493
 21
113.7920770973254
 31
0.0
  0
LINE
  5
291F
  8
0
 10
174.1596489301739
 20
90.96364997262538
 30
0.0
 11
203.5659850595493
 21
90.96364997262538
 31
0.0
  0
LINE
  5
2920
  8
0
 10
174.0547995657494
 20
118.9636499725254
 30
0.0
 11
203.3009018797493
 21
118.9636499725254
 31
0.0
  0
LINE
  5
2921
  8
0
 10
174.6405860033494
 20
143.9929270444245
 30
0.0
 11
204.6405860030493
 21
143.9929270444245
 31
0.0
  0
LINE
  5
2922
  8
0
 10
174.6405860032494
 20
72.04943641022538
 30
0.0
 11
204.6405860031493
 21
72.04943641022538
 31
0.0
  0
LINE
  5
2923
  8
0
 10
175.5547995656493
 20
53.21364997252539
 30
0.0
 11
203.7263724407494
 21
53.21364997252539
 31
0.0
  0
LINE
  5
2924
  8
0
 10
176.1405860032494
 20
51.79943641022538
 30
0.0
 11
203.1405860031493
 21
51.79943641022538
 31
0.0
  0
LINE
  5
2925
  8
0
 10
237.6405860032494
 20
102.1278635349254
 30
0.0
 11
237.6405860032494
 21
99.12786353492538
 31
0.0
  0
LINE
  5
2926
  8
0
 10
223.6405860032494
 20
102.1278635349254
 30
0.0
 11
223.6405860032494
 21
99.12786353492538
 31
0.0
  0
ARC
  5
2927
  8
0
 10
201.6405860032494
 20
121.6278635349245
 30
0.0
 40
20.0
 50
0.0
 51
76.26280753825188
  0
LINE
  5
2928
  8
0
 10
221.6405860032494
 20
121.6278635349245
 30
0.0
 11
221.652087287421
 21
119.0828089992185
 31
0.0
  0
LINE
  5
2929
  8
0
 10
218.3831930729493
 20
84.12786353492538
 30
0.0
 11
210.2246242721806
 21
75.96900794750741
 31
0.0
  0
ARC
  5
292A
  8
0
 10
204.5676706016045
 20
81.62576277416849
 30
0.0
 40
8.0
 50
276.1889442030005
 51
315.0010070011124
1001
GENIUS_GENOBJ-N-FIL_13
1002
{
1000
OWNER
1000
GEN
1002
}
1001
GENIUS_GENODEF_13
1002
{
1000
HIER
1070
     0
1002
}
1002
{
1000
MANEDIT
1070
     0
1002
}
1002
{
1000
NOSEL
1070
     0
1002
}
1002
{
1000
BEHIND
1070
     0
1002
}
1002
{
1000
OTHER
1070
     0
1002
}
1002
{
1000
REACTOR
1002
}
  0
LINE
  5
292B
  8
0
 10
205.2905860032495
 20
157.2778635349255
 30
0.0
 11
205.2263724408267
 21
157.2136499725027
 31
0.0
  0
LINE
  5
292C
  8
0
 10
173.9905860032495
 20
157.277863534925
 30
0.0
 11
174.0547995657225
 21
157.2136499724522
 31
0.0
  0
LINE
  5
292D
  8
0
 10
174.6405860033494
 20
155.7994364100791
 30
0.0
 11
204.6405860031998
 21
155.7994364096967
 31
0.0
  0
LINE
  5
292E
  8
0
 10
174.0547995657225
 20
157.2136499724522
 30
0.0
 11
205.2263724408267
 21
157.2136499725027
 31
0.0
  0
LINE
  5
292F
  8
0
 10
223.6405860032494
 20
99.12786353492538
 30
0.0
 11
237.6405860032494
 21
99.12786353492538
 31
0.0
  0
LINE
  5
2930
  8
0
 10
223.6405860032494
 20
102.1278635349254
 30
0.0
 11
237.6405860032494
 21
102.1278635349254
 31
0.0
  0
LINE
  5
2931
  8
0
 10
202.1405860032496
 20
35.62786353492538
 30
0.0
 11
177.1405860032496
 21
35.62786353492538
 31
0.0
  0
LINE
  5
2932
  8
0
 10
240.6405860032496
 20
100.6278635349254
 30
0.0
 11
240.6405860032542
 21
85.12786353492538
 31
0.0
  0
LINE
  5
2933
  8
0
 10
240.6405860032494
 20
100.6278635349254
 30
0.0
 11
240.6405860032537
 21
116.1278635349254
 31
0.0
  0
LINE
  5
2934
  8
0
 10
202.1405860032496
 20
35.62786353492538
 30
0.0
 11
203.1405860032496
 21
36.62786353492538
 31
0.0
  0
LINE
  5
2935
  8
0
 10
177.1405860032496
 20
35.62786353492538
 30
0.0
 11
176.1405860032498
 21
36.62786353492538
 31
0.0
  0
LINE
  5
2936
  8
0
 10
239.6405860032544
 20
84.12786353492538
 30
0.0
 11
240.6405860032542
 21
85.12786353492538
 31
0.0
1001
GENIUS_GENFIL_13
1070
     0
1040
1.0
1040
1.0
1040
20.0
1040
0.0
1002
{
1002
}
1001
GENIUS_GENOBJ-N-CHA_13
1002
{
1000
OWNER
1000
GEN
1002
}
1001
GENIUS_GENODEF_13
1002
{
1000
HIER
1070
     0
1002
}
1002
{
1000
MANEDIT
1070
     0
1002
}
1002
{
1000
NOSEL
1070
     0
1002
}
1002
{
1000
BEHIND
1070
     0
1002
}
1002
{
1000
OTHER
1070
     0
1002
}
1002
{
1000
REACTOR
1002
}
  0
LINE
  5
2937
  8
0
 10
239.6405860032539
 20
117.1278635349254
 30
0.0
 11
240.6405860032537
 21
116.1278635349254
 31
0.0
1001
GENIUS_GENFIL_13
1070
     0
1040
1.0
1040
1.0
1040
20.0
1040
0.0
1002
{
1002
}
1001
GENIUS_GENOBJ-N-CHA_13
1002
{
1000
OWNER
1000
GEN
1002
}
1001
GENIUS_GENODEF_13
1002
{
1000
HIER
1070
     0
1002
}
1002
{
1000
MANEDIT
1070
     0
1002
}
1002
{
1000
NOSEL
1070
     0
1002
}
1002
{
1000
BEHIND
1070
     0
1002
}
1002
{
1000
OTHER
1070
     0
1002
}
1002
{
1000
REACTOR
1002
}
  0
LINE
  5
2938
  8
0
 10
173.9905860032495
 20
157.277863534925
 30
0.0
 11
173.9905860032493
 21
158.5278635349378
 31
0.0
  0
LINE
  5
2939
  8
0
 10
205.2905860032495
 20
157.277863534925
 30
0.0
 11
205.2905860032495
 21
158.5278635349378
 31
0.0
  0
ARC
  5
293A
  8
0
 10
211.6251723379442
 20
87.36025744576989
 30
0.0
 40
7.821309388100195
 50
355.2609299313501
 51
91.48862642134817
  0
LINE
  5
293B
  8
0
 10
174.1596489301737
 20
112.6278635349313
 30
0.0
 11
174.1596489301739
 21
90.96364997262538
 31
0.0
  0
LINE
  5
293C
  8
0
  6
CONTINUOUS
 10
160.2905860032424
 20
119.3778635349249
 30
0.0
 11
157.1012757740368
 21
122.567173764131
 31
0.0
  0
LINE
  5
293D
  8
0
  6
CONTINUOUS
 10
136.7905860032424
 20
119.3778635349254
 30
0.0
 11
139.979896232448
 21
122.567173764131
 31
0.0
  0
LINE
  5
293E
  8
0
  6
CONTINUOUS
 10
160.2905860032424
 20
81.87786353492584
 30
0.0
 11
157.1012757740364
 21
78.68855330571932
 31
0.0
  0
LINE
  5
293F
  8
0
  6
CONTINUOUS
 10
136.7905860032424
 20
81.87786353492538
 30
0.0
 11
139.979896232448
 21
78.68855330571978
 31
0.0
  0
LINE
  5
2940
  8
0
 10
139.979896232448
 20
78.68855330571978
 30
0.0
 11
157.1012757740364
 21
78.68855330571932
 31
0.0
  0
LINE
  5
2941
  8
0
 10
160.2905860032424
 20
81.87786353492584
 30
0.0
 11
160.2905860032424
 21
100.6278635349254
 31
0.0
  0
LINE
  5
2942
  8
0
 10
160.2905860032424
 20
119.3778635349249
 30
0.0
 11
160.290586003242
 21
100.6278635349254
 31
0.0
  0
LINE
  5
2943
  8
0
 10
139.979896232448
 20
122.567173764131
 30
0.0
 11
157.1012757740368
 21
122.567173764131
 31
0.0
  0
LINE
  5
2944
  8
0
 10
136.7905860032424
 20
119.3778635349254
 30
0.0
 11
136.7905860032424
 21
81.87786353492538
 31
0.0
  0
LINE
  5
2945
  8
0
 10
203.5152260684022
 20
83.8389141340366
 30
0.0
 11
209.4046278754163
 21
93.33382374279347
 31
0.0
  0
ARC
  5
2946
  8
0
 10
224.5526606835704
 20
107.6167635922633
 30
0.0
 40
19.8449472459871
 50
187.0502611189547
 51
219.0800345555171
  0
LINE
  5
2947
  8
0
 10
174.1596489301737
 20
112.6278635349254
 30
0.0
 11
174.0547995657494
 21
113.7920770973254
 31
0.0
  0
LINE
  5
2948
  8
0
 10
240.6405860032494
 20
100.6278635349254
 30
0.0
 11
240.6405860032537
 21
116.1278635349254
 31
0.0
  0
LINE
  5
2949
  8
0
 10
223.8121588784197
 20
340.2123029571432
 30
0.0
 11
218.3519108686198
 21
340.2123029571432
 31
0.0
  0
LINE
  5
294A
  8
0
 10
239.6405860032687
 20
340.2123029571432
 30
0.0
 11
239.4690131279198
 21
340.2123029571432
 31
0.0
  0
LINE
  5
294B
  8
0
 10
239.4690131279198
 20
307.2123029571432
 30
0.0
 11
239.6405860032396
 21
307.2123029571432
 31
0.0
  0
LINE
  5
294C
  8
0
 10
218.3519108686198
 20
307.2123029571432
 30
0.0
 11
223.8121588784197
 21
307.2123029571432
 31
0.0
  0
LINE
  5
294D
  8
0
 10
160.2905860032424
 20
311.2123029571432
 30
0.0
 11
161.2724700982113
 21
311.2123029571432
 31
0.0
  0
LINE
  5
294E
  8
0
 10
161.2724700982116
 20
336.2123029571432
 30
0.0
 11
160.2905860032422
 21
336.2123029571432
 31
0.0
  0
ARC
  5
294F
  8
0
 10
218.3519108686198
 20
338.2123029571432
 30
0.0
 40
2.0
 50
90.0
 51
127.8312676116602
  0
ARC
  5
2950
  8
0
 10
218.3519108686198
 20
309.2123029571432
 30
0.0
 40
2.000000000000028
 50
232.1687323874125
 51
270.0
  0
ARC
  5
2951
  8
0
 10
223.8121588784197
 20
342.2123029571432
 30
0.0
 40
2.0
 50
270.0
 51
315.0
  0
ARC
  5
2952
  8
0
 10
239.4690131279198
 20
342.2123029571432
 30
0.0
 40
2.0
 50
225.0
 51
270.0
  0
ARC
  5
2953
  8
0
 10
223.8121588784197
 20
305.2123029571432
 30
0.0
 40
2.0
 50
45.0
 51
90.0
  0
ARC
  5
2954
  8
0
 10
239.4690131279198
 20
305.2123029571432
 30
0.0
 40
2.000000000000016
 50
90.0
 51
135.0
  0
LINE
  5
2955
  8
0
 10
226.6405860032198
 20
342.2123029571432
 30
0.0
 11
225.2263724408198
 21
340.7980893947432
 31
0.0
  0
LINE
  5
2956
  8
0
 10
236.6405860032198
 20
305.2123029571432
 30
0.0
 11
238.0547995656198
 21
306.6265165195431
 31
0.0
  0
LINE
  5
2957
  8
0
 10
238.0547995656198
 20
340.7980893947432
 30
0.0
 11
236.6405860032198
 21
342.2123029571432
 31
0.0
  0
LINE
  5
2958
  8
0
 10
225.2263724408198
 20
306.6265165195431
 30
0.0
 11
226.6405860032198
 21
305.2123029571432
 31
0.0
  0
LINE
  5
2959
  8
0
 10
236.6405860032198
 20
342.2123029571432
 30
0.0
 11
226.6405860032198
 21
342.2123029571432
 31
0.0
  0
LINE
  5
295A
  8
0
 10
226.6405860032198
 20
305.2123029571432
 30
0.0
 11
236.6405860032198
 21
305.2123029571432
 31
0.0
  0
LINE
  5
295B
  8
0
 10
56.75332137167311
 20
141.8278635349098
 30
0.0
 11
56.75332137167311
 21
139.4057952238129
 31
0.0
  0
LINE
  5
295C
  8
0
 10
56.753321371673
 20
121.3499318460321
 30
0.0
 11
56.75332137167311
 21
120.127863534911
 31
0.0
  0
LINE
  5
295D
  8
0
 10
57.50332137169994
 20
142.2608762368254
 30
0.0
 11
56.75332137167288
 21
141.8278635349098
 31
0.0
  0
ARC
  5
295E
  8
0
 10
56.50332137167288
 20
143.9929270444099
 30
0.0
 40
2.000000000000057
 50
300.0000000004053
 51
0.0
  0
ARC
  5
295F
  8
0
 10
56.50332137167288
 20
72.04943641011064
 30
0.0
 40
2.0
 50
0.0
 51
45.00000000000834
  0
LINE
  5
2960
  8
0
 10
58.50332137167288
 20
54.12786353491063
 30
0.0
 11
59.41753493405031
 21
53.2136499724331
 31
0.0
  0
LINE
  5
2961
  8
0
 10
58.50332137167288
 20
72.04943641011064
 30
0.0
 11
58.50332137167288
 21
54.12786353491063
 31
0.0
  0
LINE
  5
2962
  8
0
 10
58.50332137167277
 20
155.7994364100646
 30
0.0
 11
58.50332137167288
 21
143.9929270444099
 31
0.0
  0
ARC
  5
2963
  8
0
 10
56.50332137167277
 20
155.7994364100646
 30
0.0
 40
2.0
 50
0.0
 51
45.0
1001
GENIUS_GENODEF_13
1002
{
1000
HIER
1070
     0
1002
}
1002
{
1000
MANEDIT
1070
     0
1002
}
1002
{
1000
NOSEL
1070
     0
1002
}
1002
{
1000
BEHIND
1070
     0
1002
}
1002
{
1000
OTHER
1070
     0
1002
}
1002
{
1000
REACTOR
1002
}
1001
GENIUS_GENOBJ-N-FIL_13
1002
{
1000
OWNER
1000
GEN
1002
}
  0
ARC
  5
2964
  8
0
 10
58.00332137157307
 20
51.79943641011064
 30
0.0
 40
2.000000000000016
 50
0.0
 51
45.00000000000863
  0
LINE
  5
2965
  8
0
 10
60.00332137157284
 20
51.79943641011067
 30
0.0
 11
60.00332137157307
 21
36.62786353495545
 31
0.0
  0
LINE
  5
2966
  8
0
 10
56.25332137157307
 20
82.1278635348107
 30
0.0
 11
56.25332137157307
 21
75.12786353501062
 31
0.0
  0
LINE
  5
2967
  8
0
 10
57.91753493394629
 20
83.79207709718392
 30
0.0
 11
56.25332137157307
 21
82.12786353481059
 31
0.0
  0
ARC
  5
2968
  8
0
 10
56.50332137157307
 20
85.20629065955708
 30
0.0
 40
2.0
 50
315.0000000000002
 51
0.0
1001
GENIUS_GENODEF_13
1002
{
1000
HIER
1070
     0
1002
}
1002
{
1000
MANEDIT
1070
     0
1002
}
1002
{
1000
NOSEL
1070
     0
1002
}
1002
{
1000
BEHIND
1070
     0
1002
}
1002
{
1000
OTHER
1070
     0
1002
}
1002
{
1000
REACTOR
1002
}
1001
GENIUS_GENOBJ-N-FIL_13
1002
{
1000
OWNER
1000
GEN
1002
}
  0
LINE
  5
2969
  8
0
 10
56.75332137167311
 20
120.1278635349106
 30
0.0
 11
57.91753493404644
 21
118.9636499725372
 31
0.0
  0
LINE
  5
296A
  8
0
 10
58.50332137167334
 20
117.5494364101642
 30
0.0
 11
58.50332137167311
 21
115.2062906597616
 31
0.0
  0
ARC
  5
296B
  8
0
 10
56.50332137167334
 20
117.5494364101643
 30
0.0
 40
2.0
 50
0.0
 51
44.99999999999913
1001
GENIUS_GENOBJ-N-FIL_13
1002
{
1000
OWNER
1000
GEN
1002
}
1001
GENIUS_GENODEF_13
1002
{
1000
HIER
1070
     0
1002
}
1002
{
1000
MANEDIT
1070
     0
1002
}
1002
{
1000
NOSEL
1070
     0
1002
}
1002
{
1000
BEHIND
1070
     0
1002
}
1002
{
1000
OTHER
1070
     0
1002
}
1002
{
1000
REACTOR
1002
}
  0
ARC
  5
296C
  8
0
 10
56.50332137167266
 20
115.2062906597617
 30
0.0
 40
2.0
 50
314.9999999999963
 51
0.0
1001
GENIUS_GENOBJ-N-FIL_13
1002
{
1000
OWNER
1000
GEN
1002
}
1001
GENIUS_GENODEF_13
1002
{
1000
HIER
1070
     0
1002
}
1002
{
1000
MANEDIT
1070
     0
1002
}
1002
{
1000
NOSEL
1070
     0
1002
}
1002
{
1000
BEHIND
1070
     0
1002
}
1002
{
1000
OTHER
1070
     0
1002
}
1002
{
1000
REACTOR
1002
}
  0
LINE
  5
296D
  8
0
 10
58.50332137157307
 20
87.34880734354925
 30
0.0
 11
58.50332137157307
 21
85.20629065955708
 31
0.0
  0
LINE
  5
296E
  8
0
 10
57.91753493404553
 20
113.7920770973885
 30
0.0
 11
57.38905635656567
 21
113.2635985199088
 31
0.0
  0
LINE
  5
296F
  8
0
 10
54.75332137156852
 20
135.4057952237345
 30
0.0
 11
54.75332137156852
 21
125.3499318461104
 31
0.0
  0
ARC
  5
2970
  8
0
 10
59.75332137156852
 20
135.4057952237345
 30
0.0
 40
5.0
 50
126.8698976443458
 51
180.0
1001
GENIUS_GENOBJ-N-FIL_13
1002
{
1000
OWNER
1000
GEN
1002
}
1001
GENIUS_GENODEF_13
1002
{
1000
HIER
1070
     0
1002
}
1002
{
1000
MANEDIT
1070
     0
1002
}
1002
{
1000
NOSEL
1070
     0
1002
}
1002
{
1000
BEHIND
1070
     0
1002
}
1002
{
1000
OTHER
1070
     0
1002
}
1002
{
1000
REACTOR
1002
}
  0
ARC
  5
2971
  8
0
 10
59.75332137156852
 20
125.3499318461104
 30
0.0
 40
5.0
 50
180.0
 51
233.1301023556525
1001
GENIUS_GENOBJ-N-FIL_13
1002
{
1000
OWNER
1000
GEN
1002
}
1001
GENIUS_GENODEF_13
1002
{
1000
HIER
1070
     0
1002
}
1002
{
1000
MANEDIT
1070
     0
1002
}
1002
{
1000
NOSEL
1070
     0
1002
}
1002
{
1000
BEHIND
1070
     0
1002
}
1002
{
1000
OTHER
1070
     0
1002
}
1002
{
1000
REACTOR
1002
}
  0
LINE
  5
2972
  8
0
 10
57.85332137160276
 20
157.2778635348808
 30
0.0
 11
57.91753493404588
 21
157.2136499724377
 31
0.0
  0
LINE
  5
2973
  8
0
 10
90.25332137147302
 20
141.8278635349099
 30
0.0
 11
90.25332137147302
 21
139.405795223813
 31
0.0
  0
LINE
  5
2974
  8
0
 10
90.25332137147325
 20
121.3499318460322
 30
0.0
 11
90.25332137147313
 21
120.1278635349111
 31
0.0
  0
LINE
  5
2975
  8
0
 10
89.50332137144619
 20
142.2608762368255
 30
0.0
 11
90.25332137147325
 21
141.8278635349099
 31
0.0
  0
ARC
  5
2976
  8
0
 10
90.50332137147325
 20
143.99292704441
 30
0.0
 40
2.000000000000057
 50
180.0
 51
239.9999999995947
  0
ARC
  5
2977
  8
0
 10
90.5033213714737
 20
72.04943641011076
 30
0.0
 40
2.0
 50
134.9999999999916
 51
180.0
  0
LINE
  5
2978
  8
0
 10
88.50332137147382
 20
54.12786353491074
 30
0.0
 11
87.58910780909639
 21
53.21364997243325
 31
0.0
  0
LINE
  5
2979
  8
0
 10
88.5033213714737
 20
72.04943641011076
 30
0.0
 11
88.50332137147382
 21
54.12786353491074
 31
0.0
  0
LINE
  5
297A
  8
0
 10
88.50332137147325
 20
155.7994364100647
 30
0.0
 11
88.50332137147325
 21
143.99292704441
 31
0.0
  0
ARC
  5
297B
  8
0
 10
90.50332137147325
 20
155.7994364100647
 30
0.0
 40
2.0
 50
135.0000000000006
 51
180.0
1001
GENIUS_GENODEF_13
1002
{
1000
HIER
1070
     0
1002
}
1002
{
1000
MANEDIT
1070
     0
1002
}
1002
{
1000
NOSEL
1070
     0
1002
}
1002
{
1000
BEHIND
1070
     0
1002
}
1002
{
1000
OTHER
1070
     0
1002
}
1002
{
1000
REACTOR
1002
}
1001
GENIUS_GENOBJ-N-FIL_13
1002
{
1000
OWNER
1000
GEN
1002
}
  0
ARC
  5
297C
  8
0
 10
89.00332137157363
 20
51.79943641011076
 30
0.0
 40
2.000000000000016
 50
134.999999999995
 51
180.0
  0
LINE
  5
297D
  8
0
 10
87.00332137157386
 20
51.79943641011079
 30
0.0
 11
87.00332137157375
 21
36.62786353489628
 31
0.0
  0
LINE
  5
297E
  8
0
 10
90.7533213715734
 20
82.12786353481081
 30
0.0
 11
90.75332137157352
 21
75.12786353501073
 31
0.0
  0
LINE
  5
297F
  8
0
 10
89.08910780920019
 20
83.79207709718398
 30
0.0
 11
90.7533213715734
 21
82.1278635348107
 31
0.0
  0
ARC
  5
2980
  8
0
 10
90.5033213715734
 20
85.2062906595572
 30
0.0
 40
2.0
 50
180.0
 51
224.9999999999997
1001
GENIUS_GENODEF_13
1002
{
1000
HIER
1070
     0
1002
}
1002
{
1000
MANEDIT
1070
     0
1002
}
1002
{
1000
NOSEL
1070
     0
1002
}
1002
{
1000
BEHIND
1070
     0
1002
}
1002
{
1000
OTHER
1070
     0
1002
}
1002
{
1000
REACTOR
1002
}
1001
GENIUS_GENOBJ-N-FIL_13
1002
{
1000
OWNER
1000
GEN
1002
}
  0
LINE
  5
2981
  8
0
 10
90.25332137147313
 20
120.1278635349107
 30
0.0
 11
89.08910780909991
 21
118.9636499725372
 31
0.0
  0
LINE
  5
2982
  8
0
 10
88.50332137147291
 20
117.5494364101642
 30
0.0
 11
88.50332137147325
 21
115.2062906597616
 31
0.0
  0
ARC
  5
2983
  8
0
 10
90.50332137147291
 20
117.5494364101644
 30
0.0
 40
2.0
 50
135.0000000000043
 51
180.0
1001
GENIUS_GENOBJ-N-FIL_13
1002
{
1000
OWNER
1000
GEN
1002
}
1001
GENIUS_GENODEF_13
1002
{
1000
HIER
1070
     0
1002
}
1002
{
1000
MANEDIT
1070
     0
1002
}
1002
{
1000
NOSEL
1070
     0
1002
}
1002
{
1000
BEHIND
1070
     0
1002
}
1002
{
1000
OTHER
1070
     0
1002
}
1002
{
1000
REACTOR
1002
}
  0
ARC
  5
2984
  8
0
 10
90.5033213714737
 20
115.2062906597618
 30
0.0
 40
2.0
 50
180.0
 51
225.0000000000038
1001
GENIUS_GENOBJ-N-FIL_13
1002
{
1000
OWNER
1000
GEN
1002
}
1001
GENIUS_GENODEF_13
1002
{
1000
HIER
1070
     0
1002
}
1002
{
1000
MANEDIT
1070
     0
1002
}
1002
{
1000
NOSEL
1070
     0
1002
}
1002
{
1000
BEHIND
1070
     0
1002
}
1002
{
1000
OTHER
1070
     0
1002
}
1002
{
1000
REACTOR
1002
}
  0
LINE
  5
2985
  8
0
 10
88.50332137157363
 20
87.34880734354974
 30
0.0
 11
88.50332137157352
 21
85.20629065955734
 31
0.0
  0
LINE
  5
2986
  8
0
 10
89.0891078091006
 20
113.7920770973887
 30
0.0
 11
89.61758638658114
 21
113.2635985199082
 31
0.0
  0
LINE
  5
2987
  8
0
 10
92.25332137157761
 20
135.4057952237346
 30
0.0
 11
92.25332137157773
 21
125.3499318461105
 31
0.0
  0
ARC
  5
2988
  8
0
 10
87.25332137157761
 20
135.4057952237346
 30
0.0
 40
5.0
 50
0.0
 51
53.13010235565416
1001
GENIUS_GENOBJ-N-FIL_13
1002
{
1000
OWNER
1000
GEN
1002
}
1001
GENIUS_GENODEF_13
1002
{
1000
HIER
1070
     0
1002
}
1002
{
1000
MANEDIT
1070
     0
1002
}
1002
{
1000
NOSEL
1070
     0
1002
}
1002
{
1000
BEHIND
1070
     0
1002
}
1002
{
1000
OTHER
1070
     0
1002
}
1002
{
1000
REACTOR
1002
}
  0
ARC
  5
2989
  8
0
 10
87.25332137157773
 20
125.3499318461105
 30
0.0
 40
5.0
 50
306.8698976443475
 51
0.0
1001
GENIUS_GENOBJ-N-FIL_13
1002
{
1000
OWNER
1000
GEN
1002
}
1001
GENIUS_GENODEF_13
1002
{
1000
HIER
1070
     0
1002
}
1002
{
1000
MANEDIT
1070
     0
1002
}
1002
{
1000
NOSEL
1070
     0
1002
}
1002
{
1000
BEHIND
1070
     0
1002
}
1002
{
1000
OTHER
1070
     0
1002
}
1002
{
1000
REACTOR
1002
}
  0
LINE
  5
298A
  8
0
 10
89.15332137160271
 20
157.2778635349404
 30
0.0
 11
89.08910780910014
 21
157.2136499724378
 31
0.0
  0
CIRCLE
  5
298B
  8
0
  6
CONTINUOUS
 10
73.50332137157318
 20
100.6278635349106
 30
0.0
 40
18.75
  0
CIRCLE
  5
298C
  8
0
  6
CONTINUOUS
 10
73.50332137157318
 20
100.6278635349106
 30
0.0
 40
14.84999999999945
  0
LINE
  5
298D
  8
0
 10
92.50332137157318
 20
111.5975186495132
 30
0.0
 11
73.50332137157295
 21
122.5671737641162
 31
0.0
1001
GENIUS_GENODEF_13
1002
{
1000
HIER
1070
     0
1002
}
1002
{
1000
MANEDIT
1070
     0
1002
}
1002
{
1000
NOSEL
1070
     0
1002
}
1002
{
1000
BEHIND
1070
     0
1002
}
1002
{
1000
REACTOR
1002
}
1001
GENIUS_GENOBJ-N-CEN_13
1002
{
1000
OWNER
1000
GEN
1002
}
  0
LINE
  5
298E
  8
0
 10
73.50332137157295
 20
78.68855330570503
 30
0.0
 11
92.50332137157318
 21
89.65820842030806
 31
0.0
1001
GENIUS_GENODEF_13
1002
{
1000
HIER
1070
     0
1002
}
1002
{
1000
MANEDIT
1070
     0
1002
}
1002
{
1000
NOSEL
1070
     0
1002
}
1002
{
1000
BEHIND
1070
     0
1002
}
1002
{
1000
REACTOR
1002
}
1001
GENIUS_GENOBJ-N-CEN_13
1002
{
1000
OWNER
1000
GEN
1002
}
  0
LINE
  5
298F
  8
0
 10
73.50332137157295
 20
122.5671737641162
 30
0.0
 11
54.50332137157295
 21
111.5975186495132
 31
0.0
1001
GENIUS_GENODEF_13
1002
{
1000
HIER
1070
     0
1002
}
1002
{
1000
MANEDIT
1070
     0
1002
}
1002
{
1000
NOSEL
1070
     0
1002
}
1002
{
1000
BEHIND
1070
     0
1002
}
1002
{
1000
REACTOR
1002
}
1001
GENIUS_GENOBJ-N-CEN_13
1002
{
1000
OWNER
1000
GEN
1002
}
  0
LINE
  5
2990
  8
0
 10
54.50332137157295
 20
111.5975186495132
 30
0.0
 11
54.50332137157318
 21
89.6582084203076
 31
0.0
1001
GENIUS_GENODEF_13
1002
{
1000
HIER
1070
     0
1002
}
1002
{
1000
MANEDIT
1070
     0
1002
}
1002
{
1000
NOSEL
1070
     0
1002
}
1002
{
1000
BEHIND
1070
     0
1002
}
1002
{
1000
REACTOR
1002
}
1001
GENIUS_GENOBJ-N-CEN_13
1002
{
1000
OWNER
1000
GEN
1002
}
  0
LINE
  5
2991
  8
0
 10
54.50332137157318
 20
89.6582084203076
 30
0.0
 11
73.50332137157295
 21
78.68855330570503
 31
0.0
1001
GENIUS_GENODEF_13
1002
{
1000
HIER
1070
     0
1002
}
1002
{
1000
MANEDIT
1070
     0
1002
}
1002
{
1000
NOSEL
1070
     0
1002
}
1002
{
1000
BEHIND
1070
     0
1002
}
1002
{
1000
REACTOR
1002
}
1001
GENIUS_GENOBJ-N-CEN_13
1002
{
1000
OWNER
1000
GEN
1002
}
  0
LINE
  5
2992
  8
0
 10
92.50332137157318
 20
89.65820842030806
 30
0.0
 11
92.50332137157318
 21
111.5975186495132
 31
0.0
1001
GENIUS_GENODEF_13
1002
{
1000
HIER
1070
     0
1002
}
1002
{
1000
MANEDIT
1070
     0
1002
}
1002
{
1000
NOSEL
1070
     0
1002
}
1002
{
1000
BEHIND
1070
     0
1002
}
1002
{
1000
REACTOR
1002
}
1001
GENIUS_GENOBJ-N-CEN_13
1002
{
1000
OWNER
1000
GEN
1002
}
  0
LINE
  5
2993
  8
0
 10
73.50332137160285
 20
35.62786353492538
 30
0.0
 11
86.00332137160262
 21
35.62786353492538
 31
0.0
  0
LINE
  5
2994
  8
0
 10
86.00332137160285
 20
35.62786353492538
 30
0.0
 11
87.00332137160285
 21
36.62786353492538
 31
0.0
  0
LINE
  5
2995
  8
0
 10
61.00332137160285
 20
35.62786353492538
 30
0.0
 11
60.00332137160308
 21
36.62786353492538
 31
0.0
  0
LINE
  5
2996
  8
0
 10
61.00332137160285
 20
35.62786353492538
 30
0.0
 11
86.00332137160262
 21
35.62786353492538
 31
0.0
  0
LINE
  5
2997
  8
0
 10
58.50332137167288
 20
54.12786353491063
 30
0.0
 11
88.50332137147393
 21
54.12786353491083
 31
0.0
  0
LINE
  5
2998
  8
0
 10
56.25332137157307
 20
75.12786353501062
 30
0.0
 11
90.75332137157352
 21
75.12786353501073
 31
0.0
  0
LINE
  5
2999
  8
0
 10
56.25332137157307
 20
82.12786353481059
 30
0.0
 11
67.54626131177054
 21
82.12786353481061
 31
0.0
  0
LINE
  5
299A
  8
0
 10
79.46038143137525
 20
82.12786353481067
 30
0.0
 11
90.7533213715734
 21
82.1278635348107
 31
0.0
  0
LINE
  5
299B
  8
0
 10
59.41753493400256
 20
53.21364997252536
 30
0.0
 11
87.58910780910264
 21
53.21364997252536
 31
0.0
  0
LINE
  5
299C
  8
0
 10
60.00332137160262
 20
51.79943641022535
 30
0.0
 11
87.00332137150258
 21
51.79943641022535
 31
0.0
  0
LINE
  5
299D
  8
0
 10
57.91753493400256
 20
83.79207709722539
 30
0.0
 11
64.66375886702303
 21
83.79207709722539
 31
0.0
  0
LINE
  5
299E
  8
0
 10
82.34288387612287
 20
83.79207709722544
 30
0.0
 11
89.0891078091588
 21
83.79207709722542
 31
0.0
  0
LINE
  5
299F
  8
0
 10
58.50332137160262
 20
72.04943641022538
 30
0.0
 11
88.50332137150258
 21
72.04943641022538
 31
0.0
  0
LINE
  5
29A0
  8
0
 10
58.50332137170267
 20
155.7994364100791
 30
0.0
 11
88.50332137155306
 21
155.7994364096967
 31
0.0
  0
LINE
  5
29A1
  8
0
 10
57.91753493407577
 20
157.2136499724522
 30
0.0
 11
89.08910780917995
 21
157.2136499725027
 31
0.0
  0
LINE
  5
29A2
  8
0
 10
57.85332137160276
 20
157.277863534925
 30
0.0
 11
57.85332137160253
 21
158.5278635349378
 31
0.0
  0
LINE
  5
29A3
  8
0
 10
89.15332137160271
 20
157.277863534925
 30
0.0
 11
89.15332137160271
 21
158.5278635349378
 31
0.0
  0
LINE
  5
29A4
  8
0
 10
90.25332137147325
 20
141.8278635349099
 30
0.0
 11
56.75332137167288
 21
141.8278635349098
 31
0.0
  0
LINE
  5
29A5
  8
0
 10
56.75332137167311
 20
139.4057952238129
 30
0.0
 11
90.25332137147302
 21
139.405795223813
 31
0.0
  0
LINE
  5
29A6
  8
0
 10
90.25332137147325
 20
121.3499318460322
 30
0.0
 11
75.61164621879936
 21
121.3499318460308
 31
0.0
  0
LINE
  5
29A7
  8
0
 10
71.39499652434574
 20
121.3499318460304
 30
0.0
 11
56.753321371673
 21
121.3499318460291
 31
0.0
  0
LINE
  5
29A8
  8
0
 10
56.75332137167311
 20
120.1278635349106
 30
0.0
 11
69.27831211916441
 21
120.1278635349095
 31
0.0
  0
LINE
  5
29A9
  8
0
 10
77.72833062398286
 20
120.1278635349086
 30
0.0
 11
90.25332137147325
 21
120.1278635349075
 31
0.0
  0
LINE
  5
29AA
  8
0
 10
240.6405860032496
 20
323.7123029571579
 30
0.0
 11
240.6405860032542
 21
308.2123029571579
 31
0.0
  0
LINE
  5
29AB
  8
0
 10
240.6405860032494
 20
323.7123029571579
 30
0.0
 11
240.6405860032537
 21
339.2123029571579
 31
0.0
  0
LINE
  5
29AC
  8
0
 10
239.6405860032544
 20
307.2123029571579
 30
0.0
 11
240.6405860032542
 21
308.2123029571579
 31
0.0
1001
GENIUS_GENFIL_13
1070
     0
1040
1.0
1040
1.0
1040
20.0
1040
0.0
1002
{
1002
}
1001
GENIUS_GENOBJ-N-CHA_13
1002
{
1000
OWNER
1000
GEN
1002
}
1001
GENIUS_GENODEF_13
1002
{
1000
HIER
1070
     0
1002
}
1002
{
1000
MANEDIT
1070
     0
1002
}
1002
{
1000
NOSEL
1070
     0
1002
}
1002
{
1000
BEHIND
1070
     0
1002
}
1002
{
1000
OTHER
1070
     0
1002
}
1002
{
1000
REACTOR
1002
}
  0
LINE
  5
29AD
  8
0
 10
239.6405860032539
 20
340.2123029571579
 30
0.0
 11
240.6405860032537
 21
339.2123029571579
 31
0.0
1001
GENIUS_GENFIL_13
1070
     0
1040
1.0
1040
1.0
1040
20.0
1040
0.0
1002
{
1002
}
1001
GENIUS_GENOBJ-N-CHA_13
1002
{
1000
OWNER
1000
GEN
1002
}
1001
GENIUS_GENODEF_13
1002
{
1000
HIER
1070
     0
1002
}
1002
{
1000
MANEDIT
1070
     0
1002
}
1002
{
1000
NOSEL
1070
     0
1002
}
1002
{
1000
BEHIND
1070
     0
1002
}
1002
{
1000
OTHER
1070
     0
1002
}
1002
{
1000
REACTOR
1002
}
  0
LINE
  5
29AE
  8
0
  6
CONTINUOUS
 10
160.2905860032424
 20
342.4623029571574
 30
0.0
 11
160.0405860032203
 21
342.7123029571796
 31
0.0
  0
LINE
  5
29AF
  8
0
  6
CONTINUOUS
 10
136.7905860032424
 20
342.4623029571579
 30
0.0
 11
137.0405860032661
 21
342.7123029571816
 31
0.0
  0
LINE
  5
29B0
  8
0
  6
CONTINUOUS
 10
160.2905860032424
 20
304.9623029571583
 30
0.0
 11
160.0405860032638
 21
304.7123029571796
 31
0.0
  0
LINE
  5
29B1
  8
0
  6
CONTINUOUS
 10
136.7905860032424
 20
304.9623029571579
 30
0.0
 11
137.0405860032188
 21
304.7123029571815
 31
0.0
  0
LINE
  5
29B2
  8
0
 10
160.2905860032424
 20
304.9623029571583
 30
0.0
 11
160.2905860032424
 21
313.7334503176198
 31
0.0
  0
LINE
  5
29B3
  8
0
 10
160.2905860032424
 20
342.4623029571574
 30
0.0
 11
160.2905860032422
 21
333.691155596665
 31
0.0
  0
LINE
  5
29B4
  8
0
 10
136.7905860032424
 20
342.4623029571579
 30
0.0
 11
136.7905860032424
 21
304.9623029571579
 31
0.0
  0
LINE
  5
29B5
  8
0
 10
240.6405860032494
 20
323.7123029571579
 30
0.0
 11
240.6405860032537
 21
339.2123029571579
 31
0.0
  0
LINE
  5
29B6
  8
0
 10
223.8121588784197
 20
340.2123029571432
 30
0.0
 11
239.6405860032687
 21
340.2123029571432
 31
0.0
  0
LINE
  5
29B7
  8
0
 10
223.8121588784197
 20
307.2123029571432
 30
0.0
 11
239.6405860032544
 21
307.2123029571579
 31
0.0
  0
ARC
  5
29B8
  8
0
 10
215.1874146991129
 20
334.6221998828206
 30
0.0
 40
5.520996087061916
 50
4.559700961506857
 51
81.93481490901081
  0
LINE
  5
29B9
  8
0
 10
220.6909370537547
 20
335.0611070316698
 30
0.0
 11
221.6521356742969
 21
323.7000201279888
 31
0.0
  0
ARC
  5
29BA
  8
0
 10
215.1874146991129
 20
312.8024060314952
 30
0.0
 40
5.520996087061916
 50
278.0651850912013
 51
355.4402990384931
  0
LINE
  5
29BB
  8
0
 10
220.6909370537547
 20
312.363498882646
 30
0.0
 11
221.6521356742969
 21
323.724585786327
 31
0.0
  0
ARC
  5
29BC
  8
0
 10
223.6115861772045
 20
119.0828089992185
 30
0.0
 40
1.959498889783482
 50
180.0
 51
273.9067747529974
  0
ARC
  5
29BD
  8
0
 10
172.1527123527203
 20
89.357989769585
 30
0.0
 40
2.570202154218409
 50
4.271746959825149
 51
38.66173944765067
  0
ARC
  5
29BE
  8
0
 10
206.0445240515421
 20
88.94826580915039
 30
0.0
 40
3.194515434492619
 50
140.8842693600997
 51
169.1529225539994
  0
ARC
  5
29BF
  8
0
 10
205.422001312437
 20
85.4009921724846
 30
0.0
 40
2.522441656414701
 50
184.4269337645419
 51
219.6309678812971
  0
LINE
  5
29C0
  8
0
 10
204.8577637966494
 20
92.12786353492538
 30
0.0
 11
203.5659850595498
 21
90.96364997262538
 31
0.0
  0
LINE
  5
29C1
  8
0
 10
174.6415086313493
 20
88.12786353492538
 30
0.0
 11
174.7157744466494
 21
88.2181898889254
 31
0.0
  0
LINE
  5
29C2
  8
0
 10
90.75332137157352
 20
75.12786353501073
 30
0.0
 11
89.08910780910082
 21
73.46364997248402
 31
0.0
  0
LINE
  5
29C3
  8
0
 10
57.91753493404576
 20
73.4636499724839
 30
0.0
 11
56.25332137157307
 21
75.12786353501062
 31
0.0
  0
ARC
  5
29C4
  8
0
 10
201.1433312417707
 20
117.6960378341379
 30
0.0
 40
2.502389176617925
 50
3.026604435962728
 51
76.36120382002841
  0
ARC
  5
29C5
  8
0
 10
277.6083816392684
 20
123.3651006642095
 30
0.0
 40
74.17310348537886
 50
184.2810468619738
 51
187.4154658592123
  0
ARC
  5
29C6
  8
0
 10
183.5656901323974
 20
107.5405227795308
 30
0.0
 40
21.42241283017179
 50
353.6764442908596
 51
16.96712790537222
  0
TEXT
  5
29C7
  8
10
 10
-1.5
 20
0.5
 30
0.0
 40
10.0
  1
2023.09.12 DV7S-20[丸ハンドル]
 11
-1.5
 21
0.5
 31
0.0
 73
     1
  0
LINE
  5
29C8
  8
7
 10
189.6405860032198
 20
257.4279788760708
 30
0.0
 11
189.6405860032198
 21
32.63386353488423
 31
0.0
1001
GENIUS_GENODEF_13
1002
{
1000
HIER
1070
     0
1002
}
1002
{
1000
MANEDIT
1070
     0
1002
}
1002
{
1000
NOSEL
1070
     0
1002
}
1002
{
1000
BEHIND
1070
     0
1002
}
1002
{
1000
OTHER
1070
     0
1002
}
1002
{
1000
REACTOR
1002
}
1001
GENIUS_GENOBJ-N-CEN_13
1002
{
1000
OWNER
1000
GEN
1002
}
1001
GENIUS_GENCEN_19
1002
{
1040
2.794
1002
}
  0
LINE
  5
29C9
  8
0
 10
171.1405860032198
 20
158.5278635349378
 30
0.0
 11
208.1405860032198
 21
158.5278635349378
 31
0.0
  0
LINE
  5
29CA
  8
0
 10
171.1405860032198
 20
178.5278635349378
 30
0.0
 11
208.1405860032198
 21
178.5278635349378
 31
0.0
  0
LINE
  5
29CB
  8
0
 10
169.6405860032198
 20
160.0278635349378
 30
0.0
 11
171.1405860032198
 21
158.5278635349378
 31
0.0
  0
LINE
  5
29CC
  8
0
 10
169.6405860032198
 20
177.0278635349378
 30
0.0
 11
169.6405860032198
 21
160.0278635349378
 31
0.0
  0
LINE
  5
29CD
  8
0
 10
171.1405860032198
 20
178.5278635349378
 30
0.0
 11
169.6405860032198
 21
177.0278635349378
 31
0.0
  0
LINE
  5
29CE
  8
0
 10
208.1405860032198
 20
158.5278635349378
 30
0.0
 11
209.6405860032198
 21
160.0278635349378
 31
0.0
  0
LINE
  5
29CF
  8
0
 10
209.6405860032198
 20
177.0278635349378
 30
0.0
 11
209.6405860032198
 21
160.0278635349378
 31
0.0
  0
LINE
  5
29D0
  8
0
 10
208.1405860032198
 20
178.5278635349378
 30
0.0
 11
209.6405860032198
 21
177.0278635349378
 31
0.0
  0
ARC
  5
29D1
  8
0
 10
200.390586003218
 20
205.9278635349111
 30
0.0
 40
2.0
 50
0.0
 51
90.0
1001
GENIUS_GENOBJ-N-FIL_13
1002
{
1000
OWNER
1000
GEN
1002
}
1001
GENIUS_GENODEF_13
1002
{
1000
HIER
1070
     0
1002
}
1002
{
1000
MANEDIT
1070
     0
1002
}
1002
{
1000
NOSEL
1070
     0
1002
}
1002
{
1000
BEHIND
1070
     0
1002
}
1002
{
1000
OTHER
1070
     0
1002
}
1002
{
1000
REACTOR
1002
}
  0
LINE
  5
29D2
  8
0
 10
206.3905860032185
 20
178.5278635349374
 30
0.0
 11
206.3905860032185
 21
178.9278635349124
 31
0.0
  0
LINE
  5
29D3
  8
0
 10
207.4405860032177
 20
178.9278635349127
 30
0.0
 11
189.6405860032177
 21
178.9278635349129
 31
0.0
  0
LINE
  5
29D4
  8
0
 10
207.6405860032178
 20
179.1278635349125
 30
0.0
 11
207.4405860032177
 21
178.9278635349127
 31
0.0
1001
GENIUS_GENFIL_13
1070
     0
1040
0.2
1040
0.2
1040
20.0
1040
0.0
1002
{
1002
}
1001
GENIUS_GENODEF_13
1002
{
1000
HIER
1070
     0
1002
}
1002
{
1000
MANEDIT
1070
     0
1002
}
1002
{
1000
NOSEL
1070
     0
1002
}
1002
{
1000
BEHIND
1070
     0
1002
}
1002
{
1000
OTHER
1070
     0
1002
}
1002
{
1000
REACTOR
1002
}
1001
GENIUS_GENOBJ-N-CHA_13
1002
{
1000
OWNER
1000
GEN
1002
}
  0
LINE
  5
29D5
  8
0
 10
202.3905860032175
 20
205.9278635349102
 30
0.0
 11
202.390586003216
 21
189.9278635349108
 31
0.0
  0
LINE
  5
29D6
  8
0
 10
207.6405860032144
 20
180.5666476027439
 30
0.0
 11
207.6405860032144
 21
179.1278635349109
 31
0.0
  0
ARC
  5
29D7
  8
0
 10
206.6405860032144
 20
180.5666476027439
 30
0.0
 40
1.0
 50
0.0
 51
29.99999999998882
1001
GENIUS_GENODEF_13
1002
{
1000
HIER
1070
     0
1002
}
1002
{
1000
MANEDIT
1070
     0
1002
}
1002
{
1000
NOSEL
1070
     0
1002
}
1002
{
1000
BEHIND
1070
     0
1002
}
1002
{
1000
OTHER
1070
     0
1002
}
1002
{
1000
REACTOR
1002
}
1001
GENIUS_GENOBJ-N-FIL_13
1002
{
1000
OWNER
1000
GEN
1002
}
  0
LINE
  5
29D8
  8
0
 10
202.390586003216
 20
189.9278635349108
 30
0.0
 11
207.5066114069989
 21
181.0666476027437
 31
0.0
  0
LINE
  5
29D9
  8
0
 10
200.3905860032189
 20
207.927863534912
 30
0.0
 11
189.6405860032178
 21
207.9278635349102
 31
0.0
1001
MCAD_NO_VIS
1070
     1
  0
ARC
  5
29DA
  8
0
 10
178.8905860032178
 20
205.9278635349097
 30
0.0
 40
2.0
 50
90.00000000000651
 51
180.0
1001
GENIUS_GENOBJ-N-FIL_13
1002
{
1000
OWNER
1000
GEN
1002
}
1001
GENIUS_GENODEF_13
1002
{
1000
HIER
1070
     0
1002
}
1002
{
1000
MANEDIT
1070
     0
1002
}
1002
{
1000
NOSEL
1070
     0
1002
}
1002
{
1000
BEHIND
1070
     0
1002
}
1002
{
1000
OTHER
1070
     0
1002
}
1002
{
1000
REACTOR
1002
}
  0
LINE
  5
29DB
  8
0
 10
172.8905860032202
 20
178.5278635349355
 30
0.0
 11
172.8905860032201
 21
178.9278635349106
 31
0.0
  0
LINE
  5
29DC
  8
0
 10
171.8405860032208
 20
178.9278635349108
 30
0.0
 11
189.6405860032208
 21
178.9278635349129
 31
0.0
  0
LINE
  5
29DD
  8
0
 10
171.6405860032207
 20
179.1278635349107
 30
0.0
 11
171.8405860032208
 21
178.9278635349108
 31
0.0
1001
GENIUS_GENFIL_13
1070
     0
1040
0.2
1040
0.2
1040
20.0
1040
0.0
1002
{
1002
}
1001
GENIUS_GENODEF_13
1002
{
1000
HIER
1070
     0
1002
}
1002
{
1000
MANEDIT
1070
     0
1002
}
1002
{
1000
NOSEL
1070
     0
1002
}
1002
{
1000
BEHIND
1070
     0
1002
}
1002
{
1000
OTHER
1070
     0
1002
}
1002
{
1000
REACTOR
1002
}
1001
GENIUS_GENOBJ-N-CHA_13
1002
{
1000
OWNER
1000
GEN
1002
}
  0
LINE
  5
29DE
  8
0
 10
176.8905860032182
 20
205.9278635349088
 30
0.0
 11
176.8905860032214
 21
189.9278635349095
 31
0.0
  0
LINE
  5
29DF
  8
0
 10
171.640586003224
 20
180.5666476027421
 30
0.0
 11
171.6405860032241
 21
179.1278635349091
 31
0.0
  0
ARC
  5
29E0
  8
0
 10
172.640586003224
 20
180.5666476027421
 30
0.0
 40
1.0
 50
150.0000000000201
 51
180.0
1001
GENIUS_GENODEF_13
1002
{
1000
HIER
1070
     0
1002
}
1002
{
1000
MANEDIT
1070
     0
1002
}
1002
{
1000
NOSEL
1070
     0
1002
}
1002
{
1000
BEHIND
1070
     0
1002
}
1002
{
1000
OTHER
1070
     0
1002
}
1002
{
1000
REACTOR
1002
}
1001
GENIUS_GENOBJ-N-FIL_13
1002
{
1000
OWNER
1000
GEN
1002
}
  0
LINE
  5
29E1
  8
0
 10
176.8905860032214
 20
189.9278635349095
 30
0.0
 11
171.7745605994396
 21
181.0666476027419
 31
0.0
  0
LINE
  5
29E2
  8
0
 10
178.8905860032166
 20
207.9278635349106
 30
0.0
 11
189.6405860032178
 21
207.9278635349106
 31
0.0
1001
MCAD_NO_VIS
1070
     1
  0
LINE
  5
29E3
  8
0
 10
176.8905860032214
 20
189.9278635349095
 30
0.0
 11
202.390586003216
 21
189.927863534907
 31
0.0
  0
LINE
  5
29E4
  8
7
 10
73.50332137157318
 20
257.427978876068
 30
0.0
 11
73.50332137157318
 21
32.63386353486973
 31
0.0
1001
GENIUS_GENODEF_13
1002
{
1000
HIER
1070
     0
1002
}
1002
{
1000
MANEDIT
1070
     0
1002
}
1002
{
1000
NOSEL
1070
     0
1002
}
1002
{
1000
BEHIND
1070
     0
1002
}
1002
{
1000
OTHER
1070
     0
1002
}
1002
{
1000
REACTOR
1002
}
1001
GENIUS_GENOBJ-N-CEN_13
1002
{
1000
OWNER
1000
GEN
1002
}
1001
GENIUS_GENCEN_19
1002
{
1040
2.794
1002
}
  0
LINE
  5
29E5
  8
0
 10
92.50332137157409
 20
178.5278633868349
 30
0.0
 11
92.50332137157409
 21
158.5278635349006
 31
0.0
  0
LINE
  5
29E6
  8
0
 10
54.50332137157227
 20
158.5278635349006
 30
0.0
 11
54.50332137157227
 21
178.5278633868349
 31
0.0
  0
LINE
  5
29E7
  8
0
 10
54.50332137157227
 20
158.5278635349006
 30
0.0
 11
92.50332137157409
 21
158.5278635349006
 31
0.0
  0
LINE
  5
29E8
  8
0
 10
54.50332137157227
 20
178.5278633868349
 30
0.0
 11
92.50332137157409
 21
178.5278633868349
 31
0.0
  0
ARC
  5
29E9
  8
0
 10
84.25332137157159
 20
205.9278635348725
 30
0.0
 40
2.0
 50
0.0
 51
90.0
1001
GENIUS_GENOBJ-N-FIL_13
1002
{
1000
OWNER
1000
GEN
1002
}
1001
GENIUS_GENODEF_13
1002
{
1000
HIER
1070
     0
1002
}
1002
{
1000
MANEDIT
1070
     0
1002
}
1002
{
1000
NOSEL
1070
     0
1002
}
1002
{
1000
BEHIND
1070
     0
1002
}
1002
{
1000
OTHER
1070
     0
1002
}
1002
{
1000
REACTOR
1002
}
  0
LINE
  5
29EA
  8
0
 10
90.25332137157204
 20
178.527863386836
 30
0.0
 11
90.25332137157204
 21
178.9278635348738
 31
0.0
  0
LINE
  5
29EB
  8
0
 10
91.30332137157131
 20
178.9278635348741
 30
0.0
 11
73.50332137157125
 21
178.9278635348738
 31
0.0
  0
LINE
  5
29EC
  8
0
 10
91.50332137157136
 20
179.1278635348739
 30
0.0
 11
91.30332137157131
 21
178.9278635348741
 31
0.0
1001
GENIUS_GENFIL_13
1070
     0
1040
0.2
1040
0.2
1040
20.0
1040
0.0
1002
{
1002
}
1001
GENIUS_GENODEF_13
1002
{
1000
HIER
1070
     0
1002
}
1002
{
1000
MANEDIT
1070
     0
1002
}
1002
{
1000
NOSEL
1070
     0
1002
}
1002
{
1000
BEHIND
1070
     0
1002
}
1002
{
1000
OTHER
1070
     0
1002
}
1002
{
1000
REACTOR
1002
}
1001
GENIUS_GENOBJ-N-CHA_13
1002
{
1000
OWNER
1000
GEN
1002
}
  0
LINE
  5
29ED
  8
0
 10
86.25332137157113
 20
205.9278635348716
 30
0.0
 11
86.25332137156954
 21
189.9278635348722
 31
0.0
  0
LINE
  5
29EE
  8
0
 10
91.50332137156795
 20
180.5666476027053
 30
0.0
 11
91.50332137156795
 21
179.1278635348723
 31
0.0
  0
ARC
  5
29EF
  8
0
 10
90.50332137156795
 20
180.5666476027053
 30
0.0
 40
1.0
 50
0.0
 51
29.99999999998882
1001
GENIUS_GENODEF_13
1002
{
1000
HIER
1070
     0
1002
}
1002
{
1000
MANEDIT
1070
     0
1002
}
1002
{
1000
NOSEL
1070
     0
1002
}
1002
{
1000
BEHIND
1070
     0
1002
}
1002
{
1000
OTHER
1070
     0
1002
}
1002
{
1000
REACTOR
1002
}
1001
GENIUS_GENOBJ-N-FIL_13
1002
{
1000
OWNER
1000
GEN
1002
}
  0
LINE
  5
29F0
  8
0
 10
86.25332137156954
 20
189.9278635348722
 30
0.0
 11
87.00332137157284
 21
188.6288254291895
 31
0.0
  0
LINE
  5
29F1
  8
0
 10
90.58344839048937
 20
182.4278635348747
 30
0.0
 11
91.36934677535248
 21
181.0666476027053
 31
0.0
  0
LINE
  5
29F2
  8
0
 10
84.2533213715725
 20
207.9278635348734
 30
0.0
 11
73.50332137157136
 21
207.9278635348716
 31
0.0
1001
MCAD_NO_VIS
1070
     1
  0
LINE
  5
29F3
  8
0
 10
90.58344839048937
 20
182.427863534875
 30
0.0
 11
87.0033213715734
 21
182.4278635348743
 31
0.0
1001
MCAD_NO_VIS
1070
     1
  0
LINE
  5
29F4
  8
0
 10
87.00332137157272
 20
188.62882542919
 30
0.0
 11
87.0033213715734
 21
182.4278635348743
 31
0.0
  0
ARC
  5
29F5
  8
0
 10
62.75332137157159
 20
205.9278635348716
 30
0.0
 40
2.0
 50
90.00000000000651
 51
180.0
1001
GENIUS_GENOBJ-N-FIL_13
1002
{
1000
OWNER
1000
GEN
1002
}
1001
GENIUS_GENODEF_13
1002
{
1000
HIER
1070
     0
1002
}
1002
{
1000
MANEDIT
1070
     0
1002
}
1002
{
1000
NOSEL
1070
     0
1002
}
1002
{
1000
BEHIND
1070
     0
1002
}
1002
{
1000
OTHER
1070
     0
1002
}
1002
{
1000
REACTOR
1002
}
  0
LINE
  5
29F6
  8
0
 10
56.75332137157375
 20
178.527863386836
 30
0.0
 11
56.75332137157363
 21
178.9278635348722
 31
0.0
  0
LINE
  5
29F7
  8
0
 10
55.70332137157436
 20
178.9278635348722
 30
0.0
 11
73.50332137157125
 21
178.9278635348761
 31
0.0
  0
LINE
  5
29F8
  8
0
 10
55.50332137157432
 20
179.1278635348721
 30
0.0
 11
55.70332137157436
 21
178.9278635348722
 31
0.0
1001
GENIUS_GENFIL_13
1070
     0
1040
0.2
1040
0.2
1040
20.0
1040
0.0
1002
{
1002
}
1001
GENIUS_GENODEF_13
1002
{
1000
HIER
1070
     0
1002
}
1002
{
1000
MANEDIT
1070
     0
1002
}
1002
{
1000
NOSEL
1070
     0
1002
}
1002
{
1000
BEHIND
1070
     0
1002
}
1002
{
1000
OTHER
1070
     0
1002
}
1002
{
1000
REACTOR
1002
}
1001
GENIUS_GENOBJ-N-CHA_13
1002
{
1000
OWNER
1000
GEN
1002
}
  0
LINE
  5
29F9
  8
0
 10
60.75332137157204
 20
205.9278635348702
 30
0.0
 11
60.75332137157511
 21
189.9278635348709
 31
0.0
  0
LINE
  5
29FA
  8
0
 10
55.50332137157761
 20
180.5666476027035
 30
0.0
 11
55.50332137157773
 21
179.1278635348705
 31
0.0
  0
ARC
  5
29FB
  8
0
 10
56.50332137157761
 20
180.5666476027037
 30
0.0
 40
1.0
 50
150.000000000014
 51
180.0
1001
GENIUS_GENODEF_13
1002
{
1000
HIER
1070
     0
1002
}
1002
{
1000
MANEDIT
1070
     0
1002
}
1002
{
1000
NOSEL
1070
     0
1002
}
1002
{
1000
BEHIND
1070
     0
1002
}
1002
{
1000
OTHER
1070
     0
1002
}
1002
{
1000
REACTOR
1002
}
1001
GENIUS_GENOBJ-N-FIL_13
1002
{
1000
OWNER
1000
GEN
1002
}
  0
LINE
  5
29FC
  8
0
 10
60.75332137157511
 20
189.9278635348709
 30
0.0
 11
60.00332137157193
 21
188.6288254291882
 31
0.0
  0
LINE
  5
29FD
  8
0
 10
56.42319435265608
 20
182.4278635348732
 30
0.0
 11
55.63729596779308
 21
181.0666476027035
 31
0.0
  0
LINE
  5
29FE
  8
0
 10
62.75332137157045
 20
207.9278635348725
 30
0.0
 11
73.50332137157159
 21
207.9278635348716
 31
0.0
1001
MCAD_NO_VIS
1070
     1
  0
LINE
  5
29FF
  8
0
 10
56.42319435265608
 20
182.4278635348734
 30
0.0
 11
60.00332137157204
 21
182.4278635348729
 31
0.0
1001
MCAD_NO_VIS
1070
     1
  0
LINE
  5
2A00
  8
0
 10
60.00332137157204
 20
188.6288254291886
 30
0.0
 11
60.00332137157204
 21
182.4278635348729
 31
0.0
  0
LINE
  5
2A01
  8
0
 10
60.75332137157511
 20
189.9278635348709
 30
0.0
 11
86.25332137156954
 21
189.9278635348722
 31
0.0
  0
LINE
  5
2A02
  8
7
 10
133.7905860032424
 20
100.6278635349116
 30
0.0
 11
243.6405860032497
 21
100.6278635349022
 31
0.0
1001
GENIUS_GENOBJ-N-CEN_13
1002
{
1000
OWNER
1000
GEN
1002
}
1001
GENIUS_GENODEF_13
1002
{
1000
HIER
1070
     0
1002
}
1002
{
1000
MANEDIT
1070
     0
1002
}
1002
{
1000
NOSEL
1070
     0
1002
}
1002
{
1000
BEHIND
1070
     0
1002
}
1002
{
1000
OTHER
1070
     0
1002
}
1002
{
1000
REACTOR
1002
}
1001
GENIUS_GENCEN_19
1002
{
1040
3.0
1002
}
  0
LINE
  5
2A03
  8
7
 10
95.50332137157307
 20
100.6278635349109
 30
0.0
 11
51.50332137157295
 21
100.6278635349107
 31
0.0
1001
GENIUS_GENOBJ-N-CEN_13
1002
{
1000
OWNER
1000
GEN
1002
}
1001
GENIUS_GENODEF_13
1002
{
1000
HIER
1070
     0
1002
}
1002
{
1000
MANEDIT
1070
     0
1002
}
1002
{
1000
NOSEL
1070
     0
1002
}
1002
{
1000
BEHIND
1070
     0
1002
}
1002
{
1000
OTHER
1070
     0
1002
}
1002
{
1000
REACTOR
1002
}
1001
GENIUS_GENCEN_19
1002
{
1040
3.0
1002
}
  0
LINE
  5
2A04
  8
7
 10
189.6405860032198
 20
358.006297734999
 30
0.0
 11
189.6405860032198
 21
289.4183081792872
 31
0.0
1001
GENIUS_GENODEF_13
1002
{
1000
HIER
1070
     0
1002
}
1002
{
1000
MANEDIT
1070
     0
1002
}
1002
{
1000
NOSEL
1070
     0
1002
}
1002
{
1000
BEHIND
1070
     0
1002
}
1002
{
1000
OTHER
1070
     0
1002
}
1002
{
1000
REACTOR
1002
}
1001
GENIUS_GENOBJ-N-CEN_13
1002
{
1000
OWNER
1000
GEN
1002
}
1001
GENIUS_GENCEN_19
1002
{
1040
2.794
1002
}
  0
LINE
  5
2A05
  8
7
 10
133.7905860032424
 20
323.7123029571819
 30
0.0
 11
243.6405860032497
 21
323.7123029571725
 31
0.0
1001
GENIUS_GENOBJ-N-CEN_13
1002
{
1000
OWNER
1000
GEN
1002
}
1001
GENIUS_GENODEF_13
1002
{
1000
HIER
1070
     0
1002
}
1002
{
1000
MANEDIT
1070
     0
1002
}
1002
{
1000
NOSEL
1070
     0
1002
}
1002
{
1000
BEHIND
1070
     0
1002
}
1002
{
1000
OTHER
1070
     0
1002
}
1002
{
1000
REACTOR
1002
}
1001
GENIUS_GENCEN_19
1002
{
1040
3.0
1002
}
  0
LINE
  5
2A06
  8
0
 10
137.0405860032187
 20
304.7123029571816
 30
0.0
 11
160.0405860032638
 21
304.7123029571796
 31
0.0
1001
GENIUS_GENOBJ-N-CEN_13
1002
{
1000
OWNER
1000
GEN
1002
}
1001
GENIUS_GENODEF_13
1002
{
1000
HIER
1070
     0
1002
}
1002
{
1000
MANEDIT
1070
     0
1002
}
1002
{
1000
NOSEL
1070
     0
1002
}
1002
{
1000
BEHIND
1070
     0
1002
}
1002
{
1000
OTHER
1070
     0
1002
}
1002
{
1000
REACTOR
1002
}
1001
GENIUS_GENCEN_19
1002
{
1040
3.0
1002
}
  0
LINE
  5
2A07
  8
0
 10
137.0405860032662
 20
342.7123029571816
 30
0.0
 11
160.0405860032201
 21
342.7123029571796
 31
0.0
1001
GENIUS_GENOBJ-N-CEN_13
1002
{
1000
OWNER
1000
GEN
1002
}
1001
GENIUS_GENODEF_13
1002
{
1000
HIER
1070
     0
1002
}
1002
{
1000
MANEDIT
1070
     0
1002
}
1002
{
1000
NOSEL
1070
     0
1002
}
1002
{
1000
BEHIND
1070
     0
1002
}
1002
{
1000
OTHER
1070
     0
1002
}
1002
{
1000
REACTOR
1002
}
1001
GENIUS_GENCEN_19
1002
{
1040
3.0
1002
}
  0
LINE
  5
2A08
  8
0
 10
68.10332137157081
 20
208.9278635349406
 30
0.0
 11
68.10332137157059
 21
212.4279788760717
 31
0.0
  0
LINE
  5
2A09
  8
0
 10
68.60332137160594
 20
208.4278635349061
 30
0.0
 11
68.10332137160594
 21
207.9278635349061
 31
0.0
  0
LINE
  5
2A0A
  8
0
 10
68.60332137160594
 20
208.4278635349061
 30
0.0
 11
68.10332137160583
 21
208.9278635349061
 31
0.0
  0
LINE
  5
2A0B
  8
0
 10
78.90332137157577
 20
208.9278635349406
 30
0.0
 11
78.903321371576
 21
212.4279788760717
 31
0.0
  0
LINE
  5
2A0C
  8
0
 10
78.40332137154064
 20
208.4278635349061
 30
0.0
 11
78.90332137154064
 21
207.9278635349061
 31
0.0
  0
LINE
  5
2A0D
  8
0
 10
78.40332137154064
 20
208.4278635349061
 30
0.0
 11
78.90332137154076
 21
208.9278635349061
 31
0.0
  0
LINE
  5
2A0E
  8
0
 10
184.2405860032173
 20
208.9278635349406
 30
0.0
 11
184.2405860032172
 21
212.4279788760717
 31
0.0
  0
LINE
  5
2A0F
  8
0
 10
184.7405860032525
 20
208.4278635349061
 30
0.0
 11
184.2405860032525
 21
207.9278635349061
 31
0.0
  0
LINE
  5
2A10
  8
0
 10
184.7405860032525
 20
208.4278635349061
 30
0.0
 11
184.2405860032524
 21
208.9278635349061
 31
0.0
  0
LINE
  5
2A11
  8
0
 10
195.0405860032223
 20
208.9278635349406
 30
0.0
 11
195.0405860032224
 21
212.4279788760717
 31
0.0
  0
LINE
  5
2A12
  8
0
 10
194.5405860031872
 20
208.4278635349061
 30
0.0
 11
195.0405860031872
 21
207.9278635349061
 31
0.0
  0
LINE
  5
2A13
  8
0
 10
194.5405860031872
 20
208.4278635349061
 30
0.0
 11
195.0405860031873
 21
208.9278635349061
 31
0.0
  0
POLYLINE
  5
2A14
  8
0
 66
     1
 10
0.0
 20
0.0
 30
0.0
 70
     1
  0
VERTEX
  5
2AA6
  8
0
 10
196.6622276285677
 20
353.9066161449792
 30
0.0
 42
0.1147433684531263
  0
VERTEX
  5
2AA7
  8
0
 10
182.6189443778719
 20
353.9066161449792
 30
0.0
 42
0.3169980516087132
  0
VERTEX
  5
2AA8
  8
0
 10
181.0850263698919
 20
352.1868951291218
 30
0.0
 42
-0.5034443575988989
  0
VERTEX
  5
2AA9
  8
0
 10
169.2586456365486
 20
345.3589310291874
 30
0.0
 42
0.3169980516087056
  0
VERTEX
  5
2AAA
  8
0
 10
167.0023645454037
 20
344.890379574883
 30
0.0
 42
0.1147433684531285
  0
VERTEX
  5
2AAB
  8
0
 10
159.9807229200558
 20
332.7285395272394
 30
0.0
 42
0.3169980516087055
  0
VERTEX
  5
2AAC
  8
0
 10
160.7030860032198
 20
330.5402670570776
 30
0.0
 42
-0.5034443575988864
  0
VERTEX
  5
2AAD
  8
0
 10
160.7030860032198
 20
316.8843388572078
 30
0.0
 42
0.3169980516087206
  0
VERTEX
  5
2AAE
  8
0
 10
159.9807229200558
 20
314.696066387046
 30
0.0
 42
0.1147433684531274
  0
VERTEX
  5
2AAF
  8
0
 10
167.0023645454037
 20
302.5342263394033
 30
0.0
 42
0.3169980516087066
  0
VERTEX
  5
2AB0
  8
0
 10
169.2586456365486
 20
302.065674885098
 30
0.0
 42
-0.503444357598898
  0
VERTEX
  5
2AB1
  8
0
 10
181.0850263698919
 20
295.2377107851636
 30
0.0
 42
0.316998051608725
  0
VERTEX
  5
2AB2
  8
0
 10
182.6189443778719
 20
293.5179897693062
 30
0.0
 42
0.1147433684531251
  0
VERTEX
  5
2AB3
  8
0
 10
196.6622276285677
 20
293.5179897693062
 30
0.0
 42
0.3169980516087174
  0
VERTEX
  5
2AB4
  8
0
 10
198.1961456365477
 20
295.2377107851636
 30
0.0
 42
-0.503444357598898
  0
VERTEX
  5
2AB5
  8
0
 10
210.022526369891
 20
302.065674885098
 30
0.0
 42
0.3169980516087068
  0
VERTEX
  5
2AB6
  8
0
 10
212.278807461036
 20
302.5342263394033
 30
0.0
 42
0.1147433684531273
  0
VERTEX
  5
2AB7
  8
0
 10
219.3004490863839
 20
314.696066387046
 30
0.0
 42
0.3169980516087207
  0
VERTEX
  5
2AB8
  8
0
 10
218.5780860032198
 20
316.8843388572078
 30
0.0
 42
-0.5034443575988866
  0
VERTEX
  5
2AB9
  8
0
 10
218.5780860032198
 20
330.5402670570776
 30
0.0
 42
0.3169980516087057
  0
VERTEX
  5
2ABA
  8
0
 10
219.3004490863839
 20
332.7285395272394
 30
0.0
 42
0.1147433684531281
  0
VERTEX
  5
2ABB
  8
0
 10
212.278807461036
 20
344.890379574883
 30
0.0
 42
0.3169980516087061
  0
VERTEX
  5
2ABC
  8
0
 10
210.022526369891
 20
345.3589310291874
 30
0.0
 42
-0.5034443575988988
  0
VERTEX
  5
2ABD
  8
0
 10
198.1961456365477
 20
352.1868951291218
 30
0.0
 42
0.3169980516087095
  0
SEQEND
  5
2AC0
  8
0
  0
CIRCLE
  5
2A15
  8
0
 10
189.6405860032198
 20
323.7123029571432
 30
0.0
 40
11.0
  0
ARC
  5
2A16
  8
0
 10
71.46435846880775
 20
220.6314843278413
 30
0.0
 40
30.91919402524992
 50
78.72967692071798
 51
86.21889213639939
  0
LINE
  5
2A17
  8
0
 10
60.50332137156431
 20
253.4279788760717
 30
0.0
 11
86.50332137157523
 21
253.4279788760644
 31
0.0
  0
LINE
  5
2A18
  8
0
 10
51.00332137156431
 20
212.4279788760717
 30
0.0
 11
96.00332137156352
 21
212.4279788760717
 31
0.0
  0
LINE
  5
2A19
  8
0
 10
49.00332137156431
 20
220.1696486268741
 30
0.0
 11
98.00332137156352
 21
220.1696486268741
 31
0.0
  0
ARC
  5
2A1A
  8
0
 10
73.54814669019515
 20
225.6059377971977
 30
0.0
 40
3.704509570427573
 50
269.3066925052582
 51
329.9640267076166
  0
LINE
  5
2A1B
  8
0
 10
42.50332137156431
 20
245.9241324946163
 30
0.0
 11
42.50332137156431
 21
231.4279788760735
 31
0.0
  0
LINE
  5
2A1C
  8
0
 10
43.27828649263677
 20
231.4279788760735
 30
0.0
 11
43.27828649263677
 21
248.007976416235
 31
0.0
  0
LINE
  5
2A1D
  8
0
 10
66.67535727163715
 20
249.1491210750558
 30
0.0
 11
66.67535727163715
 21
231.4279788760735
 31
0.0
  0
LINE
  5
2A1E
  8
0
 10
51.94130074875022
 20
231.4279788760735
 30
0.0
 11
51.94130074875022
 21
249.1491210750558
 31
0.0
  0
ARC
  5
2A1F
  8
0
 10
51.1498704626257
 20
222.5458763320761
 30
0.0
 40
0.5000000000001373
 50
246.2367264954113
 51
357.253232453353
1001
GENIUS_GENODEF_13
1002
{
1000
HIER
1070
     0
1002
}
1002
{
1000
MANEDIT
1070
     0
1002
}
1002
{
1000
NOSEL
1070
     0
1002
}
1002
{
1000
BEHIND
1070
     0
1002
}
1002
{
1000
REACTOR
1002
}
1001
GENIUS_GENOBJ-N-FIL_13
1002
{
1000
OWNER
1000
GEN
1002
}
  0
ARC
  5
2A20
  8
0
 10
51.00332137156431
 20
214.4279788760717
 30
0.0
 40
2.0
 50
180.0
 51
270.0
1001
GENIUS_GENODEF_13
1002
{
1000
HIER
1070
     0
1002
}
1002
{
1000
MANEDIT
1070
     0
1002
}
1002
{
1000
NOSEL
1070
     0
1002
}
1002
{
1000
BEHIND
1070
     0
1002
}
1002
{
1000
REACTOR
1002
}
1001
GENIUS_GENOBJ-N-FIL_13
1002
{
1000
OWNER
1000
GEN
1002
}
  0
LINE
  5
2A21
  8
0
 10
49.00332137156431
 20
220.1696486268741
 30
0.0
 11
49.00332137156431
 21
214.4279788760708
 31
0.0
  0
LINE
  5
2A22
  8
0
 10
49.00332137156431
 20
220.1696486268741
 30
0.0
 11
42.50332137156431
 21
231.4279788760735
 31
0.0
  0
ARC
  5
2A23
  8
0
 10
54.39175783783162
 20
229.4112412186444
 30
0.0
 40
8.092139528442901
 50
218.3219467238784
 51
244.8164215542301
  0
ARC
  5
2A24
  8
0
 10
79.8541679200589
 20
251.0718922534879
 30
0.0
 40
41.51720649287704
 50
208.2390387289535
 51
219.9850051421009
  0
LINE
  5
2A25
  8
0
 10
52.94130074875022
 20
231.4391409018247
 30
0.0
 11
65.67535727163715
 21
231.4279788760708
 31
0.0
  0
ARC
  5
2A26
  8
0
 10
-128.8084346306539
 20
231.1797174930425
 30
0.0
 40
180.6652985045642
 50
357.2532324534187
 51
0.0787330719278605
  0
ARC
  5
2A27
  8
0
 10
73.45849605294825
 20
225.6059377971977
 30
0.0
 40
3.704509570427561
 50
210.0359732923834
 51
270.6933074947418
  0
ARC
  5
2A28
  8
0
 10
82.82213393110374
 20
234.2790120387043
 30
0.0
 40
16.39654800819768
 50
190.0134925743618
 51
219.9445765225451
  0
ARC
  5
2A29
  8
0
 10
60.50332137156431
 20
213.4279788760742
 30
0.0
 40
39.99999999999841
 50
90.0
 51
111.8037479893856
  0
ARC
  5
2A2A
  8
0
 10
48.0563496982287
 20
246.2139780700172
 30
0.0
 40
4.869076824715424
 50
37.07163361014624
 51
88.33534575517591
  0
ARC
  5
2A2B
  8
0
 10
47.50332137156408
 20
245.9241324946163
 30
0.0
 40
4.999999999999826
 50
111.803747989381
 51
180.0
1001
GENIUS_GENODEF_13
1002
{
1000
HIER
1070
     0
1002
}
1002
{
1000
MANEDIT
1070
     0
1002
}
1002
{
1000
NOSEL
1070
     0
1002
}
1002
{
1000
BEHIND
1070
     0
1002
}
1002
{
1000
REACTOR
1002
}
1001
GENIUS_GENOBJ-N-FIL_13
1002
{
1000
OWNER
1000
GEN
1002
}
  0
ARC
  5
2A2C
  8
0
 10
49.85197020916996
 20
242.9586259273196
 30
0.0
 40
8.289104774638442
 50
101.5112441720059
 51
142.4715634063257
  0
LINE
  5
2A2D
  8
0
 10
52.94130074875022
 20
249.1491210750558
 30
0.0
 11
65.67535727163715
 21
249.1491210750558
 31
0.0
  0
ARC
  5
2A2E
  8
0
 10
75.542284274336
 20
220.6314843278379
 30
0.0
 40
30.91919402525333
 50
93.78110786360082
 51
101.2703230792818
  0
ARC
  5
2A2F
  8
0
 10
69.86064924217646
 20
247.277838310336
 30
0.0
 40
3.694290746966676
 50
95.61023783028725
 51
149.5667841226169
  0
LINE
  5
2A30
  8
0
 10
104.5033213715644
 20
245.9241324946154
 30
0.0
 11
104.5033213715644
 21
231.4279788760735
 31
0.0
  0
LINE
  5
2A31
  8
0
 10
95.06534199439307
 20
231.4279788760735
 30
0.0
 11
95.06534199439307
 21
249.1491210750558
 31
0.0
  0
LINE
  5
2A32
  8
0
 10
103.7283562505065
 20
231.4279788760735
 30
0.0
 11
103.7283562505065
 21
248.007976416235
 31
0.0
  0
LINE
  5
2A33
  8
0
 10
80.33128547150693
 20
249.1491210750558
 30
0.0
 11
80.33128547150693
 21
231.4279788760735
 31
0.0
  0
LINE
  5
2A34
  8
0
 10
98.00332137156352
 20
220.1696486268732
 30
0.0
 11
104.5033213715644
 21
231.4279788760735
 31
0.0
  0
ARC
  5
2A35
  8
0
 10
67.15247482307791
 20
251.0718922534929
 30
0.0
 40
41.51720649288583
 50
320.0149948579001
 51
331.7609612710451
  0
ARC
  5
2A36
  8
0
 10
96.00332137156352
 20
214.4279788760717
 30
0.0
 40
2.0
 50
270.0
 51
0.0
1001
GENIUS_GENODEF_13
1002
{
1000
HIER
1070
     0
1002
}
1002
{
1000
MANEDIT
1070
     0
1002
}
1002
{
1000
NOSEL
1070
     0
1002
}
1002
{
1000
BEHIND
1070
     0
1002
}
1002
{
1000
REACTOR
1002
}
1001
GENIUS_GENOBJ-N-FIL_13
1002
{
1000
OWNER
1000
GEN
1002
}
  0
LINE
  5
2A37
  8
0
 10
94.14994944361683
 20
231.4279788760735
 30
0.0
 11
81.33128547150693
 21
231.4279788760735
 31
0.0
  0
ARC
  5
2A38
  8
0
 10
64.18450881204285
 20
234.2790120387025
 30
0.0
 40
16.39654800819415
 50
320.0554234774524
 51
349.9865074256933
  0
LINE
  5
2A39
  8
0
 10
98.00332137156352
 20
220.1696486268732
 30
0.0
 11
98.00332137156352
 21
214.4279788760708
 31
0.0
  0
ARC
  5
2A3A
  8
0
 10
275.8150773737971
 20
231.1797174930445
 30
0.0
 40
180.6652985045639
 50
179.9212669280768
 51
182.7467675465875
  0
ARC
  5
2A3B
  8
0
 10
92.61488490531269
 20
229.4112412186444
 30
0.0
 40
8.092139528442887
 50
295.1835784457689
 51
321.6780532761207
  0
ARC
  5
2A3C
  8
0
 10
95.8567722805185
 20
222.545876332076
 30
0.0
 40
0.5000000000000417
 50
182.7467675466345
 51
293.763273504594
1001
GENIUS_GENODEF_13
1002
{
1000
HIER
1070
     0
1002
}
1002
{
1000
MANEDIT
1070
     0
1002
}
1002
{
1000
NOSEL
1070
     0
1002
}
1002
{
1000
BEHIND
1070
     0
1002
}
1002
{
1000
REACTOR
1002
}
1001
GENIUS_GENOBJ-N-FIL_13
1002
{
1000
OWNER
1000
GEN
1002
}
  0
ARC
  5
2A3D
  8
0
 10
86.5033213715634
 20
213.4279788760727
 30
0.0
 40
39.99999999999903
 50
68.19625201061453
 51
90.0
  0
ARC
  5
2A3E
  8
0
 10
97.15467253397424
 20
242.9586259273196
 30
0.0
 40
8.289104774638432
 50
37.52843659367432
 51
78.48875582799408
  0
LINE
  5
2A3F
  8
0
 10
94.14994944361683
 20
249.1491210750549
 30
0.0
 11
81.33128547150693
 21
249.1491210750558
 31
0.0
  0
ARC
  5
2A40
  8
0
 10
77.14599350096671
 20
247.277838310336
 30
0.0
 40
3.69429074696669
 50
30.43321587738312
 51
84.38976216971281
  0
ARC
  5
2A41
  8
0
 10
98.9502930449155
 20
246.2139780700172
 30
0.0
 40
4.869076824715402
 50
91.6646542448241
 51
142.9283663898537
  0
ARC
  5
2A42
  8
0
 10
99.50332137156465
 20
245.9241324946155
 30
0.0
 40
4.999999999999716
 50
0.0
 51
68.19625201061855
1001
GENIUS_GENODEF_13
1002
{
1000
HIER
1070
     0
1002
}
1002
{
1000
MANEDIT
1070
     0
1002
}
1002
{
1000
NOSEL
1070
     0
1002
}
1002
{
1000
BEHIND
1070
     0
1002
}
1002
{
1000
REACTOR
1002
}
1001
GENIUS_GENOBJ-N-FIL_13
1002
{
1000
OWNER
1000
GEN
1002
}
  0
LINE
  5
2A43
  8
0
 10
165.1405860032123
 20
220.1696486268764
 30
0.0
 11
214.1405860032114
 21
220.1696486268764
 31
0.0
  0
LINE
  5
2A44
  8
0
 10
167.1405860032123
 20
212.4279788760749
 30
0.0
 11
212.1405860032114
 21
212.4279788760749
 31
0.0
  0
LINE
  5
2A45
  8
0
 10
176.6405860032123
 20
253.4279788760749
 30
0.0
 11
202.6405860032232
 21
253.4279788760667
 31
0.0
  0
ARC
  5
2A46
  8
0
 10
176.404323370806
 20
245.5354265967317
 30
0.0
 40
5.951205005509391
 50
37.38880691368365
 51
97.21420027622548
  0
ARC
  5
2A47
  8
0
 10
176.5346590239493
 20
224.4211959176145
 30
0.0
 40
2.565357953936887
 50
240.6774080382663
 51
316.523877554376
  0
LINE
  5
2A48
  8
0
 10
159.8942624738079
 20
229.2565475327509
 30
0.0
 11
159.8942624738088
 21
249.2354856942991
 31
0.0
  0
LINE
  5
2A49
  8
0
 10
168.0785653804146
 20
231.4279788760758
 30
0.0
 11
168.0785653804137
 21
249.1491210750581
 31
0.0
  0
ARC
  5
2A4A
  8
0
 10
167.1405860032123
 20
214.4279788760749
 30
0.0
 40
1.999999999999943
 50
180.0
 51
270.0
1001
GENIUS_GENODEF_13
1002
{
1000
HIER
1070
     0
1002
}
1002
{
1000
MANEDIT
1070
     0
1002
}
1002
{
1000
NOSEL
1070
     0
1002
}
1002
{
1000
BEHIND
1070
     0
1002
}
1002
{
1000
REACTOR
1002
}
1001
GENIUS_GENOBJ-N-FIL_13
1002
{
1000
OWNER
1000
GEN
1002
}
  0
LINE
  5
2A4B
  8
0
 10
161.306432945536
 20
231.4279788760767
 30
0.0
 11
167.0785653803982
 21
231.4279788760767
 31
0.0
  0
LINE
  5
2A4C
  8
0
 10
165.1405860032123
 20
220.1696486268764
 30
0.0
 11
159.8942624738079
 21
229.2565475327499
 31
0.0
  0
LINE
  5
2A4D
  8
0
 10
165.1405860032123
 20
220.1696486268764
 30
0.0
 11
165.1405860032123
 21
214.427978876074
 31
0.0
  0
ARC
  5
2A4E
  8
0
 10
180.869183845414
 20
233.9649532825342
 30
0.0
 40
13.03979140386123
 50
191.2188087997441
 51
244.6115597288426
  0
LINE
  5
2A4F
  8
0
 10
161.1623587277695
 20
249.1491210750581
 30
0.0
 11
167.0785653803982
 21
249.1491210750581
 31
0.0
  0
ARC
  5
2A50
  8
0
 10
176.6405860032123
 20
213.4279788760735
 30
0.0
 40
40.00000000000136
 50
90.0
 51
111.8037479893839
  0
ARC
  5
2A51
  8
0
 10
163.6405860032114
 20
245.92413249462
 30
0.0
 40
4.999999999998328
 50
111.8037479893794
 51
138.5267245313368
1001
GENIUS_GENODEF_13
1002
{
1000
HIER
1070
     0
1002
}
1002
{
1000
MANEDIT
1070
     0
1002
}
1002
{
1000
NOSEL
1070
     0
1002
}
1002
{
1000
BEHIND
1070
     0
1002
}
1002
{
1000
REACTOR
1002
}
1001
GENIUS_GENOBJ-N-FIL_13
1002
{
1000
OWNER
1000
GEN
1002
}
  0
ARC
  5
2A52
  8
0
 10
175.0435563924061
 20
239.7863635564165
 30
0.0
 40
11.66928995911952
 50
86.98674223133894
 51
126.6456998178242
  0
LINE
  5
2A53
  8
0
 10
219.3869095326313
 20
229.2565475327509
 30
0.0
 11
219.3869095326313
 21
249.2354856942991
 31
0.0
  0
LINE
  5
2A54
  8
0
 10
181.1327536848644
 20
249.1491210750581
 30
0.0
 11
181.1327536848653
 21
231.4279788760767
 31
0.0
  0
LINE
  5
2A55
  8
0
 10
198.1484183215748
 20
249.1491210750581
 30
0.0
 11
198.1484183215748
 21
231.4279788760767
 31
0.0
  0
LINE
  5
2A56
  8
0
 10
211.2026066260255
 20
231.4279788760758
 30
0.0
 11
211.2026066260255
 21
249.1491210750581
 31
0.0
  0
ARC
  5
2A57
  8
0
 10
202.74651298249
 20
224.4211959176145
 30
0.0
 40
2.565357953936903
 50
223.4761224456249
 51
299.3225919617333
  0
LINE
  5
2A58
  8
0
 10
182.1327536848498
 20
231.4279788760767
 30
0.0
 11
197.1484183215748
 21
231.4279788760767
 31
0.0
  0
ARC
  5
2A59
  8
0
 10
157.3861904180885
 20
234.0232688909632
 30
0.0
 40
23.88796343861021
 50
331.5850581069331
 51
353.7628312294631
  0
ARC
  5
2A5A
  8
0
 10
221.8949815883508
 20
234.0232688909633
 30
0.0
 40
23.88796343861022
 50
186.2371687705372
 51
208.4149418930669
  0
ARC
  5
2A5B
  8
0
 10
212.1405860032115
 20
214.4279788760749
 30
0.0
 40
2.0
 50
269.9999999999968
 51
0.0
1001
GENIUS_GENODEF_13
1002
{
1000
HIER
1070
     0
1002
}
1002
{
1000
MANEDIT
1070
     0
1002
}
1002
{
1000
NOSEL
1070
     0
1002
}
1002
{
1000
BEHIND
1070
     0
1002
}
1002
{
1000
REACTOR
1002
}
1001
GENIUS_GENOBJ-N-FIL_13
1002
{
1000
OWNER
1000
GEN
1002
}
  0
LINE
  5
2A5C
  8
0
 10
217.8531114987259
 20
231.4279788760767
 30
0.0
 11
212.2026066260255
 21
231.4279788760767
 31
0.0
  0
ARC
  5
2A5D
  8
0
 10
198.4119881610252
 20
233.9649532825342
 30
0.0
 40
13.03979140386123
 50
295.3884402711573
 51
348.7811912002559
  0
LINE
  5
2A5E
  8
0
 10
214.1405860032114
 20
220.1696486268764
 30
0.0
 11
214.1405860032114
 21
214.427978876073
 31
0.0
  0
LINE
  5
2A5F
  8
0
 10
214.1405860032114
 20
220.1696486268764
 30
0.0
 11
219.3869095326313
 21
229.2565475327763
 31
0.0
  0
ARC
  5
2A60
  8
0
 10
202.8768486356346
 20
245.5354265967314
 30
0.0
 40
5.951205005509814
 50
82.78579972377945
 51
142.6111930863149
  0
LINE
  5
2A61
  8
0
 10
182.1327536848498
 20
249.1491210750581
 30
0.0
 11
197.1484183215748
 21
249.1491210750581
 31
0.0
  0
LINE
  5
2A62
  8
0
 10
218.1188132786542
 20
249.1491210750581
 30
0.0
 11
212.2026066260255
 21
249.1491210750581
 31
0.0
  0
ARC
  5
2A63
  8
0
 10
202.6405860032114
 20
213.4279788760735
 30
0.0
 40
40.00000000000134
 50
68.19625201061604
 51
90.0
  0
ARC
  5
2A64
  8
0
 10
204.2376156140341
 20
239.7863635564165
 30
0.0
 40
11.66928995911953
 50
53.35430018217642
 51
93.01325776866163
  0
ARC
  5
2A65
  8
0
 10
215.640586003228
 20
245.9241324946203
 30
0.0
 40
4.99999999999799
 50
41.47327546866229
 51
68.19625201061902
1001
GENIUS_GENODEF_13
1002
{
1000
HIER
1070
     0
1002
}
1002
{
1000
MANEDIT
1070
     0
1002
}
1002
{
1000
NOSEL
1070
     0
1002
}
1002
{
1000
BEHIND
1070
     0
1002
}
1002
{
1000
REACTOR
1002
}
1001
GENIUS_GENOBJ-N-FIL_13
1002
{
1000
OWNER
1000
GEN
1002
}
  0
LINE
  5
2A66
  8
0
 10
160.2905860032421
 20
330.9517645143459
 30
0.0
 11
160.2905860032421
 21
316.4728413999395
 31
0.0
  0
VIEWPORT
  5
22
 67
     1
  8
0
 10
5.269134197284911
 20
5.545311567251436
 30
0.0
 40
11.13808705479925
 41
12.32365374410561
 68
     1
 69
     1
1001
GENIUS_GENSCREG_15
1000
PF
1040
1.0
1000
DF
1040
1.0
1000
MIN
1011
-0.2999093301147138
1021
-0.6165153048013714
1031
0.0
1021
-0.6165153048013714
1031
0.0
1000
MAX
1011
10.83817772468454
1021
11.70713843930424
1031
0.0
1021
11.70713843930424
1031
0.0
1000
FLAGS
1070
     4
1001
GENIUS_GENODEF_13
1002
{
1000
HIER
1070
     0
1002
}
1002
{
1000
MANEDIT
1070
     0
1002
}
1002
{
1000
NOSEL
1070
     0
1002
}
1002
{
1000
BEHIND
1070
     0
1002
}
1002
{
1000
OTHER
1070
     0
1002
}
1002
{
1000
REACTOR
1002
}
1001
GENIUS_GENOBJ-N-SDF_13
1002
{
1000
OWNER
1000
GEN
1002
}
1001
ACAD
1000
MVIEW
1002
{
1070
    16
1010
0.0
1020
0.0
1030
0.0
1020
0.0
1030
0.0
1010
0.0
1020
0.0
1030
1.0
1020
0.0
1030
1.0
1040
0.0
1040
12.32365374410561
1040
5.269134197284911
1040
5.545311567251436
1040
50.0
1040
0.0
1040
0.0
1070
     0
1070
   100
1070
     0
1070
     1
1070
     0
1070
     0
1070
     0
1070
     0
1040
0.0
1040
0.0
1040
0.0
1040
1.0
1040
1.0
1040
10.0
1040
10.0
1070
     0
1002
{
1002
}
1002
}
  0
ENDSEC
  0
EOF
