  0
SECTION
  2
HEADER
  9
$ACADVER
  1
AC1009
  9
$DWGCODEPAGE
  3
ansi_932
  9
$INSBASE
 10
0.0
 20
0.0
 30
0.0
  9
$EXTMIN
 10
0.0000064909936555
 20
0.0000066982815952
 30
0.0
  9
$EXTMAX
 10
229.3158608337244
 20
294.685137894783
 30
0.0
  9
$LIMMIN
 10
0.0
 20
0.0
  9
$LIMMAX
 10
420.0
 20
420.0
  9
$ORTHOMODE
 70
     1
  9
$REGENMODE
 70
     1
  9
$FILLMODE
 70
     1
  9
$QTEXTMODE
 70
     0
  9
$MIRRTEXT
 70
     0
  9
$DRAGMODE
 70
     2
  9
$LTSCALE
 40
10.0
  9
$OSMODE
 70
   549
  9
$ATTMODE
 70
     1
  9
$TEXTSIZE
 40
1.0
  9
$TRACEWID
 40
1.0
  9
$TEXTSTYLE
  7
STANDARD
  9
$CLAYER
  8
0
  9
$CELTYPE
  6
BYLAYER
  9
$CECOLOR
 62
   256
  9
$DIMSCALE
 40
1.0
  9
$DIMASZ
 40
2.5
  9
$DIMEXO
 40
1.0
  9
$DIMDLI
 40
7.0
  9
$DIMRND
 40
0.0
  9
$DIMDLE
 40
0.0
  9
$DIMEXE
 40
1.0
  9
$DIMTP
 40
0.1
  9
$DIMTM
 40
0.1
  9
$DIMTXT
 40
3.0
  9
$DIMCEN
 40
0.0
  9
$DIMTSZ
 40
0.0
  9
$DIMTOL
 70
     0
  9
$DIMLIM
 70
     0
  9
$DIMTIH
 70
     0
  9
$DIMTOH
 70
     0
  9
$DIMSE1
 70
     0
  9
$DIMSE2
 70
     0
  9
$DIMTAD
 70
     3
  9
$DIMZIN
 70
     8
  9
$DIMBLK
  1
OPEN
  9
$DIMASO
 70
     1
  9
$DIMSHO
 70
     1
  9
$DIMPOST
  1

  9
$DIMAPOST
  1
"
  9
$DIMALT
 70
     0
  9
$DIMALTD
 70
     2
  9
$DIMALTF
 40
0.0393701
  9
$DIMLFAC
 40
1.0
  9
$DIMTOFL
 70
     1
  9
$DIMTVP
 40
0.0
  9
$DIMTIX
 70
     0
  9
$DIMSOXD
 70
     0
  9
$DIMSAH
 70
     0
  9
$DIMBLK1
  1

  9
$DIMBLK2
  1

  9
$DIMSTYLE
  2
AM_JIS
  9
$DIMCLRD
 70
   256
  9
$DIMCLRE
 70
   256
  9
$DIMCLRT
 70
     2
  9
$DIMTFAC
 40
0.71
  9
$DIMGAP
 40
1.0
  9
$LUNITS
 70
     2
  9
$LUPREC
 70
     2
  9
$SKETCHINC
 40
1.0
  9
$FILLETRAD
 40
2.5
  9
$AUNITS
 70
     0
  9
$AUPREC
 70
     0
  9
$MENU
  1
.
  9
$ELEVATION
 40
0.0
  9
$PELEVATION
 40
0.0
  9
$THICKNESS
 40
0.0
  9
$LIMCHECK
 70
     0
  9
$CHAMFERA
 40
2.5
  9
$CHAMFERB
 40
2.5
  9
$SKPOLY
 70
     1
  9
$TDCREATE
 40
2457177.646626285
  9
$TDUPDATE
 40
2460346.639630521
  9
$TDINDWG
 40
0.039291412
  9
$TDUSRTIMER
 40
0.0392739352
  9
$USRTIMER
 70
     1
  9
$ANGBASE
 50
0.0
  9
$ANGDIR
 70
     0
  9
$PDMODE
 70
     0
  9
$PDSIZE
 40
0.0
  9
$PLINEWID
 40
0.0
  9
$COORDS
 70
     0
  9
$SPLFRAME
 70
     0
  9
$SPLINETYPE
 70
     6
  9
$SPLINESEGS
 70
     8
  9
$ATTDIA
 70
     1
  9
$ATTREQ
 70
     1
  9
$HANDLING
 70
     1
  9
$HANDSEED
  5
B91B
  9
$SURFTAB1
 70
     6
  9
$SURFTAB2
 70
     6
  9
$SURFTYPE
 70
     6
  9
$SURFU
 70
     6
  9
$SURFV
 70
     6
  9
$UCSNAME
  2

  9
$UCSORG
 10
0.0
 20
0.0
 30
0.0
  9
$UCSXDIR
 10
1.0
 20
0.0
 30
0.0
  9
$UCSYDIR
 10
0.0
 20
1.0
 30
0.0
  9
$PUCSNAME
  2

  9
$PUCSORG
 10
0.0
 20
0.0
 30
0.0
  9
$PUCSXDIR
 10
1.0
 20
0.0
 30
0.0
  9
$PUCSYDIR
 10
0.0
 20
1.0
 30
0.0
  9
$USERI1
 70
     0
  9
$USERI2
 70
     0
  9
$USERI3
 70
     0
  9
$USERI4
 70
     0
  9
$USERI5
 70
     0
  9
$USERR1
 40
0.0
  9
$USERR2
 40
0.0
  9
$USERR3
 40
0.0
  9
$USERR4
 40
0.0
  9
$USERR5
 40
0.0
  9
$WORLDVIEW
 70
     1
  9
$SHADEDGE
 70
     3
  9
$SHADEDIF
 70
    70
  9
$TILEMODE
 70
     1
  9
$MAXACTVP
 70
    48
  9
$PLIMCHECK
 70
     0
  9
$PEXTMIN
 10
1.000000000000000E+20
 20
1.000000000000000E+20
 30
1.000000000000000E+20
  9
$PEXTMAX
 10
-1.000000000000000E+20
 20
-1.000000000000000E+20
 30
-1.000000000000000E+20
  9
$PLIMMIN
 10
-0.2500002402958907
 20
-0.2499999962453767
  9
$PLIMMAX
 10
10.74999951940822
 20
8.249999763458732
  9
$UNITMODE
 70
     0
  9
$VISRETAIN
 70
     1
  9
$PLINEGEN
 70
     0
  9
$PSLTSCALE
 70
     1
  0
ENDSEC
  0
SECTION
  2
TABLES
  0
TABLE
  2
VPORT
 70
     1
  0
VPORT
  2
*ACTIVE
 70
     0
 10
0.0
 20
0.0
 11
1.0
 21
1.0
 12
210.0
 22
210.0000000000001
 13
0.0
 23
0.0
 14
2.5
 24
2.5
 15
10.0
 25
10.0
 16
0.0
 26
0.0
 36
1.0
 17
0.0
 27
0.0
 37
0.0
 40
423.2589718719689
 41
2.05293551491819
 42
50.0
 43
0.0
 44
0.0
 50
0.0
 51
0.0
 71
     0
 72
   100
 73
     1
 74
     3
 75
     0
 76
     0
 77
     0
 78
     0
  0
ENDTAB
  0
TABLE
  2
LTYPE
 70
    22
  0
LTYPE
  2
CONTINUOUS
 70
     0
  3
Solid line
 72
    65
 73
     0
 40
0.0
  0
LTYPE
  2
HIDDEN
 70
     0
  3
__ __ __ __ __ __ __ __ __ __ __ __ __ __ __ __
 72
    65
 73
     2
 40
0.375
 49
0.25
 49
-0.125
  0
LTYPE
  2
PHANTOM2
 70
     0
  3
___ _ _ ___ _ _ ___ _ _ ___ _ _ ___ _ _ ___ _ _
 72
    65
 73
     6
 40
1.25
 49
0.625
 49
-0.125
 49
0.125
 49
-0.125
 49
0.125
 49
-0.125
  0
LTYPE
  2
CENTER
 70
     0
  3
____ _ ____ _ ____ _ ____ _ ____ _ ____ _ ____ 
 72
    65
 73
     4
 40
2.0
 49
1.25
 49
-0.25
 49
0.25
 49
-0.25
  0
LTYPE
  2
ACJISTGB
 70
     0
  3
__ . . __ . .
 72
    65
 73
     6
 40
9.0
 49
4.0
 49
-1.0
 49
1.0
 49
-1.0
 49
1.0
 49
-1.0
  0
LTYPE
  2
ACJISTGL
 70
     0
  3
_ _ _ _ _
 72
    65
 73
     2
 40
3.0
 49
2.0
 49
-1.0
  0
LTYPE
  2
ACISOWELD
 70
     0
  3
_ _ _ _ _
 72
    65
 73
     2
 40
2.0
 49
2.0
 49
-1.0
  0
LTYPE
  2
ACISOTGB
 70
     0
  3
__ . . __ . .
 72
    65
 73
     6
 40
9.0
 49
4.0
 49
-1.0
 49
1.0
 49
-1.0
 49
1.0
 49
-1.0
  0
LTYPE
  2
ACISOTGL
 70
     0
  3
_ _ _ _ _
 72
    65
 73
     2
 40
3.0
 49
2.0
 49
-1.0
  0
LTYPE
  2
AM_ISO02W050
 70
     0
  3
__ __ __ __ __ __ __ __ __ __ __ __ __ __ __
 72
    65
 73
     2
 40
7.5
 49
6.0
 49
-1.5
  0
LTYPE
  2
AM_ISO08W050
 70
     0
  3
____ . ____ . ____ . ____ . ____ . ____ . ____
 72
    65
 73
     4
 40
18.0
 49
12.0
 49
-1.5
 49
3.0
 49
-1.5
  0
LTYPE
  2
AM_ISO09W050
 70
     0
  3
_____ . . _____ . . _____ . . ____ .. ____
 72
    65
 73
     6
 40
22.5
 49
12.0
 49
-1.5
 49
3.0
 49
-1.5
 49
3.0
 49
-1.5
  0
LTYPE
  2
AM_ISO02W050X2
 70
     0
  3
 _ _ _ _ _ _ _ _ _ _ _ _
 72
    65
 73
     2
 40
3.75
 49
3.0
 49
-0.75
  0
LTYPE
  2
AM_ISO08W050X2
 70
     0
  3
__ . __ . __ . __ . __ . __
 72
    65
 73
     4
 40
9.0
 49
6.0
 49
-0.75
 49
1.5
 49
-0.75
  0
LTYPE
  2
AMZIGZAG
 70
     0
  3
/\/-/\/-/\/-/\/-/\/-/\/
 72
    65
 73
     2
 40
11.0001
 49
0.0001
 49
-11.0
  0
LTYPE
  2
AMCONSTR
 70
     0
  3
_______________________
 72
    65
 73
     2
 40
9999.0
 49
9999.0
 49
0.0
  0
LTYPE
  2
CENTER2
 70
     0
  3
Center (.5x) ___ _ ___ _ ___ _ ___ _ ___ _ ___
 72
    65
 73
     4
 40
1.125
 49
0.75
 49
-0.125
 49
0.125
 49
-0.125
  0
LTYPE
  2
HIDDEN2
 70
     0
  3
Hidden (.5x) _ _ _ _ _ _ _ _ _ _ _ _ _ _ _ _ _
 72
    65
 73
     2
 40
0.1875
 49
0.125
 49
-0.0625
  0
LTYPE
  2
ACJISWELD
 70
     0
  3
_ _ _ _ _
 72
    65
 73
     2
 40
2.0
 49
2.0
 49
-1.0
  0
LTYPE
  2
AMZIGZAG2
 70
     0
  3
/\/-/\/-/\/-/\/-/\/-/\/
 72
    65
 73
     2
 40
0.4401
 49
0.0001
 49
-0.44
  0
LTYPE
  2
ACANSTGB
 70
     0
  3
__ . . __ . .
 72
    65
 73
     6
 40
0.35433070866
 49
0.15748031496
 49
-0.03937007874
 49
0.03937007874
 49
-0.03937007874
 49
0.03937007874
 49
-0.03937007874
  0
LTYPE
  2
ACANSTGL
 70
     0
  3
_ _ _ _ _
 72
    65
 73
     2
 40
0.11811023622
 49
0.07874015748
 49
-0.03937007874
  0
ENDTAB
  0
TABLE
  2
LAYER
 70
     7
  0
LAYER
  2
0
 70
     0
 62
     7
  6
CONTINUOUS
  0
LAYER
  2
7
 70
     0
 62
     4
  6
CENTER2
  0
LAYER
  2
10
 70
     0
 62
     2
  6
CONTINUOUS
  0
LAYER
  2
DEFPOINTS
 70
     0
 62
     7
  6
CONTINUOUS
  0
LAYER
  2
AM_7
 70
     0
 62
     4
  6
CENTER2
  0
LAYER
  2
AM_0
 70
     0
 62
     7
  6
CONTINUOUS
  0
LAYER
  2
3A
 70
     0
 62
     6
  6
HIDDEN2
  0
ENDTAB
  0
TABLE
  2
STYLE
 70
     8
  0
STYLE
  2
STANDARD
 70
     0
 40
0.0
 41
1.0
 50
0.0
 71
     0
 42
1.0
  3
ISOCP.SHX
  4
EXTFONT.SHX
  0
STYLE
  2
ACJISTS
 70
     0
 40
1.0
 41
1.0
 50
0.0
 71
     0
 42
3.5
  3
isocp.shx
  4
extfont.shx
  0
STYLE
  2
ACJISGDT
 70
     0
 40
0.0
 41
1.0
 50
0.0
 71
     0
 42
3.5
  3
amgdt.shx
  4
extfont.shx
  0
STYLE
  2
ACISOTS
 70
     0
 40
1.0
 41
1.0
 50
0.0
 71
     0
 42
1.0
  3
isocp.shx
  4
extfont.shx
  0
STYLE
  2
ACISOGDT
 70
     0
 40
0.0
 41
1.0
 50
0.0
 71
     0
 42
3.5
  3
amgdt.shx
  4
extfont.shx
  0
STYLE
  2

 70
     1
 40
0.0
 41
1.0
 50
0.0
 71
     0
 42
3.5
  3
ltypeshp.shx
  4

  0
STYLE
  2

 70
     1
 40
0.0
 41
1.0
 50
0.0
 71
     0
 42
4.0
  3
genltshp.shx
  4

  0
STYLE
  2
ACANSGDT
 70
     0
 40
0.0
 41
1.0
 50
0.0
 71
     0
 42
4.0
  3
amgdt.shx
  4

  0
ENDTAB
  0
TABLE
  2
VIEW
 70
     3
  0
VIEW
  2
AMDTVIEW1
 70
     0
 40
329.0721649484536
 10
210.0
 20
164.5360824742268
 41
420.0
 11
0.0
 21
0.0
 31
1.0
 12
0.0
 22
0.0
 32
0.0
 42
50.0
 43
0.0
 44
0.0
 50
0.0
 71
     0
  0
VIEW
  2
AMDTVIEW2
 70
     0
 40
329.0721649484536
 10
210.0
 20
164.5360824742268
 41
420.0
 11
0.0
 21
0.0
 31
1.0
 12
0.0
 22
0.0
 32
0.0
 42
50.0
 43
0.0
 44
0.0
 50
0.0
 71
     0
  0
VIEW
  2
AMDTVIEW3
 70
     0
 40
329.0721649484536
 10
210.0
 20
164.5360824742268
 41
420.0
 11
0.0
 21
0.0
 31
1.0
 12
0.0
 22
0.0
 32
0.0
 42
50.0
 43
0.0
 44
0.0
 50
0.0
 71
     0
  0
ENDTAB
  0
TABLE
  2
UCS
 70
     0
  0
ENDTAB
  0
TABLE
  2
APPID
 70
    68
  0
APPID
  2
ACAD
 70
     0
  0
APPID
  2
AD_DRAW
 70
     0
  0
APPID
  2
DESIGNERASSEMBLIES
 70
     0
  0
APPID
  2
MCAD_NO_VIS
 70
     0
  0
APPID
  2
ASURF_PCURVE_APPNAME
 70
     0
  0
APPID
  2
ACAD_TEMP_GRAPHIC
 70
     0
  0
APPID
  2
ACATTRIBSERVICES
 70
     0
  0
APPID
  2
ACADM_DIM_EDIT
 70
     0
  0
APPID
  2
GENIUS_GENDIM_13
 70
     0
  0
APPID
  2
GENIUS_GENDTOL_13
 70
     0
  0
APPID
  2
GENIUS_GE3DTOL_13
 70
     0
  0
APPID
  2
AMG_3D2D_5_0
 70
     0
  0
APPID
  2
AMDT_DM_ADJ
 70
     0
  0
APPID
  2
ACAD_PSEXT
 70
     0
  0
APPID
  2
ACAD_DSTYLE_DIMTEXT_FILL
 70
     0
  0
APPID
  2
ACAECLAYERSTANDARD
 70
     0
  0
APPID
  2
GENIUS_GENREC_14
 70
     0
  0
APPID
  2
GENIUS_GENODEF_13
 70
     0
  0
APPID
  2
GENIUS_GENOBJ-N-REC_13
 70
     0
  0
APPID
  2
DCO15
 70
     0
  0
APPID
  2
ACAD_DSTYLE_DIMJAG
 70
     0
  0
APPID
  2
ACAD_DSTYLE_DIMTALN
 70
     0
  0
APPID
  2
ACAD_MLEADERVER
 70
     0
  0
APPID
  2
GENIUS_GENSCREG_15
 70
     0
  0
APPID
  2
GENIUS_GENOBJ-N-SDF_13
 70
     0
  0
APPID
  2
ACAD_NAV_VCDISPLAY
 70
     0
  0
APPID
  2
ACAD_EXEMPT_FROM_CAD_STAND
 70
     0
  0
APPID
  2
ACCMTRANSPARENCY
 70
     0
  0
APPID
  2
GENIUS_GENOBJ-N-CEN_13
 70
     0
  0
APPID
  2
GENIUS_GENOBJ-N-FIL_13
 70
     0
  0
APPID
  2
GENIUS_GENCEN_19
 70
     0
  0
APPID
  2
ACAD_DSTYLE_DIMBREAK
 70
     0
  0
APPID
  2
PLOTTRANSPARENCY
 70
     0
  0
APPID
  2
HC_SUPERPART
 70
     0
  0
APPID
  2
HC_SP4BLOCK
 70
     0
  0
APPID
  2
HC_XDATA_SPRING
 70
     0
  0
APPID
  2
HCCAD_FRAME
 70
     0
  0
APPID
  2
GENIUS_GENOLIS_13
 70
     0
  0
APPID
  2
GENIUS_GENOENT_13
 70
     0
  0
APPID
  2
GENIUS_GENOREF_13
 70
     0
  0
APPID
  2
GENIUS_GENOBJ-N-TIT_13
 70
     0
  0
APPID
  2
GENIUS_GENOBJ-N-ZOO_13
 70
     0
  0
APPID
  2
GENIUS_GENTITLE_13
 70
     0
  0
APPID
  2
GENIUS_GENSYMENT_13
 70
     0
  0
APPID
  2
GENIUS_GENSCSYM_13
 70
     0
  0
APPID
  2
GENIUS_GENOBJ-N-REV_13
 70
     0
  0
APPID
  2
GENIUS_GENOBJ-N-RSSYM_13
 70
     0
  0
APPID
  2
GENIUS_GENREV_15
 70
     0
  0
APPID
  2
HRA
 70
     0
  0
APPID
  2
HTIT
 70
     0
  0
APPID
  2
GENIUS_GENZOO_17
 70
     0
  0
APPID
  2
GENIUS_GENOBJ-N-CRS_13
 70
     0
  0
APPID
  2
GENIUS_GENCRS_20
 70
     0
  0
APPID
  2
GENIUS_GENOBJ-N-CRC_13
 70
     0
  0
APPID
  2
GENIUS_GENCRC_14
 70
     0
  0
APPID
  2
GENIUS_GENFIL_13
 70
     0
  0
APPID
  2
GENIUS_GENOBJ-N-CHA_13
 70
     0
  0
APPID
  2
GENIUS_GENHATCH_13
 70
     0
  0
APPID
  2
GENIUS_GENOBJ-N-HTC_13
 70
     0
  0
APPID
  2
GENIUS_GENOBJ-N-DIM_13
 70
     0
  0
APPID
  2
GENIUS_GENOBJ-N-DIMLI_13
 70
     0
  0
APPID
  2
GENIUS_GENOBJ-N-FITL_13
 70
     0
  0
APPID
  2
GENIUS_GENFITL_13
 70
     0
  0
APPID
  2
GENLAYCOLOR
 70
     0
  0
APPID
  2
GRADIENTCOLOR1ACI
 70
     0
  0
APPID
  2
GRADIENTCOLOR2ACI
 70
     0
  0
APPID
  2
ACADANNOTATIVE
 70
     0
  0
APPID
  2
HATCHBACKGROUNDCOLOR
 70
     0
  0
ENDTAB
  0
TABLE
  2
DIMSTYLE
 70
    23
  0
DIMSTYLE
  2
STANDARD
 70
     0
  3

  4

  5

  6

  7

 40
1.0
 41
2.5
 42
0.625
 43
3.75
 44
1.25
 45
0.0
 46
0.0
 47
0.0
 48
0.0
140
2.5
141
2.5
142
0.0
143
0.0394
144
1.0
145
0.0
146
1.0
147
0.625
 71
     0
 72
     0
 73
     0
 74
     0
 75
     0
 76
     0
 77
     1
 78
     8
170
     0
171
     4
172
     1
173
     0
174
     0
175
     0
176
     0
177
     0
178
     0
  0
DIMSTYLE
  2
AM_JIS
 70
     0
  3

  4
"
  5
OPEN
  6

  7

 40
1.0
 41
2.5
 42
1.0
 43
7.0
 44
1.0
 45
0.0
 46
0.0
 47
0.1
 48
0.1
140
3.0
141
0.0
142
0.0
143
0.0393701
144
1.0
145
0.0
146
0.71
147
1.0
 71
     0
 72
     0
 73
     0
 74
     0
 75
     0
 76
     0
 77
     3
 78
     8
170
     0
171
     2
172
     1
173
     0
174
     0
175
     0
176
   256
177
   256
178
     2
  0
DIMSTYLE
  2
AM_JIS$3
 70
     0
  3

  4
"
  5
OPEN
  6

  7

 40
1.0
 41
2.5
 42
1.0
 43
10.0
 44
1.0
 45
0.0
 46
0.0
 47
0.1
 48
0.1
140
3.0
141
0.0
142
0.0
143
0.0393701
144
1.0
145
0.0
146
0.71
147
1.0
 71
     0
 72
     0
 73
     0
 74
     0
 75
     0
 76
     0
 77
     3
 78
     8
170
     0
171
     2
172
     1
173
     0
174
     0
175
     0
176
   256
177
   256
178
     2
  0
DIMSTYLE
  2
AM_JIS$4
 70
     0
  3

  4
"
  5

  6
OPEN30
  7
OPEN
 40
1.0
 41
2.5
 42
1.0
 43
10.0
 44
1.0
 45
0.0
 46
0.0
 47
0.1
 48
0.1
140
3.0
141
0.0
142
0.0
143
0.0393701
144
1.0
145
0.0
146
0.71
147
1.0
 71
     0
 72
     0
 73
     0
 74
     0
 75
     0
 76
     0
 77
     3
 78
     8
170
     0
171
     2
172
     1
173
     1
174
     0
175
     0
176
   256
177
   256
178
     2
  0
DIMSTYLE
  2
AM_JIS$6
 70
     0
  3

  4
"
  5
OPEN30
  6
OPEN30
  7
OPEN30
 40
1.0
 41
2.5
 42
1.0
 43
10.0
 44
1.0
 45
0.0
 46
0.0
 47
0.1
 48
0.1
140
3.5
141
0.0
142
0.0
143
0.0393701
144
1.0
145
0.0
146
0.71
147
1.5
 71
     0
 72
     0
 73
     0
 74
     0
 75
     0
 76
     0
 77
     0
 78
     8
170
     0
171
     2
172
     1
173
     0
174
     0
175
     0
176
   256
177
   256
178
     2
  0
DIMSTYLE
  2
AM_JIS$7
 70
     0
  3

  4
"
  5
OPEN30
  6

  7

 40
1.0
 41
2.5
 42
1.0
 43
10.0
 44
1.0
 45
0.0
 46
0.0
 47
0.1
 48
0.1
140
3.0
141
0.0
142
0.0
143
0.0393701
144
1.0
145
0.0
146
0.71
147
1.0
 71
     0
 72
     0
 73
     0
 74
     0
 75
     0
 76
     0
 77
     3
 78
     8
170
     0
171
     2
172
     1
173
     0
174
     0
175
     0
176
   256
177
   256
178
     2
  0
DIMSTYLE
  2
AM_JIS$SF
 70
     0
  3

  4
"
  5
OPEN
  6

  7

 40
1.0
 41
2.5
 42
1.0
 43
7.0
 44
1.0
 45
0.0
 46
0.0
 47
0.1
 48
0.1
140
3.5
141
0.0
142
0.0
143
0.0393701
144
1.0
145
0.0
146
0.71
147
1.5
 71
     0
 72
     0
 73
     0
 74
     0
 75
     1
 76
     1
 77
     3
 78
     8
170
     0
171
     2
172
     1
173
     0
174
     0
175
     0
176
   256
177
   256
178
     2
  0
DIMSTYLE
  2
AM_JIS$SH
 70
     0
  3

  4
"
  5

  6
GENAXEH
  7
OPEN
 40
1.0
 41
2.5
 42
1.0
 43
7.0
 44
1.0
 45
0.0
 46
0.0
 47
0.1
 48
0.1
140
3.5
141
0.0
142
0.0
143
0.0393701
144
2.0
145
0.0
146
0.71
147
1.5
 71
     0
 72
     0
 73
     0
 74
     0
 75
     1
 76
     1
 77
     3
 78
     8
170
     0
171
     2
172
     1
173
     1
174
     0
175
     0
176
   256
177
   256
178
     2
  0
DIMSTYLE
  2
AM_ISO
 70
     0
  3

  4
"
  5

  6

  7

 40
1.0
 41
2.5
 42
1.0
 43
10.0
 44
1.0
 45
0.0
 46
0.0
 47
0.1
 48
0.1
140
3.5
141
0.0
142
0.0
143
0.0393701
144
1.0
145
0.0
146
0.71
147
1.5
 71
     0
 72
     0
 73
     0
 74
     0
 75
     0
 76
     0
 77
     1
 78
     8
170
     0
171
     2
172
     1
173
     0
174
     0
175
     0
176
   256
177
   256
178
     2
  0
DIMSTYLE
  2
AM_ISO$3
 70
     0
  3

  4
"
  5

  6

  7

 40
1.0
 41
2.5
 42
1.0
 43
10.0
 44
1.0
 45
0.0
 46
0.0
 47
0.1
 48
0.1
140
3.5
141
0.0
142
0.0
143
0.0393701
144
1.0
145
0.0
146
0.71
147
1.5
 71
     0
 72
     0
 73
     0
 74
     1
 75
     0
 76
     0
 77
     1
 78
     8
170
     0
171
     2
172
     0
173
     0
174
     0
175
     0
176
   256
177
   256
178
     2
  0
DIMSTYLE
  2
AM_ISO$4
 70
     0
  3

  4
"
  5

  6

  7

 40
1.0
 41
2.5
 42
1.0
 43
10.0
 44
1.0
 45
0.0
 46
0.0
 47
0.1
 48
0.1
140
3.5
141
0.0
142
0.0
143
0.0393701
144
1.0
145
0.0
146
0.71
147
1.5
 71
     0
 72
     0
 73
     0
 74
     1
 75
     0
 76
     0
 77
     1
 78
     8
170
     0
171
     2
172
     0
173
     0
174
     0
175
     0
176
   256
177
   256
178
     2
  0
DIMSTYLE
  2
AM_ISO$6
 70
     0
  3

  4
"
  5

  6

  7

 40
1.0
 41
2.5
 42
1.0
 43
10.0
 44
1.0
 45
0.0
 46
0.0
 47
0.1
 48
0.1
140
3.5
141
0.0
142
0.0
143
0.0393701
144
1.0
145
0.0
146
0.71
147
1.5
 71
     0
 72
     0
 73
     0
 74
     0
 75
     0
 76
     0
 77
     0
 78
     8
170
     0
171
     2
172
     1
173
     0
174
     0
175
     0
176
   256
177
   256
178
     2
  0
DIMSTYLE
  2
AM_ISO$7
 70
     0
  3

  4
"
  5

  6

  7

 40
1.0
 41
2.5
 42
1.0
 43
10.0
 44
1.0
 45
0.0
 46
0.0
 47
0.1
 48
0.1
140
5.0
141
0.0
142
0.0
143
0.0393701
144
1.0
145
0.0
146
0.71
147
1.5
 71
     0
 72
     0
 73
     0
 74
     0
 75
     0
 76
     0
 77
     1
 78
     8
170
     0
171
     2
172
     1
173
     0
174
     0
175
     0
176
   256
177
   256
178
     2
  0
DIMSTYLE
  2
AM_ISO$SF
 70
     0
  3

  4
"
  5

  6

  7

 40
1.0
 41
2.5
 42
1.0
 43
10.0
 44
1.0
 45
0.0
 46
0.0
 47
0.1
 48
0.1
140
3.5
141
0.0
142
0.0
143
0.0393701
144
1.0
145
0.0
146
0.71
147
1.5
 71
     0
 72
     0
 73
     0
 74
     0
 75
     1
 76
     1
 77
     1
 78
     8
170
     0
171
     2
172
     1
173
     0
174
     0
175
     0
176
   256
177
   256
178
     2
  0
DIMSTYLE
  2
AM_ISO$SH
 70
     0
  3

  4
"
  5

  6
GENAXEH
  7

 40
1.0
 41
2.5
 42
1.0
 43
10.0
 44
1.0
 45
0.0
 46
0.0
 47
0.1
 48
0.1
140
3.5
141
0.0
142
0.0
143
0.0393701
144
2.0
145
0.0
146
0.71
147
1.5
 71
     0
 72
     0
 73
     0
 74
     0
 75
     1
 76
     1
 77
     1
 78
     8
170
     0
171
     2
172
     1
173
     1
174
     0
175
     0
176
   256
177
   256
178
     2
  0
DIMSTYLE
  2
AM_JIS$2
 70
     0
  3

  4
"
  5
OPEN
  6

  7

 40
1.0
 41
2.5
 42
1.0
 43
7.0
 44
1.0
 45
0.0
 46
0.0
 47
0.1
 48
0.1
140
3.0
141
0.0
142
0.0
143
0.0393701
144
1.0
145
0.0
146
0.71
147
1.0
 71
     0
 72
     0
 73
     0
 74
     0
 75
     0
 76
     0
 77
     3
 78
     8
170
     0
171
     2
172
     1
173
     0
174
     0
175
     0
176
   256
177
   256
178
     2
  0
DIMSTYLE
  2
AM_JIS$0
 70
     0
  3

  4
"
  5
OPEN
  6

  7

 40
1.0
 41
2.5
 42
1.0
 43
7.0
 44
1.0
 45
0.0
 46
0.0
 47
0.1
 48
0.1
140
3.0
141
0.0
142
0.0
143
0.0393701
144
1.0
145
0.0
146
0.71
147
1.0
 71
     0
 72
     0
 73
     0
 74
     0
 75
     0
 76
     0
 77
     3
 78
     8
170
     0
171
     2
172
     1
173
     0
174
     0
175
     0
176
   256
177
   256
178
     2
  0
DIMSTYLE
  2
AM_ANSI
 70
     0
  3

  4
mm
  5

  6

  7

 40
1.0
 41
0.12
 42
0.05
 43
0.5
 44
0.1
 45
0.0
 46
0.0
 47
0.1
 48
0.1
140
0.12
141
0.0
142
0.0
143
25.4
144
1.0
145
0.0
146
0.71
147
0.06
 71
     0
 72
     0
 73
     1
 74
     1
 75
     0
 76
     0
 77
     0
 78
     7
170
     0
171
     2
172
     0
173
     0
174
     0
175
     0
176
   256
177
   256
178
     2
  0
DIMSTYLE
  2
AM_ANSI$3
 70
     0
  3

  4
mm
  5

  6

  7

 40
1.0
 41
0.12
 42
0.05
 43
0.5
 44
0.1
 45
0.0
 46
0.0
 47
0.1
 48
0.1
140
0.12
141
0.0
142
0.0
143
25.4
144
1.0
145
0.0
146
0.71
147
0.06
 71
     0
 72
     0
 73
     1
 74
     1
 75
     0
 76
     0
 77
     0
 78
     7
170
     0
171
     2
172
     0
173
     0
174
     0
175
     0
176
   256
177
   256
178
     2
  0
DIMSTYLE
  2
AM_ANSI$4
 70
     0
  3

  4
mm
  5

  6

  7

 40
1.0
 41
0.12
 42
0.05
 43
0.5
 44
0.1
 45
0.0
 46
0.0
 47
0.1
 48
0.1
140
0.12
141
0.0
142
0.0
143
25.4
144
1.0
145
0.0
146
0.71
147
0.06
 71
     0
 72
     0
 73
     1
 74
     1
 75
     0
 76
     0
 77
     0
 78
     7
170
     0
171
     2
172
     0
173
     0
174
     0
175
     0
176
   256
177
   256
178
     2
  0
DIMSTYLE
  2
AM_ANSI$7
 70
     0
  3

  4
mm
  5

  6

  7

 40
1.0
 41
0.12
 42
0.05
 43
0.5
 44
0.1
 45
0.0
 46
0.0
 47
0.1
 48
0.1
140
0.12
141
0.0
142
0.0
143
25.4
144
1.0
145
0.0
146
0.71
147
0.06
 71
     0
 72
     0
 73
     1
 74
     1
 75
     0
 76
     0
 77
     0
 78
     7
170
     0
171
     2
172
     0
173
     0
174
     0
175
     0
176
   256
177
   256
178
     2
  0
DIMSTYLE
  2
AM_ANSI$SF
 70
     0
  3

  4
mm
  5

  6

  7

 40
1.0
 41
0.12
 42
0.05
 43
0.5
 44
0.1
 45
0.0
 46
0.0
 47
0.1
 48
0.1
140
0.12
141
0.0
142
0.0
143
25.4
144
1.0
145
0.0
146
0.71
147
0.06
 71
     0
 72
     0
 73
     1
 74
     1
 75
     1
 76
     1
 77
     0
 78
     7
170
     0
171
     2
172
     0
173
     0
174
     0
175
     0
176
   256
177
   256
178
     2
  0
DIMSTYLE
  2
AM_ANSI$SH
 70
     0
  3

  4
mm
  5

  6
GENAXEH
  7

 40
1.0
 41
0.12
 42
0.05
 43
0.5
 44
0.1
 45
0.0
 46
0.0
 47
0.1
 48
0.1
140
0.12
141
0.0
142
0.0
143
25.4
144
1.0
145
0.0
146
0.71
147
0.06
 71
     0
 72
     0
 73
     1
 74
     1
 75
     1
 76
     1
 77
     0
 78
     7
170
     0
171
     2
172
     0
173
     1
174
     0
175
     0
176
   256
177
   256
178
     2
  0
ENDTAB
  0
ENDSEC
  0
SECTION
  2
BLOCKS
  0
BLOCK
  8
0
  2
$MODEL_SPACE
 70
     0
 10
0.0
 20
0.0
 30
0.0
  3
$MODEL_SPACE
  1

  0
ENDBLK
  5
1C
  8
0
  0
BLOCK
 67
     1
  8
0
  2
$PAPER_SPACE
 70
     0
 10
0.0
 20
0.0
 30
0.0
  3
$PAPER_SPACE
  1

  0
ENDBLK
  5
19
 67
     1
  8
0
  0
BLOCK
  8
0
  2
_OPEN30
 70
     0
 10
0.0
 20
0.0
 30
0.0
  3
_OPEN30
  1

  0
LINE
  5
2EF
  8
0
  6
BYBLOCK
 62
     0
 10
-1.0
 20
0.26794919
 30
0.0
 11
0.0
 21
0.0
 31
0.0
  0
LINE
  5
2F0
  8
0
  6
BYBLOCK
 62
     0
 10
0.0
 20
0.0
 30
0.0
 11
-1.0
 21
-0.26794919
 31
0.0
  0
LINE
  5
2F1
  8
0
  6
BYBLOCK
 62
     0
 10
0.0
 20
0.0
 30
0.0
 11
-1.0
 21
0.0
 31
0.0
  0
ENDBLK
  5
2F3
  8
0
  0
BLOCK
  8
0
  2
GENAXEH
 70
     0
 10
0.0
 20
0.0
 30
0.0
  3
GENAXEH
  1

  0
LINE
  5
2F5
  8
0
 10
-1.0
 20
0.0
 30
0.0
 11
1.0
 21
0.0
 31
0.0
  0
ENDBLK
  5
2F7
  8
0
  0
BLOCK
  8
0
  2
_OPEN
 70
     0
 10
0.0
 20
0.0
 30
0.0
  3
_OPEN
  1

  0
LINE
  5
597
  8
0
  6
BYBLOCK
 62
     0
 10
-1.0
 20
0.1666666666666667
 30
0.0
 11
0.0
 21
0.0
 31
0.0
  0
LINE
  5
598
  8
0
  6
BYBLOCK
 62
     0
 10
-1.0
 20
-0.1666666666666667
 30
0.0
 11
0.0
 21
0.0
 31
0.0
  0
LINE
  5
599
  8
0
  6
BYBLOCK
 62
     0
 10
0.0
 20
0.0
 30
0.0
 11
-1.0
 21
0.0
 31
0.0
  0
ENDBLK
  5
59B
  8
0
  0
BLOCK
  8
0
  2
_TAGCIRCLE
 70
     2
 10
0.0
 20
0.0
 30
0.0
  3
_TAGCIRCLE
  1

  0
CIRCLE
  5
1151
  8
0
  6
BYBLOCK
 62
     0
 10
0.0
 20
0.0
 30
0.0
 40
4.0
  0
ATTDEF
  5
1152
  8
0
 62
     0
 10
-7.1
 20
-1.5
 30
0.0
 40
3.0
  1
タグ番号
 72
     1
 11
0.0
 21
-1.5
 31
0.0
  3
タグ番号を入力
  2
タグ番号
 70
     0
  0
ENDBLK
  5
1154
  8
0
  0
BLOCK
  8
0
  2
_ACMFILLED15
 70
     0
 10
0.0
 20
0.0
 30
0.0
  3
_ACMFILLED15
  1
Acad:XRef
  0
TRACE
  5
77F6
  8
AM_0
 62
     0
 10
-1.0
 20
0.1316524975873958
 30
0.0
 11
-1.0
 21
-0.1316524975873958
 31
0.0
 12
0.0
 22
0.0
 32
0.0
 13
0.0
 23
0.0
 33
0.0
  0
ENDBLK
  5
77F4
  8
0
  0
BLOCK
  8
0
  2
_ACMOPEN30
 70
     0
 10
0.0
 20
0.0
 30
0.0
  3
_ACMOPEN30
  1
Acad:XRef
  0
LINE
  5
7800
  8
AM_0
 62
     0
 10
-1.0
 20
0.0
 30
0.0
 11
0.0
 21
0.0
 31
0.0
  0
LINE
  5
7801
  8
AM_0
 62
     0
 10
-1.0
 20
-0.2679491924311227
 30
0.0
 11
0.0
 21
0.0
 31
0.0
  0
LINE
  5
7802
  8
AM_0
 62
     0
 10
-1.0
 20
0.2679491924311227
 30
0.0
 11
0.0
 21
0.0
 31
0.0
  0
ENDBLK
  5
77FF
  8
0
  0
BLOCK
  8
0
  2
_ACMFILLEDHALF
 70
     0
 10
0.0
 20
0.0
 30
0.0
  3
_ACMFILLEDHALF
  1

  0
TRACE
  5
780B
  8
0
 62
     0
 10
-0.8
 20
0.0
 30
0.0
 11
-1.0
 21
0.166666666
 31
0.0
 12
0.0
 22
0.0
 32
0.0
 13
0.0
 23
0.0
 33
0.0
  0
LINE
  5
780C
  8
0
 62
     0
 10
-1.0
 20
0.0
 30
0.0
 11
-0.8
 21
0.0
 31
0.0
  0
ENDBLK
  5
780D
  8
0
  0
BLOCK
  8
0
  2
_ACMOPEN15
 70
     0
 10
0.0
 20
0.0
 30
0.0
  3
_ACMOPEN15
  1
Acad:XRef
  0
LINE
  5
781A
  8
AM_0
 62
     0
 10
-1.0
 20
0.0
 30
0.0
 11
0.0
 21
0.0
 31
0.0
  0
LINE
  5
781B
  8
AM_0
 62
     0
 10
-1.0
 20
-0.1316524975873958
 30
0.0
 11
0.0
 21
0.0
 31
0.0
  0
LINE
  5
781C
  8
AM_0
 62
     0
 10
-1.0
 20
0.1316524975873958
 30
0.0
 11
0.0
 21
0.0
 31
0.0
  0
ENDBLK
  5
7819
  8
0
  0
BLOCK
  8
0
  2
*X9
 70
     1
 10
0.0
 20
0.0
 30
0.0
  3
*X9
  1
Acad:XRef
  0
TEXT
  5
B917
  8
0
 10
69.35713162405004
 20
206.638447727807
 30
0.0
 40
1.9
  1
凍結
  0
TEXT
  5
B918
  8
0
 10
69.3430314385213
 20
203.3143289894026
 30
0.0
 40
1.9
  1
予防
  0
ENDBLK
  5
B91A
  8
0
  0
ENDSEC
  0
SECTION
  2
ENTITIES
  0
TEXT
  5
17AD
  8
10
 10
-1.499993509006345
 20
0.0000066982815952
 30
0.0
 40
10.0
  1
2024.02.01 ER2000AU 1台単独AU 露出型
 11
-1.499993509006345
 21
0.0000066982815952
 31
0.0
 73
     1
  0
LINE
  5
45F8
  8
0
 10
25.52186071078961
 20
289.8911378947829
 30
0.0
 11
125.5218607107896
 21
289.8911378947827
 31
0.0
  0
LINE
  5
45F9
  8
0
 10
25.52186071078961
 20
169.8911378947828
 30
0.0
 11
125.5218607107896
 21
169.8911378947828
 31
0.0
  0
ARC
  5
45FA
  8
0
 10
25.52186071078961
 20
281.8911378947829
 30
0.0
 40
8.0
 50
90.0
 51
180.0
  0
LINE
  5
45FB
  8
0
 10
21.27922002367029
 20
286.133778581902
 30
0.0
 11
29.52186071078961
 21
277.8911378947829
 31
0.0
  0
LINE
  5
45FC
  8
0
 10
31.52186071078961
 20
181.8911378947827
 30
0.0
 11
119.5218607107896
 21
181.891137894783
 31
0.0
  0
LINE
  5
45FD
  8
0
 10
31.52186071078961
 20
277.8911378947829
 30
0.0
 11
119.5218607107896
 21
277.8911378947828
 31
0.0
  0
LINE
  5
4600
  8
0
 10
29.52186071078961
 20
275.8911378947829
 30
0.0
 11
29.52186071078961
 21
183.8911378947828
 31
0.0
  0
LINE
  5
4602
  8
0
 10
17.52186071078961
 20
281.8911378947829
 30
0.0
 11
17.52186071078961
 21
177.8911378947828
 31
0.0
  0
LINE
  5
4603
  8
0
 10
21.27922002367052
 20
173.6484972076635
 30
0.0
 11
29.52186071078961
 21
181.8911378947828
 31
0.0
  0
ARC
  5
4604
  8
0
 10
25.52186071078961
 20
177.8911378947828
 30
0.0
 40
8.0
 50
180.0
 51
270.0
  0
ARC
  5
4608
  8
0
 10
125.5218607107896
 20
281.8911378947827
 30
0.0
 40
8.0
 50
0.0
 51
90.0
  0
LINE
  5
4609
  8
0
 10
129.7645013979089
 20
286.133778581902
 30
0.0
 11
121.5218607107896
 21
277.8911378947827
 31
0.0
  0
LINE
  5
460B
  8
0
 10
121.5218607107896
 20
275.8911378947828
 30
0.0
 11
121.5218607107896
 21
183.891137894783
 31
0.0
  0
LINE
  5
460C
  8
0
 10
133.5218607107896
 20
281.8911378947827
 30
0.0
 11
133.5218607107896
 21
177.8911378947828
 31
0.0
  0
LINE
  5
460D
  8
0
 10
121.5218607107896
 20
181.8911378947829
 30
0.0
 11
129.7645013979089
 21
173.6484972076634
 31
0.0
  0
ARC
  5
460E
  8
0
 10
125.5218607107896
 20
177.8911378947828
 30
0.0
 40
8.0
 50
270.0
 51
0.0
  0
LINE
  5
704F
  8
0
 10
25.52186071078961
 20
290.5544378947828
 30
0.0
 11
125.5218607107896
 21
290.5544378947826
 31
0.0
  0
ARC
  5
7050
  8
0
 10
25.52186071078961
 20
281.8911378947828
 30
0.0
 40
8.6633
 50
90.0
 51
180.0
  0
LINE
  5
7051
  8
0
 10
16.85856071078967
 20
281.8911378947828
 30
0.0
 11
16.85856071078967
 21
177.8911378947828
 31
0.0
  0
ARC
  5
7052
  8
0
 10
25.52186071078961
 20
177.8911378947828
 30
0.0
 40
8.6633
 50
180.0
 51
270.0
  0
LINE
  5
7053
  8
0
 10
25.52186071078961
 20
169.2278378947828
 30
0.0
 11
125.5218607107896
 21
169.2278378947828
 31
0.0
  0
ARC
  5
7054
  8
0
 10
125.5218607107896
 20
177.8911378947828
 30
0.0
 40
8.6633
 50
270.0
 51
0.0
  0
LINE
  5
7055
  8
0
 10
134.1851607107895
 20
281.8911378947826
 30
0.0
 11
134.1851607107895
 21
177.8911378947828
 31
0.0
  0
ARC
  5
7056
  8
0
 10
125.5218607107896
 20
281.8911378947826
 30
0.0
 40
8.6633
 50
0.0
 51
90.0
  0
LINE
  5
74A3
  8
0
 10
178.977628466876
 20
280.4759233190128
 30
0.0
 11
180.2735145211566
 21
287.8252583389502
 31
0.0
  0
LINE
  5
74A4
  8
0
 10
184.0218610572422
 20
169.8911378947831
 30
0.0
 11
184.0218610572422
 21
289.8911378947831
 31
0.0
  0
LINE
  5
74A7
  8
0
 10
178.5218610572422
 20
184.5157978005607
 30
0.0
 11
178.5218610572422
 21
275.266477989005
 31
0.0
  0
LINE
  5
74AC
  8
0
 10
178.977628466876
 20
179.3063524705528
 30
0.0
 11
180.2735145211565
 21
171.9570174506159
 31
0.0
  0
ARC
  5
74AD
  8
0
 10
182.735533903687
 20
172.3911378947832
 30
0.0
 40
2.5
 50
190.0000000000002
 51
270.0
  0
LINE
  5
74AE
  8
0
 10
184.0218610572422
 20
169.8911378947832
 30
0.0
 11
182.7355339036869
 21
169.8911378947832
 31
0.0
  0
ARC
  5
74AF
  8
0
 10
208.5218610572422
 20
184.5157978005607
 30
0.0
 40
30.0
 50
180.0
 51
190.0000000000002
  0
ARC
  5
74B0
  8
0
 10
208.5218610572422
 20
275.266477989005
 30
0.0
 40
30.0
 50
169.9999999999998
 51
180.0
  0
ARC
  5
74B1
  8
0
 10
182.7355339036872
 20
287.3911378947829
 30
0.0
 40
2.5
 50
90.0
 51
169.9999999999998
  0
LINE
  5
74B2
  8
0
 10
184.0218610572356
 20
289.8911378947831
 30
0.0
 11
182.7355339036803
 21
289.8911378947831
 31
0.0
  0
ARC
  5
74B3
  8
0
 10
175.8218610572417
 20
259.6911378947831
 30
0.0
 40
1.0
 50
90.0
 51
180.0
  0
LINE
  5
74B4
  8
0
 10
175.8218610572417
 20
260.6911378947831
 30
0.0
 11
178.5218610572417
 21
260.6911378947831
 31
0.0
  0
LINE
  5
74B5
  8
0
 10
175.8218610572417
 20
253.6911378947831
 30
0.0
 11
178.5218610572417
 21
253.6911378947831
 31
0.0
  0
LINE
  5
74B6
  8
0
 10
174.8218610572417
 20
259.6911378947831
 30
0.0
 11
174.8218610572417
 21
254.6911378947831
 31
0.0
  0
ARC
  5
74B7
  8
0
 10
175.8218610572417
 20
254.6911378947831
 30
0.0
 40
1.0
 50
180.0
 51
270.0
  0
LINE
  5
74D6
  8
0
 10
125.5218614558478
 20
144.5475070587736
 30
0.0
 11
25.52185996573166
 21
144.5475070587736
 31
0.0
  0
LINE
  5
74D7
  8
0
 10
125.5218614558478
 20
140.5475072180298
 30
0.0
 11
25.52185996573166
 21
140.5475072180298
 31
0.0
  0
LINE
  5
74D8
  8
0
 10
17.52186237971978
 20
140.5475072180298
 30
0.0
 11
17.52186237971978
 21
144.5475070587736
 31
0.0
  0
LINE
  5
74D9
  8
0
 10
25.52185996573166
 20
144.5475070587736
 30
0.0
 11
17.52186237971978
 21
144.5475070587736
 31
0.0
  0
LINE
  5
74DA
  8
0
 10
25.52185996573166
 20
140.5475072180298
 30
0.0
 11
17.52186237971978
 21
140.5475072180298
 31
0.0
  0
LINE
  5
74DB
  8
0
 10
133.5218590418597
 20
140.5475072180298
 30
0.0
 11
133.5218590418597
 21
144.5475070587736
 31
0.0
  0
LINE
  5
74DC
  8
0
 10
133.5218590418597
 20
144.5475070587736
 30
0.0
 11
125.5218614558478
 21
144.5475070587736
 31
0.0
  0
LINE
  5
74DD
  8
0
 10
133.5218590418597
 20
140.5475072180298
 30
0.0
 11
125.5218614558478
 21
140.5475072180298
 31
0.0
  0
LINE
  5
74DE
  8
0
 10
18.62186237375931
 20
144.5475070587736
 30
0.0
 11
18.62186237375931
 21
145.0475070587707
 31
0.0
  0
LINE
  5
74DF
  8
0
 10
132.4218590478201
 20
144.5475070587736
 30
0.0
 11
132.4218590478201
 21
145.0475070587707
 31
0.0
  0
LINE
  5
74E0
  8
0
 10
39.02186124723153
 20
150.5475069945124
 30
0.0
 11
112.0218601743479
 21
150.5475069945124
 31
0.0
  0
LINE
  5
74E1
  8
0
 10
52.9666909089342
 20
153.7471397298766
 30
0.0
 11
51.96669090893442
 21
153.7471397298766
 31
0.0
  0
LINE
  5
74E2
  8
0
 10
53.96669090893442
 20
154.2471397298766
 30
0.0
 11
52.96669090893442
 21
154.2471397298766
 31
0.0
  0
LINE
  5
74E3
  8
0
 10
51.96669090893442
 20
154.2471397298766
 30
0.0
 11
50.96669090893442
 21
154.2471397298766
 31
0.0
  0
LINE
  5
74E4
  8
0
 10
51.96669090893442
 20
154.2471397298766
 30
0.0
 11
51.96669090893442
 21
153.7471397298766
 31
0.0
  0
LINE
  5
74E5
  8
0
 10
54.96669090893442
 20
154.2471397298766
 30
0.0
 11
54.96669090893442
 21
153.7471397298766
 31
0.0
  0
LINE
  5
74E6
  8
0
 10
52.96669090893442
 20
154.2471397298766
 30
0.0
 11
52.9666909089342
 21
153.7471397298766
 31
0.0
  0
LINE
  5
74E7
  8
0
 10
53.96669090893442
 20
154.2471397298766
 30
0.0
 11
53.96669090893442
 21
153.7471397298766
 31
0.0
  0
LINE
  5
74E8
  8
0
 10
54.96669090893442
 20
153.7471397298766
 30
0.0
 11
53.96669090893442
 21
153.7471397298766
 31
0.0
  0
LINE
  5
74E9
  8
0
 10
56.96669090893442
 20
150.5475069945124
 30
0.0
 11
56.9666909089342
 21
153.2471397298766
 31
0.0
  0
ARC
  5
74EA
  8
0
 10
55.9666909089342
 20
153.2471397298766
 30
0.0
 40
1.0
 50
0.0
 51
90.0
  0
LINE
  5
74EB
  8
0
 10
55.9666909089342
 20
154.2471397298766
 30
0.0
 11
54.96669090893442
 21
154.2471397298766
 31
0.0
  0
LINE
  5
74EC
  8
0
 10
49.96669090893442
 20
150.5475069945124
 30
0.0
 11
49.96669090893442
 21
153.2471397298766
 31
0.0
  0
ARC
  5
74ED
  8
0
 10
50.96669090893442
 20
153.2471397298766
 30
0.0
 40
1.0
 50
90.0
 51
180.0
  0
LINE
  5
74EE
  8
0
 10
133.5218607107895
 20
145.0475070587707
 30
0.0
 11
17.52186071078927
 21
145.0475070587707
 31
0.0
  0
ARC
  5
74EF
  8
0
 10
118.8972008050121
 20
120.5475070587707
 30
0.0
 40
30.0
 50
80.00000000000139
 51
90.0
  0
LINE
  5
74F0
  8
0
 10
118.8972008050121
 20
150.5475070587707
 30
0.0
 11
32.14652061656739
 21
150.5475070587707
 31
0.0
  0
ARC
  5
74F1
  8
0
 10
131.0218607107895
 20
146.3338342123259
 30
0.0
 40
2.5
 50
0.0
 51
80.00000000000139
  0
LINE
  5
74F2
  8
0
 10
133.5218607107895
 20
145.0475070587707
 30
0.0
 11
133.5218607107895
 21
146.3338342123259
 31
0.0
  0
LINE
  5
74F3
  8
0
 10
124.1066461350199
 20
150.091739649137
 30
0.0
 11
131.4559811549568
 21
148.7958535948565
 31
0.0
  0
ARC
  5
74F4
  8
0
 10
32.14652061656739
 20
120.5475070587707
 30
0.0
 40
30.0
 50
90.0
 51
99.99999999999861
  0
ARC
  5
74F5
  8
0
 10
20.0218607107895
 20
146.3338342123259
 30
0.0
 40
2.5
 50
99.99999999999861
 51
180.0
  0
LINE
  5
74F6
  8
0
 10
26.93707528655955
 20
150.091739649137
 30
0.0
 11
19.58774026662218
 21
148.7958535948564
 31
0.0
  0
LINE
  5
74F7
  8
0
 10
17.52186071078927
 20
145.0475070587773
 30
0.0
 11
17.52186071078927
 21
146.3338342123325
 31
0.0
  0
LINE
  5
74F8
  8
0
 10
188.5218608337243
 20
290.0161358756766
 30
0.0
 11
184.5218609929805
 21
290.0161358756766
 31
0.0
  0
LINE
  5
74F9
  8
0
 10
184.5218609929805
 20
290.0161358756766
 30
0.0
 11
184.5218609929805
 21
282.0161382896648
 31
0.0
  0
LINE
  5
74FA
  8
0
 10
188.5218608337243
 20
290.0161358756766
 30
0.0
 11
188.5218608337243
 21
282.0161382896648
 31
0.0
  0
LINE
  5
74FB
  8
0
 10
184.5218609929805
 20
282.0161382896648
 30
0.0
 11
184.5218609929805
 21
178.0161361438975
 31
0.0
  0
LINE
  5
74FC
  8
0
 10
188.5218608337243
 20
282.0161382896648
 30
0.0
 11
188.5218608337243
 21
178.0161361438975
 31
0.0
  0
LINE
  5
74FD
  8
0
 10
188.5218608337243
 20
170.0161385578857
 30
0.0
 11
184.5218609929805
 21
170.0161385578857
 31
0.0
  0
LINE
  5
74FE
  8
0
 10
184.5218609929805
 20
178.0161361438975
 30
0.0
 11
184.5218609929805
 21
170.0161385578857
 31
0.0
  0
LINE
  5
74FF
  8
0
 10
188.5218608337243
 20
178.0161361438975
 30
0.0
 11
188.5218608337243
 21
170.0161385578857
 31
0.0
  0
LINE
  5
7500
  8
0
 10
184.5218609929805
 20
171.1161385519252
 30
0.0
 11
184.0218610572422
 21
171.1161385519252
 31
0.0
  0
LINE
  5
7501
  8
0
 10
184.5218609929805
 20
288.9161358816371
 30
0.0
 11
184.0218610572422
 21
288.9161358816371
 31
0.0
  0
LINE
  5
753B
  8
0
 10
188.5218608337243
 20
290.016137216781
 30
0.0
 11
188.5218608337243
 21
170.0161372167812
 31
0.0
  0
LINE
  5
753C
  8
0
 10
226.5218608337245
 20
290.6794296840534
 30
0.0
 11
226.5218608337242
 21
169.3528447495089
 31
0.0
  0
LINE
  5
753D
  8
0
 10
188.5218608337243
 20
170.0161372167812
 30
0.0
 11
226.5218608337242
 21
169.3528447495089
 31
0.0
  0
LINE
  5
753E
  8
0
 10
188.5218608337243
 20
290.016137216781
 30
0.0
 11
226.5218608337245
 21
290.6794296840534
 31
0.0
  0
LINE
  5
7547
  8
0
 10
133.52186071079
 20
140.5475072180298
 30
0.0
 11
134.1851531780619
 21
102.5475072180298
 31
0.0
  0
LINE
  5
7548
  8
0
 10
17.52186071078972
 20
140.5475072180298
 30
0.0
 11
16.85856824351731
 21
102.5475072180299
 31
0.0
  0
ARC
  5
7549
  8
0
 10
70.0218607107895
 20
106.5475072180298
 30
0.0
 40
4.0
 50
0.0
 51
90.0
  0
ARC
  5
754A
  8
0
 10
70.0218607107895
 20
106.5475072180298
 30
0.0
 40
3.0
 50
0.0
 51
180.0
  0
LINE
  5
754B
  8
0
 10
16.85856824351731
 20
102.5475072180299
 30
0.0
 11
134.1851531780619
 21
102.5475072180298
 31
0.0
  0
LINE
  5
754C
  8
0
 10
66.0218607107895
 20
102.5475072180298
 30
0.0
 11
66.0218607107895
 21
106.5475072180298
 31
0.0
  0
LINE
  5
754D
  8
0
 10
67.0218607107895
 20
102.5475072180298
 30
0.0
 11
67.0218607107895
 21
106.5475072180298
 31
0.0
  0
LINE
  5
754E
  8
0
 10
55.5218607107895
 20
102.5475072180298
 30
0.0
 11
55.5218607107895
 21
106.5475072180298
 31
0.0
  0
LINE
  5
754F
  8
0
 10
56.5218607107895
 20
102.5475072180298
 30
0.0
 11
56.5218607107895
 21
106.5475072180298
 31
0.0
  0
LINE
  5
7550
  8
0
 10
63.5218607107895
 20
106.5475072180298
 30
0.0
 11
63.5218607107895
 21
102.5475072180298
 31
0.0
  0
LINE
  5
7551
  8
0
 10
62.5218607107895
 20
106.5475072180298
 30
0.0
 11
62.5218607107895
 21
102.5475072180298
 31
0.0
  0
ARC
  5
7552
  8
0
 10
59.5218607107895
 20
106.5475072180298
 30
0.0
 40
4.0
 50
0.0
 51
48.59037789073133
  0
ARC
  5
7553
  8
0
 10
59.5218607107895
 20
106.5475072180298
 30
0.0
 40
3.0
 50
0.0
 51
180.0
  0
LINE
  5
7554
  8
0
 10
62.16761202185421
 20
109.5475072180298
 30
0.0
 11
67.37610939972501
 21
109.5475072180298
 31
0.0
  0
ARC
  5
7555
  8
0
 10
70.0218607107895
 20
106.5475072180298
 30
0.0
 40
4.0
 50
131.4096221092687
 51
180.0
  0
ARC
  5
7556
  8
0
 10
59.5218607107895
 20
106.5475072180298
 30
0.0
 40
4.0
 50
90.0
 51
180.0
  0
LINE
  5
7557
  8
0
 10
59.5218607107895
 20
110.5475072180298
 30
0.0
 11
70.0218607107895
 21
110.5475072180298
 31
0.0
  0
LINE
  5
7558
  8
0
 10
94.5218607107895
 20
106.5475072180298
 30
0.0
 11
94.5218607107895
 21
102.5475072180298
 31
0.0
  0
LINE
  5
7559
  8
0
 10
95.5218607107895
 20
106.5475072180298
 30
0.0
 11
95.5218607107895
 21
102.5475072180298
 31
0.0
  0
LINE
  5
755A
  8
0
 10
88.5218607107895
 20
102.5475072180298
 30
0.0
 11
88.5218607107895
 21
106.5475072180298
 31
0.0
  0
LINE
  5
755B
  8
0
 10
87.5218607107895
 20
102.5475072180298
 30
0.0
 11
87.5218607107895
 21
106.5475072180298
 31
0.0
  0
LINE
  5
755C
  8
0
 10
74.0218607107895
 20
106.5475072180298
 30
0.0
 11
74.0218607107895
 21
102.5475072180298
 31
0.0
  0
LINE
  5
755D
  8
0
 10
73.0218607107895
 20
106.5475072180298
 30
0.0
 11
73.0218607107895
 21
102.5475072180298
 31
0.0
  0
LINE
  5
755E
  8
0
 10
77.0218607107895
 20
102.5475072180298
 30
0.0
 11
77.0218607107895
 21
106.5475072180298
 31
0.0
  0
LINE
  5
755F
  8
0
 10
78.0218607107895
 20
102.5475072180298
 30
0.0
 11
78.0218607107895
 21
106.5475072180298
 31
0.0
  0
LINE
  5
7560
  8
0
 10
85.0218607107895
 20
106.5475072180298
 30
0.0
 11
85.0218607107895
 21
102.5475072180298
 31
0.0
  0
LINE
  5
7561
  8
0
 10
84.0218607107895
 20
106.5475072180298
 30
0.0
 11
84.0218607107895
 21
102.5475072180298
 31
0.0
  0
LINE
  5
7562
  8
0
 10
81.0218607107895
 20
110.5475072180298
 30
0.0
 11
91.5218607107895
 21
110.5475072180298
 31
0.0
  0
ARC
  5
7563
  8
0
 10
91.5218607107895
 20
106.5475072180298
 30
0.0
 40
4.0
 50
131.4096221092687
 51
180.0
  0
LINE
  5
7564
  8
0
 10
83.66761202185398
 20
109.5475072180298
 30
0.0
 11
88.87610939972501
 21
109.5475072180298
 31
0.0
  0
ARC
  5
7565
  8
0
 10
81.0218607107895
 20
106.5475072180298
 30
0.0
 40
4.0
 50
0.0
 51
48.59037789073133
  0
ARC
  5
7566
  8
0
 10
81.0218607107895
 20
106.5475072180298
 30
0.0
 40
3.0
 50
0.0
 51
180.0
  0
ARC
  5
7567
  8
0
 10
81.0218607107895
 20
106.5475072180298
 30
0.0
 40
4.0
 50
90.0
 51
180.0
  0
ARC
  5
7568
  8
0
 10
91.5218607107895
 20
106.5475072180298
 30
0.0
 40
3.0
 50
0.0
 51
180.0
  0
ARC
  5
7569
  8
0
 10
91.5218607107895
 20
106.5475072180298
 30
0.0
 40
4.0
 50
0.0
 51
90.0
  0
LINE
  5
756A
  8
0
 10
17.52186071078972
 20
140.5475072180298
 30
0.0
 11
133.52186071079
 21
140.5475072180298
 31
0.0
  0
LINE
  5
75EE
  8
7
 10
12.72786071078963
 20
229.8911378947829
 30
0.0
 11
138.3158607107896
 21
229.8911378947827
 31
0.0
1001
GENIUS_GENOBJ-N-CEN_13
1002
{
1000
OWNER
1000
GEN
1002
}
1001
GENIUS_GENODEF_13
1002
{
1000
HIER
1070
     0
1002
}
1002
{
1000
MANEDIT
1070
     0
1002
}
1002
{
1000
NOSEL
1070
     0
1002
}
1002
{
1000
BEHIND
1070
     0
1002
}
1002
{
1000
OTHER
1070
     0
1002
}
1002
{
1000
REACTOR
1002
}
1001
GENIUS_GENCEN_19
1002
{
1040
2.794
1002
}
  0
LINE
  5
75EF
  8
7
 10
75.52186071078972
 20
294.685137894783
 30
0.0
 11
75.52186071078972
 21
165.0971378947828
 31
0.0
1001
GENIUS_GENOBJ-N-CEN_13
1002
{
1000
OWNER
1000
GEN
1002
}
1001
GENIUS_GENODEF_13
1002
{
1000
HIER
1070
     0
1002
}
1002
{
1000
MANEDIT
1070
     0
1002
}
1002
{
1000
NOSEL
1070
     0
1002
}
1002
{
1000
BEHIND
1070
     0
1002
}
1002
{
1000
OTHER
1070
     0
1002
}
1002
{
1000
REACTOR
1002
}
1001
GENIUS_GENCEN_19
1002
{
1040
2.794
1002
}
  0
LINE
  5
75F0
  8
AM_7
 10
75.52186071078972
 20
153.3415070587708
 30
0.0
 11
75.52186071078972
 21
99.75350721802984
 31
0.0
1001
GENIUS_GENOBJ-N-CEN_13
1002
{
1000
OWNER
1000
GEN
1002
}
1001
GENIUS_GENODEF_13
1002
{
1000
HIER
1070
     0
1002
}
1002
{
1000
MANEDIT
1070
     0
1002
}
1002
{
1000
NOSEL
1070
     0
1002
}
1002
{
1000
BEHIND
1070
     0
1002
}
1002
{
1000
OTHER
1070
     0
1002
}
1002
{
1000
REACTOR
1002
}
1001
GENIUS_GENCEN_19
1002
{
1040
2.794
1002
}
  0
LINE
  5
75F1
  8
AM_7
 10
175.7278610572422
 20
229.8911378947825
 30
0.0
 11
229.3158608337244
 21
229.8911378947824
 31
0.0
1001
GENIUS_GENODEF_13
1002
{
1000
HIER
1070
     0
1002
}
1002
{
1000
MANEDIT
1070
     0
1002
}
1002
{
1000
NOSEL
1070
     0
1002
}
1002
{
1000
BEHIND
1070
     0
1002
}
1002
{
1000
OTHER
1070
     0
1002
}
1002
{
1000
REACTOR
1002
}
1001
GENIUS_GENOBJ-N-CEN_13
1002
{
1000
OWNER
1000
GEN
1002
}
1001
GENIUS_GENCEN_19
1002
{
1040
2.794
1002
}
  0
LINE
  5
A06A
  8
0
 10
38.27186071078967
 20
264.9911378947828
 30
0.0
 11
112.7718607107897
 21
264.9911378947828
 31
0.0
  0
LINE
  5
A06B
  8
0
 10
38.27186071078967
 20
194.7911378947828
 30
0.0
 11
112.7718607107897
 21
194.7911378947828
 31
0.0
  0
LINE
  5
A06C
  8
0
 10
38.27186071078967
 20
264.9911378947828
 30
0.0
 11
38.27186071078967
 21
194.7911378947828
 31
0.0
  0
LINE
  5
A06D
  8
0
 10
112.7718607107897
 20
264.9911378947828
 30
0.0
 11
112.7718607107897
 21
194.7911378947828
 31
0.0
  0
LINE
  5
A06E
  8
0
 10
112.0218601743479
 20
195.3911387590502
 30
0.0
 11
112.0218601743479
 21
264.3911370305154
 31
0.0
  0
LINE
  5
A06F
  8
0
 10
39.02186124723147
 20
195.3911387590502
 30
0.0
 11
112.0218601743479
 21
195.3911387590502
 31
0.0
  0
LINE
  5
A070
  8
0
 10
39.02186124723147
 20
264.3911370305154
 30
0.0
 11
39.02186124723147
 21
195.3911387590502
 31
0.0
  0
LINE
  5
A071
  8
0
 10
112.0218601743479
 20
264.3911370305154
 30
0.0
 11
39.02186124723147
 21
264.3911370305154
 31
0.0
  0
LINE
  5
A072
  8
0
 10
40.52186056177806
 20
196.8911380735967
 30
0.0
 11
110.5218608598013
 21
196.8911380735967
 31
0.0
  0
LINE
  5
A073
  8
0
 10
110.5218608598013
 20
196.8911380735967
 30
0.0
 11
110.5218608598013
 21
262.8911377159689
 31
0.0
  0
LINE
  5
A074
  8
0
 10
110.5218608598013
 20
262.8911377159689
 30
0.0
 11
65.52186093430709
 21
262.8911377159689
 31
0.0
  0
LINE
  5
A075
  8
0
 10
40.52186056177806
 20
250.8911376116607
 30
0.0
 11
65.52186093430709
 21
250.8911376116607
 31
0.0
  0
LINE
  5
A076
  8
0
 10
40.52186056177806
 20
250.8911376116607
 30
0.0
 11
40.52186056177806
 21
196.8911380735967
 31
0.0
  0
LINE
  5
A077
  8
0
 10
47.32186018626879
 20
253.1911374298666
 30
0.0
 11
57.32185996275138
 21
253.1911374298666
 31
0.0
  0
LINE
  5
A078
  8
0
 10
57.32185996275138
 20
253.1911374298666
 30
0.0
 11
57.32185996275138
 21
261.1911387411687
 31
0.0
  0
LINE
  5
A079
  8
0
 10
57.32185996275138
 20
261.1911387411687
 30
0.0
 11
47.32186018626879
 21
261.1911387411687
 31
0.0
  0
LINE
  5
A07A
  8
0
 10
47.32186018626879
 20
261.1911387411687
 30
0.0
 11
47.32186018626879
 21
253.1911374298666
 31
0.0
  0
LINE
  5
A07B
  8
0
 10
65.52186093430709
 20
250.8911376116607
 30
0.0
 11
65.52186093430709
 21
262.8911377159689
 31
0.0
  0
LINE
  5
A07C
  8
0
 10
112.5218611876268
 20
194.8911377457712
 30
0.0
 11
112.5218611876268
 21
264.8911380437944
 31
0.0
  0
LINE
  5
A07D
  8
0
 10
38.52186023395251
 20
194.8911377457712
 30
0.0
 11
112.5218611876268
 21
194.8911377457712
 31
0.0
  0
LINE
  5
A07E
  8
0
 10
38.52186023395251
 20
264.8911380437944
 30
0.0
 11
38.52186023395251
 21
194.8911377457712
 31
0.0
  0
LINE
  5
A07F
  8
0
 10
112.5218611876268
 20
264.8911380437944
 30
0.0
 11
38.52186023395251
 21
264.8911380437944
 31
0.0
  0
ARC
  5
A080
  8
0
 10
48.72186007451006
 20
259.6911374298666
 30
0.0
 40
1.0
 50
90.0
 51
180.0
  0
ARC
  5
A081
  8
0
 10
53.72186007451006
 20
259.6911374298666
 30
0.0
 40
1.0
 50
0.0
 51
90.0
  0
LINE
  5
A082
  8
0
 10
48.72186007451006
 20
260.6911374298666
 30
0.0
 11
53.72186007451006
 21
260.6911374298666
 31
0.0
  0
LINE
  5
A083
  8
0
 10
53.72186007451006
 20
253.6911374298667
 30
0.0
 11
48.72186007451006
 21
253.6911374298666
 31
0.0
  0
ARC
  5
A084
  8
0
 10
48.72186007451006
 20
254.6911374298666
 30
0.0
 40
1.0
 50
180.0
 51
270.0000000000016
  0
ARC
  5
A085
  8
0
 10
53.72186007451006
 20
254.6911374298667
 30
0.0
 40
1.0
 50
270.0
 51
0.0
  0
LINE
  5
A086
  8
0
 10
52.72186007451006
 20
253.6911374298667
 30
0.0
 11
52.72186007451006
 21
260.6911374298666
 31
0.0
  0
LINE
  5
A087
  8
0
 10
51.72186007451006
 20
253.6911374298666
 30
0.0
 11
51.72186007451006
 21
260.6911374298666
 31
0.0
  0
LINE
  5
A088
  8
0
 10
50.72186007451006
 20
253.6911374298664
 30
0.0
 11
50.72186007451006
 21
260.6911374298666
 31
0.0
  0
LINE
  5
A089
  8
0
 10
49.72186007451006
 20
253.6911374298664
 30
0.0
 11
49.72186007451006
 21
260.6911374298666
 31
0.0
  0
LINE
  5
A08A
  8
0
 10
47.72186007451006
 20
254.6911374298666
 30
0.0
 11
47.72186007451006
 21
259.6911374298666
 31
0.0
  0
LINE
  5
A08B
  8
0
 10
54.72186007451006
 20
259.6911374298666
 30
0.0
 11
54.72186007451006
 21
254.6911374298667
 31
0.0
  0
LINE
  5
A08C
  8
0
 10
65.77186093430709
 20
262.6411378947829
 30
0.0
 11
110.2718607107897
 21
262.6411378947828
 31
0.0
  0
LINE
  5
A08D
  8
0
 10
110.2718607107897
 20
262.6411378947828
 30
0.0
 11
110.2718607107897
 21
197.1411378947828
 31
0.0
  0
LINE
  5
A08E
  8
0
 10
40.77186071078967
 20
197.1411378947829
 30
0.0
 11
40.77186071078967
 21
250.6411376116607
 31
0.0
  0
LINE
  5
A08F
  8
0
 10
110.2718607107897
 20
197.1411378947828
 30
0.0
 11
40.77186071078967
 21
197.1411378947829
 31
0.0
  0
LINE
  5
A090
  8
0
  6
CONTINUOUS
 10
65.77186093430709
 20
250.6411376116607
 30
0.0
 11
65.77186093430709
 21
262.6411378947829
 31
0.0
  0
LINE
  5
A091
  8
0
  6
CONTINUOUS
 10
40.77186071078967
 20
250.6411376116607
 30
0.0
 11
65.77186093430709
 21
250.6411376116607
 31
0.0
  0
LINE
  5
A207
  8
0
 10
55.82186007451008
 20
248.241137894783
 30
0.0
 11
55.82186007451008
 21
246.241137894783
 31
0.0
  0
LINE
  5
A208
  8
0
 10
48.82186007451008
 20
248.241137894783
 30
0.0
 11
48.82186007451008
 21
246.241137894783
 31
0.0
  0
ARC
  5
A209
  8
0
 10
49.82186007451008
 20
248.241137894783
 30
0.0
 40
1.0
 50
90.0
 51
180.0
  0
ARC
  5
A20A
  8
0
 10
49.82186007451008
 20
246.241137894783
 30
0.0
 40
1.0
 50
180.0
 51
270.0
  0
ARC
  5
A20B
  8
0
 10
54.82186007451008
 20
246.241137894783
 30
0.0
 40
1.0
 50
270.0
 51
0.0
  0
ARC
  5
A20C
  8
0
 10
54.82186007451008
 20
248.241137894783
 30
0.0
 40
1.0
 50
0.0
 51
90.0
  0
LINE
  5
A20D
  8
0
 10
49.82186007451008
 20
249.241137894783
 30
0.0
 11
54.82186007451008
 21
249.241137894783
 31
0.0
  0
LINE
  5
A20E
  8
0
 10
49.82186007451008
 20
245.241137894783
 30
0.0
 11
54.82186007451008
 21
245.241137894783
 31
0.0
  0
TEXT
  5
A20F
  8
0
 10
42.16044691739722
 20
246.2788620753644
 30
0.0
 40
2.0
  1
OFF
 41
1.5
  0
TEXT
  5
A210
  8
0
 10
57.20729606708893
 20
246.2788620753644
 30
0.0
 40
2.0
  1
ON
 41
1.5
  0
TEXT
  5
A211
  8
0
 10
49.75043150308151
 20
246.29803338025
 30
0.0
 40
2.0
  1
電源
  0
LINE
  5
A213
  8
0
 10
42.27186071078967
 20
217.1012460020881
 30
0.0
 11
42.27186071078967
 21
219.6387460020887
 31
0.0
  0
LINE
  5
A214
  8
0
 10
44.37436071078963
 20
217.1012460020881
 30
0.0
 11
44.37436071078963
 21
219.6387460020887
 31
0.0
  0
LINE
  5
A215
  8
0
 10
44.59186071078983
 20
217.1012460020881
 30
0.0
 11
44.59186071078983
 21
219.6387460020887
 31
0.0
  0
LINE
  5
A216
  8
0
 10
42.27186071078967
 20
217.1012460020881
 30
0.0
 11
43.06936071078979
 21
217.1012460020881
 31
0.0
  0
LINE
  5
A217
  8
0
 10
42.27186071078967
 20
219.6387460020887
 30
0.0
 11
43.06936071078979
 21
219.6387460020887
 31
0.0
  0
LINE
  5
A218
  8
0
 10
43.06936071078979
 20
219.6387460020887
 30
0.0
 11
43.06936071078979
 21
218.7687460020885
 31
0.0
  0
LINE
  5
A219
  8
0
 10
43.5768607107895
 20
219.6387460020887
 30
0.0
 11
43.5768607107895
 21
218.7687460020885
 31
0.0
  0
LINE
  5
A21A
  8
0
 10
43.06936071078979
 20
217.1012460020881
 30
0.0
 11
43.06936071078979
 21
217.971246002088
 31
0.0
  0
LINE
  5
A21B
  8
0
 10
43.5768607107895
 20
217.1012460020881
 30
0.0
 11
43.5768607107895
 21
217.971246002088
 31
0.0
  0
LINE
  5
A21C
  8
0
 10
43.5768607107895
 20
219.6387460020887
 30
0.0
 11
44.37436071078963
 21
219.6387460020887
 31
0.0
  0
LINE
  5
A21D
  8
0
 10
43.5768607107895
 20
217.1012460020881
 30
0.0
 11
44.37436071078963
 21
217.1012460020881
 31
0.0
  0
LINE
  5
A21E
  8
0
 10
43.06936071078979
 20
218.7687460020885
 30
0.0
 11
43.5768607107895
 21
218.7687460020885
 31
0.0
  0
LINE
  5
A21F
  8
0
 10
43.06936071078979
 20
217.971246002088
 30
0.0
 11
43.5768607107895
 21
217.971246002088
 31
0.0
  0
LINE
  5
A220
  8
0
 10
45.3893607107895
 20
217.1012460020881
 30
0.0
 11
45.3893607107895
 21
219.6387460020887
 31
0.0
  0
LINE
  5
A221
  8
0
 10
45.6068607107897
 20
217.1012460020881
 30
0.0
 11
45.6068607107897
 21
219.6387460020887
 31
0.0
  0
LINE
  5
A222
  8
0
 10
44.59186071078983
 20
219.6387460020887
 30
0.0
 11
45.3893607107895
 21
219.6387460020887
 31
0.0
  0
LINE
  5
A223
  8
0
 10
44.59186071078983
 20
217.1012460020881
 30
0.0
 11
45.3893607107895
 21
217.1012460020881
 31
0.0
  0
LINE
  5
A224
  8
0
 10
47.70936071078967
 20
217.1012460020881
 30
0.0
 11
47.70936071078967
 21
217.681246002088
 31
0.0
  0
LINE
  5
A225
  8
0
 10
47.70936071078967
 20
219.0587460020887
 30
0.0
 11
47.70936071078967
 21
219.6387460020887
 31
0.0
  0
LINE
  5
A226
  8
0
 10
45.6068607107897
 20
217.1012460020881
 30
0.0
 11
46.40436071078983
 21
217.1012460020881
 31
0.0
  0
LINE
  5
A227
  8
0
 10
45.6068607107897
 20
219.6387460020887
 30
0.0
 11
46.40436071078983
 21
219.6387460020887
 31
0.0
  0
LINE
  5
A228
  8
0
 10
46.40436071078983
 20
219.6387460020887
 30
0.0
 11
46.40436071078983
 21
218.7687460020885
 31
0.0
  0
LINE
  5
A229
  8
0
 10
46.91186071078954
 20
219.6387460020887
 30
0.0
 11
46.91186071078954
 21
219.0587460020887
 31
0.0
  0
LINE
  5
A22A
  8
0
 10
46.40436071078983
 20
217.1012460020881
 30
0.0
 11
46.40436071078983
 21
217.971246002088
 31
0.0
  0
LINE
  5
A22B
  8
0
 10
46.91186071078954
 20
217.1012460020881
 30
0.0
 11
46.91186071078954
 21
217.681246002088
 31
0.0
  0
ARC
  5
A22C
  8
0
 10
46.62186071078958
 20
217.681246002088
 30
0.0
 40
0.29
 50
0.0
 51
90.0
  0
ARC
  5
A22D
  8
0
 10
46.62186071078958
 20
217.681246002088
 30
0.0
 40
1.0875
 50
0.0
 51
39.29648023919341
  0
LINE
  5
A22E
  8
0
 10
46.91186071078954
 20
219.6387460020887
 30
0.0
 11
47.70936071078967
 21
219.6387460020887
 31
0.0
  0
LINE
  5
A22F
  8
0
 10
46.91186071078954
 20
217.1012460020881
 30
0.0
 11
47.70936071078967
 21
217.1012460020881
 31
0.0
  0
LINE
  5
A230
  8
0
 10
46.40436071078983
 20
218.7687460020885
 30
0.0
 11
46.62186071078958
 21
218.7687460020885
 31
0.0
  0
ARC
  5
A231
  8
0
 10
46.62186071078958
 20
219.0587460020887
 30
0.0
 40
0.29
 50
270.0
 51
0.0
  0
ARC
  5
A232
  8
0
 10
46.62186071078958
 20
219.0587460020887
 30
0.0
 40
1.0875
 50
320.7035197608241
 51
0.0
  0
LINE
  5
A233
  8
0
 10
46.40436071078983
 20
217.971246002088
 30
0.0
 11
46.62186071078958
 21
217.971246002088
 31
0.0
  0
LINE
  5
A234
  8
0
 10
47.92686071078987
 20
217.1012460020881
 30
0.0
 11
47.92686071078987
 21
218.587496002088
 31
0.0
  0
LINE
  5
A235
  8
0
 10
50.02936071078983
 20
217.1012460020881
 30
0.0
 11
50.02936071078983
 21
218.587496002088
 31
0.0
  0
LINE
  5
A236
  8
0
 10
47.92686071078987
 20
217.1012460020881
 30
0.0
 11
48.72436071078954
 21
217.1012460020881
 31
0.0
  0
LINE
  5
A237
  8
0
 10
48.72436071078954
 20
217.1012460020881
 30
0.0
 11
48.72436071078954
 21
217.6087460020878
 31
0.0
  0
LINE
  5
A238
  8
0
 10
49.2318607107897
 20
217.1012460020881
 30
0.0
 11
49.2318607107897
 21
217.6087460020878
 31
0.0
  0
LINE
  5
A239
  8
0
 10
49.2318607107897
 20
217.1012460020881
 30
0.0
 11
50.02936071078983
 21
217.1012460020881
 31
0.0
  0
LINE
  5
A23A
  8
0
 10
48.72436071078954
 20
217.6087460020878
 30
0.0
 11
49.2318607107897
 21
217.6087460020878
 31
0.0
  0
LINE
  5
A23B
  8
0
 10
48.72436071078954
 20
218.3337460020881
 30
0.0
 11
49.2318607107897
 21
218.3337460020881
 31
0.0
  0
ARC
  5
A23C
  8
0
 10
48.97811071078985
 20
218.587496002088
 30
0.0
 40
1.05125
 50
0.0
 51
180.0
  0
ARC
  5
A23D
  8
0
 10
48.97811071078985
 20
218.587496002088
 30
0.0
 40
0.25375
 50
0.0
 51
180.0
  0
LINE
  5
A23E
  8
0
 10
48.72436071078954
 20
218.3337460020881
 30
0.0
 11
48.72436071078954
 21
218.587496002088
 31
0.0
  0
LINE
  5
A23F
  8
0
 10
49.2318607107897
 20
218.587496002088
 30
0.0
 11
49.2318607107897
 21
218.3337460020881
 31
0.0
  0
LINE
  5
A240
  8
0
 10
50.24686071078958
 20
217.1012460020881
 30
0.0
 11
50.24686071078958
 21
219.6387460020887
 31
0.0
  0
LINE
  5
A241
  8
0
 10
52.34936071078954
 20
217.1012460020881
 30
0.0
 11
52.34936071078954
 21
217.681246002088
 31
0.0
  0
LINE
  5
A242
  8
0
 10
50.24686071078958
 20
217.1012460020881
 30
0.0
 11
51.0443607107897
 21
217.1012460020881
 31
0.0
  0
LINE
  5
A243
  8
0
 10
51.18936071078969
 20
217.8987460020882
 30
0.0
 11
51.33436071078967
 21
217.8987460020882
 31
0.0
  0
LINE
  5
A244
  8
0
 10
51.18936071078969
 20
218.4787460020886
 30
0.0
 11
51.33436071078967
 21
218.4787460020886
 31
0.0
  0
LINE
  5
A245
  8
0
 10
51.0443607107897
 20
217.1012460020881
 30
0.0
 11
51.0443607107897
 21
218.9137460020883
 31
0.0
  0
LINE
  5
A246
  8
0
 10
51.55186071078987
 20
217.1012460020881
 30
0.0
 11
51.55186071078987
 21
217.681246002088
 31
0.0
  0
ARC
  5
A247
  8
0
 10
51.33436071078967
 20
217.681246002088
 30
0.0
 40
0.2175
 50
0.0
 51
90.0
  0
ARC
  5
A248
  8
0
 10
51.33436071078967
 20
217.681246002088
 30
0.0
 40
1.015
 50
0.0
 51
30.66296328368444
  0
LINE
  5
A249
  8
0
 10
50.24686071078958
 20
219.6387460020887
 30
0.0
 11
51.40686071078943
 21
219.6387460020887
 31
0.0
  0
LINE
  5
A24A
  8
0
 10
51.0443607107897
 20
218.9137460020883
 30
0.0
 11
51.33436071078967
 21
218.9137460020883
 31
0.0
  0
LINE
  5
A24B
  8
0
 10
51.55186071078987
 20
217.1012460020881
 30
0.0
 11
52.34936071078954
 21
217.1012460020881
 31
0.0
  0
ARC
  5
A24C
  8
0
 10
51.33436071078967
 20
218.6962460020883
 30
0.0
 40
0.2175
 50
270.0
 51
90.0
  0
ARC
  5
A24D
  8
0
 10
51.40686071078943
 20
218.6962460020883
 30
0.0
 40
0.9425
 50
328.1493895340824
 51
90.0
  0
LINE
  5
A24E
  8
0
 10
51.18936071078969
 20
218.4787460020886
 30
0.0
 11
51.18936071078969
 21
217.8987460020882
 31
0.0
  0
LINE
  5
A24F
  8
0
 10
52.56686071078974
 20
217.1012460020881
 30
0.0
 11
52.56686071078974
 21
219.6387460020887
 31
0.0
  0
LINE
  5
A250
  8
0
 10
53.36436071078987
 20
217.1012460020881
 30
0.0
 11
53.36436071078987
 21
219.6387460020887
 31
0.0
  0
LINE
  5
A251
  8
0
 10
56.2643607107895
 20
217.1374960020882
 30
0.0
 11
56.2643607107895
 21
218.587496002088
 31
0.0
  0
LINE
  5
A252
  8
0
 10
52.56686071078974
 20
219.6387460020887
 30
0.0
 11
53.36436071078987
 21
219.6387460020887
 31
0.0
  0
LINE
  5
A253
  8
0
 10
52.56686071078974
 20
217.1012460020881
 30
0.0
 11
53.36436071078987
 21
217.1012460020881
 31
0.0
  0
ARC
  5
A254
  8
0
 10
55.53936071078959
 20
218.3699960020882
 30
0.0
 40
1.305
 50
84.27518954777628
 51
281.4211862750073
  0
ARC
  5
A255
  8
0
 10
55.53936071078959
 20
218.3699960020882
 30
0.0
 40
0.5075000000000001
 50
84.27518954777645
 51
270.0
  0
CIRCLE
  5
A256
  8
0
 10
57.78686071078954
 20
218.3699960020882
 30
0.0
 40
1.305
  0
CIRCLE
  5
A257
  8
0
 10
57.78686071078954
 20
218.3699960020882
 30
0.0
 40
0.5075000000000001
  0
LINE
  5
A258
  8
0
 10
55.53936071078959
 20
217.8624960020885
 30
0.0
 11
55.53936071078959
 21
218.587496002088
 31
0.0
  0
LINE
  5
A259
  8
0
 10
55.53936071078959
 20
218.587496002088
 30
0.0
 11
56.2643607107895
 21
218.587496002088
 31
0.0
  0
LINE
  5
A25A
  8
0
 10
55.79777655237393
 20
217.090837586247
 30
0.0
 11
56.2643607107895
 21
217.1374960020882
 31
0.0
  0
LINE
  5
A25B
  8
0
 10
55.66953527438062
 20
219.6684872739087
 30
0.0
 11
56.2643607107895
 21
219.6387460020887
 31
0.0
  0
LINE
  5
A25C
  8
0
 10
56.2643607107895
 20
219.6387460020887
 30
0.0
 11
56.2643607107895
 21
218.8412460020881
 31
0.0
  0
LINE
  5
A25D
  8
0
 10
56.2643607107895
 20
218.8412460020881
 30
0.0
 11
55.5899841521861
 21
218.874964830019
 31
0.0
  0
LINE
  5
A25E
  8
0
 10
59.30936071078958
 20
217.1012460020881
 30
0.0
 11
59.30936071078958
 21
219.6387460020887
 31
0.0
  0
LINE
  5
A25F
  8
0
 10
61.41186071078954
 20
217.1012460020881
 30
0.0
 11
61.41186071078954
 21
217.681246002088
 31
0.0
  0
LINE
  5
A260
  8
0
 10
61.41186071078954
 20
219.0587460020887
 30
0.0
 11
61.41186071078954
 21
219.6387460020887
 31
0.0
  0
LINE
  5
A261
  8
0
 10
59.30936071078958
 20
217.1012460020881
 30
0.0
 11
60.1068607107897
 21
217.1012460020881
 31
0.0
  0
LINE
  5
A262
  8
0
 10
59.30936071078958
 20
219.6387460020887
 30
0.0
 11
60.1068607107897
 21
219.6387460020887
 31
0.0
  0
LINE
  5
A263
  8
0
 10
60.1068607107897
 20
219.6387460020887
 30
0.0
 11
60.1068607107897
 21
218.7687460020885
 31
0.0
  0
LINE
  5
A264
  8
0
 10
60.61436071078987
 20
219.6387460020887
 30
0.0
 11
60.61436071078987
 21
219.0587460020887
 31
0.0
  0
LINE
  5
A265
  8
0
 10
60.1068607107897
 20
217.1012460020881
 30
0.0
 11
60.1068607107897
 21
217.971246002088
 31
0.0
  0
LINE
  5
A266
  8
0
 10
60.61436071078987
 20
217.1012460020881
 30
0.0
 11
60.61436071078987
 21
217.681246002088
 31
0.0
  0
ARC
  5
A267
  8
0
 10
60.32436071078945
 20
217.681246002088
 30
0.0
 40
0.29
 50
0.0
 51
90.0
  0
ARC
  5
A268
  8
0
 10
60.32436071078945
 20
217.681246002088
 30
0.0
 40
1.0875
 50
0.0
 51
39.29648023919341
  0
LINE
  5
A269
  8
0
 10
60.61436071078987
 20
219.6387460020887
 30
0.0
 11
61.41186071078954
 21
219.6387460020887
 31
0.0
  0
LINE
  5
A26A
  8
0
 10
60.61436071078987
 20
217.1012460020881
 30
0.0
 11
61.41186071078954
 21
217.1012460020881
 31
0.0
  0
LINE
  5
A26B
  8
0
 10
60.1068607107897
 20
218.7687460020885
 30
0.0
 11
60.32436071078945
 21
218.7687460020885
 31
0.0
  0
ARC
  5
A26C
  8
0
 10
60.32436071078945
 20
219.0587460020887
 30
0.0
 40
0.29
 50
270.0
 51
0.0
  0
ARC
  5
A26D
  8
0
 10
60.32436071078945
 20
219.0587460020887
 30
0.0
 40
1.0875
 50
320.7035197608241
 51
0.0
  0
LINE
  5
A26E
  8
0
 10
60.1068607107897
 20
217.971246002088
 30
0.0
 11
60.32436071078945
 21
217.971246002088
 31
0.0
  0
LINE
  5
A26F
  8
0
 10
61.62936071078974
 20
217.1012460020881
 30
0.0
 11
61.62936071078974
 21
219.6387460020887
 31
0.0
  0
LINE
  5
A270
  8
0
 10
62.42686071078987
 20
217.1012460020881
 30
0.0
 11
62.42686071078987
 21
219.6387460020887
 31
0.0
  0
LINE
  5
A271
  8
0
 10
61.62936071078974
 20
219.6387460020887
 30
0.0
 11
62.42686071078987
 21
219.6387460020887
 31
0.0
  0
LINE
  5
A272
  8
0
 10
61.62936071078974
 20
217.1012460020881
 30
0.0
 11
62.42686071078987
 21
217.1012460020881
 31
0.0
  0
LINE
  5
A273
  8
0
 10
62.64436071078961
 20
217.1012460020881
 30
0.0
 11
62.64436071078961
 21
218.587496002088
 31
0.0
  0
LINE
  5
A274
  8
0
 10
64.74686071078958
 20
217.1012460020881
 30
0.0
 11
64.74686071078958
 21
218.587496002088
 31
0.0
  0
LINE
  5
A275
  8
0
 10
62.64436071078961
 20
217.1012460020881
 30
0.0
 11
63.44186071078974
 21
217.1012460020881
 31
0.0
  0
LINE
  5
A276
  8
0
 10
63.44186071078974
 20
217.1012460020881
 30
0.0
 11
63.44186071078974
 21
218.587496002088
 31
0.0
  0
LINE
  5
A277
  8
0
 10
63.94936071078945
 20
217.1012460020881
 30
0.0
 11
63.94936071078945
 21
218.587496002088
 31
0.0
  0
LINE
  5
A278
  8
0
 10
63.94936071078945
 20
217.1012460020881
 30
0.0
 11
64.74686071078958
 21
217.1012460020881
 31
0.0
  0
ARC
  5
A279
  8
0
 10
63.69561071078959
 20
218.587496002088
 30
0.0
 40
1.05125
 50
0.0
 51
180.0
  0
ARC
  5
A27A
  8
0
 10
63.69561071078959
 20
218.587496002088
 30
0.0
 40
0.25375
 50
0.0
 51
180.0
  0
LINE
  5
A27B
  8
0
 10
56.52186071078967
 20
212.8911378947829
 30
0.0
 11
64.52186071078967
 21
212.8911378947829
 31
0.0
  0
ARC
  5
A27C
  8
0
 10
64.52186071078967
 20
210.8911378947829
 30
0.0
 40
2.0
 50
0.0
 51
90.0
  0
ARC
  5
A27D
  8
0
 10
56.52186071078967
 20
210.8911378947829
 30
0.0
 40
2.0
 50
90.0
 51
180.0
  0
ARC
  5
A27E
  8
0
 10
64.52186071078967
 20
203.8911378947825
 30
0.0
 40
2.0
 50
270.0
 51
0.0
  0
LINE
  5
A27F
  8
0
 10
66.52186071078967
 20
203.8911378947825
 30
0.0
 11
66.52186071078967
 21
210.8911378947829
 31
0.0
  0
LINE
  5
A280
  8
0
 10
56.52186071078967
 20
201.8911378947825
 30
0.0
 11
64.52186071078967
 21
201.8911378947825
 31
0.0
  0
ARC
  5
A281
  8
0
 10
56.52186071078967
 20
203.8911378947825
 30
0.0
 40
2.0
 50
180.0
 51
270.0
  0
LINE
  5
A282
  8
0
 10
54.52186071078967
 20
203.8911378947825
 30
0.0
 11
54.52186071078967
 21
210.8911378947829
 31
0.0
  0
CIRCLE
  5
A283
  8
0
 10
95.52186071078967
 20
209.8911378947829
 30
0.0
 40
7.499999999999949
  0
CIRCLE
  5
A284
  8
0
 10
95.52186071078967
 20
209.8911378947829
 30
0.0
 40
8.20000000000001
  0
CIRCLE
  5
A285
  8
0
 10
95.52186071078967
 20
209.8911378947829
 30
0.0
 40
8.499999999999963
  0
LINE
  5
A286
  8
0
 10
68.27186071078967
 20
203.8911378947825
 30
0.0
 11
68.27186071078967
 21
215.8911378947829
 31
0.0
  0
LINE
  5
A287
  8
0
 10
68.57186071078962
 20
203.8911378947825
 30
0.0
 11
68.57186071078962
 21
209.8911378947825
 31
0.0
  0
ARC
  5
A288
  8
0
 10
70.27186071078967
 20
203.8911378947825
 30
0.0
 40
2.0
 50
180.0
 51
270.0
1001
GENIUS_GENOBJ-N-FIL_13
1002
{
1000
OWNER
1000
GEN
1002
}
1001
GENIUS_GENODEF_13
1002
{
1000
HIER
1070
     0
1002
}
1002
{
1000
MANEDIT
1070
     0
1002
}
1002
{
1000
NOSEL
1070
     0
1002
}
1002
{
1000
BEHIND
1070
     0
1002
}
1002
{
1000
OTHER
1070
     0
1002
}
1002
{
1000
REACTOR
1002
}
  0
ARC
  5
A289
  8
0
 10
70.27186071078967
 20
203.8911378947825
 30
0.0
 40
1.7
 50
180.0
 51
270.0
1001
GENIUS_GENOBJ-N-FIL_13
1002
{
1000
OWNER
1000
GEN
1002
}
1001
GENIUS_GENODEF_13
1002
{
1000
HIER
1070
     0
1002
}
1002
{
1000
MANEDIT
1070
     0
1002
}
1002
{
1000
NOSEL
1070
     0
1002
}
1002
{
1000
BEHIND
1070
     0
1002
}
1002
{
1000
OTHER
1070
     0
1002
}
1002
{
1000
REACTOR
1002
}
  0
LINE
  5
A28A
  8
0
 10
86.27186071078876
 20
203.8911378947825
 30
0.0
 11
86.27186071078876
 21
215.891137894782
 31
0.0
  0
LINE
  5
A28B
  8
0
 10
85.9718607107888
 20
203.8911378947825
 30
0.0
 11
85.9718607107888
 21
209.8911378947825
 31
0.0
  0
ARC
  5
A28C
  8
0
 10
84.27186071078876
 20
215.891137894782
 30
0.0
 40
2.0
 50
0.0
 51
90.0
1001
GENIUS_GENODEF_13
1002
{
1000
HIER
1070
     0
1002
}
1002
{
1000
MANEDIT
1070
     0
1002
}
1002
{
1000
NOSEL
1070
     0
1002
}
1002
{
1000
BEHIND
1070
     0
1002
}
1002
{
1000
OTHER
1070
     0
1002
}
1002
{
1000
REACTOR
1002
}
1001
GENIUS_GENOBJ-N-FIL_13
1002
{
1000
OWNER
1000
GEN
1002
}
  0
INSERT
  5
A28D
  8
0
  2
*X9
 10
0.0
 20
0.0
 30
0.0
  0
LINE
  5
A28E
  8
0
 10
86.27186071078876
 20
209.8911378947825
 30
0.0
 11
68.27186071078967
 21
209.8911378947825
 31
0.0
  0
CIRCLE
  5
A28F
  8
0
 10
77.47347425020479
 20
213.8911378947829
 30
0.0
 40
2.0
  0
LINE
  5
A290
  8
0
 10
84.27186071078876
 20
217.891137894782
 30
0.0
 11
70.27186071078967
 21
217.8911378947829
 31
0.0
  0
ARC
  5
A291
  8
0
 10
70.27186071078967
 20
215.8911378947829
 30
0.0
 40
2.0
 50
90.0
 51
180.0
1001
GENIUS_GENOBJ-N-FIL_13
1002
{
1000
OWNER
1000
GEN
1002
}
1001
GENIUS_GENODEF_13
1002
{
1000
HIER
1070
     0
1002
}
1002
{
1000
MANEDIT
1070
     0
1002
}
1002
{
1000
NOSEL
1070
     0
1002
}
1002
{
1000
BEHIND
1070
     0
1002
}
1002
{
1000
OTHER
1070
     0
1002
}
1002
{
1000
REACTOR
1002
}
  0
LINE
  5
A292
  8
0
 10
84.27186071078876
 20
201.8911378947825
 30
0.0
 11
70.27186071078967
 21
201.8911378947825
 31
0.0
  0
LINE
  5
A293
  8
0
 10
84.27186071078876
 20
202.1911378947824
 30
0.0
 11
70.27186071078967
 21
202.1911378947824
 31
0.0
  0
ARC
  5
A294
  8
0
 10
84.27186071078876
 20
203.8911378947825
 30
0.0
 40
2.0
 50
270.0
 51
0.0
1001
GENIUS_GENODEF_13
1002
{
1000
HIER
1070
     0
1002
}
1002
{
1000
MANEDIT
1070
     0
1002
}
1002
{
1000
NOSEL
1070
     0
1002
}
1002
{
1000
BEHIND
1070
     0
1002
}
1002
{
1000
OTHER
1070
     0
1002
}
1002
{
1000
REACTOR
1002
}
1001
GENIUS_GENOBJ-N-FIL_13
1002
{
1000
OWNER
1000
GEN
1002
}
  0
ARC
  5
A295
  8
0
 10
84.27186071078876
 20
203.8911378947825
 30
0.0
 40
1.7
 50
270.0
 51
0.0
1001
GENIUS_GENODEF_13
1002
{
1000
HIER
1070
     0
1002
}
1002
{
1000
MANEDIT
1070
     0
1002
}
1002
{
1000
NOSEL
1070
     0
1002
}
1002
{
1000
BEHIND
1070
     0
1002
}
1002
{
1000
OTHER
1070
     0
1002
}
1002
{
1000
REACTOR
1002
}
1001
GENIUS_GENOBJ-N-FIL_13
1002
{
1000
OWNER
1000
GEN
1002
}
  0
TEXT
  5
A296
  8
0
 10
69.3477315003642
 20
212.9769758663352
 30
0.0
 40
1.9
  1
給水
  0
TEXT
  5
A297
  8
0
 10
89.3430109890828
 20
207.9715336894645
 30
0.0
 40
4.0
  1
PUSH
 41
1.2
  0
TEXT
  5
A298
  8
0
 10
42.15052490373957
 20
220.345840397551
 30
0.0
 40
1.8
  1
電動水抜操作盤
  0
TEXT
  5
A299
  8
0
 10
42.07371599835924
 20
214.4200519003337
 30
0.0
 40
1.8
  1
ER2000-AU
  0
TEXT
  5
A29B
  8
0
 10
44.4730275370999
 20
198.556720681139
 30
0.0
 40
1.3
  1
冬期以外(凍結の心配がない期間)や長期間使用しないときは電源をOFFにしてください
  0
CIRCLE
  5
A29E
  8
0
 10
42.83879638719458
 20
198.5903722225791
 30
0.0
 40
0.1
  0
LINE
  5
A29F
  8
0
 10
42.73879638719467
 20
199.5903722225791
 30
0.0
 11
42.78923886507067
 21
198.8337350544386
 31
0.0
  0
LINE
  5
A2A0
  8
0
 10
42.93879638719494
 20
199.5903722225791
 30
0.0
 11
42.88835390931848
 21
198.8337350544367
 31
0.0
  0
ARC
  5
A2A1
  8
0
 10
42.83879638719458
 20
199.5903722225791
 30
0.0
 40
0.1
 50
0.0
 51
180.0
  0
ARC
  5
A2A2
  8
0
 10
42.83879638719458
 20
198.8403722225791
 30
0.0
 40
0.05
 50
187.6281496672678
 51
352.3718503306294
  0
TEXT
  5
A2A6
  8
0
 10
55.65609498313673
 20
203.1068572884691
 30
0.0
 40
1.9
  1
点検
  0
CIRCLE
  5
A2A7
  8
0
 10
82.52186071079012
 20
205.8911378947828
 30
0.0
 40
2.0
  0
CIRCLE
  5
A2A8
  8
0
 10
82.52186071079012
 20
205.8911378947828
 30
0.0
 40
1.5
  0
CIRCLE
  5
A2A9
  8
0
 10
82.52186071079012
 20
213.8911378947828
 30
0.0
 40
2.0
  0
CIRCLE
  5
A2AA
  8
0
 10
82.52186071079012
 20
213.8911378947828
 30
0.0
 40
1.5
  0
ARC
  5
A2AB
  8
0
 10
64.27349690451783
 20
204.4584536602055
 30
0.0
 40
0.9999999999999992
 50
233.0491207032591
 51
57.32628399712448
  0
LINE
  5
A2AC
  8
0
 10
63.67236678704725
 20
203.6593024968643
 30
0.0
 11
58.96523257543265
 21
207.2000595793472
 31
0.0
  0
LINE
  5
A2AD
  8
0
 10
59.85525242607744
 20
208.480044008816
 30
0.0
 11
64.81335113157996
 21
205.3002121846789
 31
0.0
  0
ARC
  5
A2AE
  8
0
 10
57.40560133188039
 20
209.2339519014899
 30
0.0
 40
1.99079584716086
 50
1.683229077249547
 51
160.7903378653518
  0
ARC
  5
A2AF
  8
0
 10
60.39510665314
 20
209.3218025332892
 30
0.0
 40
0.9999999999999992
 50
181.6832290772424
 51
237.3262839971254
1001
GENIUS_GENODEF_13
1002
{
1000
HIER
1070
     0
1002
}
1002
{
1000
MANEDIT
1070
     0
1002
}
1002
{
1000
NOSEL
1070
     0
1002
}
1002
{
1000
BEHIND
1070
     0
1002
}
1002
{
1000
OTHER
1070
     0
1002
}
1002
{
1000
REACTOR
1002
}
1001
GENIUS_GENOBJ-N-FIL_13
1002
{
1000
OWNER
1000
GEN
1002
}
  0
ARC
  5
A2B0
  8
0
 10
57.40560133188039
 20
209.2339519014899
 30
0.0
 40
1.99079584716086
 50
219.5850668351124
 51
288.6921756231421
  0
ARC
  5
A2B1
  8
0
 10
58.36410245796245
 20
206.4009084160058
 30
0.0
 40
0.9999999999999992
 50
53.04912070325908
 51
108.6921756231398
1001
GENIUS_GENOBJ-N-FIL_13
1002
{
1000
OWNER
1000
GEN
1002
}
1001
GENIUS_GENODEF_13
1002
{
1000
HIER
1070
     0
1002
}
1002
{
1000
MANEDIT
1070
     0
1002
}
1002
{
1000
NOSEL
1070
     0
1002
}
1002
{
1000
BEHIND
1070
     0
1002
}
1002
{
1000
OTHER
1070
     0
1002
}
1002
{
1000
REACTOR
1002
}
  0
LINE
  5
A2B2
  8
0
 10
57.96654585710505
 20
209.3347574609664
 30
0.0
 11
57.58409148041201
 21
208.2731645409266
 31
0.0
  0
LINE
  5
A2B3
  8
0
 10
57.58409148041201
 20
208.2731645409266
 30
0.0
 11
55.87133608188213
 21
207.9653707067213
 31
0.0
  0
LINE
  5
A2B4
  8
0
 10
57.96654585710493
 20
209.3347574609671
 30
0.0
 11
57.2384066082182
 21
210.1967691269915
 31
0.0
  0
LINE
  5
A2B5
  8
0
 10
57.2384066082182
 20
210.1967691269915
 30
0.0
 11
55.52565120968808
 21
209.8889752927859
 31
0.0
  0
CIRCLE
  5
A2B6
  8
0
 10
64.27349690451783
 20
204.4584536602055
 30
0.0
 40
0.4999999999999996
  0
LINE
  5
A2B7
  8
0
 10
42.53437110525482
 20
212.5722728947825
 30
0.0
 11
44.87115260525485
 21
212.5722728947825
 31
0.0
  0
LINE
  5
A2B8
  8
0
 10
44.87115260525485
 20
212.5722728947825
 30
0.0
 11
44.87115260525485
 21
212.9062567947825
 31
0.0
  0
LINE
  5
A2B9
  8
0
 10
44.87115260525485
 20
212.9062567947825
 30
0.0
 11
42.53437110525482
 21
212.9062567947825
 31
0.0
  0
LINE
  5
A2BA
  8
0
 10
42.53437110525482
 20
212.9062567947825
 30
0.0
 11
42.53437110525482
 21
212.5722728947825
 31
0.0
  0
LINE
  5
A2BB
  8
0
 10
45.53874610525482
 20
212.5722728947825
 30
0.0
 11
46.53996060525482
 21
212.5722728947825
 31
0.0
  0
LINE
  5
A2BC
  8
0
 10
46.53996060525482
 20
212.5722728947825
 30
0.0
 11
46.53996060525482
 21
212.9062567947825
 31
0.0
  0
LINE
  5
A2BD
  8
0
 10
46.53996060525482
 20
212.9062567947825
 30
0.0
 11
45.53874610525482
 21
212.9062567947825
 31
0.0
  0
LINE
  5
A2BE
  8
0
 10
45.53874610525482
 20
212.9062567947825
 30
0.0
 11
45.53874610525482
 21
212.5722728947825
 31
0.0
  0
LINE
  5
A2BF
  8
0
 10
47.20751610525484
 20
212.5722728947825
 30
0.0
 11
47.54150000525483
 21
212.5722728947825
 31
0.0
  0
LINE
  5
A2C0
  8
0
 10
47.54150000525483
 20
212.5722728947825
 30
0.0
 11
47.54150000525483
 21
212.9062567947825
 31
0.0
  0
LINE
  5
A2C1
  8
0
 10
47.54150000525483
 20
212.9062567947825
 30
0.0
 11
47.20751610525484
 21
212.9062567947825
 31
0.0
  0
LINE
  5
A2C2
  8
0
 10
47.20751610525484
 20
212.9062567947825
 30
0.0
 11
47.20751610525484
 21
212.5722728947825
 31
0.0
  0
LINE
  5
A2C3
  8
0
 10
47.87508110525482
 20
212.5722728947825
 30
0.0
 11
48.20906595525483
 21
212.5722728947825
 31
0.0
  0
LINE
  5
A2C4
  8
0
 10
48.20906595525483
 20
212.5722728947825
 30
0.0
 11
48.20906595525483
 21
212.9062567947825
 31
0.0
  0
LINE
  5
A2C5
  8
0
 10
48.20906595525483
 20
212.9062567947825
 30
0.0
 11
47.87508110525482
 21
212.9062567947825
 31
0.0
  0
LINE
  5
A2C6
  8
0
 10
47.87508110525482
 20
212.9062567947825
 30
0.0
 11
47.87508110525482
 21
212.5722728947825
 31
0.0
  0
LINE
  5
A2C7
  8
0
 10
48.54274110525482
 20
212.5722728947825
 30
0.0
 11
48.87672595525483
 21
212.5722728947825
 31
0.0
  0
LINE
  5
A2C8
  8
0
 10
48.87672595525483
 20
212.5722728947825
 30
0.0
 11
48.87672595525483
 21
212.9062567947825
 31
0.0
  0
LINE
  5
A2C9
  8
0
 10
48.87672595525483
 20
212.9062567947825
 30
0.0
 11
48.54274110525482
 21
212.9062567947825
 31
0.0
  0
LINE
  5
A2CA
  8
0
 10
48.54274110525482
 20
212.9062567947825
 30
0.0
 11
48.54274110525482
 21
212.5722728947825
 31
0.0
  0
LINE
  5
A2CB
  8
0
 10
49.87749110525482
 20
212.5722728947825
 30
0.0
 11
50.21147500525483
 21
212.5722728947825
 31
0.0
  0
LINE
  5
A2CC
  8
0
 10
50.21147500525483
 20
212.5722728947825
 30
0.0
 11
50.21147500525483
 21
212.9062567947825
 31
0.0
  0
LINE
  5
A2CD
  8
0
 10
50.21147500525483
 20
212.9062567947825
 30
0.0
 11
49.87749110525482
 21
212.9062567947825
 31
0.0
  0
LINE
  5
A2CE
  8
0
 10
49.87749110525482
 20
212.9062567947825
 30
0.0
 11
49.87749110525482
 21
212.5722728947825
 31
0.0
  0
LINE
  5
A2D0
  8
0
 10
51.54708000525483
 20
212.5722728947825
 30
0.0
 11
53.21550610525483
 21
212.5722728947825
 31
0.0
  0
LINE
  5
A2D1
  8
0
 10
53.54987760525482
 20
210.5691028947825
 30
0.0
 11
53.54987760525482
 21
212.9062567947825
 31
0.0
  0
LINE
  5
A2D2
  8
0
 10
53.54987760525482
 20
212.9062567947825
 30
0.0
 11
51.21309610525483
 21
212.9062567947825
 31
0.0
  0
LINE
  5
A2D3
  8
0
 10
51.21309610525483
 20
212.9062567947825
 30
0.0
 11
51.21309610525483
 21
210.5691028947825
 31
0.0
  0
LINE
  5
A2D4
  8
0
 10
42.53437110525482
 20
212.2383478947825
 30
0.0
 11
42.86872645525483
 21
212.2383478947825
 31
0.0
  0
LINE
  5
A2D5
  8
0
 10
42.86872645525483
 20
212.2383478947825
 30
0.0
 11
42.86872645525483
 21
212.5723327447825
 31
0.0
  0
LINE
  5
A2D6
  8
0
 10
42.86872645525483
 20
212.5723327447825
 30
0.0
 11
42.53437110525482
 21
212.5723327447825
 31
0.0
  0
LINE
  5
A2D7
  8
0
 10
42.53437110525482
 20
212.5723327447825
 30
0.0
 11
42.53437110525482
 21
212.2383478947825
 31
0.0
  0
LINE
  5
A2D8
  8
0
 10
44.53744610525482
 20
212.2383478947825
 30
0.0
 11
44.87143000525481
 21
212.2383478947825
 31
0.0
  0
LINE
  5
A2D9
  8
0
 10
44.87143000525481
 20
212.2383478947825
 30
0.0
 11
44.87143000525481
 21
212.5723327447825
 31
0.0
  0
LINE
  5
A2DA
  8
0
 10
44.87143000525481
 20
212.5723327447825
 30
0.0
 11
44.53744610525482
 21
212.5723327447825
 31
0.0
  0
LINE
  5
A2DB
  8
0
 10
44.53744610525482
 20
212.5723327447825
 30
0.0
 11
44.53744610525482
 21
212.2383478947825
 31
0.0
  0
LINE
  5
A2DC
  8
0
 10
45.20510610525483
 20
212.2383478947825
 30
0.0
 11
46.20669110525482
 21
212.2383478947825
 31
0.0
  0
LINE
  5
A2DD
  8
0
 10
46.20669110525482
 20
212.2383478947825
 30
0.0
 11
46.20669110525482
 21
212.5723327447825
 31
0.0
  0
LINE
  5
A2DE
  8
0
 10
46.20669110525482
 20
212.5723327447825
 30
0.0
 11
45.20510610525483
 21
212.5723327447825
 31
0.0
  0
LINE
  5
A2DF
  8
0
 10
45.20510610525483
 20
212.5723327447825
 30
0.0
 11
45.20510610525483
 21
212.2383478947825
 31
0.0
  0
LINE
  5
A2E0
  8
0
 10
46.54033110525484
 20
212.2383478947825
 30
0.0
 11
47.54154560525483
 21
212.2383478947825
 31
0.0
  0
LINE
  5
A2E1
  8
0
 10
47.54154560525483
 20
212.2383478947825
 30
0.0
 11
47.54154560525483
 21
212.5723327447825
 31
0.0
  0
LINE
  5
A2E2
  8
0
 10
47.54154560525483
 20
212.5723327447825
 30
0.0
 11
46.54033110525484
 21
212.5723327447825
 31
0.0
  0
LINE
  5
A2E3
  8
0
 10
46.54033110525484
 20
212.5723327447825
 30
0.0
 11
46.54033110525484
 21
212.2383478947825
 31
0.0
  0
LINE
  5
A2E4
  8
0
 10
48.20910110525483
 20
212.2383478947825
 30
0.0
 11
48.54308500525482
 21
212.2383478947825
 31
0.0
  0
LINE
  5
A2E5
  8
0
 10
48.54308500525482
 20
212.2383478947825
 30
0.0
 11
48.54308500525482
 21
212.5723327447825
 31
0.0
  0
LINE
  5
A2E6
  8
0
 10
48.54308500525482
 20
212.5723327447825
 30
0.0
 11
48.20910110525483
 21
212.5723327447825
 31
0.0
  0
LINE
  5
A2E7
  8
0
 10
48.20910110525483
 20
212.5723327447825
 30
0.0
 11
48.20910110525483
 21
212.2383478947825
 31
0.0
  0
LINE
  5
A2E8
  8
0
 10
49.20992610525484
 20
212.2383478947825
 30
0.0
 11
49.54428145525483
 21
212.2383478947825
 31
0.0
  0
LINE
  5
A2E9
  8
0
 10
49.54428145525483
 20
212.2383478947825
 30
0.0
 11
49.54428145525483
 21
212.5723327447825
 31
0.0
  0
LINE
  5
A2EA
  8
0
 10
49.54428145525483
 20
212.5723327447825
 30
0.0
 11
49.20992610525484
 21
212.5723327447825
 31
0.0
  0
LINE
  5
A2EB
  8
0
 10
49.20992610525484
 20
212.5723327447825
 30
0.0
 11
49.20992610525484
 21
212.2383478947825
 31
0.0
  0
LINE
  5
A2EC
  8
0
 10
49.87749110525482
 20
212.2383478947825
 30
0.0
 11
50.21147500525483
 21
212.2383478947825
 31
0.0
  0
LINE
  5
A2ED
  8
0
 10
50.21147500525483
 20
212.2383478947825
 30
0.0
 11
50.21147500525483
 21
212.5723327447825
 31
0.0
  0
LINE
  5
A2EE
  8
0
 10
50.21147500525483
 20
212.5723327447825
 30
0.0
 11
49.87749110525482
 21
212.5723327447825
 31
0.0
  0
LINE
  5
A2EF
  8
0
 10
49.87749110525482
 20
212.5723327447825
 30
0.0
 11
49.87749110525482
 21
212.2383478947825
 31
0.0
  0
LINE
  5
A2F0
  8
0
 10
50.54591110525482
 20
212.2383478947825
 30
0.0
 11
50.87989595525482
 21
212.2383478947825
 31
0.0
  0
LINE
  5
A2F2
  8
0
 10
50.87989595525482
 20
212.2383032447825
 30
0.0
 11
50.87989595525482
 21
212.5723327447825
 31
0.0
  0
LINE
  5
A2F3
  8
0
 10
50.87989595525482
 20
212.5723327447825
 30
0.0
 11
50.54591110525482
 21
212.5723327447825
 31
0.0
  0
LINE
  5
A2F4
  8
0
 10
50.54591110525482
 20
212.5723327447825
 30
0.0
 11
50.54591110525482
 21
212.2383032447825
 31
0.0
  0
LINE
  5
A2F5
  8
0
 10
42.53437110525482
 20
211.9039478947825
 30
0.0
 11
42.86872645525483
 21
211.9039478947825
 31
0.0
  0
LINE
  5
A2F6
  8
0
 10
42.86872645525483
 20
211.9039478947825
 30
0.0
 11
42.86872645525483
 21
212.2383032447825
 31
0.0
  0
LINE
  5
A2F7
  8
0
 10
42.86872645525483
 20
212.2383032447825
 30
0.0
 11
42.53437110525482
 21
212.2383032447825
 31
0.0
  0
LINE
  5
A2F8
  8
0
 10
42.53437110525482
 20
212.2383032447825
 30
0.0
 11
42.53437110525482
 21
211.9039478947825
 31
0.0
  0
LINE
  5
A2F9
  8
0
 10
43.20193610525482
 20
211.9039478947825
 30
0.0
 11
44.20352110525482
 21
211.9039478947825
 31
0.0
  0
LINE
  5
A2FA
  8
0
 10
44.20352110525482
 20
211.9039478947825
 30
0.0
 11
44.20352110525482
 21
212.2383032447825
 31
0.0
  0
LINE
  5
A2FB
  8
0
 10
44.20352110525482
 20
212.2383032447825
 30
0.0
 11
43.20193610525482
 21
212.2383032447825
 31
0.0
  0
LINE
  5
A2FC
  8
0
 10
43.20193610525482
 20
212.2383032447825
 30
0.0
 11
43.20193610525482
 21
211.9039478947825
 31
0.0
  0
LINE
  5
A2FD
  8
0
 10
44.53744610525482
 20
211.9039478947825
 30
0.0
 11
44.87143000525481
 21
211.9039478947825
 31
0.0
  0
LINE
  5
A2FE
  8
0
 10
44.87143000525481
 20
211.9039478947825
 30
0.0
 11
44.87143000525481
 21
212.2383032447825
 31
0.0
  0
LINE
  5
A2FF
  8
0
 10
44.87143000525481
 20
212.2383032447825
 30
0.0
 11
44.53744610525482
 21
212.2383032447825
 31
0.0
  0
LINE
  5
A300
  8
0
 10
44.53744610525482
 20
212.2383032447825
 30
0.0
 11
44.53744610525482
 21
211.9039478947825
 31
0.0
  0
LINE
  5
A301
  8
0
 10
45.20510610525483
 20
211.9039478947825
 30
0.0
 11
46.20669110525482
 21
211.9039478947825
 31
0.0
  0
LINE
  5
A302
  8
0
 10
46.20669110525482
 20
211.9039478947825
 30
0.0
 11
46.20669110525482
 21
212.2383032447825
 31
0.0
  0
LINE
  5
A303
  8
0
 10
46.20669110525482
 20
212.2383032447825
 30
0.0
 11
45.20510610525483
 21
212.2383032447825
 31
0.0
  0
LINE
  5
A304
  8
0
 10
45.20510610525483
 20
212.2383032447825
 30
0.0
 11
45.20510610525483
 21
211.9039478947825
 31
0.0
  0
LINE
  5
A305
  8
0
 10
46.54033110525484
 20
211.9039478947825
 30
0.0
 11
47.20755790525482
 21
211.9039478947825
 31
0.0
  0
LINE
  5
A306
  8
0
 10
47.20755790525482
 20
211.9039478947825
 30
0.0
 11
47.20755790525482
 21
212.2383032447825
 31
0.0
  0
LINE
  5
A307
  8
0
 10
47.20755790525482
 20
212.2383032447825
 30
0.0
 11
46.54033110525484
 21
212.2383032447825
 31
0.0
  0
LINE
  5
A308
  8
0
 10
46.54033110525484
 20
212.2383032447825
 30
0.0
 11
46.54033110525484
 21
211.9039478947825
 31
0.0
  0
LINE
  5
A309
  8
0
 10
47.54153610525482
 20
211.9039478947825
 30
0.0
 11
47.87589145525483
 21
211.9039478947825
 31
0.0
  0
LINE
  5
A30A
  8
0
 10
47.87589145525483
 20
211.9039478947825
 30
0.0
 11
47.87589145525483
 21
212.2383032447825
 31
0.0
  0
LINE
  5
A30B
  8
0
 10
47.87589145525483
 20
212.2383032447825
 30
0.0
 11
47.54153610525482
 21
212.2383032447825
 31
0.0
  0
LINE
  5
A30C
  8
0
 10
47.54153610525482
 20
212.2383032447825
 30
0.0
 11
47.54153610525482
 21
211.9039478947825
 31
0.0
  0
LINE
  5
A30D
  8
0
 10
48.20910110525483
 20
211.9039478947825
 30
0.0
 11
49.21068610525484
 21
211.9039478947825
 31
0.0
  0
LINE
  5
A30E
  8
0
 10
49.21068610525484
 20
211.9039478947825
 30
0.0
 11
49.21068610525484
 21
212.2383032447825
 31
0.0
  0
LINE
  5
A30F
  8
0
 10
49.21068610525484
 20
212.2383032447825
 30
0.0
 11
48.20910110525483
 21
212.2383032447825
 31
0.0
  0
LINE
  5
A310
  8
0
 10
48.20910110525483
 20
212.2383032447825
 30
0.0
 11
48.20910110525483
 21
211.9039478947825
 31
0.0
  0
LINE
  5
A311
  8
0
 10
49.54432610525483
 20
211.9039478947825
 30
0.0
 11
49.87831095525482
 21
211.9039478947825
 31
0.0
  0
LINE
  5
A312
  8
0
 10
49.87831095525482
 20
211.9039478947825
 30
0.0
 11
49.87831095525482
 21
212.2383032447825
 31
0.0
  0
LINE
  5
A313
  8
0
 10
49.87831095525482
 20
212.2383032447825
 30
0.0
 11
49.54432610525483
 21
212.2383032447825
 31
0.0
  0
LINE
  5
A314
  8
0
 10
49.54432610525483
 20
212.2383032447825
 30
0.0
 11
49.54432610525483
 21
211.9039478947825
 31
0.0
  0
LINE
  5
A315
  8
0
 10
50.54591110525482
 20
211.9039478947825
 30
0.0
 11
50.87989595525482
 21
211.9039478947825
 31
0.0
  0
LINE
  5
A316
  8
0
 10
50.87989595525482
 20
211.9039478947825
 30
0.0
 11
50.87989595525482
 21
212.2383032447825
 31
0.0
  0
LINE
  5
A317
  8
0
 10
50.87989595525482
 20
212.2383032447825
 30
0.0
 11
50.54591110525482
 21
212.2383032447825
 31
0.0
  0
LINE
  5
A318
  8
0
 10
50.54591110525482
 20
212.2383032447825
 30
0.0
 11
50.54591110525482
 21
211.9039478947825
 31
0.0
  0
LINE
  5
A31A
  8
0
 10
52.88224610525482
 20
211.2367628947825
 30
0.0
 11
52.88224610525482
 21
212.2383032447825
 31
0.0
  0
LINE
  5
A31B
  8
0
 10
52.88224610525482
 20
212.2383032447825
 30
0.0
 11
51.88066110525482
 21
212.2383032447825
 31
0.0
  0
LINE
  5
A31C
  8
0
 10
51.88066110525482
 20
212.2383032447825
 30
0.0
 11
51.88066110525482
 21
211.2367628947825
 31
0.0
  0
LINE
  5
A31D
  8
0
 10
42.53437110525482
 20
211.5706878947825
 30
0.0
 11
42.86872645525483
 21
211.5706878947825
 31
0.0
  0
LINE
  5
A31E
  8
0
 10
42.86872645525483
 20
211.5706878947825
 30
0.0
 11
42.86872645525483
 21
211.9046717947825
 31
0.0
  0
LINE
  5
A31F
  8
0
 10
42.86872645525483
 20
211.9046717947825
 30
0.0
 11
42.53437110525482
 21
211.9046717947825
 31
0.0
  0
LINE
  5
A320
  8
0
 10
42.53437110525482
 20
211.9046717947825
 30
0.0
 11
42.53437110525482
 21
211.5706878947825
 31
0.0
  0
LINE
  5
A321
  8
0
 10
43.20193610525482
 20
211.5706878947825
 30
0.0
 11
44.20352110525482
 21
211.5706878947825
 31
0.0
  0
LINE
  5
A322
  8
0
 10
44.20352110525482
 20
211.5706878947825
 30
0.0
 11
44.20352110525482
 21
211.9046717947825
 31
0.0
  0
LINE
  5
A323
  8
0
 10
44.20352110525482
 20
211.9046717947825
 30
0.0
 11
43.20193610525482
 21
211.9046717947825
 31
0.0
  0
LINE
  5
A324
  8
0
 10
43.20193610525482
 20
211.9046717947825
 30
0.0
 11
43.20193610525482
 21
211.5706878947825
 31
0.0
  0
LINE
  5
A325
  8
0
 10
44.53744610525482
 20
211.5706878947825
 30
0.0
 11
44.87143000525481
 21
211.5706878947825
 31
0.0
  0
LINE
  5
A326
  8
0
 10
44.87143000525481
 20
211.5706878947825
 30
0.0
 11
44.87143000525481
 21
211.9046717947825
 31
0.0
  0
LINE
  5
A327
  8
0
 10
44.87143000525481
 20
211.9046717947825
 30
0.0
 11
44.53744610525482
 21
211.9046717947825
 31
0.0
  0
LINE
  5
A328
  8
0
 10
44.53744610525482
 20
211.9046717947825
 30
0.0
 11
44.53744610525482
 21
211.5706878947825
 31
0.0
  0
LINE
  5
A329
  8
0
 10
45.20510610525483
 20
211.5706878947825
 30
0.0
 11
45.53909095525484
 21
211.5706878947825
 31
0.0
  0
LINE
  5
A32A
  8
0
 10
45.53909095525484
 20
211.5706878947825
 30
0.0
 11
45.53909095525484
 21
211.9046717947825
 31
0.0
  0
LINE
  5
A32B
  8
0
 10
45.53909095525484
 20
211.9046717947825
 30
0.0
 11
45.20510610525483
 21
211.9046717947825
 31
0.0
  0
LINE
  5
A32C
  8
0
 10
45.20510610525483
 20
211.9046717947825
 30
0.0
 11
45.20510610525483
 21
211.5706878947825
 31
0.0
  0
LINE
  5
A32D
  8
0
 10
48.87666610525483
 20
211.5706878947825
 30
0.0
 11
49.21065000525482
 21
211.5706878947825
 31
0.0
  0
LINE
  5
A32E
  8
0
 10
49.21065000525482
 20
211.5706878947825
 30
0.0
 11
49.21065000525482
 21
211.9046717947825
 31
0.0
  0
LINE
  5
A32F
  8
0
 10
49.21065000525482
 20
211.9046717947825
 30
0.0
 11
48.87666610525483
 21
211.9046717947825
 31
0.0
  0
LINE
  5
A330
  8
0
 10
48.87666610525483
 20
211.9046717947825
 30
0.0
 11
48.87666610525483
 21
211.5706878947825
 31
0.0
  0
LINE
  5
A331
  8
0
 10
49.54432610525483
 20
211.5706878947825
 30
0.0
 11
50.87915210525482
 21
211.5706878947825
 31
0.0
  0
LINE
  5
A332
  8
0
 10
50.87915210525482
 20
211.5706878947825
 30
0.0
 11
50.87915210525482
 21
211.9046717947825
 31
0.0
  0
LINE
  5
A333
  8
0
 10
50.87915210525482
 20
211.9046717947825
 30
0.0
 11
49.54432610525483
 21
211.9046717947825
 31
0.0
  0
LINE
  5
A334
  8
0
 10
49.54432610525483
 20
211.9046717947825
 30
0.0
 11
49.54432610525483
 21
211.5706878947825
 31
0.0
  0
LINE
  5
A335
  8
0
 10
42.53437110525482
 20
211.2367628947825
 30
0.0
 11
42.86872645525483
 21
211.2367628947825
 31
0.0
  0
LINE
  5
A336
  8
0
 10
42.86872645525483
 20
211.2367628947825
 30
0.0
 11
42.86872645525483
 21
211.5707477447825
 31
0.0
  0
LINE
  5
A337
  8
0
 10
42.86872645525483
 20
211.5707477447825
 30
0.0
 11
42.53437110525482
 21
211.5707477447825
 31
0.0
  0
LINE
  5
A338
  8
0
 10
42.53437110525482
 20
211.5707477447825
 30
0.0
 11
42.53437110525482
 21
211.2367628947825
 31
0.0
  0
LINE
  5
A339
  8
0
 10
43.20193610525482
 20
211.2367628947825
 30
0.0
 11
44.20352110525482
 21
211.2367628947825
 31
0.0
  0
LINE
  5
A33A
  8
0
 10
44.20352110525482
 20
211.2367628947825
 30
0.0
 11
44.20352110525482
 21
211.5707477447825
 31
0.0
  0
LINE
  5
A33B
  8
0
 10
44.20352110525482
 20
211.5707477447825
 30
0.0
 11
43.20193610525482
 21
211.5707477447825
 31
0.0
  0
LINE
  5
A33C
  8
0
 10
43.20193610525482
 20
211.5707477447825
 30
0.0
 11
43.20193610525482
 21
211.2367628947825
 31
0.0
  0
LINE
  5
A33D
  8
0
 10
44.53744610525482
 20
211.2367628947825
 30
0.0
 11
44.87143000525481
 21
211.2367628947825
 31
0.0
  0
LINE
  5
A33E
  8
0
 10
44.87143000525481
 20
211.2367628947825
 30
0.0
 11
44.87143000525481
 21
211.5707477447825
 31
0.0
  0
LINE
  5
A33F
  8
0
 10
44.87143000525481
 20
211.5707477447825
 30
0.0
 11
44.53744610525482
 21
211.5707477447825
 31
0.0
  0
LINE
  5
A340
  8
0
 10
44.53744610525482
 20
211.5707477447825
 30
0.0
 11
44.53744610525482
 21
211.2367628947825
 31
0.0
  0
LINE
  5
A341
  8
0
 10
45.53874610525482
 20
211.2367628947825
 30
0.0
 11
45.87273095525481
 21
211.2367628947825
 31
0.0
  0
LINE
  5
A342
  8
0
 10
45.87273095525481
 20
211.2367628947825
 30
0.0
 11
45.87273095525481
 21
211.5707477447825
 31
0.0
  0
LINE
  5
A343
  8
0
 10
45.87273095525481
 20
211.5707477447825
 30
0.0
 11
45.53874610525482
 21
211.5707477447825
 31
0.0
  0
LINE
  5
A344
  8
0
 10
45.53874610525482
 20
211.5707477447825
 30
0.0
 11
45.53874610525482
 21
211.2367628947825
 31
0.0
  0
LINE
  5
A345
  8
0
 10
46.20593110525482
 20
211.2367628947825
 30
0.0
 11
47.20751610525484
 21
211.2367628947825
 31
0.0
  0
LINE
  5
A346
  8
0
 10
47.20751610525484
 20
211.2367628947825
 30
0.0
 11
47.20751610525484
 21
211.5707477447825
 31
0.0
  0
LINE
  5
A347
  8
0
 10
47.20751610525484
 20
211.5707477447825
 30
0.0
 11
46.20593110525482
 21
211.5707477447825
 31
0.0
  0
LINE
  5
A348
  8
0
 10
46.20593110525482
 20
211.5707477447825
 30
0.0
 11
46.20593110525482
 21
211.2367628947825
 31
0.0
  0
LINE
  5
A349
  8
0
 10
47.54153610525482
 20
211.2367628947825
 30
0.0
 11
47.87589145525483
 21
211.2367628947825
 31
0.0
  0
LINE
  5
A34A
  8
0
 10
47.87589145525483
 20
211.2367628947825
 30
0.0
 11
47.87589145525483
 21
211.5707477447825
 31
0.0
  0
LINE
  5
A34B
  8
0
 10
47.87589145525483
 20
211.5707477447825
 30
0.0
 11
47.54153610525482
 21
211.5707477447825
 31
0.0
  0
LINE
  5
A34C
  8
0
 10
47.54153610525482
 20
211.5707477447825
 30
0.0
 11
47.54153610525482
 21
211.2367628947825
 31
0.0
  0
LINE
  5
A34D
  8
0
 10
48.20910110525483
 20
211.2367628947825
 30
0.0
 11
48.87669840525483
 21
211.2367628947825
 31
0.0
  0
LINE
  5
A34E
  8
0
 10
48.87669840525483
 20
211.2367628947825
 30
0.0
 11
48.87669840525483
 21
211.5707477447825
 31
0.0
  0
LINE
  5
A34F
  8
0
 10
48.87669840525483
 20
211.5707477447825
 30
0.0
 11
48.20910110525483
 21
211.5707477447825
 31
0.0
  0
LINE
  5
A350
  8
0
 10
48.20910110525483
 20
211.5707477447825
 30
0.0
 11
48.20910110525483
 21
211.2367628947825
 31
0.0
  0
LINE
  5
A351
  8
0
 10
50.21151110525483
 20
211.2367628947825
 30
0.0
 11
50.54586645525482
 21
211.2367628947825
 31
0.0
  0
LINE
  5
A352
  8
0
 10
50.54586645525482
 20
211.2367628947825
 30
0.0
 11
50.54586645525482
 21
211.5707477447825
 31
0.0
  0
LINE
  5
A353
  8
0
 10
50.54586645525482
 20
211.5707477447825
 30
0.0
 11
50.21151110525483
 21
211.5707477447825
 31
0.0
  0
LINE
  5
A354
  8
0
 10
50.21151110525483
 20
211.5707477447825
 30
0.0
 11
50.21151110525483
 21
211.2367628947825
 31
0.0
  0
LINE
  5
A355
  8
0
 10
51.88066110525482
 20
211.2367628947825
 30
0.0
 11
52.88224610525482
 21
211.2367628947825
 31
0.0
  0
LINE
  5
A356
  8
0
 10
42.53437110525482
 20
210.9031228947825
 30
0.0
 11
42.86872645525483
 21
210.9031228947825
 31
0.0
  0
LINE
  5
A357
  8
0
 10
42.86872645525483
 20
210.9031228947825
 30
0.0
 11
42.86872645525483
 21
211.2371077447825
 31
0.0
  0
LINE
  5
A358
  8
0
 10
42.86872645525483
 20
211.2371077447825
 30
0.0
 11
42.53437110525482
 21
211.2371077447825
 31
0.0
  0
LINE
  5
A359
  8
0
 10
42.53437110525482
 20
211.2371077447825
 30
0.0
 11
42.53437110525482
 21
210.9031228947825
 31
0.0
  0
LINE
  5
A35A
  8
0
 10
44.53744610525482
 20
210.9031228947825
 30
0.0
 11
44.87143000525481
 21
210.9031228947825
 31
0.0
  0
LINE
  5
A35B
  8
0
 10
44.87143000525481
 20
210.9031228947825
 30
0.0
 11
44.87143000525481
 21
211.2371077447825
 31
0.0
  0
LINE
  5
A35C
  8
0
 10
44.87143000525481
 20
211.2371077447825
 30
0.0
 11
44.53744610525482
 21
211.2371077447825
 31
0.0
  0
LINE
  5
A35D
  8
0
 10
44.53744610525482
 20
211.2371077447825
 30
0.0
 11
44.53744610525482
 21
210.9031228947825
 31
0.0
  0
LINE
  5
A35E
  8
0
 10
46.87349610525482
 20
210.9031228947825
 30
0.0
 11
47.54109435525484
 21
210.9031228947825
 31
0.0
  0
LINE
  5
A35F
  8
0
 10
47.54109435525484
 20
210.9031228947825
 30
0.0
 11
47.54109435525484
 21
211.2371077447825
 31
0.0
  0
LINE
  5
A360
  8
0
 10
47.54109435525484
 20
211.2371077447825
 30
0.0
 11
46.87349610525482
 21
211.2371077447825
 31
0.0
  0
LINE
  5
A361
  8
0
 10
46.87349610525482
 20
211.2371077447825
 30
0.0
 11
46.87349610525482
 21
210.9031228947825
 31
0.0
  0
LINE
  5
A362
  8
0
 10
47.87508110525482
 20
210.9031228947825
 30
0.0
 11
48.20906595525483
 21
210.9031228947825
 31
0.0
  0
LINE
  5
A363
  8
0
 10
48.20906595525483
 20
210.9031228947825
 30
0.0
 11
48.20906595525483
 21
211.2371077447825
 31
0.0
  0
LINE
  5
A364
  8
0
 10
48.20906595525483
 20
211.2371077447825
 30
0.0
 11
47.87508110525482
 21
211.2371077447825
 31
0.0
  0
LINE
  5
A365
  8
0
 10
47.87508110525482
 20
211.2371077447825
 30
0.0
 11
47.87508110525482
 21
210.9031228947825
 31
0.0
  0
LINE
  5
A366
  8
0
 10
48.54274110525482
 20
210.9031228947825
 30
0.0
 11
48.87672595525483
 21
210.9031228947825
 31
0.0
  0
LINE
  5
A367
  8
0
 10
48.87672595525483
 20
210.9031228947825
 30
0.0
 11
48.87672595525483
 21
211.2371077447825
 31
0.0
  0
LINE
  5
A368
  8
0
 10
48.87672595525483
 20
211.2371077447825
 30
0.0
 11
48.54274110525482
 21
211.2371077447825
 31
0.0
  0
LINE
  5
A369
  8
0
 10
48.54274110525482
 20
211.2371077447825
 30
0.0
 11
48.54274110525482
 21
210.9031228947825
 31
0.0
  0
LINE
  5
A36A
  8
0
 10
49.20992610525484
 20
210.9031228947825
 30
0.0
 11
49.54428145525483
 21
210.9031228947825
 31
0.0
  0
LINE
  5
A36B
  8
0
 10
49.54428145525483
 20
210.9031228947825
 30
0.0
 11
49.54428145525483
 21
211.2371077447825
 31
0.0
  0
LINE
  5
A36C
  8
0
 10
49.54428145525483
 20
211.2371077447825
 30
0.0
 11
49.20992610525484
 21
211.2371077447825
 31
0.0
  0
LINE
  5
A36D
  8
0
 10
49.20992610525484
 20
211.2371077447825
 30
0.0
 11
49.20992610525484
 21
210.9031228947825
 31
0.0
  0
LINE
  5
A36E
  8
0
 10
51.54708000525483
 20
210.9030867947825
 30
0.0
 11
51.54708000525483
 21
212.5722728947825
 31
0.0
  0
LINE
  5
A36F
  8
0
 10
53.21550610525483
 20
212.5722728947825
 30
0.0
 11
53.21550610525483
 21
210.9030867947825
 31
0.0
  0
LINE
  5
A370
  8
0
 10
42.53437110525482
 20
210.5691028947825
 30
0.0
 11
44.87115260525485
 21
210.5691028947825
 31
0.0
  0
LINE
  5
A371
  8
0
 10
44.87115260525485
 20
210.5691028947825
 30
0.0
 11
44.87115260525485
 21
210.9030867947825
 31
0.0
  0
LINE
  5
A372
  8
0
 10
44.87115260525485
 20
210.9030867947825
 30
0.0
 11
42.53437110525482
 21
210.9030867947825
 31
0.0
  0
LINE
  5
A373
  8
0
 10
42.53437110525482
 20
210.9030867947825
 30
0.0
 11
42.53437110525482
 21
210.5691028947825
 31
0.0
  0
LINE
  5
A374
  8
0
 10
45.20510610525483
 20
210.5691028947825
 30
0.0
 11
45.53909095525484
 21
210.5691028947825
 31
0.0
  0
LINE
  5
A375
  8
0
 10
45.53909095525484
 20
210.5691028947825
 30
0.0
 11
45.53909095525484
 21
210.9030867947825
 31
0.0
  0
LINE
  5
A376
  8
0
 10
45.53909095525484
 20
210.9030867947825
 30
0.0
 11
45.20510610525483
 21
210.9030867947825
 31
0.0
  0
LINE
  5
A377
  8
0
 10
45.20510610525483
 20
210.9030867947825
 30
0.0
 11
45.20510610525483
 21
210.5691028947825
 31
0.0
  0
LINE
  5
A378
  8
0
 10
45.87267110525482
 20
210.5691028947825
 30
0.0
 11
46.20665500525483
 21
210.5691028947825
 31
0.0
  0
LINE
  5
A379
  8
0
 10
46.20665500525483
 20
210.5691028947825
 30
0.0
 11
46.20665500525483
 21
210.9030867947825
 31
0.0
  0
LINE
  5
A37A
  8
0
 10
46.20665500525483
 20
210.9030867947825
 30
0.0
 11
45.87267110525482
 21
210.9030867947825
 31
0.0
  0
LINE
  5
A37B
  8
0
 10
45.87267110525482
 20
210.9030867947825
 30
0.0
 11
45.87267110525482
 21
210.5691028947825
 31
0.0
  0
LINE
  5
A37C
  8
0
 10
46.54033110525484
 20
210.5691028947825
 30
0.0
 11
46.87431500525483
 21
210.5691028947825
 31
0.0
  0
LINE
  5
A37D
  8
0
 10
46.87431500525483
 20
210.5691028947825
 30
0.0
 11
46.87431500525483
 21
210.9030867947825
 31
0.0
  0
LINE
  5
A37E
  8
0
 10
46.87431500525483
 20
210.9030867947825
 30
0.0
 11
46.54033110525484
 21
210.9030867947825
 31
0.0
  0
LINE
  5
A37F
  8
0
 10
46.54033110525484
 20
210.9030867947825
 30
0.0
 11
46.54033110525484
 21
210.5691028947825
 31
0.0
  0
LINE
  5
A380
  8
0
 10
47.20751610525484
 20
210.5691028947825
 30
0.0
 11
47.54150000525483
 21
210.5691028947825
 31
0.0
  0
LINE
  5
A381
  8
0
 10
47.54150000525483
 20
210.5691028947825
 30
0.0
 11
47.54150000525483
 21
210.9030867947825
 31
0.0
  0
LINE
  5
A382
  8
0
 10
47.54150000525483
 20
210.9030867947825
 30
0.0
 11
47.20751610525484
 21
210.9030867947825
 31
0.0
  0
LINE
  5
A383
  8
0
 10
47.20751610525484
 20
210.9030867947825
 30
0.0
 11
47.20751610525484
 21
210.5691028947825
 31
0.0
  0
LINE
  5
A384
  8
0
 10
47.87508110525482
 20
210.5691028947825
 30
0.0
 11
48.20906595525483
 21
210.5691028947825
 31
0.0
  0
LINE
  5
A385
  8
0
 10
48.20906595525483
 20
210.5691028947825
 30
0.0
 11
48.20906595525483
 21
210.9030867947825
 31
0.0
  0
LINE
  5
A386
  8
0
 10
48.20906595525483
 20
210.9030867947825
 30
0.0
 11
47.87508110525482
 21
210.9030867947825
 31
0.0
  0
LINE
  5
A387
  8
0
 10
47.87508110525482
 20
210.9030867947825
 30
0.0
 11
47.87508110525482
 21
210.5691028947825
 31
0.0
  0
LINE
  5
A388
  8
0
 10
48.54274110525482
 20
210.5691028947825
 30
0.0
 11
48.87672595525483
 21
210.5691028947825
 31
0.0
  0
LINE
  5
A389
  8
0
 10
48.87672595525483
 20
210.5691028947825
 30
0.0
 11
48.87672595525483
 21
210.9030867947825
 31
0.0
  0
LINE
  5
A38A
  8
0
 10
48.87672595525483
 20
210.9030867947825
 30
0.0
 11
48.54274110525482
 21
210.9030867947825
 31
0.0
  0
LINE
  5
A38B
  8
0
 10
48.54274110525482
 20
210.9030867947825
 30
0.0
 11
48.54274110525482
 21
210.5691028947825
 31
0.0
  0
LINE
  5
A38C
  8
0
 10
49.20992610525484
 20
210.5691028947825
 30
0.0
 11
49.54428145525483
 21
210.5691028947825
 31
0.0
  0
LINE
  5
A38D
  8
0
 10
49.54428145525483
 20
210.5691028947825
 30
0.0
 11
49.54428145525483
 21
210.9030867947825
 31
0.0
  0
LINE
  5
A38E
  8
0
 10
49.54428145525483
 20
210.9030867947825
 30
0.0
 11
49.20992610525484
 21
210.9030867947825
 31
0.0
  0
LINE
  5
A38F
  8
0
 10
49.20992610525484
 20
210.9030867947825
 30
0.0
 11
49.20992610525484
 21
210.5691028947825
 31
0.0
  0
LINE
  5
A390
  8
0
 10
49.87749110525482
 20
210.5691028947825
 30
0.0
 11
50.21147500525483
 21
210.5691028947825
 31
0.0
  0
LINE
  5
A391
  8
0
 10
50.21147500525483
 20
210.5691028947825
 30
0.0
 11
50.21147500525483
 21
210.9030867947825
 31
0.0
  0
LINE
  5
A392
  8
0
 10
50.21147500525483
 20
210.9030867947825
 30
0.0
 11
49.87749110525482
 21
210.9030867947825
 31
0.0
  0
LINE
  5
A393
  8
0
 10
49.87749110525482
 20
210.9030867947825
 30
0.0
 11
49.87749110525482
 21
210.5691028947825
 31
0.0
  0
LINE
  5
A394
  8
0
 10
50.54591110525482
 20
210.5691028947825
 30
0.0
 11
50.87989595525482
 21
210.5691028947825
 31
0.0
  0
LINE
  5
A395
  8
0
 10
50.87989595525482
 20
210.5691028947825
 30
0.0
 11
50.87989595525482
 21
210.9030867947825
 31
0.0
  0
LINE
  5
A396
  8
0
 10
50.87989595525482
 20
210.9030867947825
 30
0.0
 11
50.54591110525482
 21
210.9030867947825
 31
0.0
  0
LINE
  5
A397
  8
0
 10
50.54591110525482
 20
210.9030867947825
 30
0.0
 11
50.54591110525482
 21
210.5691028947825
 31
0.0
  0
LINE
  5
A398
  8
0
 10
51.21309610525483
 20
210.5691028947825
 30
0.0
 11
53.54987760525482
 21
210.5691028947825
 31
0.0
  0
LINE
  5
A399
  8
0
 10
53.21550610525483
 20
210.9030867947825
 30
0.0
 11
51.54708000525483
 21
210.9030867947825
 31
0.0
  0
LINE
  5
A39A
  8
0
 10
45.20510610525483
 20
210.2359378947825
 30
0.0
 11
45.53909095525484
 21
210.2359378947825
 31
0.0
  0
LINE
  5
A39B
  8
0
 10
45.53909095525484
 20
210.2359378947825
 30
0.0
 11
45.53909095525484
 21
210.5699217947825
 31
0.0
  0
LINE
  5
A39C
  8
0
 10
45.53909095525484
 20
210.5699217947825
 30
0.0
 11
45.20510610525483
 21
210.5699217947825
 31
0.0
  0
LINE
  5
A39D
  8
0
 10
45.20510610525483
 20
210.5699217947825
 30
0.0
 11
45.20510610525483
 21
210.2359378947825
 31
0.0
  0
LINE
  5
A39E
  8
0
 10
46.54033110525484
 20
210.2359378947825
 30
0.0
 11
46.87431500525483
 21
210.2359378947825
 31
0.0
  0
LINE
  5
A39F
  8
0
 10
46.87431500525483
 20
210.2359378947825
 30
0.0
 11
46.87431500525483
 21
210.5699217947825
 31
0.0
  0
LINE
  5
A3A0
  8
0
 10
46.87431500525483
 20
210.5699217947825
 30
0.0
 11
46.54033110525484
 21
210.5699217947825
 31
0.0
  0
LINE
  5
A3A1
  8
0
 10
46.54033110525484
 20
210.5699217947825
 30
0.0
 11
46.54033110525484
 21
210.2359378947825
 31
0.0
  0
LINE
  5
A3A2
  8
0
 10
47.20751610525484
 20
210.2359378947825
 30
0.0
 11
47.54150000525483
 21
210.2359378947825
 31
0.0
  0
LINE
  5
A3A3
  8
0
 10
47.54150000525483
 20
210.2359378947825
 30
0.0
 11
47.54150000525483
 21
210.5699217947825
 31
0.0
  0
LINE
  5
A3A4
  8
0
 10
47.54150000525483
 20
210.5699217947825
 30
0.0
 11
47.20751610525484
 21
210.5699217947825
 31
0.0
  0
LINE
  5
A3A5
  8
0
 10
47.20751610525484
 20
210.5699217947825
 30
0.0
 11
47.20751610525484
 21
210.2359378947825
 31
0.0
  0
LINE
  5
A3A6
  8
0
 10
49.87749110525482
 20
210.2359378947825
 30
0.0
 11
50.21147500525483
 21
210.2359378947825
 31
0.0
  0
LINE
  5
A3A7
  8
0
 10
50.21147500525483
 20
210.2359378947825
 30
0.0
 11
50.21147500525483
 21
210.5699217947825
 31
0.0
  0
LINE
  5
A3A8
  8
0
 10
50.21147500525483
 20
210.5699217947825
 30
0.0
 11
49.87749110525482
 21
210.5699217947825
 31
0.0
  0
LINE
  5
A3A9
  8
0
 10
49.87749110525482
 20
210.5699217947825
 30
0.0
 11
49.87749110525482
 21
210.2359378947825
 31
0.0
  0
LINE
  5
A3AA
  8
0
 10
50.54591110525482
 20
210.2359378947825
 30
0.0
 11
50.87989595525482
 21
210.2359378947825
 31
0.0
  0
LINE
  5
A3AB
  8
0
 10
50.87989595525482
 20
210.2359378947825
 30
0.0
 11
50.87989595525482
 21
210.5699217947825
 31
0.0
  0
LINE
  5
A3AC
  8
0
 10
50.87989595525482
 20
210.5699217947825
 30
0.0
 11
50.54591110525482
 21
210.5699217947825
 31
0.0
  0
LINE
  5
A3AD
  8
0
 10
50.54591110525482
 20
210.5699217947825
 30
0.0
 11
50.54591110525482
 21
210.2359378947825
 31
0.0
  0
LINE
  5
A3AE
  8
0
 10
42.53437110525482
 20
209.9015378947825
 30
0.0
 11
42.86872645525483
 21
209.9015378947825
 31
0.0
  0
LINE
  5
A3AF
  8
0
 10
42.86872645525483
 20
209.9015378947825
 30
0.0
 11
42.86872645525483
 21
210.2358932447825
 31
0.0
  0
LINE
  5
A3B0
  8
0
 10
42.86872645525483
 20
210.2358932447825
 30
0.0
 11
42.53437110525482
 21
210.2358932447825
 31
0.0
  0
LINE
  5
A3B1
  8
0
 10
42.53437110525482
 20
210.2358932447825
 30
0.0
 11
42.53437110525482
 21
209.9015378947825
 31
0.0
  0
LINE
  5
A3B2
  8
0
 10
44.53744610525482
 20
209.9015378947825
 30
0.0
 11
44.87143000525481
 21
209.9015378947825
 31
0.0
  0
LINE
  5
A3B3
  8
0
 10
44.87143000525481
 20
209.9015378947825
 30
0.0
 11
44.87143000525481
 21
210.2358932447825
 31
0.0
  0
LINE
  5
A3B4
  8
0
 10
44.87143000525481
 20
210.2358932447825
 30
0.0
 11
44.53744610525482
 21
210.2358932447825
 31
0.0
  0
LINE
  5
A3B5
  8
0
 10
44.53744610525482
 20
210.2358932447825
 30
0.0
 11
44.53744610525482
 21
209.9015378947825
 31
0.0
  0
LINE
  5
A3B6
  8
0
 10
45.20510610525483
 20
209.9015378947825
 30
0.0
 11
46.20669110525482
 21
209.9015378947825
 31
0.0
  0
LINE
  5
A3B7
  8
0
 10
46.20669110525482
 20
209.9015378947825
 30
0.0
 11
46.20669110525482
 21
210.2358932447825
 31
0.0
  0
LINE
  5
A3B8
  8
0
 10
46.20669110525482
 20
210.2358932447825
 30
0.0
 11
45.20510610525483
 21
210.2358932447825
 31
0.0
  0
LINE
  5
A3B9
  8
0
 10
45.20510610525483
 20
210.2358932447825
 30
0.0
 11
45.20510610525483
 21
209.9015378947825
 31
0.0
  0
LINE
  5
A3BA
  8
0
 10
46.87349610525482
 20
209.9015378947825
 30
0.0
 11
48.54267460525483
 21
209.9015378947825
 31
0.0
  0
LINE
  5
A3BB
  8
0
 10
48.54267460525483
 20
209.9015378947825
 30
0.0
 11
48.54267460525483
 21
210.2358932447825
 31
0.0
  0
LINE
  5
A3BC
  8
0
 10
48.54267460525483
 20
210.2358932447825
 30
0.0
 11
46.87349610525482
 21
210.2358932447825
 31
0.0
  0
LINE
  5
A3BD
  8
0
 10
46.87349610525482
 20
210.2358932447825
 30
0.0
 11
46.87349610525482
 21
209.9015378947825
 31
0.0
  0
LINE
  5
A3BE
  8
0
 10
49.87749110525482
 20
209.9015378947825
 30
0.0
 11
50.21147500525483
 21
209.9015378947825
 31
0.0
  0
LINE
  5
A3BF
  8
0
 10
50.21147500525483
 20
209.9015378947825
 30
0.0
 11
50.21147500525483
 21
210.2358932447825
 31
0.0
  0
LINE
  5
A3C0
  8
0
 10
50.21147500525483
 20
210.2358932447825
 30
0.0
 11
49.87749110525482
 21
210.2358932447825
 31
0.0
  0
LINE
  5
A3C1
  8
0
 10
49.87749110525482
 20
210.2358932447825
 30
0.0
 11
49.87749110525482
 21
209.9015378947825
 31
0.0
  0
LINE
  5
A3C2
  8
0
 10
50.54591110525482
 20
209.9015378947825
 30
0.0
 11
51.54712560525482
 21
209.9015378947825
 31
0.0
  0
LINE
  5
A3C3
  8
0
 10
51.54712560525482
 20
209.9015378947825
 30
0.0
 11
51.54712560525482
 21
210.2358932447825
 31
0.0
  0
LINE
  5
A3C4
  8
0
 10
51.54712560525482
 20
210.2358932447825
 30
0.0
 11
50.54591110525482
 21
210.2358932447825
 31
0.0
  0
LINE
  5
A3C5
  8
0
 10
50.54591110525482
 20
210.2358932447825
 30
0.0
 11
50.54591110525482
 21
209.9015378947825
 31
0.0
  0
LINE
  5
A3C6
  8
0
 10
52.21392110525483
 20
209.9015378947825
 30
0.0
 11
53.21550610525483
 21
209.9015378947825
 31
0.0
  0
LINE
  5
A3C7
  8
0
 10
53.21550610525483
 20
209.9015378947825
 30
0.0
 11
53.21550610525483
 21
210.2358932447825
 31
0.0
  0
LINE
  5
A3C8
  8
0
 10
53.21550610525483
 20
210.2358932447825
 30
0.0
 11
52.21392110525483
 21
210.2358932447825
 31
0.0
  0
LINE
  5
A3C9
  8
0
 10
52.21392110525483
 20
210.2358932447825
 30
0.0
 11
52.21392110525483
 21
209.9015378947825
 31
0.0
  0
LINE
  5
A3CA
  8
0
 10
42.53437110525482
 20
209.5682778947825
 30
0.0
 11
42.86872645525483
 21
209.5682778947825
 31
0.0
  0
LINE
  5
A3CB
  8
0
 10
42.86872645525483
 20
209.5682778947825
 30
0.0
 11
42.86872645525483
 21
209.9022627447825
 31
0.0
  0
LINE
  5
A3CC
  8
0
 10
42.86872645525483
 20
209.9022627447825
 30
0.0
 11
42.53437110525482
 21
209.9022627447825
 31
0.0
  0
LINE
  5
A3CD
  8
0
 10
42.53437110525482
 20
209.9022627447825
 30
0.0
 11
42.53437110525482
 21
209.5682778947825
 31
0.0
  0
LINE
  5
A3CE
  8
0
 10
44.20352110525482
 20
209.5682778947825
 30
0.0
 11
44.53750595525483
 21
209.5682778947825
 31
0.0
  0
LINE
  5
A3CF
  8
0
 10
44.53750595525483
 20
209.5682778947825
 30
0.0
 11
44.53750595525483
 21
209.9022627447825
 31
0.0
  0
LINE
  5
A3D0
  8
0
 10
44.53750595525483
 20
209.9022627447825
 30
0.0
 11
44.20352110525482
 21
209.9022627447825
 31
0.0
  0
LINE
  5
A3D1
  8
0
 10
44.20352110525482
 20
209.9022627447825
 30
0.0
 11
44.20352110525482
 21
209.5682778947825
 31
0.0
  0
LINE
  5
A3D2
  8
0
 10
45.20510610525483
 20
209.5682778947825
 30
0.0
 11
45.53909095525484
 21
209.5682778947825
 31
0.0
  0
LINE
  5
A3D3
  8
0
 10
45.53909095525484
 20
209.5682778947825
 30
0.0
 11
45.53909095525484
 21
209.9022627447825
 31
0.0
  0
LINE
  5
A3D4
  8
0
 10
45.53909095525484
 20
209.9022627447825
 30
0.0
 11
45.20510610525483
 21
209.9022627447825
 31
0.0
  0
LINE
  5
A3D5
  8
0
 10
45.20510610525483
 20
209.9022627447825
 30
0.0
 11
45.20510610525483
 21
209.5682778947825
 31
0.0
  0
LINE
  5
A3D6
  8
0
 10
45.87267110525482
 20
209.5682778947825
 30
0.0
 11
46.87388560525483
 21
209.5682778947825
 31
0.0
  0
LINE
  5
A3D7
  8
0
 10
46.87388560525483
 20
209.5682778947825
 30
0.0
 11
46.87388560525483
 21
209.9022627447825
 31
0.0
  0
LINE
  5
A3D8
  8
0
 10
46.87388560525483
 20
209.9022627447825
 30
0.0
 11
45.87267110525482
 21
209.9022627447825
 31
0.0
  0
LINE
  5
A3D9
  8
0
 10
45.87267110525482
 20
209.9022627447825
 30
0.0
 11
45.87267110525482
 21
209.5682778947825
 31
0.0
  0
LINE
  5
A3DA
  8
0
 10
47.54153610525482
 20
209.5682778947825
 30
0.0
 11
47.87589145525483
 21
209.5682778947825
 31
0.0
  0
LINE
  5
A3DB
  8
0
 10
47.87589145525483
 20
209.5682778947825
 30
0.0
 11
47.87589145525483
 21
209.9022627447825
 31
0.0
  0
LINE
  5
A3DC
  8
0
 10
47.87589145525483
 20
209.9022627447825
 30
0.0
 11
47.54153610525482
 21
209.9022627447825
 31
0.0
  0
LINE
  5
A3DD
  8
0
 10
47.54153610525482
 20
209.9022627447825
 30
0.0
 11
47.54153610525482
 21
209.5682778947825
 31
0.0
  0
LINE
  5
A3DE
  8
0
 10
48.54274110525482
 20
209.5682778947825
 30
0.0
 11
49.20996790525484
 21
209.5682778947825
 31
0.0
  0
LINE
  5
A3DF
  8
0
 10
49.20996790525484
 20
209.5682778947825
 30
0.0
 11
49.20996790525484
 21
209.9022627447825
 31
0.0
  0
LINE
  5
A3E0
  8
0
 10
49.20996790525484
 20
209.9022627447825
 30
0.0
 11
48.54274110525482
 21
209.9022627447825
 31
0.0
  0
LINE
  5
A3E1
  8
0
 10
48.54274110525482
 20
209.9022627447825
 30
0.0
 11
48.54274110525482
 21
209.5682778947825
 31
0.0
  0
LINE
  5
A3E2
  8
0
 10
49.54432610525483
 20
209.5682778947825
 30
0.0
 11
50.54591110525482
 21
209.5682778947825
 31
0.0
  0
LINE
  5
A3E3
  8
0
 10
50.54591110525482
 20
209.5682778947825
 30
0.0
 11
50.54591110525482
 21
209.9022627447825
 31
0.0
  0
LINE
  5
A3E4
  8
0
 10
50.54591110525482
 20
209.9022627447825
 30
0.0
 11
49.54432610525483
 21
209.9022627447825
 31
0.0
  0
LINE
  5
A3E5
  8
0
 10
49.54432610525483
 20
209.9022627447825
 30
0.0
 11
49.54432610525483
 21
209.5682778947825
 31
0.0
  0
LINE
  5
A3E6
  8
0
 10
51.88066110525482
 20
209.5682778947825
 30
0.0
 11
52.88224610525482
 21
209.5682778947825
 31
0.0
  0
LINE
  5
A3E7
  8
0
 10
52.88224610525482
 20
209.5682778947825
 30
0.0
 11
52.88224610525482
 21
209.9022627447825
 31
0.0
  0
LINE
  5
A3E8
  8
0
 10
52.88224610525482
 20
209.9022627447825
 30
0.0
 11
51.88066110525482
 21
209.9022627447825
 31
0.0
  0
LINE
  5
A3E9
  8
0
 10
51.88066110525482
 20
209.9022627447825
 30
0.0
 11
51.88066110525482
 21
209.5682778947825
 31
0.0
  0
LINE
  5
A3EA
  8
0
 10
43.20193610525482
 20
209.2343528947825
 30
0.0
 11
43.53629240525481
 21
209.2343528947825
 31
0.0
  0
LINE
  5
A3EB
  8
0
 10
43.53629240525481
 20
209.2343528947825
 30
0.0
 11
43.53629240525481
 21
209.5683367947825
 31
0.0
  0
LINE
  5
A3EC
  8
0
 10
43.53629240525481
 20
209.5683367947825
 30
0.0
 11
43.20193610525482
 21
209.5683367947825
 31
0.0
  0
LINE
  5
A3ED
  8
0
 10
43.20193610525482
 20
209.5683367947825
 30
0.0
 11
43.20193610525482
 21
209.2343528947825
 31
0.0
  0
LINE
  5
A3EE
  8
0
 10
43.86950110525484
 20
209.2343528947825
 30
0.0
 11
45.20469760525481
 21
209.2343528947825
 31
0.0
  0
LINE
  5
A3EF
  8
0
 10
45.20469760525481
 20
209.2343528947825
 30
0.0
 11
45.20469760525481
 21
209.5683367947825
 31
0.0
  0
LINE
  5
A3F0
  8
0
 10
45.20469760525481
 20
209.5683367947825
 30
0.0
 11
43.86950110525484
 21
209.5683367947825
 31
0.0
  0
LINE
  5
A3F1
  8
0
 10
43.86950110525484
 20
209.5683367947825
 30
0.0
 11
43.86950110525484
 21
209.2343528947825
 31
0.0
  0
LINE
  5
A3F2
  8
0
 10
45.53874610525482
 20
209.2343528947825
 30
0.0
 11
46.20597290525482
 21
209.2343528947825
 31
0.0
  0
LINE
  5
A3F3
  8
0
 10
46.20597290525482
 20
209.2343528947825
 30
0.0
 11
46.20597290525482
 21
209.5683367947825
 31
0.0
  0
LINE
  5
A3F4
  8
0
 10
46.20597290525482
 20
209.5683367947825
 30
0.0
 11
45.53874610525482
 21
209.5683367947825
 31
0.0
  0
LINE
  5
A3F5
  8
0
 10
45.53874610525482
 20
209.5683367947825
 30
0.0
 11
45.53874610525482
 21
209.2343528947825
 31
0.0
  0
LINE
  5
A3F6
  8
0
 10
46.54033110525484
 20
209.2343528947825
 30
0.0
 11
46.87431500525483
 21
209.2343528947825
 31
0.0
  0
LINE
  5
A3F7
  8
0
 10
46.87431500525483
 20
209.2343528947825
 30
0.0
 11
46.87431500525483
 21
209.5683367947825
 31
0.0
  0
LINE
  5
A3F8
  8
0
 10
46.87431500525483
 20
209.5683367947825
 30
0.0
 11
46.54033110525484
 21
209.5683367947825
 31
0.0
  0
LINE
  5
A3F9
  8
0
 10
46.54033110525484
 20
209.5683367947825
 30
0.0
 11
46.54033110525484
 21
209.2343528947825
 31
0.0
  0
LINE
  5
A3FA
  8
0
 10
47.54153610525482
 20
209.2343528947825
 30
0.0
 11
47.87589145525483
 21
209.2343528947825
 31
0.0
  0
LINE
  5
A3FB
  8
0
 10
47.87589145525483
 20
209.2343528947825
 30
0.0
 11
47.87589145525483
 21
209.5683367947825
 31
0.0
  0
LINE
  5
A3FC
  8
0
 10
47.87589145525483
 20
209.5683367947825
 30
0.0
 11
47.54153610525482
 21
209.5683367947825
 31
0.0
  0
LINE
  5
A3FD
  8
0
 10
47.54153610525482
 20
209.5683367947825
 30
0.0
 11
47.54153610525482
 21
209.2343528947825
 31
0.0
  0
LINE
  5
A3FE
  8
0
 10
48.54274110525482
 20
209.2343528947825
 30
0.0
 11
48.87672595525483
 21
209.2343528947825
 31
0.0
  0
LINE
  5
A3FF
  8
0
 10
48.87672595525483
 20
209.2343528947825
 30
0.0
 11
48.87672595525483
 21
209.5683367947825
 31
0.0
  0
LINE
  5
A400
  8
0
 10
48.87672595525483
 20
209.5683367947825
 30
0.0
 11
48.54274110525482
 21
209.5683367947825
 31
0.0
  0
LINE
  5
A401
  8
0
 10
48.54274110525482
 20
209.5683367947825
 30
0.0
 11
48.54274110525482
 21
209.2343528947825
 31
0.0
  0
LINE
  5
A402
  8
0
 10
49.20992610525484
 20
209.2343528947825
 30
0.0
 11
49.54428145525483
 21
209.2343528947825
 31
0.0
  0
LINE
  5
A403
  8
0
 10
49.54428145525483
 20
209.2343528947825
 30
0.0
 11
49.54428145525483
 21
209.5683367947825
 31
0.0
  0
LINE
  5
A404
  8
0
 10
49.54428145525483
 20
209.5683367947825
 30
0.0
 11
49.20992610525484
 21
209.5683367947825
 31
0.0
  0
LINE
  5
A405
  8
0
 10
49.20992610525484
 20
209.5683367947825
 30
0.0
 11
49.20992610525484
 21
209.2343528947825
 31
0.0
  0
LINE
  5
A406
  8
0
 10
49.87749110525482
 20
209.2343528947825
 30
0.0
 11
50.21147500525483
 21
209.2343528947825
 31
0.0
  0
LINE
  5
A407
  8
0
 10
50.21147500525483
 20
209.2343528947825
 30
0.0
 11
50.21147500525483
 21
209.5683367947825
 31
0.0
  0
LINE
  5
A408
  8
0
 10
50.21147500525483
 20
209.5683367947825
 30
0.0
 11
49.87749110525482
 21
209.5683367947825
 31
0.0
  0
LINE
  5
A409
  8
0
 10
49.87749110525482
 20
209.5683367947825
 30
0.0
 11
49.87749110525482
 21
209.2343528947825
 31
0.0
  0
LINE
  5
A40A
  8
0
 10
50.54591110525482
 20
209.2343528947825
 30
0.0
 11
51.54712560525482
 21
209.2343528947825
 31
0.0
  0
LINE
  5
A40B
  8
0
 10
51.54712560525482
 20
209.2343528947825
 30
0.0
 11
51.54712560525482
 21
209.5683367947825
 31
0.0
  0
LINE
  5
A40C
  8
0
 10
51.54712560525482
 20
209.5683367947825
 30
0.0
 11
50.54591110525482
 21
209.5683367947825
 31
0.0
  0
LINE
  5
A40D
  8
0
 10
50.54591110525482
 20
209.5683367947825
 30
0.0
 11
50.54591110525482
 21
209.2343528947825
 31
0.0
  0
LINE
  5
A40E
  8
0
 10
51.88066110525482
 20
209.2343528947825
 30
0.0
 11
52.21464595525482
 21
209.2343528947825
 31
0.0
  0
LINE
  5
A40F
  8
0
 10
52.21464595525482
 20
209.2343528947825
 30
0.0
 11
52.21464595525482
 21
209.5683367947825
 31
0.0
  0
LINE
  5
A410
  8
0
 10
52.21464595525482
 20
209.5683367947825
 30
0.0
 11
51.88066110525482
 21
209.5683367947825
 31
0.0
  0
LINE
  5
A411
  8
0
 10
51.88066110525482
 20
209.5683367947825
 30
0.0
 11
51.88066110525482
 21
209.2343528947825
 31
0.0
  0
LINE
  5
A412
  8
0
 10
52.54832110525481
 20
209.2343528947825
 30
0.0
 11
53.21554695525484
 21
209.2343528947825
 31
0.0
  0
LINE
  5
A413
  8
0
 10
53.21554695525484
 20
209.2343528947825
 30
0.0
 11
53.21554695525484
 21
209.5683367947825
 31
0.0
  0
LINE
  5
A414
  8
0
 10
53.21554695525484
 20
209.5683367947825
 30
0.0
 11
52.54832110525481
 21
209.5683367947825
 31
0.0
  0
LINE
  5
A415
  8
0
 10
52.54832110525481
 20
209.5683367947825
 30
0.0
 11
52.54832110525481
 21
209.2343528947825
 31
0.0
  0
LINE
  5
A416
  8
0
 10
42.53437110525482
 20
208.8999528947825
 30
0.0
 11
43.20196840525482
 21
208.8999528947825
 31
0.0
  0
LINE
  5
A417
  8
0
 10
43.20196840525482
 20
208.8999528947825
 30
0.0
 11
43.20196840525482
 21
209.2343082447825
 31
0.0
  0
LINE
  5
A418
  8
0
 10
43.20196840525482
 20
209.2343082447825
 30
0.0
 11
42.53437110525482
 21
209.2343082447825
 31
0.0
  0
LINE
  5
A419
  8
0
 10
42.53437110525482
 20
209.2343082447825
 30
0.0
 11
42.53437110525482
 21
208.8999528947825
 31
0.0
  0
LINE
  5
A41A
  8
0
 10
43.53586110525484
 20
208.8999528947825
 30
0.0
 11
44.20345840525482
 21
208.8999528947825
 31
0.0
  0
LINE
  5
A41B
  8
0
 10
44.20345840525482
 20
208.8999528947825
 30
0.0
 11
44.20345840525482
 21
209.2343082447825
 31
0.0
  0
LINE
  5
A41C
  8
0
 10
44.20345840525482
 20
209.2343082447825
 30
0.0
 11
43.53586110525484
 21
209.2343082447825
 31
0.0
  0
LINE
  5
A41D
  8
0
 10
43.53586110525484
 20
209.2343082447825
 30
0.0
 11
43.53586110525484
 21
208.8999528947825
 31
0.0
  0
LINE
  5
A41E
  8
0
 10
44.87108610525482
 20
208.8999528947825
 30
0.0
 11
45.20507000525481
 21
208.8999528947825
 31
0.0
  0
LINE
  5
A41F
  8
0
 10
45.20507000525481
 20
208.8999528947825
 30
0.0
 11
45.20507000525481
 21
209.2343082447825
 31
0.0
  0
LINE
  5
A420
  8
0
 10
45.20507000525481
 20
209.2343082447825
 30
0.0
 11
44.87108610525482
 21
209.2343082447825
 31
0.0
  0
LINE
  5
A421
  8
0
 10
44.87108610525482
 20
209.2343082447825
 30
0.0
 11
44.87108610525482
 21
208.8999528947825
 31
0.0
  0
LINE
  5
A422
  8
0
 10
45.87267110525482
 20
208.8999528947825
 30
0.0
 11
46.53989695525482
 21
208.8999528947825
 31
0.0
  0
LINE
  5
A423
  8
0
 10
46.53989695525482
 20
208.8999528947825
 30
0.0
 11
46.53989695525482
 21
209.2343082447825
 31
0.0
  0
LINE
  5
A424
  8
0
 10
46.53989695525482
 20
209.2343082447825
 30
0.0
 11
45.87267110525482
 21
209.2343082447825
 31
0.0
  0
LINE
  5
A425
  8
0
 10
45.87267110525482
 20
209.2343082447825
 30
0.0
 11
45.87267110525482
 21
208.8999528947825
 31
0.0
  0
LINE
  5
A426
  8
0
 10
47.20751610525484
 20
208.8999528947825
 30
0.0
 11
47.87511340525482
 21
208.8999528947825
 31
0.0
  0
LINE
  5
A427
  8
0
 10
47.87511340525482
 20
208.8999528947825
 30
0.0
 11
47.87511340525482
 21
209.2343082447825
 31
0.0
  0
LINE
  5
A428
  8
0
 10
47.87511340525482
 20
209.2343082447825
 30
0.0
 11
47.20751610525484
 21
209.2343082447825
 31
0.0
  0
LINE
  5
A429
  8
0
 10
47.20751610525484
 20
209.2343082447825
 30
0.0
 11
47.20751610525484
 21
208.8999528947825
 31
0.0
  0
LINE
  5
A42A
  8
0
 10
48.87666610525483
 20
208.8999528947825
 30
0.0
 11
49.54426340525481
 21
208.8999528947825
 31
0.0
  0
LINE
  5
A42B
  8
0
 10
49.54426340525481
 20
208.8999528947825
 30
0.0
 11
49.54426340525481
 21
209.2343082447825
 31
0.0
  0
LINE
  5
A42C
  8
0
 10
49.54426340525481
 20
209.2343082447825
 30
0.0
 11
48.87666610525483
 21
209.2343082447825
 31
0.0
  0
LINE
  5
A42D
  8
0
 10
48.87666610525483
 20
209.2343082447825
 30
0.0
 11
48.87666610525483
 21
208.8999528947825
 31
0.0
  0
LINE
  5
A42E
  8
0
 10
49.87749110525482
 20
208.8999528947825
 30
0.0
 11
50.54508840525483
 21
208.8999528947825
 31
0.0
  0
LINE
  5
A42F
  8
0
 10
50.54508840525483
 20
208.8999528947825
 30
0.0
 11
50.54508840525483
 21
209.2343082447825
 31
0.0
  0
LINE
  5
A430
  8
0
 10
50.54508840525483
 20
209.2343082447825
 30
0.0
 11
49.87749110525482
 21
209.2343082447825
 31
0.0
  0
LINE
  5
A431
  8
0
 10
49.87749110525482
 20
209.2343082447825
 30
0.0
 11
49.87749110525482
 21
208.8999528947825
 31
0.0
  0
LINE
  5
A432
  8
0
 10
50.87907610525482
 20
208.8999528947825
 30
0.0
 11
51.21306095525483
 21
208.8999528947825
 31
0.0
  0
LINE
  5
A433
  8
0
 10
51.21306095525483
 20
208.8999528947825
 30
0.0
 11
51.21306095525483
 21
209.2343082447825
 31
0.0
  0
LINE
  5
A434
  8
0
 10
51.21306095525483
 20
209.2343082447825
 30
0.0
 11
50.87907610525482
 21
209.2343082447825
 31
0.0
  0
LINE
  5
A435
  8
0
 10
50.87907610525482
 20
209.2343082447825
 30
0.0
 11
50.87907610525482
 21
208.8999528947825
 31
0.0
  0
LINE
  5
A436
  8
0
 10
51.54673610525482
 20
208.8999528947825
 30
0.0
 11
53.54915560525484
 21
208.8999528947825
 31
0.0
  0
LINE
  5
A437
  8
0
 10
53.54915560525484
 20
208.8999528947825
 30
0.0
 11
53.54915560525484
 21
209.2343082447825
 31
0.0
  0
LINE
  5
A438
  8
0
 10
53.54915560525484
 20
209.2343082447825
 30
0.0
 11
51.54673610525482
 21
209.2343082447825
 31
0.0
  0
LINE
  5
A439
  8
0
 10
51.54673610525482
 20
209.2343082447825
 30
0.0
 11
51.54673610525482
 21
208.8999528947825
 31
0.0
  0
LINE
  5
A43A
  8
0
 10
42.86867610525482
 20
208.5666928947825
 30
0.0
 11
43.20266095525483
 21
208.5666928947825
 31
0.0
  0
LINE
  5
A43B
  8
0
 10
43.20266095525483
 20
208.5666928947825
 30
0.0
 11
43.20266095525483
 21
208.9006777447825
 31
0.0
  0
LINE
  5
A43C
  8
0
 10
43.20266095525483
 20
208.9006777447825
 30
0.0
 11
42.86867610525482
 21
208.9006777447825
 31
0.0
  0
LINE
  5
A43D
  8
0
 10
42.86867610525482
 20
208.9006777447825
 30
0.0
 11
42.86867610525482
 21
208.5666928947825
 31
0.0
  0
LINE
  5
A43E
  8
0
 10
43.53586110525484
 20
208.5666928947825
 30
0.0
 11
43.86984500525483
 21
208.5666928947825
 31
0.0
  0
LINE
  5
A43F
  8
0
 10
43.86984500525483
 20
208.5666928947825
 30
0.0
 11
43.86984500525483
 21
208.9006777447825
 31
0.0
  0
LINE
  5
A440
  8
0
 10
43.86984500525483
 20
208.9006777447825
 30
0.0
 11
43.53586110525484
 21
208.9006777447825
 31
0.0
  0
LINE
  5
A441
  8
0
 10
43.53586110525484
 20
208.9006777447825
 30
0.0
 11
43.53586110525484
 21
208.5666928947825
 31
0.0
  0
LINE
  5
A442
  8
0
 10
44.53744610525482
 20
208.5666928947825
 30
0.0
 11
45.53903110525482
 21
208.5666928947825
 31
0.0
  0
LINE
  5
A443
  8
0
 10
45.53903110525482
 20
208.5666928947825
 30
0.0
 11
45.53903110525482
 21
208.9006777447825
 31
0.0
  0
LINE
  5
A444
  8
0
 10
45.53903110525482
 20
208.9006777447825
 30
0.0
 11
44.53744610525482
 21
208.9006777447825
 31
0.0
  0
LINE
  5
A445
  8
0
 10
44.53744610525482
 20
208.9006777447825
 30
0.0
 11
44.53744610525482
 21
208.5666928947825
 31
0.0
  0
LINE
  5
A446
  8
0
 10
46.87349610525482
 20
208.5666928947825
 30
0.0
 11
47.54109435525484
 21
208.5666928947825
 31
0.0
  0
LINE
  5
A447
  8
0
 10
47.54109435525484
 20
208.5666928947825
 30
0.0
 11
47.54109435525484
 21
208.9006777447825
 31
0.0
  0
LINE
  5
A448
  8
0
 10
47.54109435525484
 20
208.9006777447825
 30
0.0
 11
46.87349610525482
 21
208.9006777447825
 31
0.0
  0
LINE
  5
A449
  8
0
 10
46.87349610525482
 20
208.9006777447825
 30
0.0
 11
46.87349610525482
 21
208.5666928947825
 31
0.0
  0
LINE
  5
A44A
  8
0
 10
47.87508110525482
 20
208.5666928947825
 30
0.0
 11
48.87666610525483
 21
208.5666928947825
 31
0.0
  0
LINE
  5
A44B
  8
0
 10
48.87666610525483
 20
208.5666928947825
 30
0.0
 11
48.87666610525483
 21
208.9006777447825
 31
0.0
  0
LINE
  5
A44C
  8
0
 10
48.87666610525483
 20
208.9006777447825
 30
0.0
 11
47.87508110525482
 21
208.9006777447825
 31
0.0
  0
LINE
  5
A44D
  8
0
 10
47.87508110525482
 20
208.9006777447825
 30
0.0
 11
47.87508110525482
 21
208.5666928947825
 31
0.0
  0
LINE
  5
A44E
  8
0
 10
49.20992610525484
 20
208.5666928947825
 30
0.0
 11
50.21151110525483
 21
208.5666928947825
 31
0.0
  0
LINE
  5
A44F
  8
0
 10
50.21151110525483
 20
208.5666928947825
 30
0.0
 11
50.21151110525483
 21
208.9006777447825
 31
0.0
  0
LINE
  5
A450
  8
0
 10
50.21151110525483
 20
208.9006777447825
 30
0.0
 11
49.20992610525484
 21
208.9006777447825
 31
0.0
  0
LINE
  5
A451
  8
0
 10
49.20992610525484
 20
208.9006777447825
 30
0.0
 11
49.20992610525484
 21
208.5666928947825
 31
0.0
  0
LINE
  5
A452
  8
0
 10
50.54591110525482
 20
208.5666928947825
 30
0.0
 11
50.87989595525482
 21
208.5666928947825
 31
0.0
  0
LINE
  5
A453
  8
0
 10
50.87989595525482
 20
208.5666928947825
 30
0.0
 11
50.87989595525482
 21
208.9006777447825
 31
0.0
  0
LINE
  5
A454
  8
0
 10
50.87989595525482
 20
208.9006777447825
 30
0.0
 11
50.54591110525482
 21
208.9006777447825
 31
0.0
  0
LINE
  5
A455
  8
0
 10
50.54591110525482
 20
208.9006777447825
 30
0.0
 11
50.54591110525482
 21
208.5666928947825
 31
0.0
  0
LINE
  5
A456
  8
0
 10
51.21309610525483
 20
208.5666928947825
 30
0.0
 11
51.88069340525482
 21
208.5666928947825
 31
0.0
  0
LINE
  5
A457
  8
0
 10
51.88069340525482
 20
208.5666928947825
 30
0.0
 11
51.88069340525482
 21
208.9006777447825
 31
0.0
  0
LINE
  5
A458
  8
0
 10
51.88069340525482
 20
208.9006777447825
 30
0.0
 11
51.21309610525483
 21
208.9006777447825
 31
0.0
  0
LINE
  5
A459
  8
0
 10
51.21309610525483
 20
208.9006777447825
 30
0.0
 11
51.21309610525483
 21
208.5666928947825
 31
0.0
  0
LINE
  5
A45A
  8
0
 10
42.53437110525482
 20
208.2327678947825
 30
0.0
 11
43.20196840525482
 21
208.2327678947825
 31
0.0
  0
LINE
  5
A45B
  8
0
 10
43.20196840525482
 20
208.2327678947825
 30
0.0
 11
43.20196840525482
 21
208.5667517947825
 31
0.0
  0
LINE
  5
A45C
  8
0
 10
43.20196840525482
 20
208.5667517947825
 30
0.0
 11
42.53437110525482
 21
208.5667517947825
 31
0.0
  0
LINE
  5
A45D
  8
0
 10
42.53437110525482
 20
208.5667517947825
 30
0.0
 11
42.53437110525482
 21
208.2327678947825
 31
0.0
  0
LINE
  5
A45E
  8
0
 10
43.53586110525484
 20
208.2327678947825
 30
0.0
 11
44.20345840525482
 21
208.2327678947825
 31
0.0
  0
LINE
  5
A45F
  8
0
 10
44.20345840525482
 20
208.2327678947825
 30
0.0
 11
44.20345840525482
 21
208.5667517947825
 31
0.0
  0
LINE
  5
A460
  8
0
 10
44.20345840525482
 20
208.5667517947825
 30
0.0
 11
43.53586110525484
 21
208.5667517947825
 31
0.0
  0
LINE
  5
A461
  8
0
 10
43.53586110525484
 20
208.5667517947825
 30
0.0
 11
43.53586110525484
 21
208.2327678947825
 31
0.0
  0
LINE
  5
A462
  8
0
 10
44.87108610525482
 20
208.2327678947825
 30
0.0
 11
45.53868340525482
 21
208.2327678947825
 31
0.0
  0
LINE
  5
A463
  8
0
 10
45.53868340525482
 20
208.2327678947825
 30
0.0
 11
45.53868340525482
 21
208.5667517947825
 31
0.0
  0
LINE
  5
A464
  8
0
 10
45.53868340525482
 20
208.5667517947825
 30
0.0
 11
44.87108610525482
 21
208.5667517947825
 31
0.0
  0
LINE
  5
A465
  8
0
 10
44.87108610525482
 20
208.5667517947825
 30
0.0
 11
44.87108610525482
 21
208.2327678947825
 31
0.0
  0
LINE
  5
A466
  8
0
 10
46.20593110525482
 20
208.2327678947825
 30
0.0
 11
46.87352840525483
 21
208.2327678947825
 31
0.0
  0
LINE
  5
A467
  8
0
 10
46.87352840525483
 20
208.2327678947825
 30
0.0
 11
46.87352840525483
 21
208.5667517947825
 31
0.0
  0
LINE
  5
A468
  8
0
 10
46.87352840525483
 20
208.5667517947825
 30
0.0
 11
46.20593110525482
 21
208.5667517947825
 31
0.0
  0
LINE
  5
A469
  8
0
 10
46.20593110525482
 20
208.5667517947825
 30
0.0
 11
46.20593110525482
 21
208.2327678947825
 31
0.0
  0
LINE
  5
A46A
  8
0
 10
47.20751610525484
 20
208.2327678947825
 30
0.0
 11
47.54150000525483
 21
208.2327678947825
 31
0.0
  0
LINE
  5
A46B
  8
0
 10
47.54150000525483
 20
208.2327678947825
 30
0.0
 11
47.54150000525483
 21
208.5667517947825
 31
0.0
  0
LINE
  5
A46C
  8
0
 10
47.54150000525483
 20
208.5667517947825
 30
0.0
 11
47.20751610525484
 21
208.5667517947825
 31
0.0
  0
LINE
  5
A46D
  8
0
 10
47.20751610525484
 20
208.5667517947825
 30
0.0
 11
47.20751610525484
 21
208.2327678947825
 31
0.0
  0
LINE
  5
A46E
  8
0
 10
47.87508110525482
 20
208.2327678947825
 30
0.0
 11
48.54267840525482
 21
208.2327678947825
 31
0.0
  0
LINE
  5
A46F
  8
0
 10
48.54267840525482
 20
208.2327678947825
 30
0.0
 11
48.54267840525482
 21
208.5667517947825
 31
0.0
  0
LINE
  5
A470
  8
0
 10
48.54267840525482
 20
208.5667517947825
 30
0.0
 11
47.87508110525482
 21
208.5667517947825
 31
0.0
  0
LINE
  5
A471
  8
0
 10
47.87508110525482
 20
208.5667517947825
 30
0.0
 11
47.87508110525482
 21
208.2327678947825
 31
0.0
  0
LINE
  5
A472
  8
0
 10
49.20992610525484
 20
208.2327678947825
 30
0.0
 11
49.87752435525482
 21
208.2327678947825
 31
0.0
  0
LINE
  5
A473
  8
0
 10
49.87752435525482
 20
208.2327678947825
 30
0.0
 11
49.87752435525482
 21
208.5667517947825
 31
0.0
  0
LINE
  5
A474
  8
0
 10
49.87752435525482
 20
208.5667517947825
 30
0.0
 11
49.20992610525484
 21
208.5667517947825
 31
0.0
  0
LINE
  5
A475
  8
0
 10
49.20992610525484
 20
208.5667517947825
 30
0.0
 11
49.20992610525484
 21
208.2327678947825
 31
0.0
  0
LINE
  5
A476
  8
0
 10
50.21151110525483
 20
208.2327678947825
 30
0.0
 11
50.54586645525482
 21
208.2327678947825
 31
0.0
  0
LINE
  5
A477
  8
0
 10
50.54586645525482
 20
208.2327678947825
 30
0.0
 11
50.54586645525482
 21
208.5667517947825
 31
0.0
  0
LINE
  5
A478
  8
0
 10
50.54586645525482
 20
208.5667517947825
 30
0.0
 11
50.21151110525483
 21
208.5667517947825
 31
0.0
  0
LINE
  5
A479
  8
0
 10
50.21151110525483
 20
208.5667517947825
 30
0.0
 11
50.21151110525483
 21
208.2327678947825
 31
0.0
  0
LINE
  5
A47A
  8
0
 10
51.21309610525483
 20
208.2327678947825
 30
0.0
 11
51.54708000525483
 21
208.2327678947825
 31
0.0
  0
LINE
  5
A47B
  8
0
 10
51.54708000525483
 20
208.2327678947825
 30
0.0
 11
51.54708000525483
 21
208.5667517947825
 31
0.0
  0
LINE
  5
A47C
  8
0
 10
51.54708000525483
 20
208.5667517947825
 30
0.0
 11
51.21309610525483
 21
208.5667517947825
 31
0.0
  0
LINE
  5
A47D
  8
0
 10
51.21309610525483
 20
208.5667517947825
 30
0.0
 11
51.21309610525483
 21
208.2327678947825
 31
0.0
  0
LINE
  5
A47E
  8
0
 10
52.21392110525483
 20
208.2327678947825
 30
0.0
 11
53.54911760525482
 21
208.2327678947825
 31
0.0
  0
LINE
  5
A47F
  8
0
 10
53.54911760525482
 20
208.2327678947825
 30
0.0
 11
53.54911760525482
 21
208.5667517947825
 31
0.0
  0
LINE
  5
A480
  8
0
 10
53.54911760525482
 20
208.5667517947825
 30
0.0
 11
52.21392110525483
 21
208.5667517947825
 31
0.0
  0
LINE
  5
A481
  8
0
 10
52.21392110525483
 20
208.5667517947825
 30
0.0
 11
52.21392110525483
 21
208.2327678947825
 31
0.0
  0
LINE
  5
A482
  8
0
 10
42.86867610525482
 20
207.8991278947825
 30
0.0
 11
46.20666260525482
 21
207.8991278947825
 31
0.0
  0
LINE
  5
A483
  8
0
 10
46.20666260525482
 20
207.8991278947825
 30
0.0
 11
46.20666260525482
 21
208.2331127447825
 31
0.0
  0
LINE
  5
A484
  8
0
 10
46.20666260525482
 20
208.2331127447825
 30
0.0
 11
42.86867610525482
 21
208.2331127447825
 31
0.0
  0
LINE
  5
A485
  8
0
 10
42.86867610525482
 20
208.2331127447825
 30
0.0
 11
42.86867610525482
 21
207.8991278947825
 31
0.0
  0
LINE
  5
A486
  8
0
 10
46.87349610525482
 20
207.8991278947825
 30
0.0
 11
47.20748095525482
 21
207.8991278947825
 31
0.0
  0
LINE
  5
A487
  8
0
 10
47.20748095525482
 20
207.8991278947825
 30
0.0
 11
47.20748095525482
 21
208.2331127447825
 31
0.0
  0
LINE
  5
A488
  8
0
 10
47.20748095525482
 20
208.2331127447825
 30
0.0
 11
46.87349610525482
 21
208.2331127447825
 31
0.0
  0
LINE
  5
A489
  8
0
 10
46.87349610525482
 20
208.2331127447825
 30
0.0
 11
46.87349610525482
 21
207.8991278947825
 31
0.0
  0
LINE
  5
A48A
  8
0
 10
48.20910110525483
 20
207.8991278947825
 30
0.0
 11
48.54308500525482
 21
207.8991278947825
 31
0.0
  0
LINE
  5
A48B
  8
0
 10
48.54308500525482
 20
207.8991278947825
 30
0.0
 11
48.54308500525482
 21
208.2331127447825
 31
0.0
  0
LINE
  5
A48C
  8
0
 10
48.54308500525482
 20
208.2331127447825
 30
0.0
 11
48.20910110525483
 21
208.2331127447825
 31
0.0
  0
LINE
  5
A48D
  8
0
 10
48.20910110525483
 20
208.2331127447825
 30
0.0
 11
48.20910110525483
 21
207.8991278947825
 31
0.0
  0
LINE
  5
A48E
  8
0
 10
48.87666610525483
 20
207.8991278947825
 30
0.0
 11
49.21065000525482
 21
207.8991278947825
 31
0.0
  0
LINE
  5
A48F
  8
0
 10
49.21065000525482
 20
207.8991278947825
 30
0.0
 11
49.21065000525482
 21
208.2331127447825
 31
0.0
  0
LINE
  5
A490
  8
0
 10
49.21065000525482
 20
208.2331127447825
 30
0.0
 11
48.87666610525483
 21
208.2331127447825
 31
0.0
  0
LINE
  5
A491
  8
0
 10
48.87666610525483
 20
208.2331127447825
 30
0.0
 11
48.87666610525483
 21
207.8991278947825
 31
0.0
  0
LINE
  5
A492
  8
0
 10
50.87907610525482
 20
207.8991278947825
 30
0.0
 11
51.54667435525482
 21
207.8991278947825
 31
0.0
  0
LINE
  5
A493
  8
0
 10
51.54667435525482
 20
207.8991278947825
 30
0.0
 11
51.54667435525482
 21
208.2331127447825
 31
0.0
  0
LINE
  5
A494
  8
0
 10
51.54667435525482
 20
208.2331127447825
 30
0.0
 11
50.87907610525482
 21
208.2331127447825
 31
0.0
  0
LINE
  5
A495
  8
0
 10
50.87907610525482
 20
208.2331127447825
 30
0.0
 11
50.87907610525482
 21
207.8991278947825
 31
0.0
  0
LINE
  5
A496
  8
0
 10
51.88066110525482
 20
207.8991278947825
 30
0.0
 11
52.21464595525482
 21
207.8991278947825
 31
0.0
  0
LINE
  5
A497
  8
0
 10
52.21464595525482
 20
207.8991278947825
 30
0.0
 11
52.21464595525482
 21
208.2331127447825
 31
0.0
  0
LINE
  5
A498
  8
0
 10
52.21464595525482
 20
208.2331127447825
 30
0.0
 11
51.88066110525482
 21
208.2331127447825
 31
0.0
  0
LINE
  5
A499
  8
0
 10
51.88066110525482
 20
208.2331127447825
 30
0.0
 11
51.88066110525482
 21
207.8991278947825
 31
0.0
  0
LINE
  5
A49A
  8
0
 10
52.54832110525481
 20
207.8991278947825
 30
0.0
 11
53.21554695525484
 21
207.8991278947825
 31
0.0
  0
LINE
  5
A49B
  8
0
 10
53.21554695525484
 20
207.8991278947825
 30
0.0
 11
53.21554695525484
 21
208.2331127447825
 31
0.0
  0
LINE
  5
A49C
  8
0
 10
53.21554695525484
 20
208.2331127447825
 30
0.0
 11
52.54832110525481
 21
208.2331127447825
 31
0.0
  0
LINE
  5
A49D
  8
0
 10
52.54832110525481
 20
208.2331127447825
 30
0.0
 11
52.54832110525481
 21
207.8991278947825
 31
0.0
  0
LINE
  5
A49E
  8
0
 10
42.53437110525482
 20
207.5651078947825
 30
0.0
 11
43.20196840525482
 21
207.5651078947825
 31
0.0
  0
LINE
  5
A49F
  8
0
 10
43.20196840525482
 20
207.5651078947825
 30
0.0
 11
43.20196840525482
 21
207.8991278947825
 31
0.0
  0
LINE
  5
A4A0
  8
0
 10
43.20196840525482
 20
207.8991278947825
 30
0.0
 11
42.53437110525482
 21
207.8991278947825
 31
0.0
  0
LINE
  5
A4A1
  8
0
 10
42.53437110525482
 20
207.8991278947825
 30
0.0
 11
42.53437110525482
 21
207.5651078947825
 31
0.0
  0
LINE
  5
A4A2
  8
0
 10
43.53586110525484
 20
207.5651078947825
 30
0.0
 11
44.20345840525482
 21
207.5651078947825
 31
0.0
  0
LINE
  5
A4A3
  8
0
 10
44.20345840525482
 20
207.5651078947825
 30
0.0
 11
44.20345840525482
 21
207.8991278947825
 31
0.0
  0
LINE
  5
A4A4
  8
0
 10
44.20345840525482
 20
207.8991278947825
 30
0.0
 11
43.53586110525484
 21
207.8991278947825
 31
0.0
  0
LINE
  5
A4A5
  8
0
 10
43.53586110525484
 20
207.8991278947825
 30
0.0
 11
43.53586110525484
 21
207.5651078947825
 31
0.0
  0
LINE
  5
A4A6
  8
0
 10
45.53874610525482
 20
207.5651078947825
 30
0.0
 11
45.87273095525481
 21
207.5651078947825
 31
0.0
  0
LINE
  5
A4A7
  8
0
 10
45.87273095525481
 20
207.5651078947825
 30
0.0
 11
45.87273095525481
 21
207.8991278947825
 31
0.0
  0
LINE
  5
A4A8
  8
0
 10
45.87273095525481
 20
207.8991278947825
 30
0.0
 11
45.53874610525482
 21
207.8991278947825
 31
0.0
  0
LINE
  5
A4A9
  8
0
 10
45.53874610525482
 20
207.8991278947825
 30
0.0
 11
45.53874610525482
 21
207.5651078947825
 31
0.0
  0
LINE
  5
A4AA
  8
0
 10
46.54033110525484
 20
207.5651078947825
 30
0.0
 11
46.87431500525483
 21
207.5651078947825
 31
0.0
  0
LINE
  5
A4AB
  8
0
 10
46.87431500525483
 20
207.5651078947825
 30
0.0
 11
46.87431500525483
 21
207.8991278947825
 31
0.0
  0
LINE
  5
A4AC
  8
0
 10
46.87431500525483
 20
207.8991278947825
 30
0.0
 11
46.54033110525484
 21
207.8991278947825
 31
0.0
  0
LINE
  5
A4AD
  8
0
 10
46.54033110525484
 20
207.8991278947825
 30
0.0
 11
46.54033110525484
 21
207.5651078947825
 31
0.0
  0
LINE
  5
A4AE
  8
0
 10
47.20751610525484
 20
207.5651078947825
 30
0.0
 11
47.87511340525482
 21
207.5651078947825
 31
0.0
  0
LINE
  5
A4AF
  8
0
 10
47.87511340525482
 20
207.5651078947825
 30
0.0
 11
47.87511340525482
 21
207.8991278947825
 31
0.0
  0
LINE
  5
A4B0
  8
0
 10
47.87511340525482
 20
207.8991278947825
 30
0.0
 11
47.20751610525484
 21
207.8991278947825
 31
0.0
  0
LINE
  5
A4B1
  8
0
 10
47.20751610525484
 20
207.8991278947825
 30
0.0
 11
47.20751610525484
 21
207.5651078947825
 31
0.0
  0
LINE
  5
A4B2
  8
0
 10
48.54274110525482
 20
207.5651078947825
 30
0.0
 11
49.20996790525484
 21
207.5651078947825
 31
0.0
  0
LINE
  5
A4B3
  8
0
 10
49.20996790525484
 20
207.5651078947825
 30
0.0
 11
49.20996790525484
 21
207.8991278947825
 31
0.0
  0
LINE
  5
A4B4
  8
0
 10
49.20996790525484
 20
207.8991278947825
 30
0.0
 11
48.54274110525482
 21
207.8991278947825
 31
0.0
  0
LINE
  5
A4B5
  8
0
 10
48.54274110525482
 20
207.8991278947825
 30
0.0
 11
48.54274110525482
 21
207.5651078947825
 31
0.0
  0
LINE
  5
A4B6
  8
0
 10
50.87907610525482
 20
207.5651078947825
 30
0.0
 11
51.21309610525483
 21
207.5651078947825
 31
0.0
  0
LINE
  5
A4B7
  8
0
 10
51.21309610525483
 20
207.5651078947825
 30
0.0
 11
51.21309610525483
 21
207.8991278947825
 31
0.0
  0
LINE
  5
A4B8
  8
0
 10
51.21309610525483
 20
207.8991278947825
 30
0.0
 11
50.87911125525483
 21
207.8991278947825
 31
0.0
  0
LINE
  5
A4B9
  8
0
 10
50.87911125525483
 20
207.8991278947825
 30
0.0
 11
50.87907610525482
 21
207.5651078947825
 31
0.0
  0
LINE
  5
A4BA
  8
0
 10
51.88066110525482
 20
207.5651078947825
 30
0.0
 11
52.88224610525482
 21
207.5651078947825
 31
0.0
  0
LINE
  5
A4BB
  8
0
 10
52.88224610525482
 20
207.5651078947825
 30
0.0
 11
52.88224610525482
 21
207.8991278947825
 31
0.0
  0
LINE
  5
A4BC
  8
0
 10
52.88224610525482
 20
207.8991278947825
 30
0.0
 11
51.88066110525482
 21
207.8991278947825
 31
0.0
  0
LINE
  5
A4BD
  8
0
 10
51.88066110525482
 20
207.8991278947825
 30
0.0
 11
51.88066110525482
 21
207.5651078947825
 31
0.0
  0
LINE
  5
A4BE
  8
0
 10
53.21550610525483
 20
207.5651078947825
 30
0.0
 11
53.54986240525483
 21
207.5651078947825
 31
0.0
  0
LINE
  5
A4BF
  8
0
 10
53.54986240525483
 20
207.5651078947825
 30
0.0
 11
53.54986240525483
 21
207.8991278947825
 31
0.0
  0
LINE
  5
A4C0
  8
0
 10
53.54986240525483
 20
207.8991278947825
 30
0.0
 11
53.21550610525483
 21
207.8991278947825
 31
0.0
  0
LINE
  5
A4C1
  8
0
 10
53.21550610525483
 20
207.8991278947825
 30
0.0
 11
53.21550610525483
 21
207.5651078947825
 31
0.0
  0
LINE
  5
A4C2
  8
0
 10
42.86867610525482
 20
207.2315628947825
 30
0.0
 11
43.20266095525483
 21
207.2315628947825
 31
0.0
  0
LINE
  5
A4C3
  8
0
 10
43.20266095525483
 20
207.2315628947825
 30
0.0
 11
43.20266095525483
 21
207.5659182447825
 31
0.0
  0
LINE
  5
A4C4
  8
0
 10
43.20266095525483
 20
207.5659182447825
 30
0.0
 11
42.86867610525482
 21
207.5659182447825
 31
0.0
  0
LINE
  5
A4C5
  8
0
 10
42.86867610525482
 20
207.5659182447825
 30
0.0
 11
42.86867610525482
 21
207.2315628947825
 31
0.0
  0
LINE
  5
A4C6
  8
0
 10
44.53744610525482
 20
207.2315628947825
 30
0.0
 11
44.87143000525481
 21
207.2315628947825
 31
0.0
  0
LINE
  5
A4C7
  8
0
 10
44.87143000525481
 20
207.2315628947825
 30
0.0
 11
44.87143000525481
 21
207.5659182447825
 31
0.0
  0
LINE
  5
A4C8
  8
0
 10
44.87143000525481
 20
207.5659182447825
 30
0.0
 11
44.53744610525482
 21
207.5659182447825
 31
0.0
  0
LINE
  5
A4C9
  8
0
 10
44.53744610525482
 20
207.5659182447825
 30
0.0
 11
44.53744610525482
 21
207.2315628947825
 31
0.0
  0
LINE
  5
A4CA
  8
0
 10
45.53874610525482
 20
207.2315628947825
 30
0.0
 11
46.20597290525482
 21
207.2315628947825
 31
0.0
  0
LINE
  5
A4CB
  8
0
 10
46.20597290525482
 20
207.2315628947825
 30
0.0
 11
46.20597290525482
 21
207.5659182447825
 31
0.0
  0
LINE
  5
A4CC
  8
0
 10
46.20597290525482
 20
207.5659182447825
 30
0.0
 11
45.53874610525482
 21
207.5659182447825
 31
0.0
  0
LINE
  5
A4CD
  8
0
 10
45.53874610525482
 20
207.5659182447825
 30
0.0
 11
45.53874610525482
 21
207.2315628947825
 31
0.0
  0
LINE
  5
A4CE
  8
0
 10
46.54033110525484
 20
207.2315628947825
 30
0.0
 11
47.20755790525482
 21
207.2315628947825
 31
0.0
  0
LINE
  5
A4CF
  8
0
 10
47.20755790525482
 20
207.2315628947825
 30
0.0
 11
47.20755790525482
 21
207.5659182447825
 31
0.0
  0
LINE
  5
A4D0
  8
0
 10
47.20755790525482
 20
207.5659182447825
 30
0.0
 11
46.54033110525484
 21
207.5659182447825
 31
0.0
  0
LINE
  5
A4D1
  8
0
 10
46.54033110525484
 20
207.5659182447825
 30
0.0
 11
46.54033110525484
 21
207.2315628947825
 31
0.0
  0
LINE
  5
A4D2
  8
0
 10
48.20910110525483
 20
207.2315628947825
 30
0.0
 11
49.21068610525484
 21
207.2315628947825
 31
0.0
  0
LINE
  5
A4D3
  8
0
 10
49.21068610525484
 20
207.2315628947825
 30
0.0
 11
49.21068610525484
 21
207.5659182447825
 31
0.0
  0
LINE
  5
A4D4
  8
0
 10
49.21068610525484
 20
207.5659182447825
 30
0.0
 11
48.20910110525483
 21
207.5659182447825
 31
0.0
  0
LINE
  5
A4D5
  8
0
 10
48.20910110525483
 20
207.5659182447825
 30
0.0
 11
48.20910110525483
 21
207.2315628947825
 31
0.0
  0
LINE
  5
A4D6
  8
0
 10
49.87749110525482
 20
207.2315628947825
 30
0.0
 11
50.21147500525483
 21
207.2315628947825
 31
0.0
  0
LINE
  5
A4D7
  8
0
 10
50.21147500525483
 20
207.2315628947825
 30
0.0
 11
50.21147500525483
 21
207.5659182447825
 31
0.0
  0
LINE
  5
A4D8
  8
0
 10
50.21147500525483
 20
207.5659182447825
 30
0.0
 11
49.87749110525482
 21
207.5659182447825
 31
0.0
  0
LINE
  5
A4D9
  8
0
 10
49.87749110525482
 20
207.5659182447825
 30
0.0
 11
49.87749110525482
 21
207.2315628947825
 31
0.0
  0
LINE
  5
A4DA
  8
0
 10
50.54591110525482
 20
207.2315628947825
 30
0.0
 11
51.21313790525483
 21
207.2315628947825
 31
0.0
  0
LINE
  5
A4DB
  8
0
 10
51.21313790525483
 20
207.2315628947825
 30
0.0
 11
51.21313790525483
 21
207.5659182447825
 31
0.0
  0
LINE
  5
A4DC
  8
0
 10
51.21313790525483
 20
207.5659182447825
 30
0.0
 11
50.54591110525482
 21
207.5659182447825
 31
0.0
  0
LINE
  5
A4DD
  8
0
 10
50.54591110525482
 20
207.5659182447825
 30
0.0
 11
50.54591110525482
 21
207.2315628947825
 31
0.0
  0
LINE
  5
A4DE
  8
0
 10
51.54673610525482
 20
207.2315628947825
 30
0.0
 11
52.54832110525481
 21
207.2315628947825
 31
0.0
  0
LINE
  5
A4DF
  8
0
 10
52.54832110525481
 20
207.2315628947825
 30
0.0
 11
52.54832110525481
 21
207.5659182447825
 31
0.0
  0
LINE
  5
A4E0
  8
0
 10
52.54832110525481
 20
207.5659182447825
 30
0.0
 11
51.54673610525482
 21
207.5659182447825
 31
0.0
  0
LINE
  5
A4E1
  8
0
 10
51.54673610525482
 20
207.5659182447825
 30
0.0
 11
51.54673610525482
 21
207.2315628947825
 31
0.0
  0
LINE
  5
A4E2
  8
0
 10
53.21550610525483
 20
207.2315628947825
 30
0.0
 11
53.54986240525483
 21
207.2315628947825
 31
0.0
  0
LINE
  5
A4E3
  8
0
 10
53.54986240525483
 20
207.2315628947825
 30
0.0
 11
53.54986240525483
 21
207.5659182447825
 31
0.0
  0
LINE
  5
A4E4
  8
0
 10
53.54986240525483
 20
207.5659182447825
 30
0.0
 11
53.21550610525483
 21
207.5659182447825
 31
0.0
  0
LINE
  5
A4E5
  8
0
 10
53.21550610525483
 20
207.5659182447825
 30
0.0
 11
53.21550610525483
 21
207.2315628947825
 31
0.0
  0
LINE
  5
A4E6
  8
0
 10
42.86867610525482
 20
206.8975428947825
 30
0.0
 11
43.53590290525483
 21
206.8975428947825
 31
0.0
  0
LINE
  5
A4E7
  8
0
 10
43.53590290525483
 20
206.8975428947825
 30
0.0
 11
43.53590290525483
 21
207.2315277447825
 31
0.0
  0
LINE
  5
A4E8
  8
0
 10
43.53590290525483
 20
207.2315277447825
 30
0.0
 11
42.86867610525482
 21
207.2315277447825
 31
0.0
  0
LINE
  5
A4E9
  8
0
 10
42.86867610525482
 20
207.2315277447825
 30
0.0
 11
42.86867610525482
 21
206.8975428947825
 31
0.0
  0
LINE
  5
A4EA
  8
0
 10
43.86950110525484
 20
206.8975428947825
 30
0.0
 11
44.20348500525483
 21
206.8975428947825
 31
0.0
  0
LINE
  5
A4EB
  8
0
 10
44.20348500525483
 20
206.8975428947825
 30
0.0
 11
44.20348500525483
 21
207.2315277447825
 31
0.0
  0
LINE
  5
A4EC
  8
0
 10
44.20348500525483
 20
207.2315277447825
 30
0.0
 11
43.86950110525484
 21
207.2315277447825
 31
0.0
  0
LINE
  5
A4ED
  8
0
 10
43.86950110525484
 20
207.2315277447825
 30
0.0
 11
43.86950110525484
 21
206.8975428947825
 31
0.0
  0
LINE
  5
A4EE
  8
0
 10
46.20593110525482
 20
206.8975428947825
 30
0.0
 11
46.53991500525483
 21
206.8975428947825
 31
0.0
  0
LINE
  5
A4EF
  8
0
 10
46.53991500525483
 20
206.8975428947825
 30
0.0
 11
46.53991500525483
 21
207.2315277447825
 31
0.0
  0
LINE
  5
A4F0
  8
0
 10
46.53991500525483
 20
207.2315277447825
 30
0.0
 11
46.20593110525482
 21
207.2315277447825
 31
0.0
  0
LINE
  5
A4F1
  8
0
 10
46.20593110525482
 20
207.2315277447825
 30
0.0
 11
46.20593110525482
 21
206.8975428947825
 31
0.0
  0
LINE
  5
A4F2
  8
0
 10
46.87349610525482
 20
206.8975428947825
 30
0.0
 11
49.87750060525482
 21
206.8975428947825
 31
0.0
  0
LINE
  5
A4F3
  8
0
 10
49.87750060525482
 20
206.8975428947825
 30
0.0
 11
49.87750060525482
 21
207.2315277447825
 31
0.0
  0
LINE
  5
A4F4
  8
0
 10
49.87750060525482
 20
207.2315277447825
 30
0.0
 11
46.87349610525482
 21
207.2315277447825
 31
0.0
  0
LINE
  5
A4F5
  8
0
 10
46.87349610525482
 20
207.2315277447825
 30
0.0
 11
46.87349610525482
 21
206.8975428947825
 31
0.0
  0
LINE
  5
A4F6
  8
0
 10
50.21151110525483
 20
206.8975428947825
 30
0.0
 11
51.54670760525482
 21
206.8975428947825
 31
0.0
  0
LINE
  5
A4F7
  8
0
 10
51.54670760525482
 20
206.8975428947825
 30
0.0
 11
51.54670760525482
 21
207.2315277447825
 31
0.0
  0
LINE
  5
A4F8
  8
0
 10
51.54670760525482
 20
207.2315277447825
 30
0.0
 11
50.21151110525483
 21
207.2315277447825
 31
0.0
  0
LINE
  5
A4F9
  8
0
 10
50.21151110525483
 20
207.2315277447825
 30
0.0
 11
50.21151110525483
 21
206.8975428947825
 31
0.0
  0
LINE
  5
A4FA
  8
0
 10
52.21392110525483
 20
206.8975428947825
 30
0.0
 11
52.88151840525482
 21
206.8975428947825
 31
0.0
  0
LINE
  5
A4FB
  8
0
 10
52.88151840525482
 20
206.8975428947825
 30
0.0
 11
52.88151840525482
 21
207.2315277447825
 31
0.0
  0
LINE
  5
A4FC
  8
0
 10
52.88151840525482
 20
207.2315277447825
 30
0.0
 11
52.21392110525483
 21
207.2315277447825
 31
0.0
  0
LINE
  5
A4FD
  8
0
 10
52.21392110525483
 20
207.2315277447825
 30
0.0
 11
52.21392110525483
 21
206.8975428947825
 31
0.0
  0
LINE
  5
A4FE
  8
0
 10
53.21550610525483
 20
206.8975428947825
 30
0.0
 11
53.54986240525483
 21
206.8975428947825
 31
0.0
  0
LINE
  5
A4FF
  8
0
 10
53.54986240525483
 20
206.8975428947825
 30
0.0
 11
53.54986240525483
 21
207.2315277447825
 31
0.0
  0
LINE
  5
A500
  8
0
 10
53.54986240525483
 20
207.2315277447825
 30
0.0
 11
53.21550610525483
 21
207.2315277447825
 31
0.0
  0
LINE
  5
A501
  8
0
 10
53.21550610525483
 20
207.2315277447825
 30
0.0
 11
53.21550610525483
 21
206.8975428947825
 31
0.0
  0
LINE
  5
A502
  8
0
 10
43.20193610525482
 20
206.5642828947825
 30
0.0
 11
43.53629240525481
 21
206.5642828947825
 31
0.0
  0
LINE
  5
A503
  8
0
 10
43.53629240525481
 20
206.5642828947825
 30
0.0
 11
43.53629240525481
 21
206.8982667947825
 31
0.0
  0
LINE
  5
A504
  8
0
 10
43.53629240525481
 20
206.8982667947825
 30
0.0
 11
43.20193610525482
 21
206.8982667947825
 31
0.0
  0
LINE
  5
A505
  8
0
 10
43.20193610525482
 20
206.8982667947825
 30
0.0
 11
43.20193610525482
 21
206.5642828947825
 31
0.0
  0
LINE
  5
A506
  8
0
 10
43.86950110525484
 20
206.5642828947825
 30
0.0
 11
44.20348500525483
 21
206.5642828947825
 31
0.0
  0
LINE
  5
A507
  8
0
 10
44.20348500525483
 20
206.5642828947825
 30
0.0
 11
44.20348500525483
 21
206.8982667947825
 31
0.0
  0
LINE
  5
A508
  8
0
 10
44.20348500525483
 20
206.8982667947825
 30
0.0
 11
43.86950110525484
 21
206.8982667947825
 31
0.0
  0
LINE
  5
A509
  8
0
 10
43.86950110525484
 20
206.8982667947825
 30
0.0
 11
43.86950110525484
 21
206.5642828947825
 31
0.0
  0
LINE
  5
A50A
  8
0
 10
44.53744610525482
 20
206.5642828947825
 30
0.0
 11
46.54023610525482
 21
206.5642828947825
 31
0.0
  0
LINE
  5
A50B
  8
0
 10
46.54023610525482
 20
206.5642828947825
 30
0.0
 11
46.54023610525482
 21
206.8982667947825
 31
0.0
  0
LINE
  5
A50C
  8
0
 10
46.54023610525482
 20
206.8982667947825
 30
0.0
 11
44.53744610525482
 21
206.8982667947825
 31
0.0
  0
LINE
  5
A50D
  8
0
 10
44.53744610525482
 20
206.8982667947825
 30
0.0
 11
44.53744610525482
 21
206.5642828947825
 31
0.0
  0
LINE
  5
A50E
  8
0
 10
46.87349610525482
 20
206.5642828947825
 30
0.0
 11
47.20748095525482
 21
206.5642828947825
 31
0.0
  0
LINE
  5
A50F
  8
0
 10
47.20748095525482
 20
206.5642828947825
 30
0.0
 11
47.20748095525482
 21
206.8982667947825
 31
0.0
  0
LINE
  5
A510
  8
0
 10
47.20748095525482
 20
206.8982667947825
 30
0.0
 11
46.87349610525482
 21
206.8982667947825
 31
0.0
  0
LINE
  5
A511
  8
0
 10
46.87349610525482
 20
206.8982667947825
 30
0.0
 11
46.87349610525482
 21
206.5642828947825
 31
0.0
  0
LINE
  5
A512
  8
0
 10
47.54153610525482
 20
206.5642828947825
 30
0.0
 11
48.20913435525482
 21
206.5642828947825
 31
0.0
  0
LINE
  5
A513
  8
0
 10
48.20913435525482
 20
206.5642828947825
 30
0.0
 11
48.20913435525482
 21
206.8982667947825
 31
0.0
  0
LINE
  5
A514
  8
0
 10
48.20913435525482
 20
206.8982667947825
 30
0.0
 11
47.54153610525482
 21
206.8982667947825
 31
0.0
  0
LINE
  5
A515
  8
0
 10
47.54153610525482
 20
206.8982667947825
 30
0.0
 11
47.54153610525482
 21
206.5642828947825
 31
0.0
  0
LINE
  5
A516
  8
0
 10
48.87666610525483
 20
206.5642828947825
 30
0.0
 11
49.21065000525482
 21
206.5642828947825
 31
0.0
  0
LINE
  5
A517
  8
0
 10
49.21065000525482
 20
206.5642828947825
 30
0.0
 11
49.21065000525482
 21
206.8982667947825
 31
0.0
  0
LINE
  5
A518
  8
0
 10
49.21065000525482
 20
206.8982667947825
 30
0.0
 11
48.87666610525483
 21
206.8982667947825
 31
0.0
  0
LINE
  5
A519
  8
0
 10
48.87666610525483
 20
206.8982667947825
 30
0.0
 11
48.87666610525483
 21
206.5642828947825
 31
0.0
  0
LINE
  5
A51A
  8
0
 10
50.21151110525483
 20
206.5642828947825
 30
0.0
 11
50.54586645525482
 21
206.5642828947825
 31
0.0
  0
LINE
  5
A51B
  8
0
 10
50.54586645525482
 20
206.5642828947825
 30
0.0
 11
50.54586645525482
 21
206.8982667947825
 31
0.0
  0
LINE
  5
A51C
  8
0
 10
50.54586645525482
 20
206.8982667947825
 30
0.0
 11
50.21151110525483
 21
206.8982667947825
 31
0.0
  0
LINE
  5
A51D
  8
0
 10
50.21151110525483
 20
206.8982667947825
 30
0.0
 11
50.21151110525483
 21
206.5642828947825
 31
0.0
  0
LINE
  5
A51E
  8
0
 10
51.54673610525482
 20
206.5642828947825
 30
0.0
 11
51.88072000525483
 21
206.5642828947825
 31
0.0
  0
LINE
  5
A51F
  8
0
 10
51.88072000525483
 20
206.5642828947825
 30
0.0
 11
51.88072000525483
 21
206.8982667947825
 31
0.0
  0
LINE
  5
A520
  8
0
 10
51.88072000525483
 20
206.8982667947825
 30
0.0
 11
51.54673610525482
 21
206.8982667947825
 31
0.0
  0
LINE
  5
A521
  8
0
 10
51.54673610525482
 20
206.8982667947825
 30
0.0
 11
51.54673610525482
 21
206.5642828947825
 31
0.0
  0
LINE
  5
A522
  8
0
 10
52.21392110525483
 20
206.5642828947825
 30
0.0
 11
52.88151840525482
 21
206.5642828947825
 31
0.0
  0
LINE
  5
A523
  8
0
 10
52.88151840525482
 20
206.5642828947825
 30
0.0
 11
52.88151840525482
 21
206.8982667947825
 31
0.0
  0
LINE
  5
A524
  8
0
 10
52.88151840525482
 20
206.8982667947825
 30
0.0
 11
52.21392110525483
 21
206.8982667947825
 31
0.0
  0
LINE
  5
A525
  8
0
 10
52.21392110525483
 20
206.8982667947825
 30
0.0
 11
52.21392110525483
 21
206.5642828947825
 31
0.0
  0
LINE
  5
A526
  8
0
 10
53.21550610525483
 20
206.5642828947825
 30
0.0
 11
53.54986240525483
 21
206.5642828947825
 31
0.0
  0
LINE
  5
A527
  8
0
 10
53.54986240525483
 20
206.5642828947825
 30
0.0
 11
53.54986240525483
 21
206.8982667947825
 31
0.0
  0
LINE
  5
A528
  8
0
 10
53.54986240525483
 20
206.8982667947825
 30
0.0
 11
53.21550610525483
 21
206.8982667947825
 31
0.0
  0
LINE
  5
A529
  8
0
 10
53.21550610525483
 20
206.8982667947825
 30
0.0
 11
53.21550610525483
 21
206.5642828947825
 31
0.0
  0
LINE
  5
A52A
  8
0
 10
42.86867610525482
 20
206.2303578947825
 30
0.0
 11
43.20266095525483
 21
206.2303578947825
 31
0.0
  0
LINE
  5
A52B
  8
0
 10
43.20266095525483
 20
206.2303578947825
 30
0.0
 11
43.20266095525483
 21
206.5643427447825
 31
0.0
  0
LINE
  5
A52C
  8
0
 10
43.20266095525483
 20
206.5643427447825
 30
0.0
 11
42.86867610525482
 21
206.5643427447825
 31
0.0
  0
LINE
  5
A52D
  8
0
 10
42.86867610525482
 20
206.5643427447825
 30
0.0
 11
42.86867610525482
 21
206.2303578947825
 31
0.0
  0
LINE
  5
A52E
  8
0
 10
43.53586110525484
 20
206.2303578947825
 30
0.0
 11
44.53744610525482
 21
206.2303578947825
 31
0.0
  0
LINE
  5
A52F
  8
0
 10
44.53744610525482
 20
206.2303578947825
 30
0.0
 11
44.53744610525482
 21
206.5643427447825
 31
0.0
  0
LINE
  5
A530
  8
0
 10
44.53744610525482
 20
206.5643427447825
 30
0.0
 11
43.53586110525484
 21
206.5643427447825
 31
0.0
  0
LINE
  5
A531
  8
0
 10
43.53586110525484
 20
206.5643427447825
 30
0.0
 11
43.53586110525484
 21
206.2303578947825
 31
0.0
  0
LINE
  5
A532
  8
0
 10
44.87108610525482
 20
206.2303578947825
 30
0.0
 11
45.53868340525482
 21
206.2303578947825
 31
0.0
  0
LINE
  5
A533
  8
0
 10
45.53868340525482
 20
206.2303578947825
 30
0.0
 11
45.53868340525482
 21
206.5643427447825
 31
0.0
  0
LINE
  5
A534
  8
0
 10
45.53868340525482
 20
206.5643427447825
 30
0.0
 11
44.87108610525482
 21
206.5643427447825
 31
0.0
  0
LINE
  5
A535
  8
0
 10
44.87108610525482
 20
206.5643427447825
 30
0.0
 11
44.87108610525482
 21
206.2303578947825
 31
0.0
  0
LINE
  5
A536
  8
0
 10
45.87267110525482
 20
206.2303578947825
 30
0.0
 11
46.20665500525483
 21
206.2303578947825
 31
0.0
  0
LINE
  5
A537
  8
0
 10
46.20665500525483
 20
206.2303578947825
 30
0.0
 11
46.20665500525483
 21
206.5643427447825
 31
0.0
  0
LINE
  5
A538
  8
0
 10
46.20665500525483
 20
206.5643427447825
 30
0.0
 11
45.87267110525482
 21
206.5643427447825
 31
0.0
  0
LINE
  5
A539
  8
0
 10
45.87267110525482
 20
206.5643427447825
 30
0.0
 11
45.87267110525482
 21
206.2303578947825
 31
0.0
  0
LINE
  5
A53A
  8
0
 10
47.54153610525482
 20
206.2303578947825
 30
0.0
 11
49.87831760525484
 21
206.2303578947825
 31
0.0
  0
LINE
  5
A53B
  8
0
 10
49.87831760525484
 20
206.2303578947825
 30
0.0
 11
49.87831760525484
 21
206.5643427447825
 31
0.0
  0
LINE
  5
A53C
  8
0
 10
49.87831760525484
 20
206.5643427447825
 30
0.0
 11
47.54153610525482
 21
206.5643427447825
 31
0.0
  0
LINE
  5
A53D
  8
0
 10
47.54153610525482
 20
206.5643427447825
 30
0.0
 11
47.54153610525482
 21
206.2303578947825
 31
0.0
  0
LINE
  5
A53E
  8
0
 10
50.21151110525483
 20
206.2303578947825
 30
0.0
 11
50.54586645525482
 21
206.2303578947825
 31
0.0
  0
LINE
  5
A53F
  8
0
 10
50.54586645525482
 20
206.2303578947825
 30
0.0
 11
50.54586645525482
 21
206.5643427447825
 31
0.0
  0
LINE
  5
A540
  8
0
 10
50.54586645525482
 20
206.5643427447825
 30
0.0
 11
50.21151110525483
 21
206.5643427447825
 31
0.0
  0
LINE
  5
A541
  8
0
 10
50.21151110525483
 20
206.5643427447825
 30
0.0
 11
50.21151110525483
 21
206.2303578947825
 31
0.0
  0
LINE
  5
A542
  8
0
 10
50.87907610525482
 20
206.2303578947825
 30
0.0
 11
51.21306095525483
 21
206.2303578947825
 31
0.0
  0
LINE
  5
A543
  8
0
 10
51.21306095525483
 20
206.2303578947825
 30
0.0
 11
51.21306095525483
 21
206.5643427447825
 31
0.0
  0
LINE
  5
A544
  8
0
 10
51.21306095525483
 20
206.5643427447825
 30
0.0
 11
50.87907610525482
 21
206.5643427447825
 31
0.0
  0
LINE
  5
A545
  8
0
 10
50.87907610525482
 20
206.5643427447825
 30
0.0
 11
50.87907610525482
 21
206.2303578947825
 31
0.0
  0
LINE
  5
A546
  8
0
 10
51.88066110525482
 20
206.2303578947825
 30
0.0
 11
52.88224610525482
 21
206.2303578947825
 31
0.0
  0
LINE
  5
A547
  8
0
 10
52.88224610525482
 20
206.2303578947825
 30
0.0
 11
52.88224610525482
 21
206.5643427447825
 31
0.0
  0
LINE
  5
A548
  8
0
 10
52.88224610525482
 20
206.5643427447825
 30
0.0
 11
51.88066110525482
 21
206.5643427447825
 31
0.0
  0
LINE
  5
A549
  8
0
 10
51.88066110525482
 20
206.5643427447825
 30
0.0
 11
51.88066110525482
 21
206.2303578947825
 31
0.0
  0
LINE
  5
A54A
  8
0
 10
53.21550610525483
 20
206.2303578947825
 30
0.0
 11
53.54986240525483
 21
206.2303578947825
 31
0.0
  0
LINE
  5
A54B
  8
0
 10
53.54986240525483
 20
206.2303578947825
 30
0.0
 11
53.54986240525483
 21
206.5643427447825
 31
0.0
  0
LINE
  5
A54C
  8
0
 10
53.54986240525483
 20
206.5643427447825
 30
0.0
 11
53.21550610525483
 21
206.5643427447825
 31
0.0
  0
LINE
  5
A54D
  8
0
 10
53.21550610525483
 20
206.5643427447825
 30
0.0
 11
53.21550610525483
 21
206.2303578947825
 31
0.0
  0
LINE
  5
A54E
  8
0
 10
42.53437110525482
 20
205.8959578947825
 30
0.0
 11
43.86956760525483
 21
205.8959578947825
 31
0.0
  0
LINE
  5
A54F
  8
0
 10
43.86956760525483
 20
205.8959578947825
 30
0.0
 11
43.86956760525483
 21
206.2303132447825
 31
0.0
  0
LINE
  5
A550
  8
0
 10
43.86956760525483
 20
206.2303132447825
 30
0.0
 11
42.53437110525482
 21
206.2303132447825
 31
0.0
  0
LINE
  5
A551
  8
0
 10
42.53437110525482
 20
206.2303132447825
 30
0.0
 11
42.53437110525482
 21
205.8959578947825
 31
0.0
  0
LINE
  5
A552
  8
0
 10
44.53744610525482
 20
205.8959578947825
 30
0.0
 11
44.87143000525481
 21
205.8959578947825
 31
0.0
  0
LINE
  5
A553
  8
0
 10
44.87143000525481
 20
205.8959578947825
 30
0.0
 11
44.87143000525481
 21
206.2303132447825
 31
0.0
  0
LINE
  5
A554
  8
0
 10
44.87143000525481
 20
206.2303132447825
 30
0.0
 11
44.53744610525482
 21
206.2303132447825
 31
0.0
  0
LINE
  5
A555
  8
0
 10
44.53744610525482
 20
206.2303132447825
 30
0.0
 11
44.53744610525482
 21
205.8959578947825
 31
0.0
  0
LINE
  5
A556
  8
0
 10
45.20510610525483
 20
205.8959578947825
 30
0.0
 11
45.53909095525484
 21
205.8959578947825
 31
0.0
  0
LINE
  5
A557
  8
0
 10
45.53909095525484
 20
205.8959578947825
 30
0.0
 11
45.53909095525484
 21
206.2303132447825
 31
0.0
  0
LINE
  5
A558
  8
0
 10
45.53909095525484
 20
206.2303132447825
 30
0.0
 11
45.20510610525483
 21
206.2303132447825
 31
0.0
  0
LINE
  5
A559
  8
0
 10
45.20510610525483
 20
206.2303132447825
 30
0.0
 11
45.20510610525483
 21
205.8959578947825
 31
0.0
  0
LINE
  5
A55A
  8
0
 10
45.87267110525482
 20
205.8959578947825
 30
0.0
 11
46.20665500525483
 21
205.8959578947825
 31
0.0
  0
LINE
  5
A55B
  8
0
 10
46.20665500525483
 20
205.8959578947825
 30
0.0
 11
46.20665500525483
 21
206.2303132447825
 31
0.0
  0
LINE
  5
A55C
  8
0
 10
46.20665500525483
 20
206.2303132447825
 30
0.0
 11
45.87267110525482
 21
206.2303132447825
 31
0.0
  0
LINE
  5
A55D
  8
0
 10
45.87267110525482
 20
206.2303132447825
 30
0.0
 11
45.87267110525482
 21
205.8959578947825
 31
0.0
  0
LINE
  5
A55E
  8
0
 10
46.54033110525484
 20
205.8959578947825
 30
0.0
 11
47.54154560525483
 21
205.8959578947825
 31
0.0
  0
LINE
  5
A55F
  8
0
 10
47.54154560525483
 20
205.8959578947825
 30
0.0
 11
47.54154560525483
 21
206.2303132447825
 31
0.0
  0
LINE
  5
A560
  8
0
 10
47.54154560525483
 20
206.2303132447825
 30
0.0
 11
46.54033110525484
 21
206.2303132447825
 31
0.0
  0
LINE
  5
A561
  8
0
 10
46.54033110525484
 20
206.2303132447825
 30
0.0
 11
46.54033110525484
 21
205.8959578947825
 31
0.0
  0
LINE
  5
A562
  8
0
 10
47.87508110525482
 20
205.8959578947825
 30
0.0
 11
48.20906595525483
 21
205.8959578947825
 31
0.0
  0
LINE
  5
A563
  8
0
 10
48.20906595525483
 20
205.8959578947825
 30
0.0
 11
48.20906595525483
 21
206.2303132447825
 31
0.0
  0
LINE
  5
A564
  8
0
 10
48.20906595525483
 20
206.2303132447825
 30
0.0
 11
47.87508110525482
 21
206.2303132447825
 31
0.0
  0
LINE
  5
A565
  8
0
 10
47.87508110525482
 20
206.2303132447825
 30
0.0
 11
47.87508110525482
 21
205.8959578947825
 31
0.0
  0
LINE
  5
A566
  8
0
 10
49.20992610525484
 20
205.8959578947825
 30
0.0
 11
50.21151110525483
 21
205.8959578947825
 31
0.0
  0
LINE
  5
A567
  8
0
 10
50.21151110525483
 20
205.8959578947825
 30
0.0
 11
50.21151110525483
 21
206.2303132447825
 31
0.0
  0
LINE
  5
A568
  8
0
 10
50.21151110525483
 20
206.2303132447825
 30
0.0
 11
49.20992610525484
 21
206.2303132447825
 31
0.0
  0
LINE
  5
A569
  8
0
 10
49.20992610525484
 20
206.2303132447825
 30
0.0
 11
49.20992610525484
 21
205.8959578947825
 31
0.0
  0
LINE
  5
A56A
  8
0
 10
50.87907610525482
 20
205.8959578947825
 30
0.0
 11
51.21306095525483
 21
205.8959578947825
 31
0.0
  0
LINE
  5
A56B
  8
0
 10
51.21306095525483
 20
205.8959578947825
 30
0.0
 11
51.21306095525483
 21
206.2303132447825
 31
0.0
  0
LINE
  5
A56C
  8
0
 10
51.21306095525483
 20
206.2303132447825
 30
0.0
 11
50.87907610525482
 21
206.2303132447825
 31
0.0
  0
LINE
  5
A56D
  8
0
 10
50.87907610525482
 20
206.2303132447825
 30
0.0
 11
50.87907610525482
 21
205.8959578947825
 31
0.0
  0
LINE
  5
A56E
  8
0
 10
51.88066110525482
 20
205.8959578947825
 30
0.0
 11
52.54788790525484
 21
205.8959578947825
 31
0.0
  0
LINE
  5
A56F
  8
0
 10
52.54788790525484
 20
205.8959578947825
 30
0.0
 11
52.54788790525484
 21
206.2303132447825
 31
0.0
  0
LINE
  5
A570
  8
0
 10
52.54788790525484
 20
206.2303132447825
 30
0.0
 11
51.88066110525482
 21
206.2303132447825
 31
0.0
  0
LINE
  5
A571
  8
0
 10
51.88066110525482
 20
206.2303132447825
 30
0.0
 11
51.88066110525482
 21
205.8959578947825
 31
0.0
  0
LINE
  5
A572
  8
0
 10
42.53437110525482
 20
205.5626978947825
 30
0.0
 11
43.20196840525482
 21
205.5626978947825
 31
0.0
  0
LINE
  5
A573
  8
0
 10
43.20196840525482
 20
205.5626978947825
 30
0.0
 11
43.20196840525482
 21
205.8966827447825
 31
0.0
  0
LINE
  5
A574
  8
0
 10
43.20196840525482
 20
205.8966827447825
 30
0.0
 11
42.53437110525482
 21
205.8966827447825
 31
0.0
  0
LINE
  5
A575
  8
0
 10
42.53437110525482
 20
205.8966827447825
 30
0.0
 11
42.53437110525482
 21
205.5626978947825
 31
0.0
  0
LINE
  5
A576
  8
0
 10
43.53586110525484
 20
205.5626978947825
 30
0.0
 11
43.86984500525483
 21
205.5626978947825
 31
0.0
  0
LINE
  5
A577
  8
0
 10
43.86984500525483
 20
205.5626978947825
 30
0.0
 11
43.86984500525483
 21
205.8966827447825
 31
0.0
  0
LINE
  5
A578
  8
0
 10
43.86984500525483
 20
205.8966827447825
 30
0.0
 11
43.53586110525484
 21
205.8966827447825
 31
0.0
  0
LINE
  5
A579
  8
0
 10
43.53586110525484
 20
205.8966827447825
 30
0.0
 11
43.53586110525484
 21
205.5626978947825
 31
0.0
  0
LINE
  5
A57A
  8
0
 10
44.20352110525482
 20
205.5626978947825
 30
0.0
 11
44.53750595525483
 21
205.5626978947825
 31
0.0
  0
LINE
  5
A57B
  8
0
 10
44.53750595525483
 20
205.5626978947825
 30
0.0
 11
44.53750595525483
 21
205.8966827447825
 31
0.0
  0
LINE
  5
A57C
  8
0
 10
44.53750595525483
 20
205.8966827447825
 30
0.0
 11
44.20352110525482
 21
205.8966827447825
 31
0.0
  0
LINE
  5
A57D
  8
0
 10
44.20352110525482
 20
205.8966827447825
 30
0.0
 11
44.20352110525482
 21
205.5626978947825
 31
0.0
  0
LINE
  5
A57E
  8
0
 10
45.20510610525483
 20
205.5626978947825
 30
0.0
 11
45.53909095525484
 21
205.5626978947825
 31
0.0
  0
LINE
  5
A57F
  8
0
 10
45.53909095525484
 20
205.5626978947825
 30
0.0
 11
45.53909095525484
 21
205.8966827447825
 31
0.0
  0
LINE
  5
A580
  8
0
 10
45.53909095525484
 20
205.8966827447825
 30
0.0
 11
45.20510610525483
 21
205.8966827447825
 31
0.0
  0
LINE
  5
A581
  8
0
 10
45.20510610525483
 20
205.8966827447825
 30
0.0
 11
45.20510610525483
 21
205.5626978947825
 31
0.0
  0
LINE
  5
A582
  8
0
 10
45.87267110525482
 20
205.5626978947825
 30
0.0
 11
46.87388560525483
 21
205.5626978947825
 31
0.0
  0
LINE
  5
A583
  8
0
 10
46.87388560525483
 20
205.5626978947825
 30
0.0
 11
46.87388560525483
 21
205.8966827447825
 31
0.0
  0
LINE
  5
A584
  8
0
 10
46.87388560525483
 20
205.8966827447825
 30
0.0
 11
45.87267110525482
 21
205.8966827447825
 31
0.0
  0
LINE
  5
A585
  8
0
 10
45.87267110525482
 20
205.8966827447825
 30
0.0
 11
45.87267110525482
 21
205.5626978947825
 31
0.0
  0
LINE
  5
A586
  8
0
 10
47.20751610525484
 20
205.5626978947825
 30
0.0
 11
47.54150000525483
 21
205.5626978947825
 31
0.0
  0
LINE
  5
A587
  8
0
 10
47.54150000525483
 20
205.5626978947825
 30
0.0
 11
47.54150000525483
 21
205.8966827447825
 31
0.0
  0
LINE
  5
A588
  8
0
 10
47.54150000525483
 20
205.8966827447825
 30
0.0
 11
47.20751610525484
 21
205.8966827447825
 31
0.0
  0
LINE
  5
A589
  8
0
 10
47.20751610525484
 20
205.8966827447825
 30
0.0
 11
47.20751610525484
 21
205.5626978947825
 31
0.0
  0
LINE
  5
A58A
  8
0
 10
47.87508110525482
 20
205.5626978947825
 30
0.0
 11
48.87666610525483
 21
205.5626978947825
 31
0.0
  0
LINE
  5
A58B
  8
0
 10
48.87666610525483
 20
205.5626978947825
 30
0.0
 11
48.87666610525483
 21
205.8966827447825
 31
0.0
  0
LINE
  5
A58C
  8
0
 10
48.87666610525483
 20
205.8966827447825
 30
0.0
 11
47.87508110525482
 21
205.8966827447825
 31
0.0
  0
LINE
  5
A58D
  8
0
 10
47.87508110525482
 20
205.8966827447825
 30
0.0
 11
47.87508110525482
 21
205.5626978947825
 31
0.0
  0
LINE
  5
A58E
  8
0
 10
49.20992610525484
 20
205.5626978947825
 30
0.0
 11
49.54428145525483
 21
205.5626978947825
 31
0.0
  0
LINE
  5
A58F
  8
0
 10
49.54428145525483
 20
205.5626978947825
 30
0.0
 11
49.54428145525483
 21
205.8966827447825
 31
0.0
  0
LINE
  5
A590
  8
0
 10
49.54428145525483
 20
205.8966827447825
 30
0.0
 11
49.20992610525484
 21
205.8966827447825
 31
0.0
  0
LINE
  5
A591
  8
0
 10
49.20992610525484
 20
205.8966827447825
 30
0.0
 11
49.20992610525484
 21
205.5626978947825
 31
0.0
  0
LINE
  5
A592
  8
0
 10
49.87749110525482
 20
205.5626978947825
 30
0.0
 11
50.54508840525483
 21
205.5626978947825
 31
0.0
  0
LINE
  5
A593
  8
0
 10
50.54508840525483
 20
205.5626978947825
 30
0.0
 11
50.54508840525483
 21
205.8966827447825
 31
0.0
  0
LINE
  5
A594
  8
0
 10
50.54508840525483
 20
205.8966827447825
 30
0.0
 11
49.87749110525482
 21
205.8966827447825
 31
0.0
  0
LINE
  5
A595
  8
0
 10
49.87749110525482
 20
205.8966827447825
 30
0.0
 11
49.87749110525482
 21
205.5626978947825
 31
0.0
  0
LINE
  5
A596
  8
0
 10
51.54673610525482
 20
205.5626978947825
 30
0.0
 11
52.88156210525482
 21
205.5626978947825
 31
0.0
  0
LINE
  5
A597
  8
0
 10
52.88156210525482
 20
205.5626978947825
 30
0.0
 11
52.88156210525482
 21
205.8966827447825
 31
0.0
  0
LINE
  5
A598
  8
0
 10
52.88156210525482
 20
205.8966827447825
 30
0.0
 11
51.54673610525482
 21
205.8966827447825
 31
0.0
  0
LINE
  5
A599
  8
0
 10
51.54673610525482
 20
205.8966827447825
 30
0.0
 11
51.54673610525482
 21
205.5626978947825
 31
0.0
  0
LINE
  5
A59A
  8
0
 10
42.53437110525482
 20
205.2287728947825
 30
0.0
 11
42.86872645525483
 21
205.2287728947825
 31
0.0
  0
LINE
  5
A59B
  8
0
 10
42.86872645525483
 20
205.2287728947825
 30
0.0
 11
42.86872645525483
 21
205.5627567947825
 31
0.0
  0
LINE
  5
A59C
  8
0
 10
42.86872645525483
 20
205.5627567947825
 30
0.0
 11
42.53437110525482
 21
205.5627567947825
 31
0.0
  0
LINE
  5
A59D
  8
0
 10
42.53437110525482
 20
205.5627567947825
 30
0.0
 11
42.53437110525482
 21
205.2287728947825
 31
0.0
  0
LINE
  5
A59E
  8
0
 10
43.20193610525482
 20
205.2287728947825
 30
0.0
 11
43.53629240525481
 21
205.2287728947825
 31
0.0
  0
LINE
  5
A59F
  8
0
 10
43.53629240525481
 20
205.2287728947825
 30
0.0
 11
43.53629240525481
 21
205.5627567947825
 31
0.0
  0
LINE
  5
A5A0
  8
0
 10
43.53629240525481
 20
205.5627567947825
 30
0.0
 11
43.20193610525482
 21
205.5627567947825
 31
0.0
  0
LINE
  5
A5A1
  8
0
 10
43.20193610525482
 20
205.5627567947825
 30
0.0
 11
43.20193610525482
 21
205.2287728947825
 31
0.0
  0
LINE
  5
A5A2
  8
0
 10
43.86950110525484
 20
205.2287728947825
 30
0.0
 11
44.87108610525482
 21
205.2287728947825
 31
0.0
  0
LINE
  5
A5A3
  8
0
 10
44.87108610525482
 20
205.2287728947825
 30
0.0
 11
44.87108610525482
 21
205.5627567947825
 31
0.0
  0
LINE
  5
A5A4
  8
0
 10
44.87108610525482
 20
205.5627567947825
 30
0.0
 11
43.86950110525484
 21
205.5627567947825
 31
0.0
  0
LINE
  5
A5A5
  8
0
 10
43.86950110525484
 20
205.5627567947825
 30
0.0
 11
43.86950110525484
 21
205.2287728947825
 31
0.0
  0
LINE
  5
A5A6
  8
0
 10
45.53874610525482
 20
205.2287728947825
 30
0.0
 11
45.87273095525481
 21
205.2287728947825
 31
0.0
  0
LINE
  5
A5A7
  8
0
 10
45.87273095525481
 20
205.2287728947825
 30
0.0
 11
45.87273095525481
 21
205.5627567947825
 31
0.0
  0
LINE
  5
A5A8
  8
0
 10
45.87273095525481
 20
205.5627567947825
 30
0.0
 11
45.53874610525482
 21
205.5627567947825
 31
0.0
  0
LINE
  5
A5A9
  8
0
 10
45.53874610525482
 20
205.5627567947825
 30
0.0
 11
45.53874610525482
 21
205.2287728947825
 31
0.0
  0
LINE
  5
A5AA
  8
0
 10
46.20593110525482
 20
205.2287728947825
 30
0.0
 11
46.53991500525483
 21
205.2287728947825
 31
0.0
  0
LINE
  5
A5AB
  8
0
 10
46.53991500525483
 20
205.2287728947825
 30
0.0
 11
46.53991500525483
 21
205.5627567947825
 31
0.0
  0
LINE
  5
A5AC
  8
0
 10
46.53991500525483
 20
205.5627567947825
 30
0.0
 11
46.20593110525482
 21
205.5627567947825
 31
0.0
  0
LINE
  5
A5AD
  8
0
 10
46.20593110525482
 20
205.5627567947825
 30
0.0
 11
46.20593110525482
 21
205.2287728947825
 31
0.0
  0
LINE
  5
A5AE
  8
0
 10
47.54153610525482
 20
205.2287728947825
 30
0.0
 11
48.54312110525483
 21
205.2287728947825
 31
0.0
  0
LINE
  5
A5AF
  8
0
 10
48.54312110525483
 20
205.2287728947825
 30
0.0
 11
48.54312110525483
 21
205.5627567947825
 31
0.0
  0
LINE
  5
A5B0
  8
0
 10
48.54312110525483
 20
205.5627567947825
 30
0.0
 11
47.54153610525482
 21
205.5627567947825
 31
0.0
  0
LINE
  5
A5B1
  8
0
 10
47.54153610525482
 20
205.5627567947825
 30
0.0
 11
47.54153610525482
 21
205.2287728947825
 31
0.0
  0
LINE
  5
A5B2
  8
0
 10
49.20992610525484
 20
205.2287728947825
 30
0.0
 11
49.87752435525482
 21
205.2287728947825
 31
0.0
  0
LINE
  5
A5B3
  8
0
 10
49.87752435525482
 20
205.2287728947825
 30
0.0
 11
49.87752435525482
 21
205.5627567947825
 31
0.0
  0
LINE
  5
A5B4
  8
0
 10
49.87752435525482
 20
205.5627567947825
 30
0.0
 11
49.20992610525484
 21
205.5627567947825
 31
0.0
  0
LINE
  5
A5B5
  8
0
 10
49.20992610525484
 20
205.5627567947825
 30
0.0
 11
49.20992610525484
 21
205.2287728947825
 31
0.0
  0
LINE
  5
A5B6
  8
0
 10
50.54591110525482
 20
205.2287728947825
 30
0.0
 11
51.21313790525483
 21
205.2287728947825
 31
0.0
  0
LINE
  5
A5B7
  8
0
 10
51.21313790525483
 20
205.2287728947825
 30
0.0
 11
51.21313790525483
 21
205.5627567947825
 31
0.0
  0
LINE
  5
A5B8
  8
0
 10
51.21313790525483
 20
205.5627567947825
 30
0.0
 11
50.54591110525482
 21
205.5627567947825
 31
0.0
  0
LINE
  5
A5B9
  8
0
 10
50.54591110525482
 20
205.5627567947825
 30
0.0
 11
50.54591110525482
 21
205.2287728947825
 31
0.0
  0
LINE
  5
A5BA
  8
0
 10
51.54673610525482
 20
205.2287728947825
 30
0.0
 11
51.88072000525483
 21
205.2287728947825
 31
0.0
  0
LINE
  5
A5BB
  8
0
 10
51.88072000525483
 20
205.2287728947825
 30
0.0
 11
51.88072000525483
 21
205.5627567947825
 31
0.0
  0
LINE
  5
A5BC
  8
0
 10
51.88072000525483
 20
205.5627567947825
 30
0.0
 11
51.54673610525482
 21
205.5627567947825
 31
0.0
  0
LINE
  5
A5BD
  8
0
 10
51.54673610525482
 20
205.5627567947825
 30
0.0
 11
51.54673610525482
 21
205.2287728947825
 31
0.0
  0
LINE
  5
A5BE
  8
0
 10
52.21392110525483
 20
205.2287728947825
 30
0.0
 11
53.21550610525483
 21
205.2287728947825
 31
0.0
  0
LINE
  5
A5BF
  8
0
 10
53.21550610525483
 20
205.2287728947825
 30
0.0
 11
53.21550610525483
 21
205.5627567947825
 31
0.0
  0
LINE
  5
A5C0
  8
0
 10
53.21550610525483
 20
205.5627567947825
 30
0.0
 11
52.21392110525483
 21
205.5627567947825
 31
0.0
  0
LINE
  5
A5C1
  8
0
 10
52.21392110525483
 20
205.5627567947825
 30
0.0
 11
52.21392110525483
 21
205.2287728947825
 31
0.0
  0
LINE
  5
A5C2
  8
0
 10
42.53437110525482
 20
204.8951328947825
 30
0.0
 11
42.86872645525483
 21
204.8951328947825
 31
0.0
  0
LINE
  5
A5C3
  8
0
 10
42.86872645525483
 20
204.8951328947825
 30
0.0
 11
42.86872645525483
 21
205.2291167947825
 31
0.0
  0
LINE
  5
A5C4
  8
0
 10
42.86872645525483
 20
205.2291167947825
 30
0.0
 11
42.53437110525482
 21
205.2291167947825
 31
0.0
  0
LINE
  5
A5C5
  8
0
 10
42.53437110525482
 20
205.2291167947825
 30
0.0
 11
42.53437110525482
 21
204.8951328947825
 31
0.0
  0
LINE
  5
A5C6
  8
0
 10
43.86950110525484
 20
204.8951328947825
 30
0.0
 11
44.53709840525482
 21
204.8951328947825
 31
0.0
  0
LINE
  5
A5C7
  8
0
 10
44.53709840525482
 20
204.8951328947825
 30
0.0
 11
44.53709840525482
 21
205.2291167947825
 31
0.0
  0
LINE
  5
A5C8
  8
0
 10
44.53709840525482
 20
205.2291167947825
 30
0.0
 11
43.86950110525484
 21
205.2291167947825
 31
0.0
  0
LINE
  5
A5C9
  8
0
 10
43.86950110525484
 20
205.2291167947825
 30
0.0
 11
43.86950110525484
 21
204.8951328947825
 31
0.0
  0
LINE
  5
A5CA
  8
0
 10
44.87108610525482
 20
204.8951328947825
 30
0.0
 11
46.87350560525483
 21
204.8951328947825
 31
0.0
  0
LINE
  5
A5CB
  8
0
 10
46.87350560525483
 20
204.8951328947825
 30
0.0
 11
46.87350560525483
 21
205.2291167947825
 31
0.0
  0
LINE
  5
A5CC
  8
0
 10
46.87350560525483
 20
205.2291167947825
 30
0.0
 11
44.87108610525482
 21
205.2291167947825
 31
0.0
  0
LINE
  5
A5CD
  8
0
 10
44.87108610525482
 20
205.2291167947825
 30
0.0
 11
44.87108610525482
 21
204.8951328947825
 31
0.0
  0
LINE
  5
A5CE
  8
0
 10
48.54274110525482
 20
204.8951328947825
 30
0.0
 11
48.87672595525483
 21
204.8951328947825
 31
0.0
  0
LINE
  5
A5CF
  8
0
 10
48.87672595525483
 20
204.8951328947825
 30
0.0
 11
48.87672595525483
 21
205.2291167947825
 31
0.0
  0
LINE
  5
A5D0
  8
0
 10
48.87672595525483
 20
205.2291167947825
 30
0.0
 11
48.54274110525482
 21
205.2291167947825
 31
0.0
  0
LINE
  5
A5D1
  8
0
 10
48.54274110525482
 20
205.2291167947825
 30
0.0
 11
48.54274110525482
 21
204.8951328947825
 31
0.0
  0
LINE
  5
A5D2
  8
0
 10
49.87749110525482
 20
204.8951328947825
 30
0.0
 11
50.54508840525483
 21
204.8951328947825
 31
0.0
  0
LINE
  5
A5D3
  8
0
 10
50.54508840525483
 20
204.8951328947825
 30
0.0
 11
50.54508840525483
 21
205.2291167947825
 31
0.0
  0
LINE
  5
A5D4
  8
0
 10
50.54508840525483
 20
205.2291167947825
 30
0.0
 11
49.87749110525482
 21
205.2291167947825
 31
0.0
  0
LINE
  5
A5D5
  8
0
 10
49.87749110525482
 20
205.2291167947825
 30
0.0
 11
49.87749110525482
 21
204.8951328947825
 31
0.0
  0
LINE
  5
A5D6
  8
0
 10
50.87907610525482
 20
204.8951328947825
 30
0.0
 11
51.88066110525482
 21
204.8951328947825
 31
0.0
  0
LINE
  5
A5D7
  8
0
 10
51.88066110525482
 20
204.8951328947825
 30
0.0
 11
51.88066110525482
 21
205.2291167947825
 31
0.0
  0
LINE
  5
A5D8
  8
0
 10
51.88066110525482
 20
205.2291167947825
 30
0.0
 11
50.87907610525482
 21
205.2291167947825
 31
0.0
  0
LINE
  5
A5D9
  8
0
 10
50.87907610525482
 20
205.2291167947825
 30
0.0
 11
50.87907610525482
 21
204.8951328947825
 31
0.0
  0
LINE
  5
A5DA
  8
0
 10
52.21392110525483
 20
204.8951328947825
 30
0.0
 11
52.88151840525482
 21
204.8951328947825
 31
0.0
  0
LINE
  5
A5DB
  8
0
 10
52.88151840525482
 20
204.8951328947825
 30
0.0
 11
52.88151840525482
 21
205.2291167947825
 31
0.0
  0
LINE
  5
A5DC
  8
0
 10
52.88151840525482
 20
205.2291167947825
 30
0.0
 11
52.21392110525483
 21
205.2291167947825
 31
0.0
  0
LINE
  5
A5DD
  8
0
 10
52.21392110525483
 20
205.2291167947825
 30
0.0
 11
52.21392110525483
 21
204.8951328947825
 31
0.0
  0
LINE
  5
A5DE
  8
0
 10
53.21550610525483
 20
204.8951328947825
 30
0.0
 11
53.54986240525483
 21
204.8951328947825
 31
0.0
  0
LINE
  5
A5DF
  8
0
 10
53.54986240525483
 20
204.8951328947825
 30
0.0
 11
53.54986240525483
 21
205.2291167947825
 31
0.0
  0
LINE
  5
A5E0
  8
0
 10
53.54986240525483
 20
205.2291167947825
 30
0.0
 11
53.21550610525483
 21
205.2291167947825
 31
0.0
  0
LINE
  5
A5E1
  8
0
 10
53.21550610525483
 20
205.2291167947825
 30
0.0
 11
53.21550610525483
 21
204.8951328947825
 31
0.0
  0
LINE
  5
A5E2
  8
0
 10
42.53437110525482
 20
204.5611128947825
 30
0.0
 11
43.20196840525482
 21
204.5611128947825
 31
0.0
  0
LINE
  5
A5E3
  8
0
 10
43.20196840525482
 20
204.5611128947825
 30
0.0
 11
43.20196840525482
 21
204.8950977447825
 31
0.0
  0
LINE
  5
A5E4
  8
0
 10
43.20196840525482
 20
204.8950977447825
 30
0.0
 11
42.53437110525482
 21
204.8950977447825
 31
0.0
  0
LINE
  5
A5E5
  8
0
 10
42.53437110525482
 20
204.8950977447825
 30
0.0
 11
42.53437110525482
 21
204.5611128947825
 31
0.0
  0
LINE
  5
A5E6
  8
0
 10
43.53586110525484
 20
204.5611128947825
 30
0.0
 11
43.86984500525483
 21
204.5611128947825
 31
0.0
  0
LINE
  5
A5E7
  8
0
 10
43.86984500525483
 20
204.5611128947825
 30
0.0
 11
43.86984500525483
 21
204.8950977447825
 31
0.0
  0
LINE
  5
A5E8
  8
0
 10
43.86984500525483
 20
204.8950977447825
 30
0.0
 11
43.53586110525484
 21
204.8950977447825
 31
0.0
  0
LINE
  5
A5E9
  8
0
 10
43.53586110525484
 20
204.8950977447825
 30
0.0
 11
43.53586110525484
 21
204.5611128947825
 31
0.0
  0
LINE
  5
A5EA
  8
0
 10
44.20352110525482
 20
204.5611128947825
 30
0.0
 11
46.20594060525482
 21
204.5611128947825
 31
0.0
  0
LINE
  5
A5EB
  8
0
 10
46.20594060525482
 20
204.5611128947825
 30
0.0
 11
46.20594060525482
 21
204.8950977447825
 31
0.0
  0
LINE
  5
A5EC
  8
0
 10
46.20594060525482
 20
204.8950977447825
 30
0.0
 11
44.20352110525482
 21
204.8950977447825
 31
0.0
  0
LINE
  5
A5ED
  8
0
 10
44.20352110525482
 20
204.8950977447825
 30
0.0
 11
44.20352110525482
 21
204.5611128947825
 31
0.0
  0
LINE
  5
A5EE
  8
0
 10
47.54153610525482
 20
204.5611128947825
 30
0.0
 11
48.20913435525482
 21
204.5611128947825
 31
0.0
  0
LINE
  5
A5EF
  8
0
 10
48.20913435525482
 20
204.5611128947825
 30
0.0
 11
48.20913435525482
 21
204.8950977447825
 31
0.0
  0
LINE
  5
A5F0
  8
0
 10
48.20913435525482
 20
204.8950977447825
 30
0.0
 11
47.54153610525482
 21
204.8950977447825
 31
0.0
  0
LINE
  5
A5F1
  8
0
 10
47.54153610525482
 20
204.8950977447825
 30
0.0
 11
47.54153610525482
 21
204.5611128947825
 31
0.0
  0
LINE
  5
A5F2
  8
0
 10
48.87666610525483
 20
204.5611128947825
 30
0.0
 11
49.54426340525481
 21
204.5611128947825
 31
0.0
  0
LINE
  5
A5F3
  8
0
 10
49.54426340525481
 20
204.5611128947825
 30
0.0
 11
49.54426340525481
 21
204.8950977447825
 31
0.0
  0
LINE
  5
A5F4
  8
0
 10
49.54426340525481
 20
204.8950977447825
 30
0.0
 11
48.87666610525483
 21
204.8950977447825
 31
0.0
  0
LINE
  5
A5F5
  8
0
 10
48.87666610525483
 20
204.8950977447825
 30
0.0
 11
48.87666610525483
 21
204.5611128947825
 31
0.0
  0
LINE
  5
A5F6
  8
0
 10
50.54591110525482
 20
204.5611128947825
 30
0.0
 11
52.54833060525482
 21
204.5611128947825
 31
0.0
  0
LINE
  5
A5F7
  8
0
 10
52.54833060525482
 20
204.5611128947825
 30
0.0
 11
52.54833060525482
 21
204.8950977447825
 31
0.0
  0
LINE
  5
A5F8
  8
0
 10
52.54833060525482
 20
204.8950977447825
 30
0.0
 11
50.54591110525482
 21
204.8950977447825
 31
0.0
  0
LINE
  5
A5F9
  8
0
 10
50.54591110525482
 20
204.8950977447825
 30
0.0
 11
50.54591110525482
 21
204.5611128947825
 31
0.0
  0
LINE
  5
A5FA
  8
0
 10
45.20510610525483
 20
204.2275678947825
 30
0.0
 11
45.53909095525484
 21
204.2275678947825
 31
0.0
  0
LINE
  5
A5FB
  8
0
 10
45.53909095525484
 20
204.2275678947825
 30
0.0
 11
45.53909095525484
 21
204.5615527447825
 31
0.0
  0
LINE
  5
A5FC
  8
0
 10
45.53909095525484
 20
204.5615527447825
 30
0.0
 11
45.20510610525483
 21
204.5615527447825
 31
0.0
  0
LINE
  5
A5FD
  8
0
 10
45.20510610525483
 20
204.5615527447825
 30
0.0
 11
45.20510610525483
 21
204.2275678947825
 31
0.0
  0
LINE
  5
A5FE
  8
0
 10
46.20593110525482
 20
204.2275678947825
 30
0.0
 11
46.53991500525483
 21
204.2275678947825
 31
0.0
  0
LINE
  5
A5FF
  8
0
 10
46.53991500525483
 20
204.2275678947825
 30
0.0
 11
46.53991500525483
 21
204.5615527447825
 31
0.0
  0
LINE
  5
A600
  8
0
 10
46.53991500525483
 20
204.5615527447825
 30
0.0
 11
46.20593110525482
 21
204.5615527447825
 31
0.0
  0
LINE
  5
A601
  8
0
 10
46.20593110525482
 20
204.5615527447825
 30
0.0
 11
46.20593110525482
 21
204.2275678947825
 31
0.0
  0
LINE
  5
A602
  8
0
 10
46.87349610525482
 20
204.2275678947825
 30
0.0
 11
47.20748095525482
 21
204.2275678947825
 31
0.0
  0
LINE
  5
A603
  8
0
 10
47.20748095525482
 20
204.2275678947825
 30
0.0
 11
47.20748095525482
 21
204.5615527447825
 31
0.0
  0
LINE
  5
A604
  8
0
 10
47.20748095525482
 20
204.5615527447825
 30
0.0
 11
46.87349610525482
 21
204.5615527447825
 31
0.0
  0
LINE
  5
A605
  8
0
 10
46.87349610525482
 20
204.5615527447825
 30
0.0
 11
46.87349610525482
 21
204.2275678947825
 31
0.0
  0
LINE
  5
A606
  8
0
 10
47.54153610525482
 20
204.2275678947825
 30
0.0
 11
47.87589145525483
 21
204.2275678947825
 31
0.0
  0
LINE
  5
A607
  8
0
 10
47.87589145525483
 20
204.2275678947825
 30
0.0
 11
47.87589145525483
 21
204.5615527447825
 31
0.0
  0
LINE
  5
A608
  8
0
 10
47.87589145525483
 20
204.5615527447825
 30
0.0
 11
47.54153610525482
 21
204.5615527447825
 31
0.0
  0
LINE
  5
A609
  8
0
 10
47.54153610525482
 20
204.5615527447825
 30
0.0
 11
47.54153610525482
 21
204.2275678947825
 31
0.0
  0
LINE
  5
A60A
  8
0
 10
48.54274110525482
 20
204.2275678947825
 30
0.0
 11
49.54395560525482
 21
204.2275678947825
 31
0.0
  0
LINE
  5
A60B
  8
0
 10
49.54395560525482
 20
204.2275678947825
 30
0.0
 11
49.54395560525482
 21
204.5615527447825
 31
0.0
  0
LINE
  5
A60C
  8
0
 10
49.54395560525482
 20
204.5615527447825
 30
0.0
 11
48.54274110525482
 21
204.5615527447825
 31
0.0
  0
LINE
  5
A60D
  8
0
 10
48.54274110525482
 20
204.5615527447825
 30
0.0
 11
48.54274110525482
 21
204.2275678947825
 31
0.0
  0
LINE
  5
A60E
  8
0
 10
49.87749110525482
 20
204.2275678947825
 30
0.0
 11
50.87907610525482
 21
204.2275678947825
 31
0.0
  0
LINE
  5
A60F
  8
0
 10
50.87907610525482
 20
204.2275678947825
 30
0.0
 11
50.87907610525482
 21
204.5615527447825
 31
0.0
  0
LINE
  5
A610
  8
0
 10
50.87907610525482
 20
204.5615527447825
 30
0.0
 11
49.87749110525482
 21
204.5615527447825
 31
0.0
  0
LINE
  5
A611
  8
0
 10
49.87749110525482
 20
204.5615527447825
 30
0.0
 11
49.87749110525482
 21
204.2275678947825
 31
0.0
  0
LINE
  5
A612
  8
0
 10
51.88066110525482
 20
204.2275678947825
 30
0.0
 11
52.21464595525482
 21
204.2275678947825
 31
0.0
  0
LINE
  5
A613
  8
0
 10
52.21464595525482
 20
204.2275678947825
 30
0.0
 11
52.21464595525482
 21
204.5615527447825
 31
0.0
  0
LINE
  5
A614
  8
0
 10
52.21464595525482
 20
204.5615527447825
 30
0.0
 11
51.88066110525482
 21
204.5615527447825
 31
0.0
  0
LINE
  5
A615
  8
0
 10
51.88066110525482
 20
204.5615527447825
 30
0.0
 11
51.88066110525482
 21
204.2275678947825
 31
0.0
  0
LINE
  5
A616
  8
0
 10
52.54832110525481
 20
204.2275678947825
 30
0.0
 11
53.54990610525483
 21
204.2275678947825
 31
0.0
  0
LINE
  5
A617
  8
0
 10
53.54990610525483
 20
204.2275678947825
 30
0.0
 11
53.54990610525483
 21
204.5615527447825
 31
0.0
  0
LINE
  5
A618
  8
0
 10
53.54990610525483
 20
204.5615527447825
 30
0.0
 11
52.54832110525481
 21
204.5615527447825
 31
0.0
  0
LINE
  5
A619
  8
0
 10
52.54832110525481
 20
204.5615527447825
 30
0.0
 11
52.54832110525481
 21
204.2275678947825
 31
0.0
  0
LINE
  5
A61A
  8
0
 10
42.53437110525482
 20
203.8935478947825
 30
0.0
 11
44.87115260525485
 21
203.8935478947825
 31
0.0
  0
LINE
  5
A61B
  8
0
 10
44.87115260525485
 20
203.8935478947825
 30
0.0
 11
44.87115260525485
 21
204.2275317947825
 31
0.0
  0
LINE
  5
A61C
  8
0
 10
44.87115260525485
 20
204.2275317947825
 30
0.0
 11
42.53437110525482
 21
204.2275317947825
 31
0.0
  0
LINE
  5
A61D
  8
0
 10
42.53437110525482
 20
204.2275317947825
 30
0.0
 11
42.53437110525482
 21
203.8935478947825
 31
0.0
  0
LINE
  5
A61E
  8
0
 10
46.20593110525482
 20
203.8935478947825
 30
0.0
 11
47.20751610525484
 21
203.8935478947825
 31
0.0
  0
LINE
  5
A61F
  8
0
 10
47.20751610525484
 20
203.8935478947825
 30
0.0
 11
47.20751610525484
 21
204.2275317947825
 31
0.0
  0
LINE
  5
A620
  8
0
 10
47.20751610525484
 20
204.2275317947825
 30
0.0
 11
46.20593110525482
 21
204.2275317947825
 31
0.0
  0
LINE
  5
A621
  8
0
 10
46.20593110525482
 20
204.2275317947825
 30
0.0
 11
46.20593110525482
 21
203.8935478947825
 31
0.0
  0
LINE
  5
A622
  8
0
 10
47.54153610525482
 20
203.8935478947825
 30
0.0
 11
48.20913435525482
 21
203.8935478947825
 31
0.0
  0
LINE
  5
A623
  8
0
 10
48.20913435525482
 20
203.8935478947825
 30
0.0
 11
48.20913435525482
 21
204.2275317947825
 31
0.0
  0
LINE
  5
A624
  8
0
 10
48.20913435525482
 20
204.2275317947825
 30
0.0
 11
47.54153610525482
 21
204.2275317947825
 31
0.0
  0
LINE
  5
A625
  8
0
 10
47.54153610525482
 20
204.2275317947825
 30
0.0
 11
47.54153610525482
 21
203.8935478947825
 31
0.0
  0
LINE
  5
A626
  8
0
 10
48.54274110525482
 20
203.8935478947825
 30
0.0
 11
48.87672595525483
 21
203.8935478947825
 31
0.0
  0
LINE
  5
A627
  8
0
 10
48.87672595525483
 20
203.8935478947825
 30
0.0
 11
48.87672595525483
 21
204.2275317947825
 31
0.0
  0
LINE
  5
A628
  8
0
 10
48.87672595525483
 20
204.2275317947825
 30
0.0
 11
48.54274110525482
 21
204.2275317947825
 31
0.0
  0
LINE
  5
A629
  8
0
 10
48.54274110525482
 20
204.2275317947825
 30
0.0
 11
48.54274110525482
 21
203.8935478947825
 31
0.0
  0
LINE
  5
A62A
  8
0
 10
49.20992610525484
 20
203.8935478947825
 30
0.0
 11
49.87752435525482
 21
203.8935478947825
 31
0.0
  0
LINE
  5
A62B
  8
0
 10
49.87752435525482
 20
203.8935478947825
 30
0.0
 11
49.87752435525482
 21
204.2275317947825
 31
0.0
  0
LINE
  5
A62C
  8
0
 10
49.87752435525482
 20
204.2275317947825
 30
0.0
 11
49.20992610525484
 21
204.2275317947825
 31
0.0
  0
LINE
  5
A62D
  8
0
 10
49.20992610525484
 20
204.2275317947825
 30
0.0
 11
49.20992610525484
 21
203.8935478947825
 31
0.0
  0
LINE
  5
A62E
  8
0
 10
50.21151110525483
 20
203.8935478947825
 30
0.0
 11
50.87910840525483
 21
203.8935478947825
 31
0.0
  0
LINE
  5
A62F
  8
0
 10
50.87910840525483
 20
203.8935478947825
 30
0.0
 11
50.87910840525483
 21
204.2275317947825
 31
0.0
  0
LINE
  5
A630
  8
0
 10
50.87910840525483
 20
204.2275317947825
 30
0.0
 11
50.21151110525483
 21
204.2275317947825
 31
0.0
  0
LINE
  5
A631
  8
0
 10
50.21151110525483
 20
204.2275317947825
 30
0.0
 11
50.21151110525483
 21
203.8935478947825
 31
0.0
  0
LINE
  5
A632
  8
0
 10
51.21309610525483
 20
203.8935478947825
 30
0.0
 11
51.54708000525483
 21
203.8935478947825
 31
0.0
  0
LINE
  5
A633
  8
0
 10
51.54708000525483
 20
203.8935478947825
 30
0.0
 11
51.54708000525483
 21
204.2275317947825
 31
0.0
  0
LINE
  5
A634
  8
0
 10
51.54708000525483
 20
204.2275317947825
 30
0.0
 11
51.21309610525483
 21
204.2275317947825
 31
0.0
  0
LINE
  5
A635
  8
0
 10
51.21309610525483
 20
204.2275317947825
 30
0.0
 11
51.21309610525483
 21
203.8935478947825
 31
0.0
  0
LINE
  5
A636
  8
0
 10
51.88066110525482
 20
203.8935478947825
 30
0.0
 11
52.21464595525482
 21
203.8935478947825
 31
0.0
  0
LINE
  5
A637
  8
0
 10
52.21464595525482
 20
203.8935478947825
 30
0.0
 11
52.21464595525482
 21
204.2275317947825
 31
0.0
  0
LINE
  5
A638
  8
0
 10
52.21464595525482
 20
204.2275317947825
 30
0.0
 11
51.88066110525482
 21
204.2275317947825
 31
0.0
  0
LINE
  5
A639
  8
0
 10
51.88066110525482
 20
204.2275317947825
 30
0.0
 11
51.88066110525482
 21
203.8935478947825
 31
0.0
  0
LINE
  5
A63A
  8
0
 10
52.54832110525481
 20
203.8935478947825
 30
0.0
 11
53.21554695525484
 21
203.8935478947825
 31
0.0
  0
LINE
  5
A63B
  8
0
 10
53.21554695525484
 20
203.8935478947825
 30
0.0
 11
53.21554695525484
 21
204.2275317947825
 31
0.0
  0
LINE
  5
A63C
  8
0
 10
53.21554695525484
 20
204.2275317947825
 30
0.0
 11
52.54832110525481
 21
204.2275317947825
 31
0.0
  0
LINE
  5
A63D
  8
0
 10
52.54832110525481
 20
204.2275317947825
 30
0.0
 11
52.54832110525481
 21
203.8935478947825
 31
0.0
  0
LINE
  5
A63E
  8
0
 10
42.53437110525482
 20
203.5602878947825
 30
0.0
 11
42.86872645525483
 21
203.5602878947825
 31
0.0
  0
LINE
  5
A63F
  8
0
 10
42.86872645525483
 20
203.5602878947825
 30
0.0
 11
42.86872645525483
 21
203.8942717947825
 31
0.0
  0
LINE
  5
A640
  8
0
 10
42.86872645525483
 20
203.8942717947825
 30
0.0
 11
42.53437110525482
 21
203.8942717947825
 31
0.0
  0
LINE
  5
A641
  8
0
 10
42.53437110525482
 20
203.8942717947825
 30
0.0
 11
42.53437110525482
 21
203.5602878947825
 31
0.0
  0
LINE
  5
A642
  8
0
 10
44.53744610525482
 20
203.5602878947825
 30
0.0
 11
44.87143000525481
 21
203.5602878947825
 31
0.0
  0
LINE
  5
A643
  8
0
 10
44.87143000525481
 20
203.5602878947825
 30
0.0
 11
44.87143000525481
 21
203.8942717947825
 31
0.0
  0
LINE
  5
A644
  8
0
 10
44.87143000525481
 20
203.8942717947825
 30
0.0
 11
44.53744610525482
 21
203.8942717947825
 31
0.0
  0
LINE
  5
A645
  8
0
 10
44.53744610525482
 20
203.8942717947825
 30
0.0
 11
44.53744610525482
 21
203.5602878947825
 31
0.0
  0
LINE
  5
A646
  8
0
 10
45.53874610525482
 20
203.5602878947825
 30
0.0
 11
46.53996060525482
 21
203.5602878947825
 31
0.0
  0
LINE
  5
A647
  8
0
 10
46.53996060525482
 20
203.5602878947825
 30
0.0
 11
46.53996060525482
 21
203.8942717947825
 31
0.0
  0
LINE
  5
A648
  8
0
 10
46.53996060525482
 20
203.8942717947825
 30
0.0
 11
45.53874610525482
 21
203.8942717947825
 31
0.0
  0
LINE
  5
A649
  8
0
 10
45.53874610525482
 20
203.8942717947825
 30
0.0
 11
45.53874610525482
 21
203.5602878947825
 31
0.0
  0
LINE
  5
A64A
  8
0
 10
47.54153610525482
 20
203.5602878947825
 30
0.0
 11
47.87589145525483
 21
203.5602878947825
 31
0.0
  0
LINE
  5
A64B
  8
0
 10
47.87589145525483
 20
203.5602878947825
 30
0.0
 11
47.87589145525483
 21
203.8942717947825
 31
0.0
  0
LINE
  5
A64C
  8
0
 10
47.87589145525483
 20
203.8942717947825
 30
0.0
 11
47.54153610525482
 21
203.8942717947825
 31
0.0
  0
LINE
  5
A64D
  8
0
 10
47.54153610525482
 20
203.8942717947825
 30
0.0
 11
47.54153610525482
 21
203.5602878947825
 31
0.0
  0
LINE
  5
A64E
  8
0
 10
49.20992610525484
 20
203.5602878947825
 30
0.0
 11
49.54428145525483
 21
203.5602878947825
 31
0.0
  0
LINE
  5
A64F
  8
0
 10
49.54428145525483
 20
203.5602878947825
 30
0.0
 11
49.54428145525483
 21
203.8942717947825
 31
0.0
  0
LINE
  5
A650
  8
0
 10
49.54428145525483
 20
203.8942717947825
 30
0.0
 11
49.20992610525484
 21
203.8942717947825
 31
0.0
  0
LINE
  5
A651
  8
0
 10
49.20992610525484
 20
203.8942717947825
 30
0.0
 11
49.20992610525484
 21
203.5602878947825
 31
0.0
  0
LINE
  5
A652
  8
0
 10
50.21151110525483
 20
203.5602878947825
 30
0.0
 11
50.87910840525483
 21
203.5602878947825
 31
0.0
  0
LINE
  5
A653
  8
0
 10
50.87910840525483
 20
203.5602878947825
 30
0.0
 11
50.87910840525483
 21
203.8942717947825
 31
0.0
  0
LINE
  5
A654
  8
0
 10
50.87910840525483
 20
203.8942717947825
 30
0.0
 11
50.21151110525483
 21
203.8942717947825
 31
0.0
  0
LINE
  5
A655
  8
0
 10
50.21151110525483
 20
203.8942717947825
 30
0.0
 11
50.21151110525483
 21
203.5602878947825
 31
0.0
  0
LINE
  5
A656
  8
0
 10
51.88066110525482
 20
203.5602878947825
 30
0.0
 11
52.88224610525482
 21
203.5602878947825
 31
0.0
  0
LINE
  5
A657
  8
0
 10
52.88224610525482
 20
203.5602878947825
 30
0.0
 11
52.88224610525482
 21
203.8942717947825
 31
0.0
  0
LINE
  5
A658
  8
0
 10
52.88224610525482
 20
203.8942717947825
 30
0.0
 11
51.88066110525482
 21
203.8942717947825
 31
0.0
  0
LINE
  5
A659
  8
0
 10
51.88066110525482
 20
203.8942717947825
 30
0.0
 11
51.88066110525482
 21
203.5602878947825
 31
0.0
  0
LINE
  5
A65A
  8
0
 10
53.21550610525483
 20
203.5602878947825
 30
0.0
 11
53.54986240525483
 21
203.5602878947825
 31
0.0
  0
LINE
  5
A65B
  8
0
 10
53.54986240525483
 20
203.5602878947825
 30
0.0
 11
53.54986240525483
 21
203.8942717947825
 31
0.0
  0
LINE
  5
A65C
  8
0
 10
53.54986240525483
 20
203.8942717947825
 30
0.0
 11
53.21550610525483
 21
203.8942717947825
 31
0.0
  0
LINE
  5
A65D
  8
0
 10
53.21550610525483
 20
203.8942717947825
 30
0.0
 11
53.21550610525483
 21
203.5602878947825
 31
0.0
  0
LINE
  5
A65E
  8
0
 10
42.53437110525482
 20
203.2262678947825
 30
0.0
 11
42.86872645525483
 21
203.2262678947825
 31
0.0
  0
LINE
  5
A65F
  8
0
 10
42.86872645525483
 20
203.2262678947825
 30
0.0
 11
42.86872645525483
 21
203.5602527447825
 31
0.0
  0
LINE
  5
A660
  8
0
 10
42.86872645525483
 20
203.5602527447825
 30
0.0
 11
42.53437110525482
 21
203.5602527447825
 31
0.0
  0
LINE
  5
A661
  8
0
 10
42.53437110525482
 20
203.5602527447825
 30
0.0
 11
42.53437110525482
 21
203.2262678947825
 31
0.0
  0
LINE
  5
A662
  8
0
 10
43.20193610525482
 20
203.2262678947825
 30
0.0
 11
44.20352110525482
 21
203.2262678947825
 31
0.0
  0
LINE
  5
A663
  8
0
 10
44.20352110525482
 20
203.2262678947825
 30
0.0
 11
44.20352110525482
 21
203.5602527447825
 31
0.0
  0
LINE
  5
A664
  8
0
 10
44.20352110525482
 20
203.5602527447825
 30
0.0
 11
43.20193610525482
 21
203.5602527447825
 31
0.0
  0
LINE
  5
A665
  8
0
 10
43.20193610525482
 20
203.5602527447825
 30
0.0
 11
43.20193610525482
 21
203.2262678947825
 31
0.0
  0
LINE
  5
A666
  8
0
 10
44.53744610525482
 20
203.2262678947825
 30
0.0
 11
44.87143000525481
 21
203.2262678947825
 31
0.0
  0
LINE
  5
A667
  8
0
 10
44.87143000525481
 20
203.2262678947825
 30
0.0
 11
44.87143000525481
 21
203.5602527447825
 31
0.0
  0
LINE
  5
A668
  8
0
 10
44.87143000525481
 20
203.5602527447825
 30
0.0
 11
44.53744610525482
 21
203.5602527447825
 31
0.0
  0
LINE
  5
A669
  8
0
 10
44.53744610525482
 20
203.5602527447825
 30
0.0
 11
44.53744610525482
 21
203.2262678947825
 31
0.0
  0
LINE
  5
A66A
  8
0
 10
45.87267110525482
 20
203.2262678947825
 30
0.0
 11
46.53989695525482
 21
203.2262678947825
 31
0.0
  0
LINE
  5
A66B
  8
0
 10
46.53989695525482
 20
203.2262678947825
 30
0.0
 11
46.53989695525482
 21
203.5602527447825
 31
0.0
  0
LINE
  5
A66C
  8
0
 10
46.53989695525482
 20
203.5602527447825
 30
0.0
 11
45.87267110525482
 21
203.5602527447825
 31
0.0
  0
LINE
  5
A66D
  8
0
 10
45.87267110525482
 20
203.5602527447825
 30
0.0
 11
45.87267110525482
 21
203.2262678947825
 31
0.0
  0
LINE
  5
A66E
  8
0
 10
46.87349610525482
 20
203.2262678947825
 30
0.0
 11
47.54109435525484
 21
203.2262678947825
 31
0.0
  0
LINE
  5
A66F
  8
0
 10
47.54109435525484
 20
203.2262678947825
 30
0.0
 11
47.54109435525484
 21
203.5602527447825
 31
0.0
  0
LINE
  5
A670
  8
0
 10
47.54109435525484
 20
203.5602527447825
 30
0.0
 11
46.87349610525482
 21
203.5602527447825
 31
0.0
  0
LINE
  5
A671
  8
0
 10
46.87349610525482
 20
203.5602527447825
 30
0.0
 11
46.87349610525482
 21
203.2262678947825
 31
0.0
  0
LINE
  5
A672
  8
0
 10
48.54274110525482
 20
203.2262678947825
 30
0.0
 11
49.20996790525484
 21
203.2262678947825
 31
0.0
  0
LINE
  5
A673
  8
0
 10
49.20996790525484
 20
203.2262678947825
 30
0.0
 11
49.20996790525484
 21
203.5602527447825
 31
0.0
  0
LINE
  5
A674
  8
0
 10
49.20996790525484
 20
203.5602527447825
 30
0.0
 11
48.54274110525482
 21
203.5602527447825
 31
0.0
  0
LINE
  5
A675
  8
0
 10
48.54274110525482
 20
203.5602527447825
 30
0.0
 11
48.54274110525482
 21
203.2262678947825
 31
0.0
  0
LINE
  5
A676
  8
0
 10
49.54432610525483
 20
203.2262678947825
 30
0.0
 11
49.87831095525482
 21
203.2262678947825
 31
0.0
  0
LINE
  5
A677
  8
0
 10
49.87831095525482
 20
203.2262678947825
 30
0.0
 11
49.87831095525482
 21
203.5602527447825
 31
0.0
  0
LINE
  5
A678
  8
0
 10
49.87831095525482
 20
203.5602527447825
 30
0.0
 11
49.54432610525483
 21
203.5602527447825
 31
0.0
  0
LINE
  5
A679
  8
0
 10
49.54432610525483
 20
203.5602527447825
 30
0.0
 11
49.54432610525483
 21
203.2262678947825
 31
0.0
  0
LINE
  5
A67A
  8
0
 10
50.54591110525482
 20
203.2262678947825
 30
0.0
 11
52.54833060525482
 21
203.2262678947825
 31
0.0
  0
LINE
  5
A67B
  8
0
 10
52.54833060525482
 20
203.2262678947825
 30
0.0
 11
52.54833060525482
 21
203.5602527447825
 31
0.0
  0
LINE
  5
A67C
  8
0
 10
52.54833060525482
 20
203.5602527447825
 30
0.0
 11
50.54591110525482
 21
203.5602527447825
 31
0.0
  0
LINE
  5
A67D
  8
0
 10
50.54591110525482
 20
203.5602527447825
 30
0.0
 11
50.54591110525482
 21
203.2262678947825
 31
0.0
  0
LINE
  5
A67E
  8
0
 10
42.53437110525482
 20
202.8919628947825
 30
0.0
 11
42.86872645525483
 21
202.8919628947825
 31
0.0
  0
LINE
  5
A67F
  8
0
 10
42.86872645525483
 20
202.8919628947825
 30
0.0
 11
42.86872645525483
 21
203.2263182447825
 31
0.0
  0
LINE
  5
A680
  8
0
 10
42.86872645525483
 20
203.2263182447825
 30
0.0
 11
42.53437110525482
 21
203.2263182447825
 31
0.0
  0
LINE
  5
A681
  8
0
 10
42.53437110525482
 20
203.2263182447825
 30
0.0
 11
42.53437110525482
 21
202.8919628947825
 31
0.0
  0
LINE
  5
A682
  8
0
 10
43.20193610525482
 20
202.8919628947825
 30
0.0
 11
44.20352110525482
 21
202.8919628947825
 31
0.0
  0
LINE
  5
A683
  8
0
 10
44.20352110525482
 20
202.8919628947825
 30
0.0
 11
44.20352110525482
 21
203.2263182447825
 31
0.0
  0
LINE
  5
A684
  8
0
 10
44.20352110525482
 20
203.2263182447825
 30
0.0
 11
43.20193610525482
 21
203.2263182447825
 31
0.0
  0
LINE
  5
A685
  8
0
 10
43.20193610525482
 20
203.2263182447825
 30
0.0
 11
43.20193610525482
 21
202.8919628947825
 31
0.0
  0
LINE
  5
A686
  8
0
 10
44.53744610525482
 20
202.8919628947825
 30
0.0
 11
44.87143000525481
 21
202.8919628947825
 31
0.0
  0
LINE
  5
A687
  8
0
 10
44.87143000525481
 20
202.8919628947825
 30
0.0
 11
44.87143000525481
 21
203.2263182447825
 31
0.0
  0
LINE
  5
A688
  8
0
 10
44.87143000525481
 20
203.2263182447825
 30
0.0
 11
44.53744610525482
 21
203.2263182447825
 31
0.0
  0
LINE
  5
A689
  8
0
 10
44.53744610525482
 20
203.2263182447825
 30
0.0
 11
44.53744610525482
 21
202.8919628947825
 31
0.0
  0
LINE
  5
A68A
  8
0
 10
45.53874610525482
 20
202.8919628947825
 30
0.0
 11
46.87357210525482
 21
202.8919628947825
 31
0.0
  0
LINE
  5
A68B
  8
0
 10
46.87357210525482
 20
202.8919628947825
 30
0.0
 11
46.87357210525482
 21
203.2263182447825
 31
0.0
  0
LINE
  5
A68C
  8
0
 10
46.87357210525482
 20
203.2263182447825
 30
0.0
 11
45.53874610525482
 21
203.2263182447825
 31
0.0
  0
LINE
  5
A68D
  8
0
 10
45.53874610525482
 20
203.2263182447825
 30
0.0
 11
45.53874610525482
 21
202.8919628947825
 31
0.0
  0
LINE
  5
A68E
  8
0
 10
47.20751610525484
 20
202.8919628947825
 30
0.0
 11
47.54150000525483
 21
202.8919628947825
 31
0.0
  0
LINE
  5
A68F
  8
0
 10
47.54150000525483
 20
202.8919628947825
 30
0.0
 11
47.54150000525483
 21
203.2263182447825
 31
0.0
  0
LINE
  5
A690
  8
0
 10
47.54150000525483
 20
203.2263182447825
 30
0.0
 11
47.20751610525484
 21
203.2263182447825
 31
0.0
  0
LINE
  5
A691
  8
0
 10
47.20751610525484
 20
203.2263182447825
 30
0.0
 11
47.20751610525484
 21
202.8919628947825
 31
0.0
  0
LINE
  5
A692
  8
0
 10
47.87508110525482
 20
202.8919628947825
 30
0.0
 11
48.20906595525483
 21
202.8919628947825
 31
0.0
  0
LINE
  5
A693
  8
0
 10
48.20906595525483
 20
202.8919628947825
 30
0.0
 11
48.20906595525483
 21
203.2263182447825
 31
0.0
  0
LINE
  5
A694
  8
0
 10
48.20906595525483
 20
203.2263182447825
 30
0.0
 11
47.87508110525482
 21
203.2263182447825
 31
0.0
  0
LINE
  5
A695
  8
0
 10
47.87508110525482
 20
203.2263182447825
 30
0.0
 11
47.87508110525482
 21
202.8919628947825
 31
0.0
  0
LINE
  5
A696
  8
0
 10
49.20992610525484
 20
202.8919628947825
 30
0.0
 11
49.54428145525483
 21
202.8919628947825
 31
0.0
  0
LINE
  5
A697
  8
0
 10
49.54428145525483
 20
202.8919628947825
 30
0.0
 11
49.54428145525483
 21
203.2263182447825
 31
0.0
  0
LINE
  5
A698
  8
0
 10
49.54428145525483
 20
203.2263182447825
 30
0.0
 11
49.20992610525484
 21
203.2263182447825
 31
0.0
  0
LINE
  5
A699
  8
0
 10
49.20992610525484
 20
203.2263182447825
 30
0.0
 11
49.20992610525484
 21
202.8919628947825
 31
0.0
  0
LINE
  5
A69A
  8
0
 10
49.87749110525482
 20
202.8919628947825
 30
0.0
 11
50.54508840525483
 21
202.8919628947825
 31
0.0
  0
LINE
  5
A69B
  8
0
 10
50.54508840525483
 20
202.8919628947825
 30
0.0
 11
50.54508840525483
 21
203.2263182447825
 31
0.0
  0
LINE
  5
A69C
  8
0
 10
50.54508840525483
 20
203.2263182447825
 30
0.0
 11
49.87749110525482
 21
203.2263182447825
 31
0.0
  0
LINE
  5
A69D
  8
0
 10
49.87749110525482
 20
203.2263182447825
 30
0.0
 11
49.87749110525482
 21
202.8919628947825
 31
0.0
  0
LINE
  5
A69E
  8
0
 10
50.87907610525482
 20
202.8919628947825
 30
0.0
 11
51.21306095525483
 21
202.8919628947825
 31
0.0
  0
LINE
  5
A69F
  8
0
 10
51.21306095525483
 20
202.8919628947825
 30
0.0
 11
51.21306095525483
 21
203.2263182447825
 31
0.0
  0
LINE
  5
A6A0
  8
0
 10
51.21306095525483
 20
203.2263182447825
 30
0.0
 11
50.87907610525482
 21
203.2263182447825
 31
0.0
  0
LINE
  5
A6A1
  8
0
 10
50.87907610525482
 20
203.2263182447825
 30
0.0
 11
50.87907610525482
 21
202.8919628947825
 31
0.0
  0
LINE
  5
A6A2
  8
0
 10
51.54673610525482
 20
202.8919628947825
 30
0.0
 11
52.21396290525483
 21
202.8919628947825
 31
0.0
  0
LINE
  5
A6A3
  8
0
 10
52.21396290525483
 20
202.8919628947825
 30
0.0
 11
52.21396290525483
 21
203.2263182447825
 31
0.0
  0
LINE
  5
A6A4
  8
0
 10
52.21396290525483
 20
203.2263182447825
 30
0.0
 11
51.54673610525482
 21
203.2263182447825
 31
0.0
  0
LINE
  5
A6A5
  8
0
 10
51.54673610525482
 20
203.2263182447825
 30
0.0
 11
51.54673610525482
 21
202.8919628947825
 31
0.0
  0
LINE
  5
A6A6
  8
0
 10
52.54832110525481
 20
202.8919628947825
 30
0.0
 11
52.88230500525482
 21
202.8919628947825
 31
0.0
  0
LINE
  5
A6A7
  8
0
 10
52.88230500525482
 20
202.8919628947825
 30
0.0
 11
52.88230500525482
 21
203.2263182447825
 31
0.0
  0
LINE
  5
A6A8
  8
0
 10
52.88230500525482
 20
203.2263182447825
 30
0.0
 11
52.54832110525481
 21
203.2263182447825
 31
0.0
  0
LINE
  5
A6A9
  8
0
 10
52.54832110525481
 20
203.2263182447825
 30
0.0
 11
52.54832110525481
 21
202.8919628947825
 31
0.0
  0
LINE
  5
A6AA
  8
0
 10
53.21550610525483
 20
202.8919628947825
 30
0.0
 11
53.54986240525483
 21
202.8919628947825
 31
0.0
  0
LINE
  5
A6AB
  8
0
 10
53.54986240525483
 20
202.8919628947825
 30
0.0
 11
53.54986240525483
 21
203.2263182447825
 31
0.0
  0
LINE
  5
A6AC
  8
0
 10
53.54986240525483
 20
203.2263182447825
 30
0.0
 11
53.21550610525483
 21
203.2263182447825
 31
0.0
  0
LINE
  5
A6AD
  8
0
 10
53.21550610525483
 20
203.2263182447825
 30
0.0
 11
53.21550610525483
 21
202.8919628947825
 31
0.0
  0
LINE
  5
A6AE
  8
0
 10
42.53437110525482
 20
202.5587028947825
 30
0.0
 11
42.86872645525483
 21
202.5587028947825
 31
0.0
  0
LINE
  5
A6AF
  8
0
 10
42.86872645525483
 20
202.5587028947825
 30
0.0
 11
42.86872645525483
 21
202.8926867947825
 31
0.0
  0
LINE
  5
A6B0
  8
0
 10
42.86872645525483
 20
202.8926867947825
 30
0.0
 11
42.53437110525482
 21
202.8926867947825
 31
0.0
  0
LINE
  5
A6B1
  8
0
 10
42.53437110525482
 20
202.8926867947825
 30
0.0
 11
42.53437110525482
 21
202.5587028947825
 31
0.0
  0
LINE
  5
A6B2
  8
0
 10
43.20193610525482
 20
202.5587028947825
 30
0.0
 11
44.20352110525482
 21
202.5587028947825
 31
0.0
  0
LINE
  5
A6B3
  8
0
 10
44.20352110525482
 20
202.5587028947825
 30
0.0
 11
44.20352110525482
 21
202.8926867947825
 31
0.0
  0
LINE
  5
A6B4
  8
0
 10
44.20352110525482
 20
202.8926867947825
 30
0.0
 11
43.20193610525482
 21
202.8926867947825
 31
0.0
  0
LINE
  5
A6B5
  8
0
 10
43.20193610525482
 20
202.8926867947825
 30
0.0
 11
43.20193610525482
 21
202.5587028947825
 31
0.0
  0
LINE
  5
A6B6
  8
0
 10
44.53744610525482
 20
202.5587028947825
 30
0.0
 11
44.87143000525481
 21
202.5587028947825
 31
0.0
  0
LINE
  5
A6B7
  8
0
 10
44.87143000525481
 20
202.5587028947825
 30
0.0
 11
44.87143000525481
 21
202.8926867947825
 31
0.0
  0
LINE
  5
A6B8
  8
0
 10
44.87143000525481
 20
202.8926867947825
 30
0.0
 11
44.53744610525482
 21
202.8926867947825
 31
0.0
  0
LINE
  5
A6B9
  8
0
 10
44.53744610525482
 20
202.8926867947825
 30
0.0
 11
44.53744610525482
 21
202.5587028947825
 31
0.0
  0
LINE
  5
A6BA
  8
0
 10
45.87267110525482
 20
202.5587028947825
 30
0.0
 11
47.20749710525483
 21
202.5587028947825
 31
0.0
  0
LINE
  5
A6BB
  8
0
 10
47.20749710525483
 20
202.5587028947825
 30
0.0
 11
47.20749710525483
 21
202.8926867947825
 31
0.0
  0
LINE
  5
A6BC
  8
0
 10
47.20749710525483
 20
202.8926867947825
 30
0.0
 11
45.87267110525482
 21
202.8926867947825
 31
0.0
  0
LINE
  5
A6BD
  8
0
 10
45.87267110525482
 20
202.8926867947825
 30
0.0
 11
45.87267110525482
 21
202.5587028947825
 31
0.0
  0
LINE
  5
A6BE
  8
0
 10
47.87508110525482
 20
202.5587028947825
 30
0.0
 11
48.20906595525483
 21
202.5587028947825
 31
0.0
  0
LINE
  5
A6BF
  8
0
 10
48.20906595525483
 20
202.5587028947825
 30
0.0
 11
48.20906595525483
 21
202.8926867947825
 31
0.0
  0
LINE
  5
A6C0
  8
0
 10
48.20906595525483
 20
202.8926867947825
 30
0.0
 11
47.87508110525482
 21
202.8926867947825
 31
0.0
  0
LINE
  5
A6C1
  8
0
 10
47.87508110525482
 20
202.8926867947825
 30
0.0
 11
47.87508110525482
 21
202.5587028947825
 31
0.0
  0
LINE
  5
A6C2
  8
0
 10
48.54274110525482
 20
202.5587028947825
 30
0.0
 11
48.87672595525483
 21
202.5587028947825
 31
0.0
  0
LINE
  5
A6C3
  8
0
 10
48.87672595525483
 20
202.5587028947825
 30
0.0
 11
48.87672595525483
 21
202.8926867947825
 31
0.0
  0
LINE
  5
A6C4
  8
0
 10
48.87672595525483
 20
202.8926867947825
 30
0.0
 11
48.54274110525482
 21
202.8926867947825
 31
0.0
  0
LINE
  5
A6C5
  8
0
 10
48.54274110525482
 20
202.8926867947825
 30
0.0
 11
48.54274110525482
 21
202.5587028947825
 31
0.0
  0
LINE
  5
A6C6
  8
0
 10
49.20992610525484
 20
202.5587028947825
 30
0.0
 11
49.54428145525483
 21
202.5587028947825
 31
0.0
  0
LINE
  5
A6C7
  8
0
 10
49.54428145525483
 20
202.5587028947825
 30
0.0
 11
49.54428145525483
 21
202.8926867947825
 31
0.0
  0
LINE
  5
A6C8
  8
0
 10
49.54428145525483
 20
202.8926867947825
 30
0.0
 11
49.20992610525484
 21
202.8926867947825
 31
0.0
  0
LINE
  5
A6C9
  8
0
 10
49.20992610525484
 20
202.8926867947825
 30
0.0
 11
49.20992610525484
 21
202.5587028947825
 31
0.0
  0
LINE
  5
A6CA
  8
0
 10
49.87749110525482
 20
202.5587028947825
 30
0.0
 11
50.21147500525483
 21
202.5587028947825
 31
0.0
  0
LINE
  5
A6CB
  8
0
 10
50.21147500525483
 20
202.5587028947825
 30
0.0
 11
50.21147500525483
 21
202.8926867947825
 31
0.0
  0
LINE
  5
A6CC
  8
0
 10
50.21147500525483
 20
202.8926867947825
 30
0.0
 11
49.87749110525482
 21
202.8926867947825
 31
0.0
  0
LINE
  5
A6CD
  8
0
 10
49.87749110525482
 20
202.8926867947825
 30
0.0
 11
49.87749110525482
 21
202.5587028947825
 31
0.0
  0
LINE
  5
A6CE
  8
0
 10
50.54591110525482
 20
202.5587028947825
 30
0.0
 11
50.87989595525482
 21
202.5587028947825
 31
0.0
  0
LINE
  5
A6CF
  8
0
 10
50.87989595525482
 20
202.5587028947825
 30
0.0
 11
50.87989595525482
 21
202.8926867947825
 31
0.0
  0
LINE
  5
A6D0
  8
0
 10
50.87989595525482
 20
202.8926867947825
 30
0.0
 11
50.54591110525482
 21
202.8926867947825
 31
0.0
  0
LINE
  5
A6D1
  8
0
 10
50.54591110525482
 20
202.8926867947825
 30
0.0
 11
50.54591110525482
 21
202.5587028947825
 31
0.0
  0
LINE
  5
A6D2
  8
0
 10
51.54673610525482
 20
202.5587028947825
 30
0.0
 11
52.21396290525483
 21
202.5587028947825
 31
0.0
  0
LINE
  5
A6D3
  8
0
 10
52.21396290525483
 20
202.5587028947825
 30
0.0
 11
52.21396290525483
 21
202.8926867947825
 31
0.0
  0
LINE
  5
A6D4
  8
0
 10
52.21396290525483
 20
202.8926867947825
 30
0.0
 11
51.54673610525482
 21
202.8926867947825
 31
0.0
  0
LINE
  5
A6D5
  8
0
 10
51.54673610525482
 20
202.8926867947825
 30
0.0
 11
51.54673610525482
 21
202.5587028947825
 31
0.0
  0
LINE
  5
A6D6
  8
0
 10
52.88158110525482
 20
202.5587028947825
 30
0.0
 11
53.54917840525484
 21
202.5587028947825
 31
0.0
  0
LINE
  5
A6D7
  8
0
 10
53.54917840525484
 20
202.5587028947825
 30
0.0
 11
53.54917840525484
 21
202.8926867947825
 31
0.0
  0
LINE
  5
A6D8
  8
0
 10
53.54917840525484
 20
202.8926867947825
 30
0.0
 11
52.88158110525482
 21
202.8926867947825
 31
0.0
  0
LINE
  5
A6D9
  8
0
 10
52.88158110525482
 20
202.8926867947825
 30
0.0
 11
52.88158110525482
 21
202.5587028947825
 31
0.0
  0
LINE
  5
A6DA
  8
0
 10
42.53437110525482
 20
202.2247778947825
 30
0.0
 11
42.86872645525483
 21
202.2247778947825
 31
0.0
  0
LINE
  5
A6DB
  8
0
 10
42.86872645525483
 20
202.2247778947825
 30
0.0
 11
42.86872645525483
 21
202.5587627447825
 31
0.0
  0
LINE
  5
A6DC
  8
0
 10
42.86872645525483
 20
202.5587627447825
 30
0.0
 11
42.53437110525482
 21
202.5587627447825
 31
0.0
  0
LINE
  5
A6DD
  8
0
 10
42.53437110525482
 20
202.5587627447825
 30
0.0
 11
42.53437110525482
 21
202.2247778947825
 31
0.0
  0
LINE
  5
A6DE
  8
0
 10
44.53744610525482
 20
202.2247778947825
 30
0.0
 11
44.87143000525481
 21
202.2247778947825
 31
0.0
  0
LINE
  5
A6DF
  8
0
 10
44.87143000525481
 20
202.2247778947825
 30
0.0
 11
44.87143000525481
 21
202.5587627447825
 31
0.0
  0
LINE
  5
A6E0
  8
0
 10
44.87143000525481
 20
202.5587627447825
 30
0.0
 11
44.53744610525482
 21
202.5587627447825
 31
0.0
  0
LINE
  5
A6E1
  8
0
 10
44.53744610525482
 20
202.5587627447825
 30
0.0
 11
44.53744610525482
 21
202.2247778947825
 31
0.0
  0
LINE
  5
A6E2
  8
0
 10
45.87267110525482
 20
202.2247778947825
 30
0.0
 11
46.53989695525482
 21
202.2247778947825
 31
0.0
  0
LINE
  5
A6E3
  8
0
 10
46.53989695525482
 20
202.2247778947825
 30
0.0
 11
46.53989695525482
 21
202.5587627447825
 31
0.0
  0
LINE
  5
A6E4
  8
0
 10
46.53989695525482
 20
202.5587627447825
 30
0.0
 11
45.87267110525482
 21
202.5587627447825
 31
0.0
  0
LINE
  5
A6E5
  8
0
 10
45.87267110525482
 20
202.5587627447825
 30
0.0
 11
45.87267110525482
 21
202.2247778947825
 31
0.0
  0
LINE
  5
A6E6
  8
0
 10
47.20751610525484
 20
202.2247778947825
 30
0.0
 11
48.20910110525483
 21
202.2247778947825
 31
0.0
  0
LINE
  5
A6E7
  8
0
 10
48.20910110525483
 20
202.2247778947825
 30
0.0
 11
48.20910110525483
 21
202.5587627447825
 31
0.0
  0
LINE
  5
A6E8
  8
0
 10
48.20910110525483
 20
202.5587627447825
 30
0.0
 11
47.20751610525484
 21
202.5587627447825
 31
0.0
  0
LINE
  5
A6E9
  8
0
 10
47.20751610525484
 20
202.5587627447825
 30
0.0
 11
47.20751610525484
 21
202.2247778947825
 31
0.0
  0
LINE
  5
A6EA
  8
0
 10
48.87666610525483
 20
202.2247778947825
 30
0.0
 11
49.54426340525481
 21
202.2247778947825
 31
0.0
  0
LINE
  5
A6EB
  8
0
 10
49.54426340525481
 20
202.2247778947825
 30
0.0
 11
49.54426340525481
 21
202.5587627447825
 31
0.0
  0
LINE
  5
A6EC
  8
0
 10
49.54426340525481
 20
202.5587627447825
 30
0.0
 11
48.87666610525483
 21
202.5587627447825
 31
0.0
  0
LINE
  5
A6ED
  8
0
 10
48.87666610525483
 20
202.5587627447825
 30
0.0
 11
48.87666610525483
 21
202.2247778947825
 31
0.0
  0
LINE
  5
A6EE
  8
0
 10
51.54673610525482
 20
202.2247778947825
 30
0.0
 11
52.88156210525482
 21
202.2247778947825
 31
0.0
  0
LINE
  5
A6EF
  8
0
 10
52.88156210525482
 20
202.2247778947825
 30
0.0
 11
52.88156210525482
 21
202.5587627447825
 31
0.0
  0
LINE
  5
A6F0
  8
0
 10
52.88156210525482
 20
202.5587627447825
 30
0.0
 11
51.54673610525482
 21
202.5587627447825
 31
0.0
  0
LINE
  5
A6F1
  8
0
 10
51.54673610525482
 20
202.5587627447825
 30
0.0
 11
51.54673610525482
 21
202.2247778947825
 31
0.0
  0
LINE
  5
A6F2
  8
0
 10
42.53437110525482
 20
201.8911378947825
 30
0.0
 11
44.87115260525485
 21
201.8911378947825
 31
0.0
  0
LINE
  5
A6F3
  8
0
 10
44.87115260525485
 20
201.8911378947825
 30
0.0
 11
44.87115260525485
 21
202.2251227447825
 31
0.0
  0
LINE
  5
A6F4
  8
0
 10
44.87115260525485
 20
202.2251227447825
 30
0.0
 11
42.53437110525482
 21
202.2251227447825
 31
0.0
  0
LINE
  5
A6F5
  8
0
 10
42.53437110525482
 20
202.2251227447825
 30
0.0
 11
42.53437110525482
 21
201.8911378947825
 31
0.0
  0
LINE
  5
A6F6
  8
0
 10
45.20510610525483
 20
201.8911378947825
 30
0.0
 11
45.53909095525484
 21
201.8911378947825
 31
0.0
  0
LINE
  5
A6F7
  8
0
 10
45.53909095525484
 20
201.8911378947825
 30
0.0
 11
45.53909095525484
 21
202.2251227447825
 31
0.0
  0
LINE
  5
A6F8
  8
0
 10
45.53909095525484
 20
202.2251227447825
 30
0.0
 11
45.20510610525483
 21
202.2251227447825
 31
0.0
  0
LINE
  5
A6F9
  8
0
 10
45.20510610525483
 20
202.2251227447825
 30
0.0
 11
45.20510610525483
 21
201.8911378947825
 31
0.0
  0
LINE
  5
A6FA
  8
0
 10
46.20593110525482
 20
201.8911378947825
 30
0.0
 11
46.53991500525483
 21
201.8911378947825
 31
0.0
  0
LINE
  5
A6FB
  8
0
 10
46.53991500525483
 20
201.8911378947825
 30
0.0
 11
46.53991500525483
 21
202.2251227447825
 31
0.0
  0
LINE
  5
A6FC
  8
0
 10
46.53991500525483
 20
202.2251227447825
 30
0.0
 11
46.20593110525482
 21
202.2251227447825
 31
0.0
  0
LINE
  5
A6FD
  8
0
 10
46.20593110525482
 20
202.2251227447825
 30
0.0
 11
46.20593110525482
 21
201.8911378947825
 31
0.0
  0
LINE
  5
A6FE
  8
0
 10
47.20751610525484
 20
201.8911378947825
 30
0.0
 11
47.54150000525483
 21
201.8911378947825
 31
0.0
  0
LINE
  5
A6FF
  8
0
 10
47.54150000525483
 20
201.8911378947825
 30
0.0
 11
47.54150000525483
 21
202.2251227447825
 31
0.0
  0
LINE
  5
A700
  8
0
 10
47.54150000525483
 20
202.2251227447825
 30
0.0
 11
47.20751610525484
 21
202.2251227447825
 31
0.0
  0
LINE
  5
A701
  8
0
 10
47.20751610525484
 20
202.2251227447825
 30
0.0
 11
47.20751610525484
 21
201.8911378947825
 31
0.0
  0
LINE
  5
A702
  8
0
 10
48.20910110525483
 20
201.8911378947825
 30
0.0
 11
48.54308500525482
 21
201.8911378947825
 31
0.0
  0
LINE
  5
A703
  8
0
 10
48.54308500525482
 20
201.8911378947825
 30
0.0
 11
48.54308500525482
 21
202.2251227447825
 31
0.0
  0
LINE
  5
A704
  8
0
 10
48.54308500525482
 20
202.2251227447825
 30
0.0
 11
48.20910110525483
 21
202.2251227447825
 31
0.0
  0
LINE
  5
A705
  8
0
 10
48.20910110525483
 20
202.2251227447825
 30
0.0
 11
48.20910110525483
 21
201.8911378947825
 31
0.0
  0
LINE
  5
A706
  8
0
 10
48.87666610525483
 20
201.8911378947825
 30
0.0
 11
49.21065000525482
 21
201.8911378947825
 31
0.0
  0
LINE
  5
A707
  8
0
 10
49.21065000525482
 20
201.8911378947825
 30
0.0
 11
49.21065000525482
 21
202.2251227447825
 31
0.0
  0
LINE
  5
A708
  8
0
 10
49.21065000525482
 20
202.2251227447825
 30
0.0
 11
48.87666610525483
 21
202.2251227447825
 31
0.0
  0
LINE
  5
A709
  8
0
 10
48.87666610525483
 20
202.2251227447825
 30
0.0
 11
48.87666610525483
 21
201.8911378947825
 31
0.0
  0
LINE
  5
A70A
  8
0
 10
49.87749110525482
 20
201.8911378947825
 30
0.0
 11
51.21231710525483
 21
201.8911378947825
 31
0.0
  0
LINE
  5
A70B
  8
0
 10
51.21231710525483
 20
201.8911378947825
 30
0.0
 11
51.21231710525483
 21
202.2251227447825
 31
0.0
  0
LINE
  5
A70C
  8
0
 10
51.21231710525483
 20
202.2251227447825
 30
0.0
 11
49.87749110525482
 21
202.2251227447825
 31
0.0
  0
LINE
  5
A70D
  8
0
 10
49.87749110525482
 20
202.2251227447825
 30
0.0
 11
49.87749110525482
 21
201.8911378947825
 31
0.0
  0
LINE
  5
A70E
  8
0
 10
51.54673610525482
 20
201.8911378947825
 30
0.0
 11
51.88072000525483
 21
201.8911378947825
 31
0.0
  0
LINE
  5
A70F
  8
0
 10
51.88072000525483
 20
201.8911378947825
 30
0.0
 11
51.88072000525483
 21
202.2251227447825
 31
0.0
  0
LINE
  5
A710
  8
0
 10
51.88072000525483
 20
202.2251227447825
 30
0.0
 11
51.54673610525482
 21
202.2251227447825
 31
0.0
  0
LINE
  5
A711
  8
0
 10
51.54673610525482
 20
202.2251227447825
 30
0.0
 11
51.54673610525482
 21
201.8911378947825
 31
0.0
  0
LINE
  5
A712
  8
0
 10
52.21392110525483
 20
201.8911378947825
 30
0.0
 11
52.54827645525482
 21
201.8911378947825
 31
0.0
  0
LINE
  5
A713
  8
0
 10
52.54827645525482
 20
201.8911378947825
 30
0.0
 11
52.54827645525482
 21
202.2251227447825
 31
0.0
  0
LINE
  5
A714
  8
0
 10
52.54827645525482
 20
202.2251227447825
 30
0.0
 11
52.21392110525483
 21
202.2251227447825
 31
0.0
  0
LINE
  5
A715
  8
0
 10
52.21392110525483
 20
202.2251227447825
 30
0.0
 11
52.21392110525483
 21
201.8911378947825
 31
0.0
  0
LINE
  5
A716
  8
0
 10
52.88158110525482
 20
201.8911378947825
 30
0.0
 11
53.21556500525483
 21
201.8911378947825
 31
0.0
  0
LINE
  5
A717
  8
0
 10
53.21556500525483
 20
201.8911378947825
 30
0.0
 11
53.21556500525483
 21
202.2251227447825
 31
0.0
  0
LINE
  5
A718
  8
0
 10
53.21556500525483
 20
202.2251227447825
 30
0.0
 11
52.88158110525482
 21
202.2251227447825
 31
0.0
  0
LINE
  5
A719
  8
0
 10
52.88158110525482
 20
202.2251227447825
 30
0.0
 11
52.88158110525482
 21
201.8911378947825
 31
0.0
  0
CIRCLE
  5
A8EF
  8
0
 10
63.52186071078967
 20
209.8911378947827
 30
0.0
 40
1.5
  0
LINE
  5
A8F0
  8
0
 10
68.27186071078927
 20
223.8911378947821
 30
0.0
 11
68.27186071078927
 21
227.8911378947821
 31
0.0
  0
LINE
  5
A8F1
  8
0
 10
68.57186071078922
 20
223.8911378947821
 30
0.0
 11
68.57186071078922
 21
227.8911378947821
 31
0.0
  0
ARC
  5
A8F2
  8
0
 10
70.27186071078927
 20
227.8911378947821
 30
0.0
 40
2.0
 50
90.0
 51
180.0
1001
GENIUS_GENODEF_13
1002
{
1000
HIER
1070
     0
1002
}
1002
{
1000
MANEDIT
1070
     0
1002
}
1002
{
1000
NOSEL
1070
     0
1002
}
1002
{
1000
BEHIND
1070
     0
1002
}
1002
{
1000
OTHER
1070
     0
1002
}
1002
{
1000
REACTOR
1002
}
1001
GENIUS_GENOBJ-N-FIL_13
1002
{
1000
OWNER
1000
GEN
1002
}
  0
ARC
  5
A8F3
  8
0
 10
70.27186071078927
 20
227.8911378947821
 30
0.0
 40
1.7
 50
90.0
 51
180.0
1001
GENIUS_GENODEF_13
1002
{
1000
HIER
1070
     0
1002
}
1002
{
1000
MANEDIT
1070
     0
1002
}
1002
{
1000
NOSEL
1070
     0
1002
}
1002
{
1000
BEHIND
1070
     0
1002
}
1002
{
1000
OTHER
1070
     0
1002
}
1002
{
1000
REACTOR
1002
}
1001
GENIUS_GENOBJ-N-FIL_13
1002
{
1000
OWNER
1000
GEN
1002
}
  0
ARC
  5
A8F4
  8
0
 10
70.27186071078927
 20
223.8911378947821
 30
0.0
 40
2.0
 50
180.0
 51
270.0
1001
GENIUS_GENOBJ-N-FIL_13
1002
{
1000
OWNER
1000
GEN
1002
}
1001
GENIUS_GENODEF_13
1002
{
1000
HIER
1070
     0
1002
}
1002
{
1000
MANEDIT
1070
     0
1002
}
1002
{
1000
NOSEL
1070
     0
1002
}
1002
{
1000
BEHIND
1070
     0
1002
}
1002
{
1000
OTHER
1070
     0
1002
}
1002
{
1000
REACTOR
1002
}
  0
ARC
  5
A8F5
  8
0
 10
70.27186071078927
 20
223.8911378947821
 30
0.0
 40
1.7
 50
180.0
 51
270.0
1001
GENIUS_GENOBJ-N-FIL_13
1002
{
1000
OWNER
1000
GEN
1002
}
1001
GENIUS_GENODEF_13
1002
{
1000
HIER
1070
     0
1002
}
1002
{
1000
MANEDIT
1070
     0
1002
}
1002
{
1000
NOSEL
1070
     0
1002
}
1002
{
1000
BEHIND
1070
     0
1002
}
1002
{
1000
OTHER
1070
     0
1002
}
1002
{
1000
REACTOR
1002
}
  0
LINE
  5
A8F6
  8
0
 10
86.27186071078836
 20
223.8911378947821
 30
0.0
 11
86.27186071078836
 21
227.8911378947821
 31
0.0
  0
LINE
  5
A8F7
  8
0
 10
85.9718607107884
 20
223.8911378947821
 30
0.0
 11
85.9718607107884
 21
227.8911378947821
 31
0.0
  0
TEXT
  5
A8F8
  8
0
 10
69.2293023105056
 20
224.9202040667059
 30
0.0
 40
2.0
  1
低温
  0
LINE
  5
A8F9
  8
0
 10
84.27186071078836
 20
229.8911378947821
 30
0.0
 11
70.27186071078927
 21
229.8911378947821
 31
0.0
  0
LINE
  5
A8FA
  8
0
 10
84.27186071078836
 20
229.5911378947822
 30
0.0
 11
70.27186071078927
 21
229.5911378947822
 31
0.0
  0
ARC
  5
A8FB
  8
0
 10
84.27186071078836
 20
227.8911378947821
 30
0.0
 40
2.0
 50
0.0
 51
90.0
1001
GENIUS_GENOBJ-N-FIL_13
1002
{
1000
OWNER
1000
GEN
1002
}
1001
GENIUS_GENODEF_13
1002
{
1000
HIER
1070
     0
1002
}
1002
{
1000
MANEDIT
1070
     0
1002
}
1002
{
1000
NOSEL
1070
     0
1002
}
1002
{
1000
BEHIND
1070
     0
1002
}
1002
{
1000
OTHER
1070
     0
1002
}
1002
{
1000
REACTOR
1002
}
  0
ARC
  5
A8FC
  8
0
 10
84.27186071078836
 20
227.8911378947821
 30
0.0
 40
1.7
 50
0.0
 51
90.0
1001
GENIUS_GENOBJ-N-FIL_13
1002
{
1000
OWNER
1000
GEN
1002
}
1001
GENIUS_GENODEF_13
1002
{
1000
HIER
1070
     0
1002
}
1002
{
1000
MANEDIT
1070
     0
1002
}
1002
{
1000
NOSEL
1070
     0
1002
}
1002
{
1000
BEHIND
1070
     0
1002
}
1002
{
1000
OTHER
1070
     0
1002
}
1002
{
1000
REACTOR
1002
}
  0
LINE
  5
A8FD
  8
0
 10
84.27186071078836
 20
221.8911378947821
 30
0.0
 11
70.27186071078927
 21
221.8911378947821
 31
0.0
  0
LINE
  5
A8FE
  8
0
 10
84.27186071078836
 20
222.1911378947821
 30
0.0
 11
70.27186071078927
 21
222.1911378947821
 31
0.0
  0
ARC
  5
A8FF
  8
0
 10
84.27186071078836
 20
223.8911378947821
 30
0.0
 40
2.0
 50
270.0
 51
0.0
1001
GENIUS_GENODEF_13
1002
{
1000
HIER
1070
     0
1002
}
1002
{
1000
MANEDIT
1070
     0
1002
}
1002
{
1000
NOSEL
1070
     0
1002
}
1002
{
1000
BEHIND
1070
     0
1002
}
1002
{
1000
OTHER
1070
     0
1002
}
1002
{
1000
REACTOR
1002
}
1001
GENIUS_GENOBJ-N-FIL_13
1002
{
1000
OWNER
1000
GEN
1002
}
  0
ARC
  5
A900
  8
0
 10
84.27186071078836
 20
223.8911378947821
 30
0.0
 40
1.7
 50
270.0
 51
0.0
1001
GENIUS_GENODEF_13
1002
{
1000
HIER
1070
     0
1002
}
1002
{
1000
MANEDIT
1070
     0
1002
}
1002
{
1000
NOSEL
1070
     0
1002
}
1002
{
1000
BEHIND
1070
     0
1002
}
1002
{
1000
OTHER
1070
     0
1002
}
1002
{
1000
REACTOR
1002
}
1001
GENIUS_GENOBJ-N-FIL_13
1002
{
1000
OWNER
1000
GEN
1002
}
  0
LINE
  5
A901
  8
0
 10
75.80242305437855
 20
224.7035330515962
 30
0.0
 11
79.14452544602932
 21
224.7035330515962
 31
0.0
  0
LINE
  5
A903
  8
0
 10
75.80242305437855
 20
224.7035330515962
 30
0.0
 11
76.06935743488634
 21
227.1631674345274
 31
0.0
  0
LINE
  5
A904
  8
0
 10
76.24818215544406
 20
225.1035330515963
 30
0.0
 11
76.46702246029531
 21
227.1200104238981
 31
0.0
  0
LINE
  5
A905
  8
0
 10
76.56643871664778
 20
227.6092211712414
 30
0.0
 11
78.38050978376009
 21
227.6092211712414
 31
0.0
  0
ARC
  5
A906
  8
0
 10
76.56643871664778
 20
227.1092211712414
 30
0.0
 40
0.5
 50
90.0
 51
173.8061568343427
1001
GENIUS_GENODEF_13
1002
{
1000
HIER
1070
     0
1002
}
1002
{
1000
MANEDIT
1070
     0
1002
}
1002
{
1000
NOSEL
1070
     0
1002
}
1002
{
1000
BEHIND
1070
     0
1002
}
1002
{
1000
OTHER
1070
     0
1002
}
1002
{
1000
REACTOR
1002
}
1001
GENIUS_GENOBJ-N-FIL_13
1002
{
1000
OWNER
1000
GEN
1002
}
  0
ARC
  5
A907
  8
0
 10
76.56643871664778
 20
227.1092211712414
 30
0.0
 40
0.1
 50
90.0
 51
173.8061568343948
1001
GENIUS_GENODEF_13
1002
{
1000
HIER
1070
     0
1002
}
1002
{
1000
MANEDIT
1070
     0
1002
}
1002
{
1000
NOSEL
1070
     0
1002
}
1002
{
1000
BEHIND
1070
     0
1002
}
1002
{
1000
OTHER
1070
     0
1002
}
1002
{
1000
REACTOR
1002
}
1001
GENIUS_GENOBJ-N-FIL_13
1002
{
1000
OWNER
1000
GEN
1002
}
  0
LINE
  5
A908
  8
0
 10
79.14452544602932
 20
224.7035330515962
 30
0.0
 11
78.87759106552153
 21
227.1631674345274
 31
0.0
  0
ARC
  5
A909
  8
0
 10
78.38050978376009
 20
227.1092211712414
 30
0.0
 40
0.5
 50
6.193843165657308
 51
90.0
1001
GENIUS_GENOBJ-N-FIL_13
1002
{
1000
OWNER
1000
GEN
1002
}
1001
GENIUS_GENODEF_13
1002
{
1000
HIER
1070
     0
1002
}
1002
{
1000
MANEDIT
1070
     0
1002
}
1002
{
1000
NOSEL
1070
     0
1002
}
1002
{
1000
BEHIND
1070
     0
1002
}
1002
{
1000
OTHER
1070
     0
1002
}
1002
{
1000
REACTOR
1002
}
  0
LINE
  5
A90A
  8
0
 10
76.93454718882253
 20
225.1035330515963
 30
0.0
 11
77.0599539311927
 21
227.2092211712409
 31
0.0
  0
LINE
  5
A90B
  8
0
 10
76.24818215544406
 20
225.1035330515963
 30
0.0
 11
76.93454718882253
 21
225.1035330515963
 31
0.0
  0
LINE
  5
A90C
  8
0
 10
76.56643871664778
 20
227.2092211712409
 30
0.0
 11
77.0599539311927
 21
227.2092211712409
 31
0.0
  0
CIRCLE
  5
A913
  8
0
 10
82.52186071078927
 20
225.8911378947826
 30
0.0
 40
2.0
  0
CIRCLE
  5
A914
  8
0
 10
82.52186071078927
 20
225.8911378947826
 30
0.0
 40
1.5
  0
LINE
  5
B12D
  8
0
 10
50.98249511685682
 20
232.0632888421079
 30
0.0
 11
52.12611815685679
 21
232.0632888421079
 31
0.0
  0
LINE
  5
B12E
  8
0
 10
52.12611815685679
 20
232.0632888421079
 30
0.0
 11
52.12611815685679
 21
226.1082690021077
 31
0.0
  0
LINE
  5
B12F
  8
0
 10
52.12611815685679
 20
226.1082690021077
 30
0.0
 11
50.98249511685682
 21
226.1082690021077
 31
0.0
  0
LINE
  5
B130
  8
0
 10
50.98249511685682
 20
226.1082690021077
 30
0.0
 11
50.98249511685682
 21
232.0632888421079
 31
0.0
  0
LINE
  5
B131
  8
0
 10
59.9070728768572
 20
230.4253067621077
 30
0.0
 11
61.05049879685677
 21
230.4253067621077
 31
0.0
  0
LINE
  5
B132
  8
0
 10
61.05049879685677
 20
230.4253067621077
 30
0.0
 11
61.05049879685677
 21
226.1082690021077
 31
0.0
  0
LINE
  5
B133
  8
0
 10
61.05049879685677
 20
226.1082690021077
 30
0.0
 11
59.9070728768572
 21
226.1082690021077
 31
0.0
  0
LINE
  5
B134
  8
0
 10
59.9070728768572
 20
226.1082690021077
 30
0.0
 11
59.9070728768572
 21
230.4253067621077
 31
0.0
  0
LINE
  5
B135
  8
0
 10
60.134975277959
 20
230.9231396636043
 30
0.0
 11
60.04352135685687
 21
230.8550619621079
 31
0.0
  0
LINE
  5
B136
  8
0
 10
60.04352135685687
 20
230.8550619621079
 30
0.0
 11
60.06822017909118
 21
230.9527562528102
 31
0.0
  0
LINE
  5
B137
  8
0
 10
59.87502185810465
 20
231.9529178655094
 30
0.0
 11
59.80713191685683
 21
232.0440584421077
 31
0.0
  0
LINE
  5
B138
  8
0
 10
59.80713191685683
 20
232.0440584421077
 30
0.0
 11
59.9048842529298
 21
232.0193824013328
 31
0.0
  0
LINE
  5
B139
  8
0
 10
60.90499310420657
 20
232.2126312655552
 30
0.0
 11
60.99606231685695
 21
232.2804490021082
 31
0.0
  0
LINE
  5
B13A
  8
0
 10
60.99606231685695
 20
232.2804490021082
 30
0.0
 11
60.97139713446151
 21
232.1825687490065
 31
0.0
  0
LINE
  5
B13B
  8
0
 10
61.16516338733138
 20
231.1824891076541
 30
0.0
 11
61.23277767685678
 21
231.0916474021079
 31
0.0
  0
LINE
  5
B13C
  8
0
 10
61.23277767685678
 20
231.0916474021079
 30
0.0
 11
61.13502475627794
 21
231.1162975429198
 31
0.0
  0
LINE
  5
B13D
  8
0
 10
60.70367401377391
 20
230.8393357554042
 30
0.0
 11
60.68724023685692
 21
230.7270235621082
 31
0.0
  0
LINE
  5
B13E
  8
0
 10
60.68724023685692
 20
230.7270235621082
 30
0.0
 11
60.63559066998116
 21
230.8135899901027
 31
0.0
  0
LINE
  5
B13F
  8
0
 10
59.79194143583456
 20
231.3841984375678
 30
0.0
 11
59.67922007685658
 21
231.4006654821079
 31
0.0
  0
LINE
  5
B140
  8
0
 10
59.67922007685658
 20
231.4006654821079
 30
0.0
 11
59.76559718205064
 21
231.4522051300538
 31
0.0
  0
LINE
  5
B141
  8
0
 10
60.33618766449692
 20
232.2960561077081
 30
0.0
 11
60.35266935685669
 21
232.4084896421083
 31
0.0
  0
LINE
  5
B142
  8
0
 10
60.35266935685669
 20
232.4084896421083
 30
0.0
 11
60.40441033803629
 21
232.3218508307629
 31
0.0
  0
LINE
  5
B143
  8
0
 10
61.24847395617255
 20
231.7516374206344
 30
0.0
 11
61.3606861568571
 21
231.735173642108
 31
0.0
  0
LINE
  5
B144
  8
0
 10
61.3606861568571
 20
231.735173642108
 30
0.0
 11
61.2739919849889
 21
231.6834177406737
 31
0.0
  0
LINE
  5
B145
  8
0
 10
60.41087208845394
 20
230.8244908922771
 30
0.0
 11
60.35266935685669
 21
230.7270235621082
 31
0.0
  0
LINE
  5
B146
  8
0
 10
60.35266935685669
 20
230.7270235621082
 30
0.0
 11
60.3381018569805
 21
230.8264256639242
 31
0.0
  0
LINE
  5
B147
  8
0
 10
59.7769973842953
 20
231.6767543355119
 30
0.0
 11
59.67909015685674
 21
231.735173642108
 31
0.0
  0
LINE
  5
B148
  8
0
 10
59.67909015685674
 20
231.735173642108
 30
0.0
 11
59.77881582015399
 21
231.7497403327408
 31
0.0
  0
LINE
  5
B149
  8
0
 10
60.62891590188357
 20
232.3109044506992
 30
0.0
 11
60.68717639685721
 21
232.4084896421083
 31
0.0
  0
LINE
  5
B14A
  8
0
 10
60.68717639685721
 20
232.4084896421083
 30
0.0
 11
60.70177459553199
 21
232.3088120046961
 31
0.0
  0
LINE
  5
B14B
  8
0
 10
61.26303994635984
 20
231.4587463285435
 30
0.0
 11
61.3606861568571
 21
231.4004034021083
 31
0.0
  0
LINE
  5
B14C
  8
0
 10
60.96847517643866
 20
230.9651965247123
 30
0.0
 11
60.99625831685691
 21
230.8550619621079
 31
0.0
  0
LINE
  5
B14D
  8
0
 10
60.99625831685691
 20
230.8550619621079
 30
0.0
 11
60.91543910138282
 21
230.9152703654491
 31
0.0
  0
LINE
  5
B14E
  8
0
 10
59.91749508680161
 20
231.1195191577718
 30
0.0
 11
59.80713191685683
 21
231.0916474021079
 31
0.0
  0
LINE
  5
B14F
  8
0
 10
59.80713191685683
 20
231.0916474021079
 30
0.0
 11
59.86718926716296
 21
231.1723002937407
 31
0.0
  0
LINE
  5
B150
  8
0
 10
60.07131278011113
 20
232.1704459150598
 30
0.0
 11
60.04352135685687
 21
232.2804490021082
 31
0.0
  0
LINE
  5
B151
  8
0
 10
60.04352135685687
 20
232.2804490021082
 30
0.0
 11
60.12454461489025
 21
232.2201898787008
 31
0.0
  0
LINE
  5
B152
  8
0
 10
61.12278772418605
 20
232.016331079578
 30
0.0
 11
61.23277767685678
 21
232.0440584421077
 31
0.0
  0
LINE
  5
B153
  8
0
 10
61.23277767685678
 20
232.0440584421077
 30
0.0
 11
61.17248734306961
 21
231.9631293221829
 31
0.0
  0
LINE
  5
B154
  8
0
 10
60.20212488052104
 20
230.8870439878584
 30
0.0
 11
60.11842807685682
 21
230.8104042021079
 31
0.0
  0
LINE
  5
B155
  8
0
 10
60.11842807685682
 20
230.8104042021079
 30
0.0
 11
60.134975277959
 21
230.9231396636043
 31
0.0
  0
LINE
  5
B156
  8
0
 10
59.8393715446152
 20
231.8856412587385
 30
0.0
 11
59.76266679685679
 21
231.9694104421079
 31
0.0
  0
LINE
  5
B157
  8
0
 10
59.76266679685679
 20
231.9694104421079
 30
0.0
 11
59.87502185810465
 21
231.9529178655094
 31
0.0
  0
LINE
  5
B158
  8
0
 10
60.83788039468001
 20
232.2484664773871
 30
0.0
 11
60.92148039685682
 21
232.3250429221081
 31
0.0
  0
LINE
  5
B159
  8
0
 10
60.92148039685682
 20
232.3250429221081
 30
0.0
 11
60.90499310420657
 21
232.2126312655552
 31
0.0
  0
LINE
  5
B15A
  8
0
 10
61.20051978715102
 20
231.2499305210514
 30
0.0
 11
61.27737159685668
 21
231.1659694821075
 31
0.0
  0
LINE
  5
B15B
  8
0
 10
60.77643125302731
 20
230.8618945847239
 30
0.0
 11
60.77139815685697
 21
230.7482106021081
 31
0.0
  0
LINE
  5
B15C
  8
0
 10
60.77139815685697
 20
230.7482106021081
 30
0.0
 11
60.70367401377391
 21
230.8393357554042
 31
0.0
  0
LINE
  5
B15D
  8
0
 10
59.81396389748963
 20
231.3112509280737
 30
0.0
 11
59.70053367685679
 21
231.3161659621079
 31
0.0
  0
LINE
  5
B15E
  8
0
 10
59.70053367685679
 20
231.3161659621079
 30
0.0
 11
59.79194143583456
 21
231.3841984375678
 31
0.0
  0
LINE
  5
B15F
  8
0
 10
60.26338708585146
 20
232.2738090366121
 30
0.0
 11
60.26837815685641
 21
232.3871603621079
 31
0.0
  0
LINE
  5
B160
  8
0
 10
60.26837815685641
 20
232.3871603621079
 30
0.0
 11
60.33618766449692
 21
232.2960561077081
 31
0.0
  0
LINE
  5
B161
  8
0
 10
61.22605328535539
 20
231.8243893472392
 30
0.0
 11
61.33950135685674
 21
231.8193830821079
 31
0.0
  0
LINE
  5
B162
  8
0
 10
61.33950135685674
 20
231.8193830821079
 30
0.0
 11
61.24847395617255
 21
231.7516374206344
 31
0.0
  0
LINE
  5
B163
  8
0
 10
60.48672052814592
 20
230.8175385998421
 30
0.0
 11
60.43852855685665
 21
230.7144403621079
 31
0.0
  0
LINE
  5
B164
  8
0
 10
60.43852855685665
 20
230.7144403621079
 30
0.0
 11
60.41087208845394
 21
230.8244908922771
 31
0.0
  0
LINE
  5
B165
  8
0
 10
59.76945545452983
 20
231.6010132150842
 30
0.0
 11
59.66663911685711
 21
231.6489224421076
 31
0.0
  0
LINE
  5
B166
  8
0
 10
59.66663911685711
 20
231.6489224421076
 30
0.0
 11
59.7769973842953
 21
231.6767543355119
 31
0.0
  0
LINE
  5
B167
  8
0
 10
60.55304512097629
 20
232.3182512167724
 30
0.0
 11
60.60105511685717
 21
232.4211366821079
 31
0.0
  0
LINE
  5
B168
  8
0
 10
60.60105511685717
 20
232.4211366821079
 30
0.0
 11
60.62891590188357
 21
232.3109044506992
 31
0.0
  0
LINE
  5
B169
  8
0
 10
61.27050992567703
 20
231.5345308472889
 30
0.0
 11
61.37333655685663
 21
231.4865246821083
 31
0.0
  0
LINE
  5
B16A
  8
0
 10
61.37333655685663
 20
231.4865246821083
 30
0.0
 11
61.26303994635984
 21
231.4587463285435
 31
0.0
  0
LINE
  5
B16B
  8
0
 10
61.02714387091575
 20
231.0136118907923
 30
0.0
 11
61.06588311685684
 21
230.9069571621077
 31
0.0
  0
LINE
  5
B16C
  8
0
 10
59.96570042366213
 20
231.0605898330324
 30
0.0
 11
59.85908983685678
 21
231.0217728421077
 31
0.0
  0
LINE
  5
B16D
  8
0
 10
59.85908983685678
 20
231.0217728421077
 30
0.0
 11
59.91749508680161
 21
231.1195191577718
 31
0.0
  0
LINE
  5
B16E
  8
0
 10
60.01288289015403
 20
232.121659899749
 30
0.0
 11
59.97407351685681
 21
232.228502282108
 31
0.0
  0
LINE
  5
B16F
  8
0
 10
59.97407351685681
 20
232.228502282108
 30
0.0
 11
60.07131278011113
 21
232.1704459150598
 31
0.0
  0
LINE
  5
B170
  8
0
 10
61.07385674956387
 20
232.0746498374248
 30
0.0
 11
61.18093287685653
 21
232.1134973221079
 31
0.0
  0
LINE
  5
B171
  8
0
 10
61.18093287685653
 20
232.1134973221079
 30
0.0
 11
61.12278772418605
 21
232.016331079578
 31
0.0
  0
LINE
  5
B172
  8
0
 10
60.27269934656871
 20
230.8585881816517
 30
0.0
 11
60.19705207685703
 21
230.7737667621078
 31
0.0
  0
LINE
  5
B173
  8
0
 10
60.19705207685703
 20
230.7737667621078
 30
0.0
 11
60.20212488052104
 21
230.8870439878584
 31
0.0
  0
LINE
  5
B174
  8
0
 10
59.81084091319573
 20
231.8150906615875
 30
0.0
 11
59.72602935685674
 21
231.8906576421078
 31
0.0
  0
LINE
  5
B175
  8
0
 10
59.72602935685674
 20
231.8906576421078
 30
0.0
 11
59.8393715446152
 21
231.8856412587385
 31
0.0
  0
LINE
  5
B176
  8
0
 10
60.76719768671111
 20
232.2767133437088
 30
0.0
 11
60.84292359685671
 21
232.3616714021078
 31
0.0
  0
LINE
  5
B177
  8
0
 10
60.84292359685671
 20
232.3616714021078
 30
0.0
 11
60.83788039468001
 21
232.2484664773871
 31
0.0
  0
LINE
  5
B178
  8
0
 10
61.22923539242467
 20
231.3205039002361
 30
0.0
 11
61.31413559685708
 21
231.244843242108
 31
0.0
  0
LINE
  5
B179
  8
0
 10
60.84664274330927
 20
230.8913274151301
 30
0.0
 11
60.85315815685655
 21
230.7780059621078
 31
0.0
  0
LINE
  5
B17A
  8
0
 10
60.85315815685655
 20
230.7780059621078
 30
0.0
 11
60.77643125302731
 21
230.8618945847239
 31
0.0
  0
LINE
  5
B17B
  8
0
 10
59.84367646117445
 20
231.2411606529855
 30
0.0
 11
59.73020135685712
 21
231.2345616421081
 31
0.0
  0
LINE
  5
B17C
  8
0
 10
59.73020135685712
 20
231.2345616421081
 30
0.0
 11
59.81396389748963
 21
231.3112509280737
 31
0.0
  0
LINE
  5
B17D
  8
0
 10
60.19333142915704
 20
232.2441120064465
 30
0.0
 11
60.1868141568568
 21
232.3574512421079
 31
0.0
  0
LINE
  5
B17E
  8
0
 10
60.1868141568568
 20
232.3574512421079
 30
0.0
 11
60.26338708585146
 21
232.2738090366121
 31
0.0
  0
LINE
  5
B17F
  8
0
 10
61.196743385188
 20
231.8945317438576
 30
0.0
 11
61.30983367685687
 21
231.9010344421077
 31
0.0
  0
LINE
  5
B180
  8
0
 10
61.30983367685687
 20
231.9010344421077
 30
0.0
 11
61.22605328535539
 21
231.8243893472392
 31
0.0
  0
LINE
  5
B181
  8
0
 10
60.56288158759227
 20
230.81772256733
 30
0.0
 11
60.52556039685689
 21
230.7104632421079
 31
0.0
  0
LINE
  5
B182
  8
0
 10
60.52556039685689
 20
230.7104632421079
 30
0.0
 11
60.48672052814592
 21
230.8175385998421
 31
0.0
  0
LINE
  5
B183
  8
0
 10
59.7700902847325
 20
231.5249263215466
 30
0.0
 11
59.66272583685688
 21
231.5622792421083
 31
0.0
  0
LINE
  5
B184
  8
0
 10
59.66272583685688
 20
231.5622792421083
 30
0.0
 11
59.76945545452983
 21
231.6010132150842
 31
0.0
  0
LINE
  5
B185
  8
0
 10
60.47702819435719
 20
232.3178037597155
 30
0.0
 11
60.51428199685708
 21
232.4248539621077
 31
0.0
  0
LINE
  5
B186
  8
0
 10
60.51428199685708
 20
232.4248539621077
 30
0.0
 11
60.55304512097629
 21
232.3182512167724
 31
0.0
  0
LINE
  5
B187
  8
0
 10
61.26977259734642
 20
231.6106247064464
 30
0.0
 11
61.37711655685663
 21
231.5731678821077
 31
0.0
  0
LINE
  5
B188
  8
0
 10
61.08069536869763
 20
231.0678024798591
 30
0.0
 11
61.13009943685685
 21
230.9654995621078
 31
0.0
  0
LINE
  5
B189
  8
0
 10
61.13009943685685
 20
230.9654995621078
 30
0.0
 11
61.02714387091575
 21
231.0136118907923
 31
0.0
  0
LINE
  5
B18A
  8
0
 10
60.01987561762118
 20
231.0071655008661
 30
0.0
 11
59.91763335685684
 21
230.9577469221077
 31
0.0
  0
LINE
  5
B18B
  8
0
 10
59.91763335685684
 20
230.9577469221077
 30
0.0
 11
59.96570042366213
 21
231.0605898330324
 31
0.0
  0
LINE
  5
B18C
  8
0
 10
59.95915664469814
 20
232.067702862939
 30
0.0
 11
59.90987623685689
 21
232.1696877221076
 31
0.0
  0
LINE
  5
B18D
  8
0
 10
59.90987623685689
 20
232.1696877221076
 30
0.0
 11
60.01288289015403
 21
232.121659899749
 31
0.0
  0
LINE
  5
B18E
  8
0
 10
61.02014616936933
 20
232.1287829832655
 30
0.0
 11
61.12221239685661
 21
232.1780955621081
 31
0.0
  0
LINE
  5
B18F
  8
0
 10
61.12221239685661
 20
232.1780955621081
 30
0.0
 11
61.07385674956387
 21
232.0746498374248
 31
0.0
  0
LINE
  5
B190
  8
0
 10
60.3381018569805
 20
230.8264256639242
 30
0.0
 11
60.27919399685717
 21
230.7450813221077
 31
0.0
  0
LINE
  5
B191
  8
0
 10
60.27919399685717
 20
230.7450813221077
 30
0.0
 11
60.27269934656871
 21
230.8585881816517
 31
0.0
  0
LINE
  5
B192
  8
0
 10
59.77881582015308
 20
231.7497403327408
 30
0.0
 11
59.6974043968564
 21
231.808644522108
 31
0.0
  0
LINE
  5
B193
  8
0
 10
59.6974043968564
 20
231.808644522108
 30
0.0
 11
59.81084091319573
 21
231.8150906615875
 31
0.0
  0
LINE
  5
B194
  8
0
 10
60.70177459553199
 20
232.3088120046961
 30
0.0
 11
60.76070887685702
 21
232.3903120421074
 31
0.0
  0
LINE
  5
B195
  8
0
 10
60.76070887685702
 20
232.3903120421074
 30
0.0
 11
60.76719768671111
 21
232.2767133437088
 31
0.0
  0
LINE
  5
B196
  8
0
 10
61.26134601064061
 20
231.3859221698195
 30
0.0
 11
61.34282663685664
 21
231.326944842108
 31
0.0
  0
LINE
  5
B197
  8
0
 10
61.34282663685664
 20
231.326944842108
 30
0.0
 11
61.22923539242467
 21
231.3205039002361
 31
0.0
  0
LINE
  5
B198
  8
0
 10
60.91543910138282
 20
230.9152703654491
 30
0.0
 11
60.93139015685685
 21
230.8156861221079
 31
0.0
  0
LINE
  5
B199
  8
0
 10
60.93139015685685
 20
230.8156861221079
 30
0.0
 11
60.84664274330927
 21
230.8913274151301
 31
0.0
  0
LINE
  5
B19A
  8
0
 10
59.86718926716296
 20
231.1723002937407
 30
0.0
 11
59.76807863685664
 21
231.1563856421081
 31
0.0
  0
LINE
  5
B19B
  8
0
 10
59.76807863685664
 20
231.1563856421081
 30
0.0
 11
59.84367646117445
 21
231.2411606529855
 31
0.0
  0
LINE
  5
B19C
  8
0
 10
60.12454461489025
 20
232.2201898787008
 30
0.0
 11
60.10864823685662
 21
232.3196310821078
 31
0.0
  0
LINE
  5
B19D
  8
0
 10
60.10864823685662
 20
232.3196310821078
 30
0.0
 11
60.19333142915704
 21
232.2441120064465
 31
0.0
  0
LINE
  5
B19E
  8
0
 10
61.17248734306961
 20
231.9631293221829
 30
0.0
 11
61.2722195968565
 21
231.9790614821078
 31
0.0
  0
LINE
  5
B19F
  8
0
 10
61.2722195968565
 20
231.9790614821078
 30
0.0
 11
61.196743385188
 21
231.8945317438576
 31
0.0
  0
LINE
  5
B1A0
  8
0
 10
60.63559066998116
 20
230.8135899901027
 30
0.0
 11
60.61220359685669
 21
230.7154203621077
 31
0.0
  0
LINE
  5
B1A1
  8
0
 10
59.76559718205064
 20
231.4522051300538
 30
0.0
 11
59.66761575685697
 21
231.4755061221077
 31
0.0
  0
LINE
  5
B1A2
  8
0
 10
59.66761575685697
 20
231.4755061221077
 30
0.0
 11
59.7700902847325
 21
231.5249263215466
 31
0.0
  0
LINE
  5
B1A3
  8
0
 10
60.40441033803629
 20
232.3218508307629
 30
0.0
 11
60.4277720768566
 21
232.4198341221082
 31
0.0
  0
LINE
  5
B1A4
  8
0
 10
60.4277720768566
 20
232.4198341221082
 30
0.0
 11
60.47702819435719
 21
232.3178037597155
 31
0.0
  0
LINE
  5
B1A5
  8
0
 10
61.2739919849889
 20
231.6834177406737
 30
0.0
 11
61.37216391685681
 21
231.6600037221079
 31
0.0
  0
LINE
  5
B1A6
  8
0
 10
61.37216391685681
 20
231.6600037221079
 30
0.0
 11
61.26977259734642
 21
231.6106247064464
 31
0.0
  0
LINE
  5
B1A7
  8
0
 10
61.13502475627794
 20
231.1162975429198
 30
0.0
 11
61.18786119685703
 21
231.0303677221083
 31
0.0
  0
LINE
  5
B1A8
  8
0
 10
60.06822017909118
 20
230.9527562528102
 30
0.0
 11
59.98243431685725
 21
230.8999806821076
 31
0.0
  0
LINE
  5
B1A9
  8
0
 10
59.98243431685725
 20
230.8999806821076
 30
0.0
 11
60.01987561762118
 21
231.0071655008661
 31
0.0
  0
LINE
  5
B1AA
  8
0
 10
59.9048842529298
 20
232.0193824013328
 30
0.0
 11
59.85224327685657
 21
232.1049494821078
 31
0.0
  0
LINE
  5
B1AB
  8
0
 10
59.85224327685657
 20
232.1049494821078
 30
0.0
 11
59.95915664469814
 21
232.067702862939
 31
0.0
  0
LINE
  5
B1AC
  8
0
 10
60.97139713446151
 20
232.1825687490065
 30
0.0
 11
61.05740807685672
 21
232.2354664421078
 31
0.0
  0
LINE
  5
B1AD
  8
0
 10
55.26074279685665
 20
228.1705978021079
 30
0.0
 11
55.26074279685665
 21
227.9443096421079
 31
0.0
  0
LINE
  5
B1AE
  8
0
 10
52.69116487685707
 20
229.2818808421081
 30
0.0
 11
53.79990663685632
 21
229.2818808421081
 31
0.0
  0
LINE
  5
B1AF
  8
0
 10
55.49193319685693
 20
226.1082690021077
 30
0.0
 11
56.62251719685648
 21
226.1082690021077
 31
0.0
  0
LINE
  5
B1B0
  8
0
 10
58.09508983685666
 20
229.812293802108
 30
0.0
 11
58.09508983685666
 21
230.4253067621077
 31
0.0
  0
LINE
  5
B1B1
  8
0
 10
58.09508983685666
 20
230.4253067621077
 30
0.0
 11
57.0353066368568
 21
230.4253067621077
 31
0.0
  0
LINE
  5
B1B2
  8
0
 10
57.0353066368568
 20
230.4253067621077
 30
0.0
 11
57.0353066368568
 21
226.1082690021077
 31
0.0
  0
LINE
  5
B1B3
  8
0
 10
57.0353066368568
 20
226.1082690021077
 30
0.0
 11
58.17866647685671
 21
226.1082690021077
 31
0.0
  0
LINE
  5
B1B4
  8
0
 10
58.17866647685671
 20
226.1082690021077
 30
0.0
 11
58.17866647685671
 21
227.4397149221078
 31
0.0
  0
LINE
  5
B1B5
  8
0
 10
59.47960023685684
 20
229.3071771621081
 30
0.0
 11
59.47960023685684
 21
230.4555568421075
 31
0.0
  0
LINE
  5
B1B6
  8
0
 10
64.11745191685688
 20
229.3719154021074
 30
0.0
 11
65.2775019968569
 21
229.3719154021074
 31
0.0
  0
LINE
  5
B1B7
  8
0
 10
62.59590503685669
 20
227.3287554021082
 30
0.0
 11
61.39726087685696
 21
227.3287554021082
 31
0.0
  0
LINE
  5
B1B8
  8
0
 10
44.871274476857
 20
233.6954715621079
 30
0.0
 11
45.39836215685656
 21
233.6954715621079
 31
0.0
  0
LINE
  5
B1B9
  8
0
 10
45.43636823685685
 20
229.3110870821075
 30
0.0
 11
44.93451079685721
 21
229.3110870821075
 31
0.0
  0
LINE
  5
B1BA
  8
0
 10
44.67165127685686
 20
229.6025021221077
 30
0.0
 11
44.67165127685686
 21
233.2240590821076
 31
0.0
  0
LINE
  5
B1BB
  8
0
 10
44.72243767685697
 20
228.8267666021076
 30
0.0
 11
45.25786935685684
 21
228.8267666021076
 31
0.0
  0
LINE
  5
B1BC
  8
0
 10
45.703987756857
 20
234.1801840421077
 30
0.0
 11
42.03314631685654
 21
234.1801840421077
 31
0.0
  0
LINE
  5
B1BD
  8
0
 10
42.03314631685654
 20
234.1801840421077
 30
0.0
 11
42.03314631685654
 21
233.7338035621079
 31
0.0
  0
LINE
  5
B1BE
  8
0
 10
42.03314631685654
 20
233.7338035621079
 30
0.0
 11
42.34776887685686
 21
233.7338035621079
 31
0.0
  0
LINE
  5
B1BF
  8
0
 10
43.11659511685659
 20
232.8588438821081
 30
0.0
 11
43.11659511685659
 21
227.2732750821079
 31
0.0
  0
LINE
  5
B1C0
  8
0
 10
42.0841914368568
 20
226.3541806821078
 30
0.0
 11
42.0841914368568
 21
225.9081910821079
 31
0.0
  0
LINE
  5
B1C1
  8
0
 10
42.0841914368568
 20
225.9081910821079
 30
0.0
 11
46.0291707968565
 21
225.9081910821079
 31
0.0
  0
LINE
  5
B1C2
  8
0
 10
46.0291707968565
 20
225.9081910821079
 30
0.0
 11
46.0291707968565
 21
226.3543094821081
 31
0.0
  0
LINE
  5
B1C3
  8
0
 10
44.67165127685686
 20
227.320865002108
 30
0.0
 11
44.67165127685686
 21
228.6231046821077
 31
0.0
  0
LINE
  5
B1C4
  8
0
  6
CONTINUOUS
 10
60.56288158759227
 20
230.81772256733
 30
0.0
 11
60.61220359685669
 21
230.7154203621077
 31
0.0
  0
LINE
  5
B1C5
  8
0
  6
CONTINUOUS
 10
60.96847517643866
 20
230.9651965247123
 30
0.0
 11
61.06588311685684
 21
230.9069571621077
 31
0.0
  0
LINE
  5
B1C6
  8
0
  6
CONTINUOUS
 10
61.08069536869763
 20
231.0678024798591
 30
0.0
 11
61.18786119685703
 21
231.0303677221083
 31
0.0
  0
LINE
  5
B1C7
  8
0
  6
CONTINUOUS
 10
61.16516338733138
 20
231.1824891076541
 30
0.0
 11
61.27737159685668
 21
231.1659694821075
 31
0.0
  0
LINE
  5
B1C8
  8
0
  6
CONTINUOUS
 10
61.20051978715102
 20
231.2499305210514
 30
0.0
 11
61.31413559685708
 21
231.244843242108
 31
0.0
  0
LINE
  5
B1C9
  8
0
  6
CONTINUOUS
 10
61.26134601064061
 20
231.3859221698195
 30
0.0
 11
61.3606861568571
 21
231.4004034021083
 31
0.0
  0
LINE
  5
B1CA
  8
0
  6
CONTINUOUS
 10
61.27050992567703
 20
231.5345308472889
 30
0.0
 11
61.37711655685663
 21
231.5731678821077
 31
0.0
  0
LINE
  5
B1CB
  8
0
  6
CONTINUOUS
 10
61.05740807685672
 20
232.2354664421078
 30
0.0
 11
61.02014616936933
 21
232.1287829832655
 31
0.0
  0
LINE
  5
B1CC
  8
0
 10
54.60330254796801
 20
238.2779688598858
 30
0.0
 11
56.88752193996808
 21
238.7501751958854
 31
0.0
  0
LINE
  5
B1CD
  8
0
 10
56.88752193996808
 20
238.7501751958854
 30
0.0
 11
54.60338184396798
 21
239.2221503638858
 31
0.0
  0
LINE
  5
B1CE
  8
0
 10
54.60338184396798
 20
239.2221503638858
 30
0.0
 11
55.88873505996864
 21
241.0060751638867
 31
0.0
  0
LINE
  5
B1CF
  8
0
 10
55.88873505996864
 20
241.0060751638867
 30
0.0
 11
54.10465435596799
 21
239.7208012438856
 31
0.0
  0
LINE
  5
B1D0
  8
0
 10
54.10465435596799
 20
239.7208012438856
 30
0.0
 11
53.82589984044282
 21
241.069887783182
 31
0.0
  0
LINE
  5
B1D1
  8
0
 10
53.41422135681088
 20
240.947639064235
 30
0.0
 11
53.16078465996745
 21
239.7209571478853
 31
0.0
  0
LINE
  5
B1D2
  8
0
 10
53.16078465996745
 20
239.7209571478853
 30
0.0
 11
52.31630278512077
 21
240.3292054411241
 31
0.0
  0
LINE
  5
B1D3
  8
0
 10
52.04114494434836
 20
240.0836869964688
 30
0.0
 11
52.66189723596764
 21
239.2221503638858
 31
0.0
  0
LINE
  5
B1D4
  8
0
 10
52.66189723596764
 20
239.2221503638858
 30
0.0
 11
51.60073220244223
 21
239.00272769369
 31
0.0
  0
LINE
  5
B1D5
  8
0
 10
51.62145527260984
 20
238.4931232209802
 30
0.0
 11
52.66213243596823
 21
238.2782793238858
 31
0.0
  0
LINE
  5
B1D6
  8
0
 10
52.66213243596823
 20
238.2782793238858
 30
0.0
 11
52.04907205628407
 21
237.4273226464721
 31
0.0
  0
LINE
  5
B1D7
  8
0
 10
52.28871939702478
 20
237.1510300995161
 30
0.0
 11
53.16078465996745
 21
237.7792373398853
 31
0.0
  0
LINE
  5
B1D8
  8
0
 10
53.16078465996745
 20
237.7792373398853
 30
0.0
 11
53.46670710367081
 21
236.2986146043014
 31
0.0
  0
LINE
  5
B1D9
  8
0
 10
53.77137802213267
 20
236.1665702332085
 30
0.0
 11
54.10465435596799
 21
237.7794725398854
 31
0.0
  0
LINE
  5
B1DA
  8
0
 10
54.10465435596799
 20
237.7794725398854
 30
0.0
 11
55.88889096396744
 21
236.4940440598858
 31
0.0
  0
LINE
  5
B1DB
  8
0
 10
55.88889096396744
 20
236.4940440598858
 30
0.0
 11
54.60330254796801
 21
238.2779688598858
 31
0.0
  0
LINE
  5
B1DC
  8
0
 10
58.36152477018979
 20
224.9475111286011
 30
0.0
 11
58.36152477018979
 21
225.4104133043303
 31
0.0
  0
LINE
  5
B1DD
  8
0
 10
57.58389194420189
 20
224.7932032427835
 30
0.0
 11
57.58389194420189
 21
224.9475111286011
 31
0.0
  0
LINE
  5
B1DE
  8
0
 10
58.36152477018979
 20
224.9475111286011
 30
0.0
 11
57.58389194420189
 21
224.9475111286011
 31
0.0
  0
LINE
  5
B1DF
  8
0
 10
58.35782365944416
 20
224.7932032427835
 30
0.0
 11
57.58389194420189
 21
224.7932032427835
 31
0.0
  0
LINE
  5
B1E0
  8
0
 10
58.75008906553396
 20
225.4104133043303
 30
0.0
 11
58.36152477018979
 21
225.4104133043303
 31
0.0
  0
LINE
  5
B1E1
  8
0
 10
58.75008906553396
 20
225.4104133043303
 30
0.0
 11
58.75008906553396
 21
224.9401410906813
 31
0.0
  0
LINE
  5
B1E2
  8
0
 10
59.49780749571684
 20
224.9401410906813
 30
0.0
 11
58.75008906553396
 21
224.9401410906813
 31
0.0
  0
LINE
  5
B1E3
  8
0
 10
59.49780749571684
 20
224.7907572913342
 30
0.0
 11
59.49780749571684
 21
224.9401410906813
 31
0.0
  0
LINE
  5
B1E4
  8
0
 10
58.74498796941882
 20
224.7907572913342
 30
0.0
 11
59.49780749571684
 21
224.7907572913342
 31
0.0
  0
ARC
  5
B1E5
  8
0
 10
56.51468731447923
 20
225.6007362730899
 30
0.0
 40
1.78373366193507
 50
310.0456923729903
 51
327.1738262384467
  0
ARC
  5
B1E6
  8
0
 10
56.25651791752691
 20
224.9441386544623
 30
0.0
 40
1.92069235163314
 50
325.4885178757464
 51
349.9185299046333
  0
LINE
  5
B1E7
  8
0
 10
58.01359269708948
 20
224.6337882751596
 30
0.0
 11
58.14755447859054
 21
224.6079246833934
 31
0.0
  0
LINE
  5
B1E8
  8
0
 10
57.45980943199694
 20
224.0921827069561
 30
0.0
 11
57.83919273847798
 21
223.8559293360178
 31
0.0
  0
ARC
  5
B1E9
  8
0
 10
56.22875497254765
 20
226.0500062785851
 30
0.0
 40
2.312697174244312
 50
302.1611570594345
 51
308.3070197817706
  0
LINE
  5
B1EA
  8
0
 10
58.35782365944416
 20
224.7932032427835
 30
0.0
 11
58.35782365944416
 21
223.904450672315
 31
0.0
  0
LINE
  5
B1EB
  8
0
 10
58.02107968023276
 20
223.9118389618944
 30
0.0
 11
58.02107968023276
 21
223.765135574995
 31
0.0
  0
LINE
  5
B1EC
  8
0
 10
58.02107968023276
 20
223.9118389618944
 30
0.0
 11
58.25988413308161
 21
223.8335036137943
 31
0.0
  0
ARC
  5
B1ED
  8
0
 10
58.28315699277729
 20
223.904450672315
 30
0.0
 40
0.0746666666666667
 50
251.8388875732299
 51
0.0
  0
LINE
  5
B1EE
  8
0
 10
58.74498796941882
 20
223.877337046688
 30
0.0
 11
58.74498796941882
 21
224.7907572913342
 31
0.0
  0
LINE
  5
B1EF
  8
0
 10
58.36789030949942
 20
223.6238034718718
 30
0.0
 11
58.02107968023276
 21
223.765135574995
 31
0.0
  0
ARC
  5
B1F0
  8
0
 10
58.47121019164089
 20
223.877337046688
 30
0.0
 40
0.2737777777777778
 50
247.8281449539039
 51
0.0
  0
LINE
  5
B1F1
  8
0
 10
59.05427140421963
 20
224.6443742236944
 30
0.0
 11
59.16637915676003
 21
224.5391138632577
 31
0.0
  0
LINE
  5
B1F2
  8
0
 10
58.93140859331535
 20
224.6028566081346
 30
0.0
 11
59.05427140421963
 21
224.6443742236944
 31
0.0
  0
LINE
  5
B1F3
  8
0
 10
59.56812368847679
 20
224.0461949904803
 30
0.0
 11
59.13668292439726
 21
223.8598249981084
 31
0.0
  0
ARC
  5
B1F4
  8
0
 10
56.54297614292656
 20
223.5431430976829
 30
0.0
 40
2.61296810051403
 50
6.961145816582685
 51
23.92618042379387
  0
ARC
  5
B1F5
  8
0
 10
57.49391840801374
 20
222.7841922379199
 30
0.0
 40
2.4279576794027
 50
31.31746538013244
 51
50.00949102187557
  0
LINE
  5
B1F6
  8
0
 10
61.34510914602444
 20
225.2716765651531
 30
0.0
 11
61.34510914602444
 21
225.1173686793351
 31
0.0
  0
LINE
  5
B1F7
  8
0
 10
61.34510914602444
 20
225.2716765651531
 30
0.0
 11
59.85344299742448
 21
225.2716765651531
 31
0.0
  0
LINE
  5
B1F8
  8
0
 10
59.85344299742448
 20
225.1173686793351
 30
0.0
 11
59.85344299742448
 21
225.2716765651531
 31
0.0
  0
LINE
  5
B1F9
  8
0
 10
61.34510914602444
 20
225.1173686793351
 30
0.0
 11
59.85344299742448
 21
225.1173686793351
 31
0.0
  0
LINE
  5
B1FA
  8
0
 10
61.48553528862223
 20
224.79537539978
 30
0.0
 11
59.69599721336564
 21
224.79537539978
 31
0.0
  0
LINE
  5
B1FB
  8
0
 10
59.69599721336564
 20
224.6342500647307
 30
0.0
 11
59.69599721336564
 21
224.79537539978
 31
0.0
  0
LINE
  5
B1FC
  8
0
 10
60.99630183440988
 20
224.6342500647307
 30
0.0
 11
59.69599721336564
 21
224.6342500647307
 31
0.0
  0
LINE
  5
B1FD
  8
0
 10
61.48553528862223
 20
224.6564201839657
 30
0.0
 11
61.48553528862223
 21
224.79537539978
 31
0.0
  0
LINE
  5
B1FE
  8
0
 10
59.85514070973224
 20
223.7357105846437
 30
0.0
 11
59.90345790072953
 21
223.6109511402057
 31
0.0
  0
ARC
  5
B1FF
  8
0
 10
59.3848923189814
 20
225.7243593553522
 30
0.0
 40
2.043491493068839
 50
283.3041404476269
 51
312.187984758957
  0
ARC
  5
B200
  8
0
 10
59.72960287778207
 20
225.0690630693417
 30
0.0
 40
1.33924926570833
 50
320.1134675612499
 51
341.0544644537726
  0
ARC
  5
B201
  8
0
 10
60.28015248987796
 20
224.9681605107372
 30
0.0
 40
1.245042056656759
 50
284.1440925346391
 51
345.4996819276624
  0
ARC
  5
B202
  8
0
 10
59.86880951040686
 20
225.3897722206185
 30
0.0
 40
1.77915849408482
 50
271.1158826182763
 51
293.7159784209443
  0
LINE
  5
B203
  8
0
 10
62.14129556700593
 20
224.293391978281
 30
0.0
 11
62.14129556700593
 21
225.3337257891172
 31
0.0
  0
LINE
  5
B204
  8
0
 10
62.14129556700593
 20
225.3337257891172
 30
0.0
 11
61.73249874100085
 21
225.3337257891172
 31
0.0
  0
LINE
  5
B205
  8
0
 10
61.73249874100085
 20
224.293391978281
 30
0.0
 11
61.73249874100085
 21
225.3337257891172
 31
0.0
  0
LINE
  5
B206
  8
0
 10
62.14129556700593
 20
224.293391978281
 30
0.0
 11
61.73249874100085
 21
224.293391978281
 31
0.0
  0
LINE
  5
B207
  8
0
 10
63.07892191309404
 20
224.5884852135633
 30
0.0
 11
63.07892191309404
 21
225.3337257891172
 31
0.0
  0
LINE
  5
B208
  8
0
 10
62.68049882099305
 20
224.6430957797276
 30
0.0
 11
62.68049882099305
 21
225.3337257891172
 31
0.0
  0
LINE
  5
B209
  8
0
 10
62.68049882099305
 20
225.3337257891172
 30
0.0
 11
63.07892191309404
 21
225.3337257891172
 31
0.0
  0
LINE
  5
B20A
  8
0
 10
61.84759125682214
 20
223.6730494084323
 30
0.0
 11
61.93138877212934
 21
223.565483149324
 31
0.0
  0
ARC
  5
B20B
  8
0
 10
61.73526096789121
 20
224.612100633971
 30
0.0
 40
0.9457458950466363
 50
276.8213681552839
 51
1.878103949386534
  0
ARC
  5
B20C
  8
0
 10
61.87426527407362
 20
224.9016281790947
 30
0.0
 40
1.337365557583815
 50
272.4480452339944
 51
323.9127955890404
  0
ARC
  5
B20D
  8
0
 10
62.03129566426625
 20
224.6085272780575
 30
0.0
 40
1.047817942956835
 50
331.8321656005633
 51
358.9040121443402
  0
LINE
  5
B20E
  8
0
 10
64.71642104433815
 20
225.0632413016643
 30
0.0
 11
64.71642104433815
 21
225.1826735998867
 31
0.0
  0
LINE
  5
B20F
  8
0
 10
63.36816650495777
 20
225.0438673377204
 30
0.0
 11
63.36816650495777
 21
225.1826735998867
 31
0.0
  0
LINE
  5
B210
  8
0
 10
64.71642104433815
 20
225.1826735998867
 30
0.0
 11
63.36816650495777
 21
225.1826735998867
 31
0.0
  0
LINE
  5
B211
  8
0
 10
64.2395516975964
 20
225.0438673377204
 30
0.0
 11
63.36816650495777
 21
225.0438673377204
 31
0.0
  0
LINE
  5
B212
  8
0
 10
62.98337905088485
 20
223.7254404579818
 30
0.0
 11
63.06039726727178
 21
223.6054733264519
 31
0.0
  0
ARC
  5
B213
  8
0
 10
62.37740299873096
 20
225.5604456116536
 30
0.0
 40
1.932472739726369
 50
288.2748377643809
 51
344.4954648401278
  0
ARC
  5
B214
  8
0
 10
62.39068372267249
 20
226.1655491456373
 30
0.0
 40
2.646224561861322
 50
284.6600032593546
 51
312.5396667739578
  0
LINE
  5
B215
  8
0
 10
64.81691565058438
 20
223.5841606442283
 30
0.0
 11
65.12240321401234
 21
223.9279893637705
 31
0.0
  0
ARC
  5
B216
  8
0
 10
62.78856148968745
 20
222.1753088756178
 30
0.0
 40
2.469632342666266
 50
34.78302390875149
 51
55.71309290050228
  0
ARC
  5
B217
  8
0
 10
62.96248485210182
 20
225.6001438974964
 30
0.0
 40
1.834272761572525
 50
316.4306178633717
 51
342.9799715932805
  0
ARC
  5
B218
  8
0
 10
62.71363163530279
 20
220.071600552894
 30
0.0
 40
4.546857725842939
 50
58.01034014976546
 51
69.6947510335346
  0
ARC
  5
B723
  8
0
 10
53.62970639697375
 20
238.7350865187155
 30
0.0
 40
5.33214218313847
 50
74.3144994222587
 51
104.1724498576074
  0
ARC
  5
B724
  8
0
 10
53.63719310871357
 20
238.745615848354
 30
0.0
 40
5.323775476131433
 50
104.2783165563116
 51
166.1870765708273
  0
ARC
  5
B725
  8
0
 10
53.64133191370601
 20
238.7525415117464
 30
0.0
 40
5.326146654840227
 50
166.270054507626
 51
215.0482339935348
  0
ARC
  5
B726
  8
0
 10
53.62940012956014
 20
238.7439102500392
 30
0.0
 40
5.311421839969246
 50
215.0459241187441
 51
273.2408824576858
  0
ARC
  5
B727
  8
0
 10
53.63143619020715
 20
238.7515092709029
 30
0.0
 40
5.318894171081752
 50
273.2143571100679
 51
346.1779060677009
  0
ARC
  5
B728
  8
0
 10
53.64154207740802
 20
238.7440280754357
 30
0.0
 40
5.307295827239366
 50
346.2302669880834
 51
43.78488871851552
  0
ARC
  5
B729
  8
0
 10
55.70429788432031
 20
238.3225635248295
 30
0.0
 40
4.459640505811445
 50
66.63259795322786
 51
109.905871685035
  0
ARC
  5
B72A
  8
0
 10
55.48614554150356
 20
238.8427953699278
 30
0.0
 40
3.896315762598357
 50
109.4942419685547
 51
167.6530237580676
  0
ARC
  5
B72B
  8
0
 10
54.74744579647222
 20
237.3224464718578
 30
0.0
 40
3.866330758866939
 50
121.49327701854
 51
142.503166897339
  0
ARC
  5
B72C
  8
0
 10
54.69575980310071
 20
237.3858976960734
 30
0.0
 40
3.78524088928143
 50
91.77940320266768
 51
121.3278955587065
  0
ARC
  5
B72D
  8
0
 10
54.68348645526396
 20
237.2682324562788
 30
0.0
 40
3.90250076108918
 50
65.20023754136542
 51
91.54565188015083
  0
ARC
  5
B72E
  8
0
 10
54.50975541463993
 20
236.9088437867055
 30
0.0
 40
4.301623157105358
 50
30.14973546883468
 51
65.10747394303505
  0
ARC
  5
B72F
  8
0
 10
54.29351862566187
 20
236.7694650552804
 30
0.0
 40
4.558626665475829
 50
8.9769926527231
 51
30.2994981683211
  0
ARC
  5
B730
  8
0
 10
55.40717092376022
 20
240.2893023130486
 30
0.0
 40
4.401593171265135
 50
288.3388974970104
 51
320.3520397443187
  0
ARC
  5
B731
  8
0
 10
55.35629633250602
 20
240.347811672468
 30
0.0
 40
4.473237795108389
 50
252.8403059470309
 51
288.7216405446108
  0
ARC
  5
B732
  8
0
 10
55.2080589115256
 20
239.9192664973083
 30
0.0
 40
4.020062191481092
 50
209.1938724537275
 51
253.0569803949627
  0
ARC
  5
B733
  8
0
 10
55.02000816794109
 20
239.7659969626077
 30
0.0
 40
3.781373116886767
 50
175.5970978715927
 51
208.5563260925432
  0
ARC
  5
B734
  8
0
 10
55.24427287128498
 20
239.723447309854
 30
0.0
 40
4.008321764107
 50
141.0080554268093
 51
175.2367758980932
  0
ARC
  5
B735
  8
0
 10
55.58905229317259
 20
239.4514742873612
 30
0.0
 40
4.447428119007347
 50
96.68547469604036
 51
141.0795845301959
  0
ARC
  5
B736
  8
0
 10
55.38954236543691
 20
238.9015761025591
 30
0.0
 40
3.790160167539093
 50
178.4707117364453
 51
186.1865889351898
  0
ARC
  5
B737
  8
0
 10
42.35595743419009
 20
231.6312915858087
 30
0.0
 40
2.102527922038834
 50
84.95619996680482
 51
90.22314612645769
  0
ARC
  5
B738
  8
0
 10
42.48802372906374
 20
232.8785659172546
 30
0.0
 40
0.848754935304436
 50
65.19337763183492
 51
86.43460068621052
  0
ARC
  5
B739
  8
0
 10
42.64724748005963
 20
233.2638857645834
 30
0.0
 40
0.432524910680116
 50
13.9863879207907
 51
62.92338893732329
  0
ARC
  5
B73A
  8
0
 10
41.97679210851965
 20
233.0598790651556
 30
0.0
 40
1.132979464242894
 50
3.904131892889081
 51
15.80295944671843
  0
ARC
  5
B73B
  8
0
 10
39.91717572266305
 20
232.8893727714797
 30
0.0
 40
3.199565044350259
 50
359.4532997353156
 51
4.439158366316591
  0
ARC
  5
B73C
  8
0
 10
42.09848132486906
 20
228.3160090455573
 30
0.0
 40
1.961880406277173
 50
269.5826669607686
 51
281.2467372863051
  0
ARC
  5
B73D
  8
0
 10
42.32568579859671
 20
227.2422175562494
 30
0.0
 40
0.8645009778283242
 50
280.3576091429006
 51
308.9726038906425
  0
ARC
  5
B73E
  8
0
 10
42.39730952214279
 20
227.0954572643705
 30
0.0
 40
0.7063050293075379
 50
311.9446536813427
 51
353.5803040312001
  0
ARC
  5
B73F
  8
0
 10
41.4587516597843
 20
227.2566854932261
 30
0.0
 40
1.657926458748007
 50
351.6696629683137
 51
0.5733241568768106
  0
ARC
  5
B740
  8
0
 10
46.74033401452641
 20
232.2628643839862
 30
0.0
 40
5.95119938757511
 50
257.5813101393114
 51
263.136802496719
  0
ARC
  5
B741
  8
0
 10
45.75063144462854
 20
227.8189369774898
 30
0.0
 40
1.398452974297173
 50
235.2289453505774
 51
258.0263291625699
  0
ARC
  5
B742
  8
0
 10
45.40572338769658
 20
227.2440389475356
 30
0.0
 40
0.7308682337771808
 50
181.3642075179843
 51
231.7348554842791
  0
ARC
  5
B743
  8
0
 10
45.95041944077499
 20
227.3199820995349
 30
0.0
 40
1.278768468710234
 50
179.9604411616191
 51
184.1860155147163
  0
ARC
  5
B744
  8
0
 10
33.22875335713437
 20
228.4535460672382
 30
0.0
 40
11.44415409390602
 50
0.848935483152986
 51
1.690006264274332
  0
ARC
  5
B745
  8
0
 10
44.70342547741791
 20
228.7937780548293
 30
0.0
 40
0.0356002396173115
 50
132.0995794755948
 51
184.3854082312399
  0
ARC
  5
B746
  8
0
 10
44.71173765960583
 20
228.7534279760087
 30
0.0
 40
0.0741150757083008
 50
81.69918243476886
 51
115.7331729843349
  0
ARC
  5
B747
  8
0
 10
44.91831029065861
 20
229.5834045350817
 30
0.0
 40
0.2727989215437704
 50
229.3422064805707
 51
273.4045849244121
  0
ARC
  5
B748
  8
0
 10
44.94464848448209
 20
229.5524872076492
 30
0.0
 40
0.2695085644996453
 50
184.8442539947764
 51
220.7801867736532
  0
ARC
  5
B749
  8
0
 10
45.23608322764136
 20
229.6005032023977
 30
0.0
 40
0.5644354903320787
 50
179.7970894737595
 51
187.2033550483905
  0
ARC
  5
B74A
  8
0
 10
45.24423008002907
 20
234.4519843033119
 30
0.0
 40
5.625234236528772
 50
270.1389228840426
 51
282.5749638804127
  0
ARC
  5
B74B
  8
0
 10
45.7035730403498
 20
232.7862971754462
 30
0.0
 40
3.900438044695806
 50
281.31631568977
 51
306.6736079669237
  0
ARC
  5
B74C
  8
0
 10
46.0675371166181
 20
232.0841901585262
 30
0.0
 40
3.122533740917625
 50
309.0122993056879
 51
333.1868714432047
  0
ARC
  5
B74D
  8
0
 10
46.78214621315985
 20
231.6418418307338
 30
0.0
 40
2.286370135056757
 50
335.0025208531055
 51
3.132350940942409
  0
ARC
  5
B74E
  8
0
 10
46.67398901651711
 20
231.5563008115271
 30
0.0
 40
2.400356917899017
 50
5.030415615660186
 51
45.8801555680425
  0
ARC
  5
B74F
  8
0
 10
46.02389455580004
 20
230.6135390683398
 30
0.0
 40
3.534812041936091
 50
48.95520224166617
 51
77.68716474380085
  0
ARC
  5
B750
  8
0
 10
45.74608315557913
 20
229.4284137093691
 30
0.0
 40
4.751956788280896
 50
77.46176455392263
 51
90.50756358638267
  0
ARC
  5
B751
  8
0
 10
44.86914345818201
 20
233.5626312490751
 30
0.0
 40
0.1328574047888303
 50
89.08094236461791
 51
124.4007292599872
  0
ARC
  5
B752
  8
0
 10
44.92148369101284
 20
233.5016331529724
 30
0.0
 40
0.2129371461418388
 50
126.7487054586328
 51
162.0338218173676
  0
ARC
  5
B753
  8
0
 10
45.42921822193574
 20
233.313512922374
 30
0.0
 40
0.7542713589800576
 50
160.3370642577249
 51
177.7002884087945
  0
ARC
  5
B754
  8
0
 10
46.36590144124085
 20
233.2287475251341
 30
0.0
 40
1.69425665145904
 50
176.1068976128699
 51
180.1585523306186
  0
ARC
  5
B755
  8
0
 10
45.37356275037325
 20
231.5295065414824
 30
0.0
 40
2.219308321722258
 50
271.6216628224755
 51
290.5180238120268
  0
ARC
  5
B756
  8
0
 10
45.55354670475759
 20
230.9596612080399
 30
0.0
 40
1.622827402472289
 50
291.6184361004774
 51
329.2928533987833
  0
ARC
  5
B757
  8
0
 10
44.62443842257301
 20
231.4713051516746
 30
0.0
 40
2.683157532333741
 50
330.0305147082963
 51
359.7069691972517
  0
ARC
  5
B758
  8
0
 10
44.49651675808997
 20
231.5819300132491
 30
0.0
 40
2.813793035039953
 50
357.4671544818835
 51
18.09389103936943
  0
ARC
  5
B759
  8
0
 10
45.34875832821629
 20
231.878359408422
 30
0.0
 40
1.911708557628758
 50
17.58181129013311
 51
44.10613559949745
  0
ARC
  5
B75A
  8
0
 10
45.60837962687506
 20
232.0888258185482
 30
0.0
 40
1.579081423259486
 50
45.17904980442386
 51
71.36379322642686
  0
ARC
  5
B75B
  8
0
 10
45.43169608899956
 20
231.5424113947965
 30
0.0
 40
2.153318191790253
 50
71.55515292962627
 51
90.8869891698155
  0
ARC
  5
B75C
  8
0
 10
48.45918952960568
 20
228.6333898033726
 30
0.0
 40
0.9504697930117868
 50
45.647846390803
 51
90.95907175324457
  0
ARC
  5
B75D
  8
0
 10
48.19057423128976
 20
228.4027653640582
 30
0.0
 40
1.303524477208397
 50
356.286618042267
 51
44.29157541670886
  0
ARC
  5
B75E
  8
0
 10
47.74044742681966
 20
228.2344319956294
 30
0.0
 40
1.752924040513615
 50
332.8282653512692
 51
2.743720271344923
  0
ARC
  5
B75F
  8
0
 10
48.43247162729944
 20
227.9488196814341
 30
0.0
 40
1.008745565207887
 50
281.1029522262585
 51
329.3086861457625
  0
ARC
  5
B760
  8
0
 10
48.44503473972441
 20
228.0211003797019
 30
0.0
 40
1.077573765673208
 50
254.373585711482
 51
279.7072195183877
  0
ARC
  5
B761
  8
0
 10
48.45865623713584
 20
227.9612224128051
 30
0.0
 40
1.023995873514749
 50
198.078198350464
 51
252.7369026576817
  0
ARC
  5
B762
  8
0
 10
49.50470998084268
 20
228.2675040480051
 30
0.0
 40
2.113718303506307
 50
164.6942276189751
 51
197.1716014617761
  0
ARC
  5
B763
  8
0
 10
48.5006506906808
 20
228.532324551899
 30
0.0
 40
1.07541041250608
 50
123.3084104466157
 51
164.1819940011187
  0
ARC
  5
B764
  8
0
 10
48.42975451827687
 20
228.6234841131538
 30
0.0
 40
0.9603375863241239
 50
89.19299068101529
 51
122.7601092117228
  0
ARC
  5
B765
  8
0
 10
48.74599718647409
 20
228.271385043231
 30
0.0
 40
2.529168051565525
 50
164.9665044400625
 51
190.6145490228779
  0
ARC
  5
B766
  8
0
 10
48.37943253112863
 20
228.0952012251064
 30
0.0
 40
2.13903317801624
 50
187.7835408718215
 51
220.8538282758054
  0
ARC
  5
B767
  8
0
 10
48.36290865327194
 20
228.2577244691337
 30
0.0
 40
2.23684800464541
 50
224.28151327257
 51
262.3352180838968
  0
ARC
  5
B768
  8
0
 10
48.44410295745797
 20
228.4258886810146
 30
0.0
 40
2.415036709056927
 50
260.9581187463501
 51
295.9617934482585
  0
ARC
  5
B769
  8
0
 10
48.46881443093608
 20
228.1923769314153
 30
0.0
 40
2.195729658493223
 50
298.0499757225368
 51
338.9010076102918
  0
ARC
  5
B76A
  8
0
 10
48.07925792781029
 20
228.2778126901277
 30
0.0
 40
2.590632549888452
 50
340.2397223934027
 51
12.59603457387198
  0
ARC
  5
B76B
  8
0
 10
48.55389651119873
 20
228.3963517132511
 30
0.0
 40
2.101602444292964
 50
12.26400142418705
 51
42.00204460106953
  0
ARC
  5
B76C
  8
0
 10
48.55340540655581
 20
228.4238375616419
 30
0.0
 40
2.083678402800012
 50
41.43135548057312
 51
84.31090183999093
  0
ARC
  5
B76D
  8
0
 10
54.44238830636215
 20
228.9527741918451
 30
0.0
 40
0.7218683279506627
 50
130.1010359850342
 51
152.8765297157266
  0
ARC
  5
B76E
  8
0
 10
54.38442435428138
 20
228.9390583569292
 30
0.0
 40
0.6970539232955045
 50
93.6216075869979
 51
125.7261982466873
  0
ARC
  5
B76F
  8
0
 10
54.49550482082117
 20
227.994582395306
 30
0.0
 40
1.647456117640462
 50
86.1442592668663
 51
95.40251107253543
  0
ARC
  5
B770
  8
0
 10
54.54423721877032
 20
228.1663771291078
 30
0.0
 40
1.473239699002557
 50
75.78444603343868
 51
87.58609443775997
  0
ARC
  5
B771
  8
0
 10
54.80892063113765
 20
229.1636071290437
 30
0.0
 40
0.4417023764257507
 50
38.65642909797035
 51
77.30076056537806
  0
ARC
  5
B772
  8
0
 10
54.63722881674164
 20
229.093099233235
 30
0.0
 40
0.622013293909289
 50
359.8735965182385
 51
33.84363804094146
  0
ARC
  5
B773
  8
0
 10
51.67911811270656
 20
228.9728330821076
 30
0.0
 40
3.582096140528945
 50
359.0859929973961
 51
1.902062204167362
  0
ARC
  5
B774
  8
0
 10
54.32177715937544
 20
231.2426157676456
 30
0.0
 40
2.509234634269819
 50
284.9657500733399
 51
291.97550982172
  0
ARC
  5
B775
  8
0
 10
52.64245385887489
 20
237.3904532813388
 30
0.0
 40
8.882278806531481
 50
280.2043110183695
 51
285.1898042810342
  0
ARC
  5
B776
  8
0
 10
55.10755945142219
 20
223.4910566914868
 30
0.0
 40
5.234101951295329
 50
99.80708673503382
 51
108.9029002183753
  0
ARC
  5
B777
  8
0
 10
53.80234854898927
 20
227.2414531762042
 30
0.0
 40
1.263280702218469
 50
108.0038789458568
 51
139.5346921255566
  0
ARC
  5
B778
  8
0
 10
53.74244764032574
 20
227.3252899658855
 30
0.0
 40
1.163565746446632
 50
140.7612947780745
 51
168.9659435881561
  0
ARC
  5
B779
  8
0
 10
53.97681523829021
 20
227.2835890272367
 30
0.0
 40
1.401587473098195
 50
169.1264415873884
 51
196.8129880402175
  0
ARC
  5
B77A
  8
0
 10
53.77683507748742
 20
227.2500699637887
 30
0.0
 40
1.200736629503124
 50
198.0421705376476
 51
235.7348582477584
  0
ARC
  5
B77B
  8
0
 10
53.93369472243612
 20
227.5481161823221
 30
0.0
 40
1.535844315416191
 50
237.1590292494215
 51
270.7198132743666
  0
ARC
  5
B77C
  8
0
 10
54.01363110535345
 20
227.8221284678583
 30
0.0
 40
1.810751131158588
 50
268.0808101764746
 51
292.8635926074776
  0
ARC
  5
B77D
  8
0
 10
53.88282183575757
 20
228.0491345875053
 30
0.0
 40
2.070998767971581
 50
293.7580989581123
 51
314.7899657835182
  0
ARC
  5
B77E
  8
0
 10
58.86200473000102
 20
227.2175775405953
 30
0.0
 40
2.499173832420186
 50
192.2727471956715
 51
206.3510707099188
  0
ARC
  5
B77F
  8
0
 10
60.82763071078583
 20
227.3923966437248
 30
0.0
 40
4.463878389973498
 50
178.3054146575074
 51
189.1007693226514
  0
ARC
  5
B780
  8
0
 10
-122.3404779120985
 20
230.4452612961587
 30
0.0
 40
178.7300508439498
 50
359.0636135939208
 51
359.5331222948618
  0
ARC
  5
B781
  8
0
 10
53.30452549634919
 20
228.9884434523256
 30
0.0
 40
3.07911375910394
 50
0.0082366020401114
 51
13.70501902078777
  0
ARC
  5
B782
  8
0
 10
55.4438837999694
 20
229.4575745906729
 30
0.0
 40
0.8909843556742496
 50
16.99219239725965
 51
58.15468777164725
  0
ARC
  5
B783
  8
0
 10
54.97608523618621
 20
228.7980056528736
 30
0.0
 40
1.698813368729804
 50
56.4891308086457
 51
88.52476597508146
  0
ARC
  5
B784
  8
0
 10
54.61316639129572
 20
226.221006719811
 30
0.0
 40
4.294545824498953
 50
84.56646884241289
 51
99.63736677787178
  0
ARC
  5
B785
  8
0
 10
54.13967752931256
 20
229.0003052084412
 30
0.0
 40
1.475204576717583
 50
99.5783577095598
 51
133.4108128523484
  0
ARC
  5
B786
  8
0
 10
54.39336012037586
 20
228.8599364991057
 30
0.0
 40
1.753711970549818
 50
136.2812462218209
 51
166.0780026216429
  0
ARC
  5
B787
  8
0
 10
53.27121216602634
 20
234.6295082245088
 30
0.0
 40
6.758384124597473
 50
280.6962555586759
 51
287.1203411217375
  0
ARC
  5
B788
  8
0
 10
55.23844411769099
 20
224.5367783272531
 30
0.0
 40
3.524614443440088
 50
101.6686696910115
 51
109.1101391117779
  0
ARC
  5
B789
  8
0
 10
54.24780114577197
 20
227.3431193377524
 30
0.0
 40
0.5488788980844314
 50
107.304431562489
 51
142.6785974978667
  0
ARC
  5
B78A
  8
0
 10
54.16061746956561
 20
227.4055113962509
 30
0.0
 40
0.4417308257590526
 50
142.258199201179
 51
180.7216068092584
  0
ARC
  5
B78B
  8
0
 10
54.26475672049065
 20
227.3946924141659
 30
0.0
 40
0.5458603467606972
 50
179.4483220443287
 51
220.6412737198986
  0
ARC
  5
B78C
  8
0
 10
54.31853279352947
 20
227.4229332771461
 30
0.0
 40
0.6052123636331186
 50
219.3540008203597
 51
262.049369939488
  0
ARC
  5
B78D
  8
0
 10
54.35795008110864
 20
227.7219536823124
 30
0.0
 40
0.9068136346841665
 50
262.1960849641753
 51
288.4736708280099
  0
ARC
  5
B78E
  8
0
 10
54.31018420135038
 20
227.8652828483709
 30
0.0
 40
1.057892482791887
 50
288.4676009339713
 51
313.9760865401699
  0
ARC
  5
B78F
  8
0
 10
54.5684368809633
 20
227.5823955887971
 30
0.0
 40
0.6750814753682137
 50
314.873968361606
 51
353.3371743964237
  0
ARC
  5
B790
  8
0
 10
51.80432293624375
 20
227.8946792745623
 30
0.0
 40
3.456776160850171
 50
353.5117984853132
 51
0.8226475095749395
  0
ARC
  5
B791
  8
0
 10
62.41484515251659
 20
228.5731063597873
 30
0.0
 40
7.34861436909221
 50
195.7421928264704
 51
199.597791318071
  0
ARC
  5
B792
  8
0
 10
75.18631218033346
 20
227.476068361615
 30
0.0
 40
17.00768455573995
 50
177.5431527159517
 51
180.1224681839423
  0
ARC
  5
B793
  8
0
 10
62.17308935800028
 20
228.0814625928766
 30
0.0
 40
3.98074969577439
 50
168.3575610519279
 51
178.2196605600729
  0
ARC
  5
B794
  8
0
 10
59.26394801097695
 20
228.6605532245769
 30
0.0
 40
1.014793522696064
 50
138.3863021467757
 51
167.2340218536034
  0
ARC
  5
B795
  8
0
 10
58.90834637183795
 20
228.8937726270761
 30
0.0
 40
0.5972547683434593
 50
96.77586538956423
 51
132.447773558299
  0
ARC
  5
B796
  8
0
 10
58.93913971537432
 20
228.7418728379625
 30
0.0
 40
0.7518332906437697
 50
71.72267914677889
 51
97.74042030460187
  0
ARC
  5
B797
  8
0
 10
58.76568800754012
 20
228.2300737688193
 30
0.0
 40
1.29221607752043
 50
56.46328333653608
 51
71.5367949068469
  0
ARC
  5
B798
  8
0
 10
60.69935289574354
 20
228.2080459904739
 30
0.0
 40
3.058724754046294
 50
139.5470247594357
 51
148.3665835328131
  0
ARC
  5
B799
  8
0
 10
59.04756343606127
 20
229.640011171267
 30
0.0
 40
0.8729050829687197
 50
109.5979517564685
 51
140.7231812093455
  0
ARC
  5
B79A
  8
0
 10
59.077951059367
 20
229.5124978534164
 30
0.0
 40
1.003323721815536
 50
86.36469047660621
 51
108.7902753767986
  0
ARC
  5
B79B
  8
0
 10
59.07698552933527
 20
229.1373196685997
 30
0.0
 40
1.377997254265745
 50
78.84643697971657
 51
87.31376656527279
  0
ARC
  5
B79C
  8
0
 10
59.06326719858251
 20
229.0675902966622
 30
0.0
 40
1.449063259500479
 50
73.30291166206497
 51
78.8475905402678
  0
ARC
  5
B79D
  8
0
 10
63.66424728098926
 20
228.9259290254949
 30
0.0
 40
1.673766598535952
 50
15.45353000298215
 51
35.65921843237705
  0
ARC
  5
B79E
  8
0
 10
63.94936654552893
 20
229.1156368109448
 30
0.0
 40
1.331569712949468
 50
36.17886961743995
 51
65.18032133965713
  0
ARC
  5
B79F
  8
0
 10
63.56608375979582
 20
228.0470289289245
 30
0.0
 40
2.464419661937123
 50
67.52176510600175
 51
89.95176516883794
  0
ARC
  5
B7A0
  8
0
 10
63.38651319318049
 20
226.7855063529709
 30
0.0
 40
3.730366476747655
 50
87.208954205559
 51
101.0994306540248
  0
ARC
  5
B7A1
  8
0
 10
62.94850651561239
 20
228.9845579395363
 30
0.0
 40
1.488141506149253
 50
100.8503522773502
 51
133.1120733601343
  0
ARC
  5
B7A2
  8
0
 10
62.76145707744772
 20
229.1943322971332
 30
0.0
 40
1.207186880999289
 50
133.4355814373259
 51
160.5403057677102
  0
ARC
  5
B7A3
  8
0
 10
62.85913337287184
 20
229.1871543836363
 30
0.0
 40
1.30192991328094
 50
161.6745785399147
 51
192.4880693726293
  0
ARC
  5
B7A4
  8
0
 10
62.62543913118901
 20
229.133218702407
 30
0.0
 40
1.06210390647494
 50
192.3733574320922
 51
226.4953370670944
  0
ARC
  5
B7A5
  8
0
 10
62.7867683025471
 20
229.2884852539052
 30
0.0
 40
1.285822665205259
 50
226.0440591685035
 51
249.5155775654873
  0
ARC
  5
B7A6
  8
0
 10
64.73357905773742
 20
234.1892413850988
 30
0.0
 40
6.558883186265355
 50
248.5661847695234
 51
256.364882331747
  0
ARC
  5
B7A7
  8
0
 10
73.48599801232092
 20
269.2980471187914
 30
0.0
 40
42.74209767946007
 50
256.0575388595495
 51
257.0500330678841
  0
ARC
  5
B7A8
  8
0
 10
63.7655447618819
 20
226.9182277661764
 30
0.0
 40
0.738586693301286
 50
53.94494987543574
 51
78.91973275289719
  0
ARC
  5
B7A9
  8
0
 10
63.97533764177859
 20
227.3050376236701
 30
0.0
 40
0.3079156393342173
 50
351.7054337157878
 51
43.07738885190844
  0
ARC
  5
B7AA
  8
0
 10
63.92301508296163
 20
227.2876893721777
 30
0.0
 40
0.3580422081846633
 50
305.5545895016557
 51
355.6635972446031
  0
ARC
  5
B7AB
  8
0
 10
63.60152364599224
 20
227.8083967773079
 30
0.0
 40
0.9694871848616392
 50
270.6346537603557
 51
303.1173831021145
  0
ARC
  5
B7AC
  8
0
 10
63.47389066174816
 20
228.3682990955781
 30
0.0
 40
1.535577099296554
 50
255.0528385911238
 51
275.1699625266891
  0
ARC
  5
B7AD
  8
0
 10
63.27465533834282
 20
227.578634999356
 30
0.0
 40
0.72133028502093
 50
220.3482025964622
 51
254.1645624218323
  0
ARC
  5
B7AE
  8
0
 10
63.35127921402287
 20
227.6306643211658
 30
0.0
 40
0.8134735047535518
 50
201.7856653156537
 51
219.6469566048348
  0
ARC
  5
B7AF
  8
0
 10
63.02558367137109
 20
227.7411056480726
 30
0.0
 40
1.679722551042641
 50
194.210622631723
 51
218.9435761559325
  0
ARC
  5
B7B0
  8
0
 10
63.03591206439532
 20
227.7783855583713
 30
0.0
 40
1.711336039747307
 50
219.6970036238806
 51
248.5406571485441
  0
ARC
  5
B7B1
  8
0
 10
63.33653074007515
 20
228.6338675702908
 30
0.0
 40
2.617702860846573
 50
249.2671616286075
 51
267.747025064058
  0
ARC
  5
B7B2
  8
0
 10
63.46981174030483
 20
229.1618193139798
 30
0.0
 40
3.152491240768179
 50
265.7033250605309
 51
289.3905439589275
  0
ARC
  5
B7B3
  8
0
 10
63.94426730960438
 20
227.6043288174479
 30
0.0
 40
1.527408099999837
 50
292.0004687572242
 51
331.7243378576275
  0
ARC
  5
B7B4
  8
0
 10
64.13360255601572
 20
227.4613671332495
 30
0.0
 40
1.293448633509429
 50
333.3286501185839
 51
10.01278361973784
  0
ARC
  5
B7B5
  8
0
 10
64.43045511397332
 20
227.5489748013486
 30
0.0
 40
0.9864943557164728
 50
7.999299177210515
 51
56.09544702440798
  0
ARC
  5
B7B6
  8
0
 10
63.41324836749425
 20
225.8490017264371
 30
0.0
 40
2.966650730685512
 50
58.1047262069082
 51
77.57165611660318
  0
ARC
  5
B7B7
  8
0
 10
69.64394504282004
 20
253.1738900604621
 30
0.0
 40
25.05969444260865
 50
254.9920383624129
 51
257.1055378385226
  0
ARC
  5
B7B8
  8
0
 10
63.57116716342529
 20
230.7082813006269
 30
0.0
 40
1.788471967299355
 50
241.9968666432906
 51
256.5329008491028
  0
ARC
  5
B7B9
  8
0
 10
62.87463969629849
 20
229.3425009492476
 30
0.0
 40
0.2569089219111538
 50
181.4229295114256
 51
236.1252737546306
  0
ARC
  5
B7BA
  8
0
 10
62.88986033395872
 20
229.3369945631808
 30
0.0
 40
0.272051738584831
 50
114.9382961617164
 51
180.1839102890763
  0
ARC
  5
B7BB
  8
0
 10
63.29184761236093
 20
228.4278902787673
 30
0.0
 40
1.266027764923893
 50
87.40586972974698
 51
114.0870118917362
  0
ARC
  5
B7BC
  8
0
 10
63.3923558687205
 20
228.1086705094515
 30
0.0
 40
1.584539315298479
 50
81.26152734193053
 51
91.56252783870202
  0
ARC
  5
B7BD
  8
0
 10
63.52585264114896
 20
228.9144575516874
 30
0.0
 40
0.767883455285971
 50
58.63150134670214
 51
81.97250411125933
  0
ARC
  5
B7BE
  8
0
 10
63.58578561950716
 20
229.049147030693
 30
0.0
 40
0.6219714409278794
 50
31.26144626097709
 51
56.88664282448718
  0
ARC
  5
B7BF
  8
0
 10
59.23256996357844
 20
225.2464568468671
 30
0.0
 40
0.1450093835969383
 50
152.3324835633369
 51
201.6883497501618
  0
ARC
  5
B7C0
  8
0
 10
59.28284993014154
 20
225.2134726245619
 30
0.0
 40
0.2049400430791757
 50
94.26849177823954
 51
150.6923636878295
  0
ARC
  5
B7C1
  8
0
 10
59.29528997282745
 20
225.1758627207899
 30
0.0
 40
0.2435610534233947
 50
65.67526895000145
 51
96.52886377923876
  0
ARC
  5
B7C2
  8
0
 10
59.32619666219088
 20
225.2323597040555
 30
0.0
 40
0.1794155440342952
 50
15.00501194484098
 51
67.2375225199484
  0
ARC
  5
B7C3
  8
0
 10
59.35879971028925
 20
225.2462048785762
 30
0.0
 40
0.1444238304842776
 50
334.5475718261126
 51
13.04798857661176
  0
ARC
  5
B7C4
  8
0
 10
59.31704976757646
 20
225.2690762156767
 30
0.0
 40
0.1919699607925253
 50
283.3392084596457
 51
333.7390166514077
  0
ARC
  5
B7C5
  8
0
 10
59.29549833912478
 20
225.3182171810571
 30
0.0
 40
0.2449468824808138
 50
249.2475068279205
 51
285.5929160340207
  0
ARC
  5
B7C6
  8
0
 10
59.27216905525688
 20
225.2681442914256
 30
0.0
 40
0.1899001165681578
 50
203.3534454850997
 51
250.4765665943434
  0
ARC
  5
B7C7
  8
0
 10
59.23345617450286
 20
225.2463951657432
 30
0.0
 40
0.220563220518459
 50
149.5924277991477
 51
208.5026443066654
  0
ARC
  5
B7C8
  8
0
 10
59.28313473185267
 20
225.2114013745613
 30
0.0
 40
0.2811654578303905
 50
99.15226556107618
 51
148.5662219609118
  0
ARC
  5
B7C9
  8
0
 10
59.29525052237463
 20
225.174286275345
 30
0.0
 40
0.3197925578412533
 50
69.2643536209876
 51
100.2377265552896
  0
ARC
  5
B7CA
  8
0
 10
59.31447537002515
 20
225.2179488125963
 30
0.0
 40
0.2721632922277281
 50
34.33047436698014
 51
69.79498100628884
  0
ARC
  5
B7CB
  8
0
 10
59.35674565702004
 20
225.2465160067133
 30
0.0
 40
0.2211457863352724
 50
330.8904082426623
 51
34.39478799471744
  0
ARC
  5
B7CC
  8
0
 10
59.31254421196314
 20
225.2747322841804
 30
0.0
 40
0.2735090128067355
 50
281.5278040705555
 51
330.2307053142199
  0
ARC
  5
B7CD
  8
0
 10
59.29551632932069
 20
225.3182220987062
 30
0.0
 40
0.3196244185618837
 50
249.2057013607624
 51
282.9608191978189
  0
ARC
  5
B7CE
  8
0
 10
59.27496521886664
 20
225.2723127102888
 30
0.0
 40
0.2694253491506349
 50
209.133855782525
 51
249.8253936421853
  0
LINE
  5
B85A
  8
0
 10
42.79549511770068
 20
200.3153722225794
 30
0.0
 11
41.6696620921179
 21
198.3653722225905
 31
0.0
  0
ARC
  5
B85B
  8
0
 10
41.71296336230085
 20
198.3403722225792
 30
0.0
 40
0.0500000000002611
 50
149.9999999851142
 51
269.9999999998677
  0
LINE
  5
B85C
  8
0
 10
41.71296336230074
 20
198.2903722225789
 30
0.0
 11
43.96462941214025
 21
198.2903722225789
 31
0.0
  0
ARC
  5
B85D
  8
0
 10
43.9646294121402
 20
198.3403722225789
 30
0.0
 40
0.0500000000000013
 50
270.0000000000688
 51
29.99999998531542
  0
LINE
  5
B85E
  8
0
 10
44.00793068233583
 20
198.3653722225678
 30
0.0
 11
42.88209765807909
 21
200.3153722225794
 31
0.0
  0
ARC
  5
B85F
  8
0
 10
42.83879638788989
 20
200.2903722225795
 30
0.0
 40
0.0499999999999793
 50
30.00000000000012
 51
149.9999999999999
  0
LINE
  5
B860
  8
0
 10
42.75219384681617
 20
200.4403722225794
 30
0.0
 11
41.539758281518
 21
198.3403722225791
 31
0.0
  0
ARC
  5
B861
  8
0
 10
41.62636082189633
 20
198.2903722225792
 30
0.0
 40
0.0999999999998077
 50
150.0000000000498
 51
270.0000000000499
  0
LINE
  5
B862
  8
0
 10
41.62636082189641
 20
198.1903722225794
 30
0.0
 11
44.05123195249274
 21
198.1903722225794
 31
0.0
  0
ARC
  5
B863
  8
0
 10
44.05123195249283
 20
198.2903722225792
 30
0.0
 40
0.0999999999998075
 50
269.9999999999499
 51
29.9999999999503
  0
LINE
  5
B864
  8
0
 10
44.13783449287115
 20
198.3403722225791
 30
0.0
 11
42.92539892757299
 21
200.4403722225794
 31
0.0
  0
ARC
  5
B865
  8
0
 10
42.83879638719458
 20
200.3903722225795
 30
0.0
 40
0.0999999999999585
 50
29.99999999999998
 51
150.0
  0
LINE
  5
B868
  8
0
 10
77.3234742502047
 20
202.7911378947829
 30
0.0
 11
77.3234742502047
 21
203.3375845041897
 31
0.0
1001
GENIUS_GENODEF_13
1002
{
1000
HIER
1070
     0
1002
}
1002
{
1000
MANEDIT
1070
     0
1002
}
1002
{
1000
NOSEL
1070
     0
1002
}
1002
{
1000
BEHIND
1070
     0
1002
}
1002
{
1000
OTHER
1070
     0
1002
}
1002
{
1000
REACTOR
1002
}
1001
GENIUS_GENOBJ-N-CEN_13
1002
{
1000
OWNER
1000
GEN
1002
}
1001
GENIUS_GENCEN_19
1002
{
1040
3.0
1002
}
  0
LINE
  5
B869
  8
0
 10
77.62347425020488
 20
202.7911378947829
 30
0.0
 11
77.62347425020488
 21
203.3375845041897
 31
0.0
1001
GENIUS_GENODEF_13
1002
{
1000
HIER
1070
     0
1002
}
1002
{
1000
MANEDIT
1070
     0
1002
}
1002
{
1000
NOSEL
1070
     0
1002
}
1002
{
1000
BEHIND
1070
     0
1002
}
1002
{
1000
OTHER
1070
     0
1002
}
1002
{
1000
REACTOR
1002
}
1001
GENIUS_GENOBJ-N-CEN_13
1002
{
1000
OWNER
1000
GEN
1002
}
1001
GENIUS_GENCEN_19
1002
{
1040
3.0
1002
}
  0
LINE
  5
B86A
  8
0
 10
77.62347425020488
 20
206.891137894783
 30
0.0
 11
78.26930105515174
 21
207.53696469973
 31
0.0
  0
LINE
  5
B86B
  8
0
 10
77.62347425020488
 20
207.391137894783
 30
0.0
 11
78.01930105515174
 21
207.78696469973
 31
0.0
  0
ARC
  5
B86C
  8
0
 10
77.47347425020479
 20
208.991137894783
 30
0.0
 40
0.1499999999999773
 50
0.0
 51
180.0
  0
ARC
  5
B86D
  8
0
 10
78.14430105515174
 20
207.66196469973
 30
0.0
 40
0.1767766952966168
 50
315.0000000000293
 51
135.0000000000033
  0
LINE
  5
B86E
  8
0
 10
77.3234742502047
 20
206.891137894783
 30
0.0
 11
76.67764744525783
 21
207.53696469973
 31
0.0
  0
LINE
  5
B86F
  8
0
 10
77.3234742502047
 20
207.391137894783
 30
0.0
 11
76.92764744525783
 21
207.78696469973
 31
0.0
  0
ARC
  5
B870
  8
0
 10
76.80264744525783
 20
207.66196469973
 30
0.0
 40
0.1767766952966168
 50
44.99999999999675
 51
224.9999999999707
  0
LINE
  5
B871
  8
0
 10
77.62347425020488
 20
208.091137894783
 30
0.0
 11
78.02226014742627
 21
208.4899237920044
 31
0.0
  0
LINE
  5
B872
  8
0
 10
77.62347425020488
 20
208.4446912853762
 30
0.0
 11
77.8454834521296
 21
208.6667004873009
 31
0.0
  0
ARC
  5
B873
  8
0
 10
77.9338717997777
 20
208.5783121396528
 30
0.0
 40
0.1249999999999206
 50
314.999999999894
 51
134.9999999999309
  0
LINE
  5
B874
  8
0
 10
79.30373013853063
 20
204.6612340842154
 30
0.0
 11
79.4496959075845
 21
204.11648241794
 31
0.0
  0
LINE
  5
B875
  8
0
 10
79.6099163563785
 20
204.4844573889187
 30
0.0
 11
79.69117736415677
 21
204.1811871792158
 31
0.0
  0
ARC
  5
B876
  8
0
 10
80.03083418544378
 20
204.9462667461185
 30
0.0
 40
0.1249999999999206
 50
285.0000000000046
 51
105.0000000000046
  0
LINE
  5
B877
  8
0
 10
77.62347425020488
 20
204.891137894783
 30
0.0
 11
77.62347425020488
 21
205.2836210593937
 31
0.0
1001
GENIUS_GENODEF_13
1002
{
1000
HIER
1070
     0
1002
}
1002
{
1000
MANEDIT
1070
     0
1002
}
1002
{
1000
NOSEL
1070
     0
1002
}
1002
{
1000
BEHIND
1070
     0
1002
}
1002
{
1000
OTHER
1070
     0
1002
}
1002
{
1000
REACTOR
1002
}
1001
GENIUS_GENOBJ-N-CEN_13
1002
{
1000
OWNER
1000
GEN
1002
}
1001
GENIUS_GENCEN_19
1002
{
1040
3.0
1002
}
  0
LINE
  5
B878
  8
0
 10
79.75991635637837
 20
204.7442650100541
 30
0.0
 11
80.06318656608158
 21
204.8255260178325
 31
0.0
  0
ARC
  5
B879
  8
0
 10
79.57043663587086
 20
204.1488347985778
 30
0.0
 40
0.1249999999999206
 50
194.9999999999509
 51
15.00000000000457
  0
LINE
  5
B87A
  8
0
 10
79.45373013853049
 20
204.9210417053507
 30
0.0
 11
79.99848180480598
 21
205.0670074744047
 31
0.0
  0
LINE
  5
B87B
  8
0
 10
77.62347425020488
 20
203.691137894783
 30
0.0
 11
77.62347425020488
 21
204.391137894783
 31
0.0
1001
GENIUS_GENODEF_13
1002
{
1000
HIER
1070
     0
1002
}
1002
{
1000
MANEDIT
1070
     0
1002
}
1002
{
1000
NOSEL
1070
     0
1002
}
1002
{
1000
BEHIND
1070
     0
1002
}
1002
{
1000
OTHER
1070
     0
1002
}
1002
{
1000
REACTOR
1002
}
1001
GENIUS_GENOBJ-N-CEN_13
1002
{
1000
OWNER
1000
GEN
1002
}
1001
GENIUS_GENCEN_19
1002
{
1040
3.0
1002
}
  0
LINE
  5
B87C
  8
0
 10
77.3234742502047
 20
203.691137894783
 30
0.0
 11
77.3234742502047
 21
204.391137894783
 31
0.0
1001
GENIUS_GENODEF_13
1002
{
1000
HIER
1070
     0
1002
}
1002
{
1000
MANEDIT
1070
     0
1002
}
1002
{
1000
NOSEL
1070
     0
1002
}
1002
{
1000
BEHIND
1070
     0
1002
}
1002
{
1000
OTHER
1070
     0
1002
}
1002
{
1000
REACTOR
1002
}
1001
GENIUS_GENOBJ-N-CEN_13
1002
{
1000
OWNER
1000
GEN
1002
}
1001
GENIUS_GENCEN_19
1002
{
1040
3.0
1002
}
  0
LINE
  5
B87D
  8
0
 10
77.3234742502047
 20
208.4446912853762
 30
0.0
 11
77.3234742502047
 21
208.991137894783
 31
0.0
1001
GENIUS_GENODEF_13
1002
{
1000
HIER
1070
     0
1002
}
1002
{
1000
MANEDIT
1070
     0
1002
}
1002
{
1000
NOSEL
1070
     0
1002
}
1002
{
1000
BEHIND
1070
     0
1002
}
1002
{
1000
OTHER
1070
     0
1002
}
1002
{
1000
REACTOR
1002
}
1001
GENIUS_GENOBJ-N-CEN_13
1002
{
1000
OWNER
1000
GEN
1002
}
1001
GENIUS_GENCEN_19
1002
{
1040
3.0
1002
}
  0
LINE
  5
B87E
  8
0
 10
77.62347425020488
 20
208.4446912853762
 30
0.0
 11
77.62347425020488
 21
208.991137894783
 31
0.0
1001
GENIUS_GENODEF_13
1002
{
1000
HIER
1070
     0
1002
}
1002
{
1000
MANEDIT
1070
     0
1002
}
1002
{
1000
NOSEL
1070
     0
1002
}
1002
{
1000
BEHIND
1070
     0
1002
}
1002
{
1000
OTHER
1070
     0
1002
}
1002
{
1000
REACTOR
1002
}
1001
GENIUS_GENOBJ-N-CEN_13
1002
{
1000
OWNER
1000
GEN
1002
}
1001
GENIUS_GENCEN_19
1002
{
1040
3.0
1002
}
  0
ARC
  5
B87F
  8
0
 10
77.01307670063187
 20
208.5783121396528
 30
0.0
 40
0.1249999999999206
 50
45.00000000006909
 51
224.9999999999585
  0
LINE
  5
B880
  8
0
 10
77.3234742502047
 20
208.4446912853762
 30
0.0
 11
77.10146504827998
 21
208.6667004873009
 31
0.0
  0
LINE
  5
B881
  8
0
 10
77.3234742502047
 20
208.091137894783
 30
0.0
 11
76.92468835298331
 21
208.4899237920044
 31
0.0
  0
LINE
  5
B882
  8
0
 10
77.62347425020488
 20
207.391137894783
 30
0.0
 11
77.62347425020488
 21
208.091137894783
 31
0.0
1001
GENIUS_GENODEF_13
1002
{
1000
HIER
1070
     0
1002
}
1002
{
1000
MANEDIT
1070
     0
1002
}
1002
{
1000
NOSEL
1070
     0
1002
}
1002
{
1000
BEHIND
1070
     0
1002
}
1002
{
1000
OTHER
1070
     0
1002
}
1002
{
1000
REACTOR
1002
}
1001
GENIUS_GENOBJ-N-CEN_13
1002
{
1000
OWNER
1000
GEN
1002
}
1001
GENIUS_GENCEN_19
1002
{
1040
3.0
1002
}
  0
LINE
  5
B883
  8
0
 10
77.3234742502047
 20
207.391137894783
 30
0.0
 11
77.3234742502047
 21
208.091137894783
 31
0.0
1001
GENIUS_GENODEF_13
1002
{
1000
HIER
1070
     0
1002
}
1002
{
1000
MANEDIT
1070
     0
1002
}
1002
{
1000
NOSEL
1070
     0
1002
}
1002
{
1000
BEHIND
1070
     0
1002
}
1002
{
1000
OTHER
1070
     0
1002
}
1002
{
1000
REACTOR
1002
}
1001
GENIUS_GENOBJ-N-CEN_13
1002
{
1000
OWNER
1000
GEN
1002
}
1001
GENIUS_GENCEN_19
1002
{
1040
3.0
1002
}
  0
LINE
  5
B884
  8
0
 10
77.62347425020488
 20
203.3375845041897
 30
0.0
 11
77.8454834521296
 21
203.1155753022649
 31
0.0
  0
LINE
  5
B885
  8
0
 10
77.3234742502047
 20
204.391137894783
 30
0.0
 11
76.92764744525783
 21
203.995311089836
 31
0.0
  0
ARC
  5
B886
  8
0
 10
77.47347425020479
 20
202.7911378947829
 30
0.0
 40
0.1499999999999773
 50
180.0
 51
0.0
  0
ARC
  5
B887
  8
0
 10
78.14430105515174
 20
204.120311089836
 30
0.0
 40
0.1767766952966168
 50
224.9999999999968
 51
44.99999999999675
  0
ARC
  5
B888
  8
0
 10
76.80264744525783
 20
204.120311089836
 30
0.0
 40
0.1767766952966168
 50
135.0000000000033
 51
315.0000000000032
  0
LINE
  5
B889
  8
0
 10
77.62347425020488
 20
204.391137894783
 30
0.0
 11
78.01930105515174
 21
203.995311089836
 31
0.0
  0
LINE
  5
B88A
  8
0
 10
77.3234742502047
 20
204.891137894783
 30
0.0
 11
76.67764744525783
 21
204.245311089836
 31
0.0
  0
ARC
  5
B88B
  8
0
 10
77.9338717997777
 20
203.2039636499132
 30
0.0
 40
0.1249999999999206
 50
225.0000000000691
 51
44.99999999995854
  0
LINE
  5
B88C
  8
0
 10
77.3234742502047
 20
203.691137894783
 30
0.0
 11
76.92468835298331
 21
203.2923519975616
 31
0.0
  0
LINE
  5
B88D
  8
0
 10
77.62347425020488
 20
203.691137894783
 30
0.0
 11
78.02226014742627
 21
203.2923519975616
 31
0.0
  0
LINE
  5
B88E
  8
0
 10
77.62347425020488
 20
204.891137894783
 30
0.0
 11
78.26930105515174
 21
204.245311089836
 31
0.0
  0
ARC
  5
B88F
  8
0
 10
77.01307670063187
 20
203.2039636499132
 30
0.0
 40
0.1249999999999206
 50
134.9999999998941
 51
314.999999999894
  0
LINE
  5
B890
  8
0
 10
77.3234742502047
 20
203.3375845041897
 30
0.0
 11
77.10146504827998
 21
203.1155753022649
 31
0.0
  0
LINE
  5
B891
  8
0
 10
78.69751235588154
 20
206.7710417053507
 30
0.0
 11
78.84239502199097
 21
207.3117511764071
 31
0.0
  0
ARC
  5
B892
  8
0
 10
78.67164184651796
 20
207.3575043518802
 30
0.0
 40
0.1767766952966168
 50
344.9999999999747
 51
164.9999999999747
  0
LINE
  5
B893
  8
0
 10
75.33703214403107
 20
204.4844573889187
 30
0.0
 11
74.86379549847305
 21
204.2112340842154
 31
0.0
1001
GENIUS_GENODEF_13
1002
{
1000
HIER
1070
     0
1002
}
1002
{
1000
MANEDIT
1070
     0
1002
}
1002
{
1000
NOSEL
1070
     0
1002
}
1002
{
1000
BEHIND
1070
     0
1002
}
1002
{
1000
OTHER
1070
     0
1002
}
1002
{
1000
REACTOR
1002
}
1001
GENIUS_GENOBJ-N-CEN_13
1002
{
1000
OWNER
1000
GEN
1002
}
1001
GENIUS_GENCEN_19
1002
{
1040
3.0
1002
}
  0
LINE
  5
B894
  8
0
 10
78.41449965398914
 20
206.2612340842153
 30
0.0
 11
79.2967154759919
 21
206.0248450671598
 31
0.0
  0
LINE
  5
B895
  8
0
 10
79.45373013853049
 20
206.8612340842153
 30
0.0
 11
79.99848180480598
 21
206.7152683151614
 31
0.0
  0
LINE
  5
B896
  8
0
 10
79.75991635637837
 20
207.038010779512
 30
0.0
 11
80.06318656608158
 21
206.9567497717336
 31
0.0
  0
ARC
  5
B897
  8
0
 10
80.03083418544378
 20
206.8360090434476
 30
0.0
 40
0.1249999999999206
 50
254.9999999999954
 51
74.99999999999544
  0
LINE
  5
B898
  8
0
 10
79.30373013853063
 20
207.1210417053507
 30
0.0
 11
79.4496959075845
 21
207.6657933716261
 31
0.0
  0
LINE
  5
B899
  8
0
 10
76.09943614452817
 20
205.2710417053507
 30
0.0
 11
75.49321836187909
 21
204.9210417053506
 31
0.0
1001
GENIUS_GENODEF_13
1002
{
1000
HIER
1070
     0
1002
}
1002
{
1000
MANEDIT
1070
     0
1002
}
1002
{
1000
NOSEL
1070
     0
1002
}
1002
{
1000
BEHIND
1070
     0
1002
}
1002
{
1000
OTHER
1070
     0
1002
}
1002
{
1000
REACTOR
1002
}
1001
GENIUS_GENOBJ-N-CEN_13
1002
{
1000
OWNER
1000
GEN
1002
}
1001
GENIUS_GENCEN_19
1002
{
1040
3.0
1002
}
  0
ARC
  5
B89A
  8
0
 10
76.27530665389162
 20
204.4247714376858
 30
0.0
 40
0.1767766952966168
 50
164.9999999999747
 51
345.0000000000139
  0
LINE
  5
B89B
  8
0
 10
76.09943614452817
 20
205.2710417053507
 30
0.0
 11
75.55872667347165
 21
205.4159243714601
 31
0.0
  0
ARC
  5
B89C
  8
0
 10
80.15815300193657
 20
207.441137894783
 30
0.0
 40
0.1499999999999773
 50
300.0000000000254
 51
120.0000000000254
  0
LINE
  5
B89D
  8
0
 10
78.41449965398914
 20
206.2612340842153
 30
0.0
 11
78.07459926287851
 21
206.0649925019099
 31
0.0
1001
GENIUS_GENODEF_13
1002
{
1000
HIER
1070
     0
1002
}
1002
{
1000
MANEDIT
1070
     0
1002
}
1002
{
1000
NOSEL
1070
     0
1002
}
1002
{
1000
BEHIND
1070
     0
1002
}
1002
{
1000
OTHER
1070
     0
1002
}
1002
{
1000
REACTOR
1002
}
1001
GENIUS_GENOBJ-N-CEN_13
1002
{
1000
OWNER
1000
GEN
1002
}
1001
GENIUS_GENCEN_19
1002
{
1040
3.0
1002
}
  0
LINE
  5
B89E
  8
0
 10
78.26449965398928
 20
206.5210417053507
 30
0.0
 11
77.92459926287864
 21
206.3248001230452
 31
0.0
1001
GENIUS_GENODEF_13
1002
{
1000
HIER
1070
     0
1002
}
1002
{
1000
MANEDIT
1070
     0
1002
}
1002
{
1000
NOSEL
1070
     0
1002
}
1002
{
1000
BEHIND
1070
     0
1002
}
1002
{
1000
OTHER
1070
     0
1002
}
1002
{
1000
REACTOR
1002
}
1001
GENIUS_GENOBJ-N-CEN_13
1002
{
1000
OWNER
1000
GEN
1002
}
1001
GENIUS_GENCEN_19
1002
{
1040
3.0
1002
}
  0
LINE
  5
B89F
  8
0
 10
76.24943614452803
 20
205.0112340842153
 30
0.0
 11
76.10455347841861
 21
204.4705246131589
 31
0.0
  0
LINE
  5
B8A0
  8
0
 10
76.6824488464203
 20
205.2612340842153
 30
0.0
 11
76.44605982936486
 21
204.3790182622128
 31
0.0
  0
LINE
  5
B8A1
  8
0
 10
80.23315300193661
 20
207.3112340842154
 30
0.0
 11
79.75991635637837
 21
207.038010779512
 31
0.0
1001
GENIUS_GENODEF_13
1002
{
1000
HIER
1070
     0
1002
}
1002
{
1000
MANEDIT
1070
     0
1002
}
1002
{
1000
NOSEL
1070
     0
1002
}
1002
{
1000
BEHIND
1070
     0
1002
}
1002
{
1000
OTHER
1070
     0
1002
}
1002
{
1000
REACTOR
1002
}
1001
GENIUS_GENOBJ-N-CEN_13
1002
{
1000
OWNER
1000
GEN
1002
}
1001
GENIUS_GENCEN_19
1002
{
1040
3.0
1002
}
  0
ARC
  5
B8A2
  8
0
 10
74.78879549847301
 20
204.341137894783
 30
0.0
 40
0.1499999999999773
 50
120.0000000000254
 51
300.0000000000254
  0
ARC
  5
B8A3
  8
0
 10
75.60447984894466
 20
205.5866775469331
 30
0.0
 40
0.1767766952966168
 50
75.0000000000127
 51
255.0000000000127
  0
LINE
  5
B8A4
  8
0
 10
80.08315300193652
 20
207.5710417053507
 30
0.0
 11
79.6099163563785
 21
207.2978184006473
 31
0.0
1001
GENIUS_GENODEF_13
1002
{
1000
HIER
1070
     0
1002
}
1002
{
1000
MANEDIT
1070
     0
1002
}
1002
{
1000
NOSEL
1070
     0
1002
}
1002
{
1000
BEHIND
1070
     0
1002
}
1002
{
1000
OTHER
1070
     0
1002
}
1002
{
1000
REACTOR
1002
}
1001
GENIUS_GENOBJ-N-CEN_13
1002
{
1000
OWNER
1000
GEN
1002
}
1001
GENIUS_GENCEN_19
1002
{
1040
3.0
1002
}
  0
LINE
  5
B8A5
  8
0
 10
79.30373013853063
 20
207.1210417053507
 30
0.0
 11
78.69751235588154
 21
206.7710417053507
 31
0.0
1001
GENIUS_GENODEF_13
1002
{
1000
HIER
1070
     0
1002
}
1002
{
1000
MANEDIT
1070
     0
1002
}
1002
{
1000
NOSEL
1070
     0
1002
}
1002
{
1000
BEHIND
1070
     0
1002
}
1002
{
1000
OTHER
1070
     0
1002
}
1002
{
1000
REACTOR
1002
}
1001
GENIUS_GENOBJ-N-CEN_13
1002
{
1000
OWNER
1000
GEN
1002
}
1001
GENIUS_GENCEN_19
1002
{
1040
3.0
1002
}
  0
LINE
  5
B8A6
  8
0
 10
75.1870321440312
 20
204.7442650100541
 30
0.0
 11
74.71379549847296
 21
204.4710417053507
 31
0.0
1001
GENIUS_GENODEF_13
1002
{
1000
HIER
1070
     0
1002
}
1002
{
1000
MANEDIT
1070
     0
1002
}
1002
{
1000
NOSEL
1070
     0
1002
}
1002
{
1000
BEHIND
1070
     0
1002
}
1002
{
1000
OTHER
1070
     0
1002
}
1002
{
1000
REACTOR
1002
}
1001
GENIUS_GENOBJ-N-CEN_13
1002
{
1000
OWNER
1000
GEN
1002
}
1001
GENIUS_GENCEN_19
1002
{
1040
3.0
1002
}
  0
LINE
  5
B8A7
  8
0
 10
79.45373013853049
 20
206.8612340842153
 30
0.0
 11
78.8475123558814
 21
206.5112340842153
 31
0.0
1001
GENIUS_GENODEF_13
1002
{
1000
HIER
1070
     0
1002
}
1002
{
1000
MANEDIT
1070
     0
1002
}
1002
{
1000
NOSEL
1070
     0
1002
}
1002
{
1000
BEHIND
1070
     0
1002
}
1002
{
1000
OTHER
1070
     0
1002
}
1002
{
1000
REACTOR
1002
}
1001
GENIUS_GENOBJ-N-CEN_13
1002
{
1000
OWNER
1000
GEN
1002
}
1001
GENIUS_GENCEN_19
1002
{
1040
3.0
1002
}
  0
LINE
  5
B8A8
  8
0
 10
75.64321836187895
 20
204.6612340842153
 30
0.0
 11
75.49725259282508
 21
204.1164824179399
 31
0.0
  0
LINE
  5
B8A9
  8
0
 10
75.33703214403107
 20
204.4844573889187
 30
0.0
 11
75.2557711362528
 21
204.1811871792156
 31
0.0
  0
ARC
  5
B8AA
  8
0
 10
75.37651186453871
 20
204.1488347985777
 30
0.0
 40
0.1249999999999206
 50
164.9999999999954
 51
345.0000000001045
  0
LINE
  5
B8AB
  8
0
 10
75.49321836187909
 20
204.9210417053506
 30
0.0
 11
74.9484666956036
 21
205.0670074744046
 31
0.0
  0
LINE
  5
B8AC
  8
0
 10
75.1870321440312
 20
204.7442650100541
 30
0.0
 11
74.88376193432799
 21
204.8255260178323
 31
0.0
  0
LINE
  5
B8AD
  8
0
 10
76.24943614452803
 20
205.0112340842153
 30
0.0
 11
75.64321836187895
 21
204.6612340842153
 31
0.0
1001
GENIUS_GENODEF_13
1002
{
1000
HIER
1070
     0
1002
}
1002
{
1000
MANEDIT
1070
     0
1002
}
1002
{
1000
NOSEL
1070
     0
1002
}
1002
{
1000
BEHIND
1070
     0
1002
}
1002
{
1000
OTHER
1070
     0
1002
}
1002
{
1000
REACTOR
1002
}
1001
GENIUS_GENOBJ-N-CEN_13
1002
{
1000
OWNER
1000
GEN
1002
}
1001
GENIUS_GENCEN_19
1002
{
1040
3.0
1002
}
  0
LINE
  5
B8AE
  8
0
 10
76.53244884642044
 20
205.5210417053507
 30
0.0
 11
75.65023302441767
 21
205.7574307224062
 31
0.0
  0
ARC
  5
B8AF
  8
0
 10
74.9161143149658
 20
204.9462667461184
 30
0.0
 40
0.1249999999999206
 50
74.99999999999544
 51
254.9999999999954
  0
LINE
  5
B8B0
  8
0
 10
78.8475123558814
 20
206.5112340842153
 30
0.0
 11
79.38822182693792
 21
206.3663514181059
 31
0.0
  0
ARC
  5
B8B1
  8
0
 10
79.34246865146491
 20
206.1955982426329
 30
0.0
 40
0.1767766952966168
 50
255.0000000000127
 51
75.0000000000127
  0
LINE
  5
B8B2
  8
0
 10
78.26449965398928
 20
206.5210417053507
 30
0.0
 11
78.50088867104495
 21
207.4032575273532
 31
0.0
  0
LINE
  5
B8B3
  8
0
 10
77.3234742502047
 20
204.891137894783
 30
0.0
 11
77.3234742502047
 21
205.2836210593937
 31
0.0
1001
GENIUS_GENODEF_13
1002
{
1000
HIER
1070
     0
1002
}
1002
{
1000
MANEDIT
1070
     0
1002
}
1002
{
1000
NOSEL
1070
     0
1002
}
1002
{
1000
BEHIND
1070
     0
1002
}
1002
{
1000
OTHER
1070
     0
1002
}
1002
{
1000
REACTOR
1002
}
1001
GENIUS_GENOBJ-N-CEN_13
1002
{
1000
OWNER
1000
GEN
1002
}
1001
GENIUS_GENCEN_19
1002
{
1040
3.0
1002
}
  0
LINE
  5
B8B4
  8
0
 10
79.6099163563785
 20
207.2978184006473
 30
0.0
 11
79.69117736415677
 21
207.6010886103503
 31
0.0
  0
ARC
  5
B8B5
  8
0
 10
79.57043663587086
 20
207.6334409909882
 30
0.0
 40
0.1249999999999206
 50
344.9999999999954
 51
165.0000000001046
  0
LINE
  5
B8B6
  8
0
 10
75.33703214403107
 20
207.2978184006473
 30
0.0
 11
75.2557711362528
 21
207.6010886103504
 31
0.0
  0
LINE
  5
B8B7
  8
0
 10
75.49321836187909
 20
206.8612340842153
 30
0.0
 11
74.9484666956036
 21
206.7152683151614
 31
0.0
  0
LINE
  5
B8B8
  8
0
 10
75.1870321440312
 20
207.038010779512
 30
0.0
 11
74.88376193432799
 21
206.9567497717337
 31
0.0
  0
LINE
  5
B8B9
  8
0
 10
79.30373013853063
 20
204.6612340842154
 30
0.0
 11
78.69751235588154
 21
205.0112340842154
 31
0.0
1001
GENIUS_GENODEF_13
1002
{
1000
HIER
1070
     0
1002
}
1002
{
1000
MANEDIT
1070
     0
1002
}
1002
{
1000
NOSEL
1070
     0
1002
}
1002
{
1000
BEHIND
1070
     0
1002
}
1002
{
1000
OTHER
1070
     0
1002
}
1002
{
1000
REACTOR
1002
}
1001
GENIUS_GENOBJ-N-CEN_13
1002
{
1000
OWNER
1000
GEN
1002
}
1001
GENIUS_GENCEN_19
1002
{
1040
3.0
1002
}
  0
LINE
  5
B8BA
  8
0
 10
79.45373013853049
 20
204.9210417053507
 30
0.0
 11
78.8475123558814
 21
205.2710417053508
 31
0.0
1001
GENIUS_GENODEF_13
1002
{
1000
HIER
1070
     0
1002
}
1002
{
1000
MANEDIT
1070
     0
1002
}
1002
{
1000
NOSEL
1070
     0
1002
}
1002
{
1000
BEHIND
1070
     0
1002
}
1002
{
1000
OTHER
1070
     0
1002
}
1002
{
1000
REACTOR
1002
}
1001
GENIUS_GENOBJ-N-CEN_13
1002
{
1000
OWNER
1000
GEN
1002
}
1001
GENIUS_GENCEN_19
1002
{
1040
3.0
1002
}
  0
ARC
  5
B8BB
  8
0
 10
75.37651186453871
 20
207.6334409909882
 30
0.0
 40
0.1249999999999206
 50
14.99999999995087
 51
194.9999999999509
  0
ARC
  5
B8BC
  8
0
 10
74.9161143149658
 20
206.8360090434476
 30
0.0
 40
0.1249999999999206
 50
105.0000000000046
 51
285.0000000000046
  0
LINE
  5
B8BD
  8
0
 10
78.26449965398928
 20
205.2612340842154
 30
0.0
 11
77.92459926287864
 21
205.4574756665208
 31
0.0
1001
GENIUS_GENODEF_13
1002
{
1000
HIER
1070
     0
1002
}
1002
{
1000
MANEDIT
1070
     0
1002
}
1002
{
1000
NOSEL
1070
     0
1002
}
1002
{
1000
BEHIND
1070
     0
1002
}
1002
{
1000
OTHER
1070
     0
1002
}
1002
{
1000
REACTOR
1002
}
1001
GENIUS_GENOBJ-N-CEN_13
1002
{
1000
OWNER
1000
GEN
1002
}
1001
GENIUS_GENCEN_19
1002
{
1040
3.0
1002
}
  0
LINE
  5
B8BE
  8
0
 10
75.33703214403107
 20
207.2978184006473
 30
0.0
 11
74.86379549847305
 21
207.5710417053507
 31
0.0
1001
GENIUS_GENODEF_13
1002
{
1000
HIER
1070
     0
1002
}
1002
{
1000
MANEDIT
1070
     0
1002
}
1002
{
1000
NOSEL
1070
     0
1002
}
1002
{
1000
BEHIND
1070
     0
1002
}
1002
{
1000
OTHER
1070
     0
1002
}
1002
{
1000
REACTOR
1002
}
1001
GENIUS_GENOBJ-N-CEN_13
1002
{
1000
OWNER
1000
GEN
1002
}
1001
GENIUS_GENCEN_19
1002
{
1040
3.0
1002
}
  0
LINE
  5
B8BF
  8
0
 10
76.24943614452803
 20
206.7710417053508
 30
0.0
 11
76.10455347841861
 21
207.3117511764072
 31
0.0
  0
LINE
  5
B8C0
  8
0
 10
78.41449965398914
 20
205.5210417053508
 30
0.0
 11
79.2967154759919
 21
205.7574307224062
 31
0.0
  0
ARC
  5
B8C1
  8
0
 10
76.27530665389162
 20
207.3575043518802
 30
0.0
 40
0.1767766952966168
 50
15.00000000002528
 51
194.9999999999861
  0
LINE
  5
B8C2
  8
0
 10
80.08315300193652
 20
204.2112340842154
 30
0.0
 11
79.6099163563785
 21
204.4844573889187
 31
0.0
1001
GENIUS_GENODEF_13
1002
{
1000
HIER
1070
     0
1002
}
1002
{
1000
MANEDIT
1070
     0
1002
}
1002
{
1000
NOSEL
1070
     0
1002
}
1002
{
1000
BEHIND
1070
     0
1002
}
1002
{
1000
OTHER
1070
     0
1002
}
1002
{
1000
REACTOR
1002
}
1001
GENIUS_GENOBJ-N-CEN_13
1002
{
1000
OWNER
1000
GEN
1002
}
1001
GENIUS_GENCEN_19
1002
{
1040
3.0
1002
}
  0
LINE
  5
B8C3
  8
0
 10
76.53244884642044
 20
206.2612340842154
 30
0.0
 11
75.65023302441767
 21
206.0248450671599
 31
0.0
  0
LINE
  5
B8C4
  8
0
 10
78.41449965398914
 20
205.5210417053508
 30
0.0
 11
78.07459926287851
 21
205.7172832876561
 31
0.0
1001
GENIUS_GENODEF_13
1002
{
1000
HIER
1070
     0
1002
}
1002
{
1000
MANEDIT
1070
     0
1002
}
1002
{
1000
NOSEL
1070
     0
1002
}
1002
{
1000
BEHIND
1070
     0
1002
}
1002
{
1000
OTHER
1070
     0
1002
}
1002
{
1000
REACTOR
1002
}
1001
GENIUS_GENOBJ-N-CEN_13
1002
{
1000
OWNER
1000
GEN
1002
}
1001
GENIUS_GENCEN_19
1002
{
1040
3.0
1002
}
  0
LINE
  5
B8C5
  8
0
 10
80.23315300193661
 20
204.4710417053507
 30
0.0
 11
79.75991635637837
 21
204.7442650100541
 31
0.0
1001
GENIUS_GENODEF_13
1002
{
1000
HIER
1070
     0
1002
}
1002
{
1000
MANEDIT
1070
     0
1002
}
1002
{
1000
NOSEL
1070
     0
1002
}
1002
{
1000
BEHIND
1070
     0
1002
}
1002
{
1000
OTHER
1070
     0
1002
}
1002
{
1000
REACTOR
1002
}
1001
GENIUS_GENOBJ-N-CEN_13
1002
{
1000
OWNER
1000
GEN
1002
}
1001
GENIUS_GENCEN_19
1002
{
1040
3.0
1002
}
  0
LINE
  5
B8C6
  8
0
 10
75.64321836187895
 20
207.1210417053507
 30
0.0
 11
75.49725259282508
 21
207.6657933716261
 31
0.0
  0
ARC
  5
B8C7
  8
0
 10
75.60447984894466
 20
206.1955982426329
 30
0.0
 40
0.1767766952966168
 50
104.9999999999873
 51
284.9999999999873
  0
ARC
  5
B8C8
  8
0
 10
74.78879549847301
 20
207.4411378947831
 30
0.0
 40
0.1499999999999773
 50
59.99999999997465
 51
239.9999999999746
  0
LINE
  5
B8C9
  8
0
 10
78.8475123558814
 20
205.2710417053508
 30
0.0
 11
79.38822182693792
 21
205.4159243714601
 31
0.0
  0
LINE
  5
B8CA
  8
0
 10
76.24943614452803
 20
206.7710417053508
 30
0.0
 11
75.64321836187895
 21
207.1210417053507
 31
0.0
1001
GENIUS_GENODEF_13
1002
{
1000
HIER
1070
     0
1002
}
1002
{
1000
MANEDIT
1070
     0
1002
}
1002
{
1000
NOSEL
1070
     0
1002
}
1002
{
1000
BEHIND
1070
     0
1002
}
1002
{
1000
OTHER
1070
     0
1002
}
1002
{
1000
REACTOR
1002
}
1001
GENIUS_GENOBJ-N-CEN_13
1002
{
1000
OWNER
1000
GEN
1002
}
1001
GENIUS_GENCEN_19
1002
{
1040
3.0
1002
}
  0
ARC
  5
B8CB
  8
0
 10
80.15815300193657
 20
204.3411378947831
 30
0.0
 40
0.1499999999999773
 50
239.9999999999746
 51
59.99999999997465
  0
ARC
  5
B8CC
  8
0
 10
79.34246865146491
 20
205.5866775469332
 30
0.0
 40
0.1767766952966168
 50
284.9999999999873
 51
104.9999999999873
  0
LINE
  5
B8CD
  8
0
 10
78.26449965398928
 20
205.2612340842154
 30
0.0
 11
78.50088867104495
 21
204.3790182622128
 31
0.0
  0
LINE
  5
B8CE
  8
0
 10
75.1870321440312
 20
207.038010779512
 30
0.0
 11
74.71379549847296
 21
207.3112340842154
 31
0.0
1001
GENIUS_GENODEF_13
1002
{
1000
HIER
1070
     0
1002
}
1002
{
1000
MANEDIT
1070
     0
1002
}
1002
{
1000
NOSEL
1070
     0
1002
}
1002
{
1000
BEHIND
1070
     0
1002
}
1002
{
1000
OTHER
1070
     0
1002
}
1002
{
1000
REACTOR
1002
}
1001
GENIUS_GENOBJ-N-CEN_13
1002
{
1000
OWNER
1000
GEN
1002
}
1001
GENIUS_GENCEN_19
1002
{
1040
3.0
1002
}
  0
LINE
  5
B8CF
  8
0
 10
78.69751235588154
 20
205.0112340842154
 30
0.0
 11
78.84239502199097
 21
204.4705246131589
 31
0.0
  0
LINE
  5
B8D0
  8
0
 10
76.09943614452817
 20
206.5112340842154
 30
0.0
 11
75.55872667347165
 21
206.366351418106
 31
0.0
  0
LINE
  5
B8D1
  8
0
 10
76.6824488464203
 20
206.5210417053508
 30
0.0
 11
76.44605982936486
 21
207.4032575273533
 31
0.0
  0
ARC
  5
B8D2
  8
0
 10
78.67164184651796
 20
204.4247714376859
 30
0.0
 40
0.1767766952966168
 50
195.0000000000253
 51
14.99999999998613
  0
LINE
  5
B8D3
  8
0
 10
76.09943614452817
 20
206.5112340842154
 30
0.0
 11
75.49321836187909
 21
206.8612340842153
 31
0.0
1001
GENIUS_GENODEF_13
1002
{
1000
HIER
1070
     0
1002
}
1002
{
1000
MANEDIT
1070
     0
1002
}
1002
{
1000
NOSEL
1070
     0
1002
}
1002
{
1000
BEHIND
1070
     0
1002
}
1002
{
1000
OTHER
1070
     0
1002
}
1002
{
1000
REACTOR
1002
}
1001
GENIUS_GENOBJ-N-CEN_13
1002
{
1000
OWNER
1000
GEN
1002
}
1001
GENIUS_GENCEN_19
1002
{
1040
3.0
1002
}
  0
LINE
  5
B8D9
  8
0
 10
76.87234923753107
 20
206.06499250191
 30
0.0
 11
76.53244884642044
 21
206.2612340842154
 31
0.0
1001
GENIUS_GENODEF_13
1002
{
1000
HIER
1070
     0
1002
}
1002
{
1000
MANEDIT
1070
     0
1002
}
1002
{
1000
NOSEL
1070
     0
1002
}
1002
{
1000
BEHIND
1070
     0
1002
}
1002
{
1000
OTHER
1070
     0
1002
}
1002
{
1000
REACTOR
1002
}
1001
GENIUS_GENOBJ-N-CEN_13
1002
{
1000
OWNER
1000
GEN
1002
}
1001
GENIUS_GENCEN_19
1002
{
1040
3.0
1002
}
  0
LINE
  5
B8DA
  8
0
 10
77.02234923753093
 20
205.4574756665207
 30
0.0
 11
76.6824488464203
 21
205.2612340842153
 31
0.0
1001
GENIUS_GENODEF_13
1002
{
1000
HIER
1070
     0
1002
}
1002
{
1000
MANEDIT
1070
     0
1002
}
1002
{
1000
NOSEL
1070
     0
1002
}
1002
{
1000
BEHIND
1070
     0
1002
}
1002
{
1000
OTHER
1070
     0
1002
}
1002
{
1000
REACTOR
1002
}
1001
GENIUS_GENOBJ-N-CEN_13
1002
{
1000
OWNER
1000
GEN
1002
}
1001
GENIUS_GENCEN_19
1002
{
1040
3.0
1002
}
  0
LINE
  5
B8DB
  8
0
 10
77.62347425020488
 20
206.4986547301723
 30
0.0
 11
77.62347425020488
 21
206.891137894783
 31
0.0
1001
GENIUS_GENODEF_13
1002
{
1000
HIER
1070
     0
1002
}
1002
{
1000
MANEDIT
1070
     0
1002
}
1002
{
1000
NOSEL
1070
     0
1002
}
1002
{
1000
BEHIND
1070
     0
1002
}
1002
{
1000
OTHER
1070
     0
1002
}
1002
{
1000
REACTOR
1002
}
1001
GENIUS_GENOBJ-N-CEN_13
1002
{
1000
OWNER
1000
GEN
1002
}
1001
GENIUS_GENCEN_19
1002
{
1040
3.0
1002
}
  0
LINE
  5
B8DC
  8
0
 10
76.87234923753107
 20
205.717283287656
 30
0.0
 11
76.53244884642044
 21
205.5210417053507
 31
0.0
1001
GENIUS_GENODEF_13
1002
{
1000
HIER
1070
     0
1002
}
1002
{
1000
MANEDIT
1070
     0
1002
}
1002
{
1000
NOSEL
1070
     0
1002
}
1002
{
1000
BEHIND
1070
     0
1002
}
1002
{
1000
OTHER
1070
     0
1002
}
1002
{
1000
REACTOR
1002
}
1001
GENIUS_GENOBJ-N-CEN_13
1002
{
1000
OWNER
1000
GEN
1002
}
1001
GENIUS_GENCEN_19
1002
{
1040
3.0
1002
}
  0
LINE
  5
B8DD
  8
0
 10
77.02234923753116
 20
206.3248001230453
 30
0.0
 11
76.6824488464203
 21
206.5210417053508
 31
0.0
1001
GENIUS_GENODEF_13
1002
{
1000
HIER
1070
     0
1002
}
1002
{
1000
MANEDIT
1070
     0
1002
}
1002
{
1000
NOSEL
1070
     0
1002
}
1002
{
1000
BEHIND
1070
     0
1002
}
1002
{
1000
OTHER
1070
     0
1002
}
1002
{
1000
REACTOR
1002
}
1001
GENIUS_GENOBJ-N-CEN_13
1002
{
1000
OWNER
1000
GEN
1002
}
1001
GENIUS_GENCEN_19
1002
{
1040
3.0
1002
}
  0
LINE
  5
B8DE
  8
0
 10
77.3234742502047
 20
206.4986547301723
 30
0.0
 11
77.3234742502047
 21
206.891137894783
 31
0.0
1001
GENIUS_GENODEF_13
1002
{
1000
HIER
1070
     0
1002
}
1002
{
1000
MANEDIT
1070
     0
1002
}
1002
{
1000
NOSEL
1070
     0
1002
}
1002
{
1000
BEHIND
1070
     0
1002
}
1002
{
1000
OTHER
1070
     0
1002
}
1002
{
1000
REACTOR
1002
}
1001
GENIUS_GENOBJ-N-CEN_13
1002
{
1000
OWNER
1000
GEN
1002
}
1001
GENIUS_GENCEN_19
1002
{
1040
3.0
1002
}
  0
POINT
  5
B8DF
  8
0
 10
77.47347425020479
 20
205.891137894783
 30
0.0
  0
LINE
  5
B8E1
  8
0
 10
75.60089715288336
 20
224.2830204980667
 30
0.0
 11
79.34605134752451
 21
224.2830204980667
 31
0.0
1001
GENIUS_GENREC_14
1002
{
1000
PYDIR
1011
75.60089715288336
1021
223.3227258139853
1031
0.0
1021
223.3227258139853
1031
0.0
1002
}
1002
{
1000
PXDIR
1011
79.34605134752451
1021
224.7035330515962
1031
0.0
1021
224.7035330515962
1031
0.0
1002
}
1002
{
1000
PORI
1011
75.60089715288336
1021
224.7035330515962
1031
0.0
1021
224.7035330515962
1031
0.0
1002
}
1002
{
1000
PINS
1011
77.47347425020394
1021
224.2830204980667
1031
0.0
1021
224.2830204980667
1031
0.0
1002
}
1002
{
1000
PINS2
1011
79.34605134752451
1021
223.3227258139853
1031
0.0
1021
223.3227258139853
1031
0.0
1002
}
1002
{
1000
C
1070
     1
1002
}
1001
GENIUS_GENODEF_13
1002
{
1000
HIER
1070
     0
1002
}
1002
{
1000
MANEDIT
1070
     0
1002
}
1002
{
1000
NOSEL
1070
     0
1002
}
1002
{
1000
BEHIND
1070
     0
1002
}
1002
{
1000
OTHER
1070
     0
1002
}
1002
{
1000
REACTOR
1002
}
1001
GENIUS_GENOBJ-N-REC_13
1002
{
1000
OWNER
1000
GEN
1002
}
  0
LINE
  5
B8E2
  8
0
 10
79.34605134752451
 20
224.2830204980667
 30
0.0
 11
79.34605134752451
 21
223.3227258139853
 31
0.0
1001
GENIUS_GENREC_14
1002
{
1000
PYDIR
1011
75.60089715288336
1021
223.3227258139853
1031
0.0
1021
223.3227258139853
1031
0.0
1002
}
1002
{
1000
PXDIR
1011
79.34605134752451
1021
224.7035330515962
1031
0.0
1021
224.7035330515962
1031
0.0
1002
}
1002
{
1000
PORI
1011
75.60089715288336
1021
224.7035330515962
1031
0.0
1021
224.7035330515962
1031
0.0
1002
}
1002
{
1000
PINS
1011
77.47347425020394
1021
224.2830204980667
1031
0.0
1021
224.2830204980667
1031
0.0
1002
}
1002
{
1000
PINS2
1011
79.34605134752451
1021
223.3227258139853
1031
0.0
1021
223.3227258139853
1031
0.0
1002
}
1002
{
1000
C
1070
     1
1002
}
1001
GENIUS_GENODEF_13
1002
{
1000
HIER
1070
     0
1002
}
1002
{
1000
MANEDIT
1070
     0
1002
}
1002
{
1000
NOSEL
1070
     0
1002
}
1002
{
1000
BEHIND
1070
     0
1002
}
1002
{
1000
OTHER
1070
     0
1002
}
1002
{
1000
REACTOR
1002
}
1001
GENIUS_GENOBJ-N-REC_13
1002
{
1000
OWNER
1000
GEN
1002
}
  0
LINE
  5
B8E3
  8
0
 10
79.34605134752451
 20
223.3227258139853
 30
0.0
 11
75.60089715288336
 21
223.3227258139853
 31
0.0
1001
GENIUS_GENREC_14
1002
{
1000
PYDIR
1011
75.60089715288336
1021
223.3227258139853
1031
0.0
1021
223.3227258139853
1031
0.0
1002
}
1002
{
1000
PXDIR
1011
79.34605134752451
1021
224.7035330515962
1031
0.0
1021
224.7035330515962
1031
0.0
1002
}
1002
{
1000
PORI
1011
75.60089715288336
1021
224.7035330515962
1031
0.0
1021
224.7035330515962
1031
0.0
1002
}
1002
{
1000
PINS
1011
77.47347425020394
1021
224.2830204980667
1031
0.0
1021
224.2830204980667
1031
0.0
1002
}
1002
{
1000
PINS2
1011
79.34605134752451
1021
223.3227258139853
1031
0.0
1021
223.3227258139853
1031
0.0
1002
}
1002
{
1000
C
1070
     1
1002
}
1001
GENIUS_GENODEF_13
1002
{
1000
HIER
1070
     0
1002
}
1002
{
1000
MANEDIT
1070
     0
1002
}
1002
{
1000
NOSEL
1070
     0
1002
}
1002
{
1000
BEHIND
1070
     0
1002
}
1002
{
1000
OTHER
1070
     0
1002
}
1002
{
1000
REACTOR
1002
}
1001
GENIUS_GENOBJ-N-REC_13
1002
{
1000
OWNER
1000
GEN
1002
}
  0
LINE
  5
B8E4
  8
0
 10
75.60089715288336
 20
223.3227258139853
 30
0.0
 11
75.60089715288336
 21
224.2830204980667
 31
0.0
1001
GENIUS_GENREC_14
1002
{
1000
PYDIR
1011
75.60089715288336
1021
223.3227258139853
1031
0.0
1021
223.3227258139853
1031
0.0
1002
}
1002
{
1000
PXDIR
1011
79.34605134752451
1021
224.7035330515962
1031
0.0
1021
224.7035330515962
1031
0.0
1002
}
1002
{
1000
PORI
1011
75.60089715288336
1021
224.7035330515962
1031
0.0
1021
224.7035330515962
1031
0.0
1002
}
1002
{
1000
PINS
1011
77.47347425020394
1021
224.2830204980667
1031
0.0
1021
224.2830204980667
1031
0.0
1002
}
1002
{
1000
PINS2
1011
79.34605134752451
1021
223.3227258139853
1031
0.0
1021
223.3227258139853
1031
0.0
1002
}
1002
{
1000
C
1070
     1
1002
}
1001
GENIUS_GENODEF_13
1002
{
1000
HIER
1070
     0
1002
}
1002
{
1000
MANEDIT
1070
     0
1002
}
1002
{
1000
NOSEL
1070
     0
1002
}
1002
{
1000
BEHIND
1070
     0
1002
}
1002
{
1000
OTHER
1070
     0
1002
}
1002
{
1000
REACTOR
1002
}
1001
GENIUS_GENOBJ-N-REC_13
1002
{
1000
OWNER
1000
GEN
1002
}
  0
LINE
  5
B8E5
  8
0
 10
77.2844877845971
 20
228.3657902411107
 30
0.0
 11
77.66246071581077
 21
228.3657902411107
 31
0.0
1001
GENIUS_GENREC_14
1002
{
1000
PYDIR
1011
77.2844877845971
1021
229.3200886622983
1031
0.0
1021
229.3200886622983
1031
0.0
1002
}
1002
{
1000
PXDIR
1011
77.66246071581077
1021
228.3657902411107
1031
0.0
1021
228.3657902411107
1031
0.0
1002
}
1002
{
1000
PORI
1011
77.2844877845971
1021
228.3657902411107
1031
0.0
1021
228.3657902411107
1031
0.0
1002
}
1002
{
1000
PINS
1011
77.47347425020394
1021
228.8429394517045
1031
0.0
1021
228.8429394517045
1031
0.0
1002
}
1002
{
1000
PINS2
1011
77.66246071581077
1021
229.3200886622983
1031
0.0
1021
229.3200886622983
1031
0.0
1002
}
1002
{
1000
C
1070
     1
1002
}
1001
GENIUS_GENODEF_13
1002
{
1000
HIER
1070
     0
1002
}
1002
{
1000
MANEDIT
1070
     0
1002
}
1002
{
1000
NOSEL
1070
     0
1002
}
1002
{
1000
BEHIND
1070
     0
1002
}
1002
{
1000
OTHER
1070
     0
1002
}
1002
{
1000
REACTOR
1002
}
1001
GENIUS_GENOBJ-N-REC_13
1002
{
1000
OWNER
1000
GEN
1002
}
  0
LINE
  5
B8E6
  8
0
 10
77.66246071581077
 20
228.3657902411107
 30
0.0
 11
77.66246071581077
 21
229.3200886622983
 31
0.0
1001
GENIUS_GENREC_14
1002
{
1000
PYDIR
1011
77.2844877845971
1021
229.3200886622983
1031
0.0
1021
229.3200886622983
1031
0.0
1002
}
1002
{
1000
PXDIR
1011
77.66246071581077
1021
228.3657902411107
1031
0.0
1021
228.3657902411107
1031
0.0
1002
}
1002
{
1000
PORI
1011
77.2844877845971
1021
228.3657902411107
1031
0.0
1021
228.3657902411107
1031
0.0
1002
}
1002
{
1000
PINS
1011
77.47347425020394
1021
228.8429394517045
1031
0.0
1021
228.8429394517045
1031
0.0
1002
}
1002
{
1000
PINS2
1011
77.66246071581077
1021
229.3200886622983
1031
0.0
1021
229.3200886622983
1031
0.0
1002
}
1002
{
1000
C
1070
     1
1002
}
1001
GENIUS_GENODEF_13
1002
{
1000
HIER
1070
     0
1002
}
1002
{
1000
MANEDIT
1070
     0
1002
}
1002
{
1000
NOSEL
1070
     0
1002
}
1002
{
1000
BEHIND
1070
     0
1002
}
1002
{
1000
OTHER
1070
     0
1002
}
1002
{
1000
REACTOR
1002
}
1001
GENIUS_GENOBJ-N-REC_13
1002
{
1000
OWNER
1000
GEN
1002
}
  0
LINE
  5
B8E7
  8
0
 10
77.66246071581077
 20
229.3200886622983
 30
0.0
 11
77.2844877845971
 21
229.3200886622983
 31
0.0
1001
GENIUS_GENREC_14
1002
{
1000
PYDIR
1011
77.2844877845971
1021
229.3200886622983
1031
0.0
1021
229.3200886622983
1031
0.0
1002
}
1002
{
1000
PXDIR
1011
77.66246071581077
1021
228.3657902411107
1031
0.0
1021
228.3657902411107
1031
0.0
1002
}
1002
{
1000
PORI
1011
77.2844877845971
1021
228.3657902411107
1031
0.0
1021
228.3657902411107
1031
0.0
1002
}
1002
{
1000
PINS
1011
77.47347425020394
1021
228.8429394517045
1031
0.0
1021
228.8429394517045
1031
0.0
1002
}
1002
{
1000
PINS2
1011
77.66246071581077
1021
229.3200886622983
1031
0.0
1021
229.3200886622983
1031
0.0
1002
}
1002
{
1000
C
1070
     1
1002
}
1001
GENIUS_GENODEF_13
1002
{
1000
HIER
1070
     0
1002
}
1002
{
1000
MANEDIT
1070
     0
1002
}
1002
{
1000
NOSEL
1070
     0
1002
}
1002
{
1000
BEHIND
1070
     0
1002
}
1002
{
1000
OTHER
1070
     0
1002
}
1002
{
1000
REACTOR
1002
}
1001
GENIUS_GENOBJ-N-REC_13
1002
{
1000
OWNER
1000
GEN
1002
}
  0
LINE
  5
B8E8
  8
0
 10
77.2844877845971
 20
229.3200886622983
 30
0.0
 11
77.2844877845971
 21
228.3657902411107
 31
0.0
1001
GENIUS_GENREC_14
1002
{
1000
PYDIR
1011
77.2844877845971
1021
229.3200886622983
1031
0.0
1021
229.3200886622983
1031
0.0
1002
}
1002
{
1000
PXDIR
1011
77.66246071581077
1021
228.3657902411107
1031
0.0
1021
228.3657902411107
1031
0.0
1002
}
1002
{
1000
PORI
1011
77.2844877845971
1021
228.3657902411107
1031
0.0
1021
228.3657902411107
1031
0.0
1002
}
1002
{
1000
PINS
1011
77.47347425020394
1021
228.8429394517045
1031
0.0
1021
228.8429394517045
1031
0.0
1002
}
1002
{
1000
PINS2
1011
77.66246071581077
1021
229.3200886622983
1031
0.0
1021
229.3200886622983
1031
0.0
1002
}
1002
{
1000
C
1070
     1
1002
}
1001
GENIUS_GENODEF_13
1002
{
1000
HIER
1070
     0
1002
}
1002
{
1000
MANEDIT
1070
     0
1002
}
1002
{
1000
NOSEL
1070
     0
1002
}
1002
{
1000
BEHIND
1070
     0
1002
}
1002
{
1000
OTHER
1070
     0
1002
}
1002
{
1000
REACTOR
1002
}
1001
GENIUS_GENOBJ-N-REC_13
1002
{
1000
OWNER
1000
GEN
1002
}
  0
LINE
  5
B8E9
  8
0
 10
78.54713334318126
 20
228.1287429250408
 30
0.0
 11
78.87446750355525
 21
227.939756459434
 31
0.0
1001
GENIUS_GENREC_14
1002
{
1000
PYDIR
1011
79.02428255377458
1021
228.9551896005808
1031
0.0
1021
228.9551896005808
1031
0.0
1002
}
1002
{
1000
PXDIR
1011
78.87446750355525
1021
227.939756459434
1031
0.0
1021
227.939756459434
1031
0.0
1002
}
1002
{
1000
PORI
1011
78.54713334318126
1021
228.1287429250408
1031
0.0
1021
228.1287429250408
1031
0.0
1002
}
1002
{
1000
PINS
1011
78.94937502866492
1021
228.4474730300074
1031
0.0
1021
228.4474730300074
1031
0.0
1002
}
1002
{
1000
PINS2
1011
79.35161671414858
1021
228.7662031349739
1031
0.0
1021
228.7662031349739
1031
0.0
1002
}
1002
{
1000
C
1070
     1
1002
}
1001
GENIUS_GENODEF_13
1002
{
1000
HIER
1070
     0
1002
}
1002
{
1000
MANEDIT
1070
     0
1002
}
1002
{
1000
NOSEL
1070
     0
1002
}
1002
{
1000
BEHIND
1070
     0
1002
}
1002
{
1000
OTHER
1070
     0
1002
}
1002
{
1000
REACTOR
1002
}
1001
GENIUS_GENOBJ-N-REC_13
1002
{
1000
OWNER
1000
GEN
1002
}
  0
LINE
  5
B8EA
  8
0
 10
78.87446750355525
 20
227.939756459434
 30
0.0
 11
79.35161671414858
 21
228.7662031349739
 31
0.0
1001
GENIUS_GENREC_14
1002
{
1000
PYDIR
1011
79.02428255377458
1021
228.9551896005808
1031
0.0
1021
228.9551896005808
1031
0.0
1002
}
1002
{
1000
PXDIR
1011
78.87446750355525
1021
227.939756459434
1031
0.0
1021
227.939756459434
1031
0.0
1002
}
1002
{
1000
PORI
1011
78.54713334318126
1021
228.1287429250408
1031
0.0
1021
228.1287429250408
1031
0.0
1002
}
1002
{
1000
PINS
1011
78.94937502866492
1021
228.4474730300074
1031
0.0
1021
228.4474730300074
1031
0.0
1002
}
1002
{
1000
PINS2
1011
79.35161671414858
1021
228.7662031349739
1031
0.0
1021
228.7662031349739
1031
0.0
1002
}
1002
{
1000
C
1070
     1
1002
}
1001
GENIUS_GENODEF_13
1002
{
1000
HIER
1070
     0
1002
}
1002
{
1000
MANEDIT
1070
     0
1002
}
1002
{
1000
NOSEL
1070
     0
1002
}
1002
{
1000
BEHIND
1070
     0
1002
}
1002
{
1000
OTHER
1070
     0
1002
}
1002
{
1000
REACTOR
1002
}
1001
GENIUS_GENOBJ-N-REC_13
1002
{
1000
OWNER
1000
GEN
1002
}
  0
LINE
  5
B8EB
  8
0
 10
79.35161671414858
 20
228.7662031349739
 30
0.0
 11
79.02428255377458
 21
228.9551896005808
 31
0.0
1001
GENIUS_GENREC_14
1002
{
1000
PYDIR
1011
79.02428255377458
1021
228.9551896005808
1031
0.0
1021
228.9551896005808
1031
0.0
1002
}
1002
{
1000
PXDIR
1011
78.87446750355525
1021
227.939756459434
1031
0.0
1021
227.939756459434
1031
0.0
1002
}
1002
{
1000
PORI
1011
78.54713334318126
1021
228.1287429250408
1031
0.0
1021
228.1287429250408
1031
0.0
1002
}
1002
{
1000
PINS
1011
78.94937502866492
1021
228.4474730300074
1031
0.0
1021
228.4474730300074
1031
0.0
1002
}
1002
{
1000
PINS2
1011
79.35161671414858
1021
228.7662031349739
1031
0.0
1021
228.7662031349739
1031
0.0
1002
}
1002
{
1000
C
1070
     1
1002
}
1001
GENIUS_GENODEF_13
1002
{
1000
HIER
1070
     0
1002
}
1002
{
1000
MANEDIT
1070
     0
1002
}
1002
{
1000
NOSEL
1070
     0
1002
}
1002
{
1000
BEHIND
1070
     0
1002
}
1002
{
1000
OTHER
1070
     0
1002
}
1002
{
1000
REACTOR
1002
}
1001
GENIUS_GENOBJ-N-REC_13
1002
{
1000
OWNER
1000
GEN
1002
}
  0
LINE
  5
B8EC
  8
0
 10
79.02428255377458
 20
228.9551896005808
 30
0.0
 11
78.54713334318126
 21
228.1287429250408
 31
0.0
1001
GENIUS_GENREC_14
1002
{
1000
PYDIR
1011
79.02428255377458
1021
228.9551896005808
1031
0.0
1021
228.9551896005808
1031
0.0
1002
}
1002
{
1000
PXDIR
1011
78.87446750355525
1021
227.939756459434
1031
0.0
1021
227.939756459434
1031
0.0
1002
}
1002
{
1000
PORI
1011
78.54713334318126
1021
228.1287429250408
1031
0.0
1021
228.1287429250408
1031
0.0
1002
}
1002
{
1000
PINS
1011
78.94937502866492
1021
228.4474730300074
1031
0.0
1021
228.4474730300074
1031
0.0
1002
}
1002
{
1000
PINS2
1011
79.35161671414858
1021
228.7662031349739
1031
0.0
1021
228.7662031349739
1031
0.0
1002
}
1002
{
1000
C
1070
     1
1002
}
1001
GENIUS_GENODEF_13
1002
{
1000
HIER
1070
     0
1002
}
1002
{
1000
MANEDIT
1070
     0
1002
}
1002
{
1000
NOSEL
1070
     0
1002
}
1002
{
1000
BEHIND
1070
     0
1002
}
1002
{
1000
OTHER
1070
     0
1002
}
1002
{
1000
REACTOR
1002
}
1001
GENIUS_GENOBJ-N-REC_13
1002
{
1000
OWNER
1000
GEN
1002
}
  0
LINE
  5
B8ED
  8
0
 10
79.52209281485534
 20
227.2921311481334
 30
0.0
 11
79.71107928046217
 21
226.9647969877599
 31
0.0
1001
GENIUS_GENREC_14
1002
{
1000
PYDIR
1011
80.3485394903953
1021
227.7692803587272
1031
0.0
1021
227.7692803587272
1031
0.0
1002
}
1002
{
1000
PXDIR
1011
79.71107928046217
1021
226.9647969877599
1031
0.0
1021
226.9647969877599
1031
0.0
1002
}
1002
{
1000
PORI
1011
79.52209281485534
1021
227.2921311481334
1031
0.0
1021
227.2921311481334
1031
0.0
1002
}
1002
{
1000
PINS
1011
80.02980938542873
1021
227.367038673244
1031
0.0
1021
227.367038673244
1031
0.0
1002
}
1002
{
1000
PINS2
1011
80.53752595600213
1021
227.4419461983537
1031
0.0
1021
227.4419461983537
1031
0.0
1002
}
1002
{
1000
C
1070
     1
1002
}
1001
GENIUS_GENODEF_13
1002
{
1000
HIER
1070
     0
1002
}
1002
{
1000
MANEDIT
1070
     0
1002
}
1002
{
1000
NOSEL
1070
     0
1002
}
1002
{
1000
BEHIND
1070
     0
1002
}
1002
{
1000
OTHER
1070
     0
1002
}
1002
{
1000
REACTOR
1002
}
1001
GENIUS_GENOBJ-N-REC_13
1002
{
1000
OWNER
1000
GEN
1002
}
  0
LINE
  5
B8EE
  8
0
 10
79.71107928046217
 20
226.9647969877599
 30
0.0
 11
80.53752595600213
 21
227.4419461983537
 31
0.0
1001
GENIUS_GENREC_14
1002
{
1000
PYDIR
1011
80.3485394903953
1021
227.7692803587272
1031
0.0
1021
227.7692803587272
1031
0.0
1002
}
1002
{
1000
PXDIR
1011
79.71107928046217
1021
226.9647969877599
1031
0.0
1021
226.9647969877599
1031
0.0
1002
}
1002
{
1000
PORI
1011
79.52209281485534
1021
227.2921311481334
1031
0.0
1021
227.2921311481334
1031
0.0
1002
}
1002
{
1000
PINS
1011
80.02980938542873
1021
227.367038673244
1031
0.0
1021
227.367038673244
1031
0.0
1002
}
1002
{
1000
PINS2
1011
80.53752595600213
1021
227.4419461983537
1031
0.0
1021
227.4419461983537
1031
0.0
1002
}
1002
{
1000
C
1070
     1
1002
}
1001
GENIUS_GENODEF_13
1002
{
1000
HIER
1070
     0
1002
}
1002
{
1000
MANEDIT
1070
     0
1002
}
1002
{
1000
NOSEL
1070
     0
1002
}
1002
{
1000
BEHIND
1070
     0
1002
}
1002
{
1000
OTHER
1070
     0
1002
}
1002
{
1000
REACTOR
1002
}
1001
GENIUS_GENOBJ-N-REC_13
1002
{
1000
OWNER
1000
GEN
1002
}
  0
LINE
  5
B8EF
  8
0
 10
80.53752595600213
 20
227.4419461983537
 30
0.0
 11
80.3485394903953
 21
227.7692803587272
 31
0.0
1001
GENIUS_GENREC_14
1002
{
1000
PYDIR
1011
80.3485394903953
1021
227.7692803587272
1031
0.0
1021
227.7692803587272
1031
0.0
1002
}
1002
{
1000
PXDIR
1011
79.71107928046217
1021
226.9647969877599
1031
0.0
1021
226.9647969877599
1031
0.0
1002
}
1002
{
1000
PORI
1011
79.52209281485534
1021
227.2921311481334
1031
0.0
1021
227.2921311481334
1031
0.0
1002
}
1002
{
1000
PINS
1011
80.02980938542873
1021
227.367038673244
1031
0.0
1021
227.367038673244
1031
0.0
1002
}
1002
{
1000
PINS2
1011
80.53752595600213
1021
227.4419461983537
1031
0.0
1021
227.4419461983537
1031
0.0
1002
}
1002
{
1000
C
1070
     1
1002
}
1001
GENIUS_GENODEF_13
1002
{
1000
HIER
1070
     0
1002
}
1002
{
1000
MANEDIT
1070
     0
1002
}
1002
{
1000
NOSEL
1070
     0
1002
}
1002
{
1000
BEHIND
1070
     0
1002
}
1002
{
1000
OTHER
1070
     0
1002
}
1002
{
1000
REACTOR
1002
}
1001
GENIUS_GENOBJ-N-REC_13
1002
{
1000
OWNER
1000
GEN
1002
}
  0
LINE
  5
B8F0
  8
0
 10
80.3485394903953
 20
227.7692803587272
 30
0.0
 11
79.52209281485534
 21
227.2921311481334
 31
0.0
1001
GENIUS_GENREC_14
1002
{
1000
PYDIR
1011
80.3485394903953
1021
227.7692803587272
1031
0.0
1021
227.7692803587272
1031
0.0
1002
}
1002
{
1000
PXDIR
1011
79.71107928046217
1021
226.9647969877599
1031
0.0
1021
226.9647969877599
1031
0.0
1002
}
1002
{
1000
PORI
1011
79.52209281485534
1021
227.2921311481334
1031
0.0
1021
227.2921311481334
1031
0.0
1002
}
1002
{
1000
PINS
1011
80.02980938542873
1021
227.367038673244
1031
0.0
1021
227.367038673244
1031
0.0
1002
}
1002
{
1000
PINS2
1011
80.53752595600213
1021
227.4419461983537
1031
0.0
1021
227.4419461983537
1031
0.0
1002
}
1002
{
1000
C
1070
     1
1002
}
1001
GENIUS_GENODEF_13
1002
{
1000
HIER
1070
     0
1002
}
1002
{
1000
MANEDIT
1070
     0
1002
}
1002
{
1000
NOSEL
1070
     0
1002
}
1002
{
1000
BEHIND
1070
     0
1002
}
1002
{
1000
OTHER
1070
     0
1002
}
1002
{
1000
REACTOR
1002
}
1001
GENIUS_GENOBJ-N-REC_13
1002
{
1000
OWNER
1000
GEN
1002
}
  0
LINE
  5
B8F1
  8
0
 10
76.16522081620064
 20
228.0001881719897
 30
0.0
 11
76.50065617905716
 21
228.174391082631
 31
0.0
1001
GENIUS_GENREC_14
1002
{
1000
PYDIR
1011
75.72539682653837
1021
228.8470885999025
1031
0.0
1021
228.8470885999025
1031
0.0
1002
}
1002
{
1000
PXDIR
1011
76.50065617905716
1021
228.174391082631
1031
0.0
1021
228.174391082631
1031
0.0
1002
}
1002
{
1000
PORI
1011
76.16522081620064
1021
228.0001881719897
1031
0.0
1021
228.0001881719897
1031
0.0
1002
}
1002
{
1000
PINS
1011
76.11302650279708
1021
228.5107398412667
1031
0.0
1021
228.5107398412667
1031
0.0
1002
}
1002
{
1000
PINS2
1011
76.06083218939443
1021
229.0212915105433
1031
0.0
1021
229.0212915105433
1031
0.0
1002
}
1002
{
1000
C
1070
     1
1002
}
1001
GENIUS_GENODEF_13
1002
{
1000
HIER
1070
     0
1002
}
1002
{
1000
MANEDIT
1070
     0
1002
}
1002
{
1000
NOSEL
1070
     0
1002
}
1002
{
1000
BEHIND
1070
     0
1002
}
1002
{
1000
OTHER
1070
     0
1002
}
1002
{
1000
REACTOR
1002
}
1001
GENIUS_GENOBJ-N-REC_13
1002
{
1000
OWNER
1000
GEN
1002
}
  0
LINE
  5
B8F2
  8
0
 10
76.50065617905716
 20
228.174391082631
 30
0.0
 11
76.06083218939443
 21
229.0212915105433
 31
0.0
1001
GENIUS_GENREC_14
1002
{
1000
PYDIR
1011
75.72539682653837
1021
228.8470885999025
1031
0.0
1021
228.8470885999025
1031
0.0
1002
}
1002
{
1000
PXDIR
1011
76.50065617905716
1021
228.174391082631
1031
0.0
1021
228.174391082631
1031
0.0
1002
}
1002
{
1000
PORI
1011
76.16522081620064
1021
228.0001881719897
1031
0.0
1021
228.0001881719897
1031
0.0
1002
}
1002
{
1000
PINS
1011
76.11302650279708
1021
228.5107398412667
1031
0.0
1021
228.5107398412667
1031
0.0
1002
}
1002
{
1000
PINS2
1011
76.06083218939443
1021
229.0212915105433
1031
0.0
1021
229.0212915105433
1031
0.0
1002
}
1002
{
1000
C
1070
     1
1002
}
1001
GENIUS_GENODEF_13
1002
{
1000
HIER
1070
     0
1002
}
1002
{
1000
MANEDIT
1070
     0
1002
}
1002
{
1000
NOSEL
1070
     0
1002
}
1002
{
1000
BEHIND
1070
     0
1002
}
1002
{
1000
OTHER
1070
     0
1002
}
1002
{
1000
REACTOR
1002
}
1001
GENIUS_GENOBJ-N-REC_13
1002
{
1000
OWNER
1000
GEN
1002
}
  0
LINE
  5
B8F3
  8
0
 10
76.06083218939443
 20
229.0212915105433
 30
0.0
 11
75.72539682653837
 21
228.8470885999025
 31
0.0
1001
GENIUS_GENREC_14
1002
{
1000
PYDIR
1011
75.72539682653837
1021
228.8470885999025
1031
0.0
1021
228.8470885999025
1031
0.0
1002
}
1002
{
1000
PXDIR
1011
76.50065617905716
1021
228.174391082631
1031
0.0
1021
228.174391082631
1031
0.0
1002
}
1002
{
1000
PORI
1011
76.16522081620064
1021
228.0001881719897
1031
0.0
1021
228.0001881719897
1031
0.0
1002
}
1002
{
1000
PINS
1011
76.11302650279708
1021
228.5107398412667
1031
0.0
1021
228.5107398412667
1031
0.0
1002
}
1002
{
1000
PINS2
1011
76.06083218939443
1021
229.0212915105433
1031
0.0
1021
229.0212915105433
1031
0.0
1002
}
1002
{
1000
C
1070
     1
1002
}
1001
GENIUS_GENODEF_13
1002
{
1000
HIER
1070
     0
1002
}
1002
{
1000
MANEDIT
1070
     0
1002
}
1002
{
1000
NOSEL
1070
     0
1002
}
1002
{
1000
BEHIND
1070
     0
1002
}
1002
{
1000
OTHER
1070
     0
1002
}
1002
{
1000
REACTOR
1002
}
1001
GENIUS_GENOBJ-N-REC_13
1002
{
1000
OWNER
1000
GEN
1002
}
  0
LINE
  5
B8F4
  8
0
 10
75.72539682653837
 20
228.8470885999025
 30
0.0
 11
76.16522081620064
 21
228.0001881719897
 31
0.0
1001
GENIUS_GENREC_14
1002
{
1000
PYDIR
1011
75.72539682653837
1021
228.8470885999025
1031
0.0
1021
228.8470885999025
1031
0.0
1002
}
1002
{
1000
PXDIR
1011
76.50065617905716
1021
228.174391082631
1031
0.0
1021
228.174391082631
1031
0.0
1002
}
1002
{
1000
PORI
1011
76.16522081620064
1021
228.0001881719897
1031
0.0
1021
228.0001881719897
1031
0.0
1002
}
1002
{
1000
PINS
1011
76.11302650279708
1021
228.5107398412667
1031
0.0
1021
228.5107398412667
1031
0.0
1002
}
1002
{
1000
PINS2
1011
76.06083218939443
1021
229.0212915105433
1031
0.0
1021
229.0212915105433
1031
0.0
1002
}
1002
{
1000
C
1070
     1
1002
}
1001
GENIUS_GENODEF_13
1002
{
1000
HIER
1070
     0
1002
}
1002
{
1000
MANEDIT
1070
     0
1002
}
1002
{
1000
NOSEL
1070
     0
1002
}
1002
{
1000
BEHIND
1070
     0
1002
}
1002
{
1000
OTHER
1070
     0
1002
}
1002
{
1000
REACTOR
1002
}
1001
GENIUS_GENOBJ-N-REC_13
1002
{
1000
OWNER
1000
GEN
1002
}
  0
LINE
  5
B8F5
  8
0
 10
75.25121747799881
 20
226.9962147960694
 30
0.0
 11
75.44479681516964
 21
227.3208539448958
 31
0.0
1001
GENIUS_GENREC_14
1002
{
1000
PYDIR
1011
74.43157511317145
1021
227.484959996006
1031
0.0
1021
227.484959996006
1031
0.0
1002
}
1002
{
1000
PXDIR
1011
75.44479681516964
1021
227.3208539448958
1031
0.0
1021
227.3208539448958
1031
0.0
1002
}
1002
{
1000
PORI
1011
75.25121747799881
1021
226.9962147960694
1031
0.0
1021
226.9962147960694
1031
0.0
1002
}
1002
{
1000
PINS
1011
74.93818596417054
1021
227.4029069704509
1031
0.0
1021
227.4029069704509
1031
0.0
1002
}
1002
{
1000
PINS2
1011
74.62515445034228
1021
227.8095991448324
1031
0.0
1021
227.8095991448324
1031
0.0
1002
}
1002
{
1000
C
1070
     1
1002
}
1001
GENIUS_GENODEF_13
1002
{
1000
HIER
1070
     0
1002
}
1002
{
1000
MANEDIT
1070
     0
1002
}
1002
{
1000
NOSEL
1070
     0
1002
}
1002
{
1000
BEHIND
1070
     0
1002
}
1002
{
1000
OTHER
1070
     0
1002
}
1002
{
1000
REACTOR
1002
}
1001
GENIUS_GENOBJ-N-REC_13
1002
{
1000
OWNER
1000
GEN
1002
}
  0
LINE
  5
B8F6
  8
0
 10
75.44479681516964
 20
227.3208539448958
 30
0.0
 11
74.62515445034228
 21
227.8095991448324
 31
0.0
1001
GENIUS_GENREC_14
1002
{
1000
PYDIR
1011
74.43157511317145
1021
227.484959996006
1031
0.0
1021
227.484959996006
1031
0.0
1002
}
1002
{
1000
PXDIR
1011
75.44479681516964
1021
227.3208539448958
1031
0.0
1021
227.3208539448958
1031
0.0
1002
}
1002
{
1000
PORI
1011
75.25121747799881
1021
226.9962147960694
1031
0.0
1021
226.9962147960694
1031
0.0
1002
}
1002
{
1000
PINS
1011
74.93818596417054
1021
227.4029069704509
1031
0.0
1021
227.4029069704509
1031
0.0
1002
}
1002
{
1000
PINS2
1011
74.62515445034228
1021
227.8095991448324
1031
0.0
1021
227.8095991448324
1031
0.0
1002
}
1002
{
1000
C
1070
     1
1002
}
1001
GENIUS_GENODEF_13
1002
{
1000
HIER
1070
     0
1002
}
1002
{
1000
MANEDIT
1070
     0
1002
}
1002
{
1000
NOSEL
1070
     0
1002
}
1002
{
1000
BEHIND
1070
     0
1002
}
1002
{
1000
OTHER
1070
     0
1002
}
1002
{
1000
REACTOR
1002
}
1001
GENIUS_GENOBJ-N-REC_13
1002
{
1000
OWNER
1000
GEN
1002
}
  0
LINE
  5
B8F7
  8
0
 10
74.62515445034228
 20
227.8095991448324
 30
0.0
 11
74.43157511317145
 21
227.484959996006
 31
0.0
1001
GENIUS_GENREC_14
1002
{
1000
PYDIR
1011
74.43157511317145
1021
227.484959996006
1031
0.0
1021
227.484959996006
1031
0.0
1002
}
1002
{
1000
PXDIR
1011
75.44479681516964
1021
227.3208539448958
1031
0.0
1021
227.3208539448958
1031
0.0
1002
}
1002
{
1000
PORI
1011
75.25121747799881
1021
226.9962147960694
1031
0.0
1021
226.9962147960694
1031
0.0
1002
}
1002
{
1000
PINS
1011
74.93818596417054
1021
227.4029069704509
1031
0.0
1021
227.4029069704509
1031
0.0
1002
}
1002
{
1000
PINS2
1011
74.62515445034228
1021
227.8095991448324
1031
0.0
1021
227.8095991448324
1031
0.0
1002
}
1002
{
1000
C
1070
     1
1002
}
1001
GENIUS_GENODEF_13
1002
{
1000
HIER
1070
     0
1002
}
1002
{
1000
MANEDIT
1070
     0
1002
}
1002
{
1000
NOSEL
1070
     0
1002
}
1002
{
1000
BEHIND
1070
     0
1002
}
1002
{
1000
OTHER
1070
     0
1002
}
1002
{
1000
REACTOR
1002
}
1001
GENIUS_GENOBJ-N-REC_13
1002
{
1000
OWNER
1000
GEN
1002
}
  0
LINE
  5
B8F8
  8
0
 10
74.43157511317145
 20
227.484959996006
 30
0.0
 11
75.25121747799881
 21
226.9962147960694
 31
0.0
1001
GENIUS_GENREC_14
1002
{
1000
PYDIR
1011
74.43157511317145
1021
227.484959996006
1031
0.0
1021
227.484959996006
1031
0.0
1002
}
1002
{
1000
PXDIR
1011
75.44479681516964
1021
227.3208539448958
1031
0.0
1021
227.3208539448958
1031
0.0
1002
}
1002
{
1000
PORI
1011
75.25121747799881
1021
226.9962147960694
1031
0.0
1021
226.9962147960694
1031
0.0
1002
}
1002
{
1000
PINS
1011
74.93818596417054
1021
227.4029069704509
1031
0.0
1021
227.4029069704509
1031
0.0
1002
}
1002
{
1000
PINS2
1011
74.62515445034228
1021
227.8095991448324
1031
0.0
1021
227.8095991448324
1031
0.0
1002
}
1002
{
1000
C
1070
     1
1002
}
1001
GENIUS_GENODEF_13
1002
{
1000
HIER
1070
     0
1002
}
1002
{
1000
MANEDIT
1070
     0
1002
}
1002
{
1000
NOSEL
1070
     0
1002
}
1002
{
1000
BEHIND
1070
     0
1002
}
1002
{
1000
OTHER
1070
     0
1002
}
1002
{
1000
REACTOR
1002
}
1001
GENIUS_GENOBJ-N-REC_13
1002
{
1000
OWNER
1000
GEN
1002
}
  0
LINE
  5
B8F9
  8
0
 10
77.47347425020479
 20
206.2010043435833
 30
0.0
 11
77.20512203376319
 21
206.0460711191832
 31
0.0
  0
LINE
  5
B8FA
  8
0
 10
77.20512203376319
 20
206.0460711191832
 30
0.0
 11
77.20512203376319
 21
205.7362046703828
 31
0.0
  0
LINE
  5
B8FB
  8
0
 10
77.20512203376319
 20
205.7362046703828
 30
0.0
 11
77.47347425020479
 21
205.5812714459827
 31
0.0
  0
LINE
  5
B8FC
  8
0
 10
77.47347425020479
 20
205.5812714459827
 30
0.0
 11
77.74182646664639
 21
205.7362046703828
 31
0.0
  0
LINE
  5
B8FD
  8
0
 10
77.74182646664639
 20
205.7362046703828
 30
0.0
 11
77.74182646664639
 21
206.0460711191832
 31
0.0
  0
LINE
  5
B8FE
  8
0
 10
77.74182646664639
 20
206.0460711191832
 30
0.0
 11
77.47347425020479
 21
206.2010043435833
 31
0.0
  0
LINE
  5
B8FF
  8
0
 10
77.3234742502047
 20
206.4986547301723
 30
0.0
 11
77.02234923753116
 21
206.3248001230453
 31
0.0
  0
LINE
  5
B900
  8
0
 10
77.92459926287864
 20
206.3248001230452
 30
0.0
 11
77.62347425020488
 21
206.4986547301723
 31
0.0
  0
LINE
  5
B901
  8
0
 10
77.02234923753093
 20
205.4574756665207
 30
0.0
 11
77.3234742502047
 21
205.2836210593937
 31
0.0
  0
LINE
  5
B902
  8
0
 10
77.62347425020488
 20
205.2836210593937
 30
0.0
 11
77.92459926287864
 21
205.4574756665208
 31
0.0
  0
LINE
  5
B903
  8
0
 10
78.07459926287851
 20
205.7172832876561
 30
0.0
 11
78.07459926287851
 21
206.0649925019099
 31
0.0
  0
LINE
  5
B904
  8
0
 10
76.87234923753107
 20
206.06499250191
 30
0.0
 11
76.87234923753107
 21
205.717283287656
 31
0.0
  0
VIEWPORT
  5
22
 67
     1
  8
0
 10
5.269134197284911
 20
5.545311567251436
 30
0.0
 40
11.13808705479925
 41
12.32365374410561
 68
     1
 69
     1
1001
GENIUS_GENSCREG_15
1000
PF
1040
1.0
1000
DF
1040
1.0
1000
MIN
1011
-0.2999093301147138
1021
-0.6165153048013714
1031
0.0
1021
-0.6165153048013714
1031
0.0
1000
MAX
1011
10.83817772468454
1021
11.70713843930424
1031
0.0
1021
11.70713843930424
1031
0.0
1000
FLAGS
1070
     4
1001
GENIUS_GENODEF_13
1002
{
1000
HIER
1070
     0
1002
}
1002
{
1000
MANEDIT
1070
     0
1002
}
1002
{
1000
NOSEL
1070
     0
1002
}
1002
{
1000
BEHIND
1070
     0
1002
}
1002
{
1000
OTHER
1070
     0
1002
}
1002
{
1000
REACTOR
1002
}
1001
GENIUS_GENOBJ-N-SDF_13
1002
{
1000
OWNER
1000
GEN
1002
}
1001
ACAD
1000
MVIEW
1002
{
1070
    16
1010
0.0
1020
0.0
1030
0.0
1020
0.0
1030
0.0
1010
0.0
1020
0.0
1030
1.0
1020
0.0
1030
1.0
1040
0.0
1040
12.32365374410561
1040
5.269134197284911
1040
5.545311567251436
1040
50.0
1040
0.0
1040
0.0
1070
     0
1070
   100
1070
     0
1070
     1
1070
     0
1070
     0
1070
     0
1070
     0
1040
0.0
1040
0.0
1040
0.0
1040
1.0
1040
1.0
1040
10.0
1040
10.0
1070
     0
1002
{
1002
}
1002
}
  0
ENDSEC
  0
EOF
