  0
SECTION
  2
HEADER
  9
$ACADVER
  1
AC1009
  9
$DWGCODEPAGE
  3
ansi_932
  9
$INSBASE
 10
0.0
 20
0.0
 30
0.0
  9
$EXTMIN
 10
0.0000064909936555
 20
-0.4999949264979549
 30
0.0
  9
$EXTMAX
 10
235.1103362873292
 20
294.6851362700035
 30
0.0
  9
$LIMMIN
 10
0.0
 20
0.0
  9
$LIMMAX
 10
420.0
 20
420.0
  9
$ORTHOMODE
 70
     0
  9
$REGENMODE
 70
     1
  9
$FILLMODE
 70
     1
  9
$QTEXTMODE
 70
     0
  9
$MIRRTEXT
 70
     0
  9
$DRAGMODE
 70
     2
  9
$LTSCALE
 40
10.0
  9
$OSMODE
 70
   549
  9
$ATTMODE
 70
     1
  9
$TEXTSIZE
 40
1.0
  9
$TRACEWID
 40
1.0
  9
$TEXTSTYLE
  7
STANDARD
  9
$CLAYER
  8
0
  9
$CELTYPE
  6
BYLAYER
  9
$CECOLOR
 62
   256
  9
$DIMSCALE
 40
1.0
  9
$DIMASZ
 40
2.5
  9
$DIMEXO
 40
1.0
  9
$DIMDLI
 40
7.0
  9
$DIMRND
 40
0.0
  9
$DIMDLE
 40
0.0
  9
$DIMEXE
 40
1.0
  9
$DIMTP
 40
0.1
  9
$DIMTM
 40
0.1
  9
$DIMTXT
 40
3.0
  9
$DIMCEN
 40
0.0
  9
$DIMTSZ
 40
0.0
  9
$DIMTOL
 70
     0
  9
$DIMLIM
 70
     0
  9
$DIMTIH
 70
     0
  9
$DIMTOH
 70
     0
  9
$DIMSE1
 70
     0
  9
$DIMSE2
 70
     0
  9
$DIMTAD
 70
     3
  9
$DIMZIN
 70
     8
  9
$DIMBLK
  1
OPEN
  9
$DIMASO
 70
     1
  9
$DIMSHO
 70
     1
  9
$DIMPOST
  1

  9
$DIMAPOST
  1
"
  9
$DIMALT
 70
     0
  9
$DIMALTD
 70
     2
  9
$DIMALTF
 40
0.0393701
  9
$DIMLFAC
 40
1.0
  9
$DIMTOFL
 70
     1
  9
$DIMTVP
 40
0.0
  9
$DIMTIX
 70
     0
  9
$DIMSOXD
 70
     0
  9
$DIMSAH
 70
     0
  9
$DIMBLK1
  1

  9
$DIMBLK2
  1

  9
$DIMSTYLE
  2
AM_JIS
  9
$DIMCLRD
 70
   256
  9
$DIMCLRE
 70
   256
  9
$DIMCLRT
 70
     2
  9
$DIMTFAC
 40
0.71
  9
$DIMGAP
 40
1.0
  9
$LUNITS
 70
     2
  9
$LUPREC
 70
     2
  9
$SKETCHINC
 40
1.0
  9
$FILLETRAD
 40
2.5
  9
$AUNITS
 70
     0
  9
$AUPREC
 70
     0
  9
$MENU
  1
.
  9
$ELEVATION
 40
0.0
  9
$PELEVATION
 40
0.0
  9
$THICKNESS
 40
0.0
  9
$LIMCHECK
 70
     0
  9
$CHAMFERA
 40
2.5
  9
$CHAMFERB
 40
2.5
  9
$SKPOLY
 70
     1
  9
$TDCREATE
 40
2457177.607086632
  9
$TDUPDATE
 40
2460346.637415729
  9
$TDINDWG
 40
0.0479593403
  9
$TDUSRTIMER
 40
0.0479456597
  9
$USRTIMER
 70
     1
  9
$ANGBASE
 50
0.0
  9
$ANGDIR
 70
     0
  9
$PDMODE
 70
     0
  9
$PDSIZE
 40
0.0
  9
$PLINEWID
 40
0.0
  9
$COORDS
 70
     0
  9
$SPLFRAME
 70
     0
  9
$SPLINETYPE
 70
     6
  9
$SPLINESEGS
 70
     8
  9
$ATTDIA
 70
     1
  9
$ATTREQ
 70
     1
  9
$HANDLING
 70
     1
  9
$HANDSEED
  5
A464
  9
$SURFTAB1
 70
     6
  9
$SURFTAB2
 70
     6
  9
$SURFTYPE
 70
     6
  9
$SURFU
 70
     6
  9
$SURFV
 70
     6
  9
$UCSNAME
  2

  9
$UCSORG
 10
0.0
 20
0.0
 30
0.0
  9
$UCSXDIR
 10
1.0
 20
0.0
 30
0.0
  9
$UCSYDIR
 10
0.0
 20
1.0
 30
0.0
  9
$PUCSNAME
  2

  9
$PUCSORG
 10
0.0
 20
0.0
 30
0.0
  9
$PUCSXDIR
 10
1.0
 20
0.0
 30
0.0
  9
$PUCSYDIR
 10
0.0
 20
1.0
 30
0.0
  9
$USERI1
 70
     0
  9
$USERI2
 70
     0
  9
$USERI3
 70
     0
  9
$USERI4
 70
     0
  9
$USERI5
 70
     0
  9
$USERR1
 40
0.0
  9
$USERR2
 40
0.0
  9
$USERR3
 40
0.0
  9
$USERR4
 40
0.0
  9
$USERR5
 40
0.0
  9
$WORLDVIEW
 70
     1
  9
$SHADEDGE
 70
     3
  9
$SHADEDIF
 70
    70
  9
$TILEMODE
 70
     1
  9
$MAXACTVP
 70
    48
  9
$PLIMCHECK
 70
     0
  9
$PEXTMIN
 10
1.000000000000000E+20
 20
1.000000000000000E+20
 30
1.000000000000000E+20
  9
$PEXTMAX
 10
-1.000000000000000E+20
 20
-1.000000000000000E+20
 30
-1.000000000000000E+20
  9
$PLIMMIN
 10
-0.2500002402958907
 20
-0.2499999962453767
  9
$PLIMMAX
 10
10.74999951940822
 20
8.249999763458732
  9
$UNITMODE
 70
     0
  9
$VISRETAIN
 70
     1
  9
$PLINEGEN
 70
     0
  9
$PSLTSCALE
 70
     1
  0
ENDSEC
  0
SECTION
  2
TABLES
  0
TABLE
  2
VPORT
 70
     1
  0
VPORT
  2
*ACTIVE
 70
     0
 10
0.0
 20
0.0
 11
1.0
 21
1.0
 12
209.9999999999999
 22
209.750002536751
 13
0.0
 23
0.0
 14
2.5
 24
2.5
 15
10.0
 25
10.0
 16
0.0
 26
0.0
 36
1.0
 17
0.0
 27
0.0
 37
0.0
 40
423.7628464875182
 41
2.05293551491819
 42
50.0
 43
0.0
 44
0.0
 50
0.0
 51
0.0
 71
     0
 72
   100
 73
     1
 74
     3
 75
     0
 76
     0
 77
     0
 78
     0
  0
ENDTAB
  0
TABLE
  2
LTYPE
 70
    22
  0
LTYPE
  2
CONTINUOUS
 70
     0
  3
Solid line
 72
    65
 73
     0
 40
0.0
  0
LTYPE
  2
HIDDEN
 70
     0
  3
__ __ __ __ __ __ __ __ __ __ __ __ __ __ __ __
 72
    65
 73
     2
 40
0.375
 49
0.25
 49
-0.125
  0
LTYPE
  2
PHANTOM2
 70
     0
  3
___ _ _ ___ _ _ ___ _ _ ___ _ _ ___ _ _ ___ _ _
 72
    65
 73
     6
 40
1.25
 49
0.625
 49
-0.125
 49
0.125
 49
-0.125
 49
0.125
 49
-0.125
  0
LTYPE
  2
CENTER
 70
     0
  3
____ _ ____ _ ____ _ ____ _ ____ _ ____ _ ____ 
 72
    65
 73
     4
 40
2.0
 49
1.25
 49
-0.25
 49
0.25
 49
-0.25
  0
LTYPE
  2
ACJISTGB
 70
     0
  3
__ . . __ . .
 72
    65
 73
     6
 40
9.0
 49
4.0
 49
-1.0
 49
1.0
 49
-1.0
 49
1.0
 49
-1.0
  0
LTYPE
  2
ACJISTGL
 70
     0
  3
_ _ _ _ _
 72
    65
 73
     2
 40
3.0
 49
2.0
 49
-1.0
  0
LTYPE
  2
ACISOWELD
 70
     0
  3
_ _ _ _ _
 72
    65
 73
     2
 40
2.0
 49
2.0
 49
-1.0
  0
LTYPE
  2
ACISOTGB
 70
     0
  3
__ . . __ . .
 72
    65
 73
     6
 40
9.0
 49
4.0
 49
-1.0
 49
1.0
 49
-1.0
 49
1.0
 49
-1.0
  0
LTYPE
  2
ACISOTGL
 70
     0
  3
_ _ _ _ _
 72
    65
 73
     2
 40
3.0
 49
2.0
 49
-1.0
  0
LTYPE
  2
AM_ISO02W050
 70
     0
  3
__ __ __ __ __ __ __ __ __ __ __ __ __ __ __
 72
    65
 73
     2
 40
7.5
 49
6.0
 49
-1.5
  0
LTYPE
  2
AM_ISO08W050
 70
     0
  3
____ . ____ . ____ . ____ . ____ . ____ . ____
 72
    65
 73
     4
 40
18.0
 49
12.0
 49
-1.5
 49
3.0
 49
-1.5
  0
LTYPE
  2
AM_ISO09W050
 70
     0
  3
_____ . . _____ . . _____ . . ____ .. ____
 72
    65
 73
     6
 40
22.5
 49
12.0
 49
-1.5
 49
3.0
 49
-1.5
 49
3.0
 49
-1.5
  0
LTYPE
  2
AM_ISO02W050X2
 70
     0
  3
 _ _ _ _ _ _ _ _ _ _ _ _
 72
    65
 73
     2
 40
3.75
 49
3.0
 49
-0.75
  0
LTYPE
  2
AM_ISO08W050X2
 70
     0
  3
__ . __ . __ . __ . __ . __
 72
    65
 73
     4
 40
9.0
 49
6.0
 49
-0.75
 49
1.5
 49
-0.75
  0
LTYPE
  2
AMZIGZAG
 70
     0
  3
/\/-/\/-/\/-/\/-/\/-/\/
 72
    65
 73
     2
 40
11.0001
 49
0.0001
 49
-11.0
  0
LTYPE
  2
AMCONSTR
 70
     0
  3
_______________________
 72
    65
 73
     2
 40
9999.0
 49
9999.0
 49
0.0
  0
LTYPE
  2
CENTER2
 70
     0
  3
Center (.5x) ___ _ ___ _ ___ _ ___ _ ___ _ ___
 72
    65
 73
     4
 40
1.125
 49
0.75
 49
-0.125
 49
0.125
 49
-0.125
  0
LTYPE
  2
HIDDEN2
 70
     0
  3
Hidden (.5x) _ _ _ _ _ _ _ _ _ _ _ _ _ _ _ _ _
 72
    65
 73
     2
 40
0.1875
 49
0.125
 49
-0.0625
  0
LTYPE
  2
ACJISWELD
 70
     0
  3
_ _ _ _ _
 72
    65
 73
     2
 40
2.0
 49
2.0
 49
-1.0
  0
LTYPE
  2
AMZIGZAG2
 70
     0
  3
/\/-/\/-/\/-/\/-/\/-/\/
 72
    65
 73
     2
 40
0.4401
 49
0.0001
 49
-0.44
  0
LTYPE
  2
ACANSTGB
 70
     0
  3
__ . . __ . .
 72
    65
 73
     6
 40
0.35433070866
 49
0.15748031496
 49
-0.03937007874
 49
0.03937007874
 49
-0.03937007874
 49
0.03937007874
 49
-0.03937007874
  0
LTYPE
  2
ACANSTGL
 70
     0
  3
_ _ _ _ _
 72
    65
 73
     2
 40
0.11811023622
 49
0.07874015748
 49
-0.03937007874
  0
ENDTAB
  0
TABLE
  2
LAYER
 70
     8
  0
LAYER
  2
0
 70
     0
 62
     7
  6
CONTINUOUS
  0
LAYER
  2
3A
 70
     0
 62
     6
  6
HIDDEN2
  0
LAYER
  2
7
 70
     0
 62
     4
  6
CENTER2
  0
LAYER
  2
10
 70
     0
 62
     2
  6
CONTINUOUS
  0
LAYER
  2
DEFPOINTS
 70
     0
 62
     7
  6
CONTINUOUS
  0
LAYER
  2
AM_0
 70
     0
 62
     7
  6
CONTINUOUS
  0
LAYER
  2
D002
 70
     0
 62
   152
  6
CONTINUOUS
  0
ENDTAB
  0
TABLE
  2
STYLE
 70
     8
  0
STYLE
  2
STANDARD
 70
     0
 40
0.0
 41
1.0
 50
0.0
 71
     0
 42
1.0
  3
ISOCP.SHX
  4
EXTFONT.SHX
  0
STYLE
  2
ACJISTS
 70
     0
 40
1.0
 41
1.0
 50
0.0
 71
     0
 42
3.5
  3
isocp.shx
  4
extfont.shx
  0
STYLE
  2
ACJISGDT
 70
     0
 40
0.0
 41
1.0
 50
0.0
 71
     0
 42
3.5
  3
amgdt.shx
  4
extfont.shx
  0
STYLE
  2
ACISOTS
 70
     0
 40
1.0
 41
1.0
 50
0.0
 71
     0
 42
1.0
  3
isocp.shx
  4
extfont.shx
  0
STYLE
  2
ACISOGDT
 70
     0
 40
0.0
 41
1.0
 50
0.0
 71
     0
 42
3.5
  3
amgdt.shx
  4
extfont.shx
  0
STYLE
  2

 70
     1
 40
0.0
 41
1.0
 50
0.0
 71
     0
 42
3.5
  3
ltypeshp.shx
  4

  0
STYLE
  2

 70
     1
 40
0.0
 41
1.0
 50
0.0
 71
     0
 42
4.0
  3
genltshp.shx
  4

  0
STYLE
  2
ACANSGDT
 70
     0
 40
0.0
 41
1.0
 50
0.0
 71
     0
 42
4.0
  3
amgdt.shx
  4

  0
ENDTAB
  0
TABLE
  2
VIEW
 70
     3
  0
VIEW
  2
AMDTVIEW1
 70
     0
 40
329.0721649484536
 10
210.0
 20
164.5360824742268
 41
420.0
 11
0.0
 21
0.0
 31
1.0
 12
0.0
 22
0.0
 32
0.0
 42
50.0
 43
0.0
 44
0.0
 50
0.0
 71
     0
  0
VIEW
  2
AMDTVIEW2
 70
     0
 40
329.0721649484536
 10
210.0
 20
164.5360824742268
 41
420.0
 11
0.0
 21
0.0
 31
1.0
 12
0.0
 22
0.0
 32
0.0
 42
50.0
 43
0.0
 44
0.0
 50
0.0
 71
     0
  0
VIEW
  2
AMDTVIEW3
 70
     0
 40
329.0721649484536
 10
210.0
 20
164.5360824742268
 41
420.0
 11
0.0
 21
0.0
 31
1.0
 12
0.0
 22
0.0
 32
0.0
 42
50.0
 43
0.0
 44
0.0
 50
0.0
 71
     0
  0
ENDTAB
  0
TABLE
  2
UCS
 70
     0
  0
ENDTAB
  0
TABLE
  2
APPID
 70
    65
  0
APPID
  2
ACAD
 70
     0
  0
APPID
  2
AD_DRAW
 70
     0
  0
APPID
  2
DESIGNERASSEMBLIES
 70
     0
  0
APPID
  2
MCAD_NO_VIS
 70
     0
  0
APPID
  2
ASURF_PCURVE_APPNAME
 70
     0
  0
APPID
  2
ACAD_TEMP_GRAPHIC
 70
     0
  0
APPID
  2
ACATTRIBSERVICES
 70
     0
  0
APPID
  2
ACADM_DIM_EDIT
 70
     0
  0
APPID
  2
GENIUS_GENDIM_13
 70
     0
  0
APPID
  2
GENIUS_GENDTOL_13
 70
     0
  0
APPID
  2
GENIUS_GE3DTOL_13
 70
     0
  0
APPID
  2
AMG_3D2D_5_0
 70
     0
  0
APPID
  2
AMDT_DM_ADJ
 70
     0
  0
APPID
  2
ACAD_PSEXT
 70
     0
  0
APPID
  2
ACAD_DSTYLE_DIMTEXT_FILL
 70
     0
  0
APPID
  2
ACAECLAYERSTANDARD
 70
     0
  0
APPID
  2
GENIUS_GENREC_14
 70
     0
  0
APPID
  2
GENIUS_GENODEF_13
 70
     0
  0
APPID
  2
GENIUS_GENOBJ-N-REC_13
 70
     0
  0
APPID
  2
DCO15
 70
     0
  0
APPID
  2
ACAD_DSTYLE_DIMJAG
 70
     0
  0
APPID
  2
ACAD_DSTYLE_DIMTALN
 70
     0
  0
APPID
  2
ACAD_MLEADERVER
 70
     0
  0
APPID
  2
GENIUS_GENSCREG_15
 70
     0
  0
APPID
  2
GENIUS_GENOBJ-N-SDF_13
 70
     0
  0
APPID
  2
ACAD_NAV_VCDISPLAY
 70
     0
  0
APPID
  2
ACAD_EXEMPT_FROM_CAD_STAND
 70
     0
  0
APPID
  2
ACCMTRANSPARENCY
 70
     0
  0
APPID
  2
GENIUS_GENOBJ-N-CEN_13
 70
     0
  0
APPID
  2
GENIUS_GENOBJ-N-FIL_13
 70
     0
  0
APPID
  2
GENIUS_GENCEN_19
 70
     0
  0
APPID
  2
ACAD_DSTYLE_DIMBREAK
 70
     0
  0
APPID
  2
PLOTTRANSPARENCY
 70
     0
  0
APPID
  2
GENIUS_GENOLIS_13
 70
     0
  0
APPID
  2
GENIUS_GENOENT_13
 70
     0
  0
APPID
  2
GENIUS_GENOBJ-N-CRS_13
 70
     0
  0
APPID
  2
GENIUS_GENOREF_13
 70
     0
  0
APPID
  2
HC_SUPERPART
 70
     0
  0
APPID
  2
HC_SP4BLOCK
 70
     0
  0
APPID
  2
HC_XDATA_SPRING
 70
     0
  0
APPID
  2
HCCAD_FRAME
 70
     0
  0
APPID
  2
GENIUS_GENOBJ-N-TIT_13
 70
     0
  0
APPID
  2
GENIUS_GENOBJ-N-ZOO_13
 70
     0
  0
APPID
  2
GENIUS_GENTITLE_13
 70
     0
  0
APPID
  2
GENIUS_GENSYMENT_13
 70
     0
  0
APPID
  2
GENIUS_GENSCSYM_13
 70
     0
  0
APPID
  2
GENIUS_GENOBJ-N-REV_13
 70
     0
  0
APPID
  2
GENIUS_GENOBJ-N-RSSYM_13
 70
     0
  0
APPID
  2
GENIUS_GENREV_15
 70
     0
  0
APPID
  2
HRA
 70
     0
  0
APPID
  2
HTIT
 70
     0
  0
APPID
  2
GENIUS_GENZOO_17
 70
     0
  0
APPID
  2
GENIUS_GENCRS_20
 70
     0
  0
APPID
  2
GENIUS_GENOBJ-N-CRC_13
 70
     0
  0
APPID
  2
GENIUS_GENCRC_14
 70
     0
  0
APPID
  2
GENIUS_GENFIL_13
 70
     0
  0
APPID
  2
GENIUS_GENOBJ-N-CHA_13
 70
     0
  0
APPID
  2
GENIUS_GENHATCH_13
 70
     0
  0
APPID
  2
GENIUS_GENOBJ-N-HTC_13
 70
     0
  0
APPID
  2
GENIUS_GENOBJ-N-DIM_13
 70
     0
  0
APPID
  2
GENIUS_GENOBJ-N-DIMLI_13
 70
     0
  0
APPID
  2
GENIUS_GENOBJ-N-FITL_13
 70
     0
  0
APPID
  2
GENIUS_GENFITL_13
 70
     0
  0
APPID
  2
GENLAYCOLOR
 70
     0
  0
APPID
  2
ACADANNOTATIVE
 70
     0
  0
ENDTAB
  0
TABLE
  2
DIMSTYLE
 70
    23
  0
DIMSTYLE
  2
STANDARD
 70
     0
  3

  4

  5

  6

  7

 40
1.0
 41
2.5
 42
0.625
 43
3.75
 44
1.25
 45
0.0
 46
0.0
 47
0.0
 48
0.0
140
2.5
141
2.5
142
0.0
143
0.0394
144
1.0
145
0.0
146
1.0
147
0.625
 71
     0
 72
     0
 73
     0
 74
     0
 75
     0
 76
     0
 77
     1
 78
     8
170
     0
171
     4
172
     1
173
     0
174
     0
175
     0
176
     0
177
     0
178
     0
  0
DIMSTYLE
  2
AM_JIS
 70
     0
  3

  4
"
  5
OPEN
  6

  7

 40
1.0
 41
2.5
 42
1.0
 43
7.0
 44
1.0
 45
0.0
 46
0.0
 47
0.1
 48
0.1
140
3.0
141
0.0
142
0.0
143
0.0393701
144
1.0
145
0.0
146
0.71
147
1.0
 71
     0
 72
     0
 73
     0
 74
     0
 75
     0
 76
     0
 77
     3
 78
     8
170
     0
171
     2
172
     1
173
     0
174
     0
175
     0
176
   256
177
   256
178
     2
  0
DIMSTYLE
  2
AM_JIS$3
 70
     0
  3

  4
"
  5
OPEN
  6

  7

 40
1.0
 41
2.5
 42
1.0
 43
10.0
 44
1.0
 45
0.0
 46
0.0
 47
0.1
 48
0.1
140
3.0
141
0.0
142
0.0
143
0.0393701
144
1.0
145
0.0
146
0.71
147
1.0
 71
     0
 72
     0
 73
     0
 74
     0
 75
     0
 76
     0
 77
     3
 78
     8
170
     0
171
     2
172
     1
173
     0
174
     0
175
     0
176
   256
177
   256
178
     2
  0
DIMSTYLE
  2
AM_JIS$4
 70
     0
  3

  4
"
  5

  6
OPEN30
  7
OPEN
 40
1.0
 41
2.5
 42
1.0
 43
10.0
 44
1.0
 45
0.0
 46
0.0
 47
0.1
 48
0.1
140
3.0
141
0.0
142
0.0
143
0.0393701
144
1.0
145
0.0
146
0.71
147
1.0
 71
     0
 72
     0
 73
     0
 74
     0
 75
     0
 76
     0
 77
     3
 78
     8
170
     0
171
     2
172
     1
173
     1
174
     0
175
     0
176
   256
177
   256
178
     2
  0
DIMSTYLE
  2
AM_JIS$6
 70
     0
  3

  4
"
  5
OPEN30
  6
OPEN30
  7
OPEN30
 40
1.0
 41
2.5
 42
1.0
 43
10.0
 44
1.0
 45
0.0
 46
0.0
 47
0.1
 48
0.1
140
3.5
141
0.0
142
0.0
143
0.0393701
144
1.0
145
0.0
146
0.71
147
1.5
 71
     0
 72
     0
 73
     0
 74
     0
 75
     0
 76
     0
 77
     0
 78
     8
170
     0
171
     2
172
     1
173
     0
174
     0
175
     0
176
   256
177
   256
178
     2
  0
DIMSTYLE
  2
AM_JIS$7
 70
     0
  3

  4
"
  5
OPEN30
  6

  7

 40
1.0
 41
2.5
 42
1.0
 43
10.0
 44
1.0
 45
0.0
 46
0.0
 47
0.1
 48
0.1
140
3.0
141
0.0
142
0.0
143
0.0393701
144
1.0
145
0.0
146
0.71
147
1.0
 71
     0
 72
     0
 73
     0
 74
     0
 75
     0
 76
     0
 77
     3
 78
     8
170
     0
171
     2
172
     1
173
     0
174
     0
175
     0
176
   256
177
   256
178
     2
  0
DIMSTYLE
  2
AM_JIS$SF
 70
     0
  3

  4
"
  5
OPEN
  6

  7

 40
1.0
 41
2.5
 42
1.0
 43
7.0
 44
1.0
 45
0.0
 46
0.0
 47
0.1
 48
0.1
140
3.5
141
0.0
142
0.0
143
0.0393701
144
1.0
145
0.0
146
0.71
147
1.5
 71
     0
 72
     0
 73
     0
 74
     0
 75
     1
 76
     1
 77
     3
 78
     8
170
     0
171
     2
172
     1
173
     0
174
     0
175
     0
176
   256
177
   256
178
     2
  0
DIMSTYLE
  2
AM_JIS$SH
 70
     0
  3

  4
"
  5

  6
GENAXEH
  7
OPEN
 40
1.0
 41
2.5
 42
1.0
 43
7.0
 44
1.0
 45
0.0
 46
0.0
 47
0.1
 48
0.1
140
3.5
141
0.0
142
0.0
143
0.0393701
144
2.0
145
0.0
146
0.71
147
1.5
 71
     0
 72
     0
 73
     0
 74
     0
 75
     1
 76
     1
 77
     3
 78
     8
170
     0
171
     2
172
     1
173
     1
174
     0
175
     0
176
   256
177
   256
178
     2
  0
DIMSTYLE
  2
AM_ISO
 70
     0
  3

  4
"
  5

  6

  7

 40
1.0
 41
2.5
 42
1.0
 43
10.0
 44
1.0
 45
0.0
 46
0.0
 47
0.1
 48
0.1
140
3.5
141
0.0
142
0.0
143
0.0393701
144
1.0
145
0.0
146
0.71
147
1.5
 71
     0
 72
     0
 73
     0
 74
     0
 75
     0
 76
     0
 77
     1
 78
     8
170
     0
171
     2
172
     1
173
     0
174
     0
175
     0
176
   256
177
   256
178
     2
  0
DIMSTYLE
  2
AM_ISO$3
 70
     0
  3

  4
"
  5

  6

  7

 40
1.0
 41
2.5
 42
1.0
 43
10.0
 44
1.0
 45
0.0
 46
0.0
 47
0.1
 48
0.1
140
3.5
141
0.0
142
0.0
143
0.0393701
144
1.0
145
0.0
146
0.71
147
1.5
 71
     0
 72
     0
 73
     0
 74
     1
 75
     0
 76
     0
 77
     1
 78
     8
170
     0
171
     2
172
     0
173
     0
174
     0
175
     0
176
   256
177
   256
178
     2
  0
DIMSTYLE
  2
AM_ISO$4
 70
     0
  3

  4
"
  5

  6

  7

 40
1.0
 41
2.5
 42
1.0
 43
10.0
 44
1.0
 45
0.0
 46
0.0
 47
0.1
 48
0.1
140
3.5
141
0.0
142
0.0
143
0.0393701
144
1.0
145
0.0
146
0.71
147
1.5
 71
     0
 72
     0
 73
     0
 74
     1
 75
     0
 76
     0
 77
     1
 78
     8
170
     0
171
     2
172
     0
173
     0
174
     0
175
     0
176
   256
177
   256
178
     2
  0
DIMSTYLE
  2
AM_ISO$6
 70
     0
  3

  4
"
  5

  6

  7

 40
1.0
 41
2.5
 42
1.0
 43
10.0
 44
1.0
 45
0.0
 46
0.0
 47
0.1
 48
0.1
140
3.5
141
0.0
142
0.0
143
0.0393701
144
1.0
145
0.0
146
0.71
147
1.5
 71
     0
 72
     0
 73
     0
 74
     0
 75
     0
 76
     0
 77
     0
 78
     8
170
     0
171
     2
172
     1
173
     0
174
     0
175
     0
176
   256
177
   256
178
     2
  0
DIMSTYLE
  2
AM_ISO$7
 70
     0
  3

  4
"
  5

  6

  7

 40
1.0
 41
2.5
 42
1.0
 43
10.0
 44
1.0
 45
0.0
 46
0.0
 47
0.1
 48
0.1
140
5.0
141
0.0
142
0.0
143
0.0393701
144
1.0
145
0.0
146
0.71
147
1.5
 71
     0
 72
     0
 73
     0
 74
     0
 75
     0
 76
     0
 77
     1
 78
     8
170
     0
171
     2
172
     1
173
     0
174
     0
175
     0
176
   256
177
   256
178
     2
  0
DIMSTYLE
  2
AM_ISO$SF
 70
     0
  3

  4
"
  5

  6

  7

 40
1.0
 41
2.5
 42
1.0
 43
10.0
 44
1.0
 45
0.0
 46
0.0
 47
0.1
 48
0.1
140
3.5
141
0.0
142
0.0
143
0.0393701
144
1.0
145
0.0
146
0.71
147
1.5
 71
     0
 72
     0
 73
     0
 74
     0
 75
     1
 76
     1
 77
     1
 78
     8
170
     0
171
     2
172
     1
173
     0
174
     0
175
     0
176
   256
177
   256
178
     2
  0
DIMSTYLE
  2
AM_ISO$SH
 70
     0
  3

  4
"
  5

  6
GENAXEH
  7

 40
1.0
 41
2.5
 42
1.0
 43
10.0
 44
1.0
 45
0.0
 46
0.0
 47
0.1
 48
0.1
140
3.5
141
0.0
142
0.0
143
0.0393701
144
2.0
145
0.0
146
0.71
147
1.5
 71
     0
 72
     0
 73
     0
 74
     0
 75
     1
 76
     1
 77
     1
 78
     8
170
     0
171
     2
172
     1
173
     1
174
     0
175
     0
176
   256
177
   256
178
     2
  0
DIMSTYLE
  2
AM_JIS$2
 70
     0
  3

  4
"
  5
OPEN
  6

  7

 40
1.0
 41
2.5
 42
1.0
 43
7.0
 44
1.0
 45
0.0
 46
0.0
 47
0.1
 48
0.1
140
3.0
141
0.0
142
0.0
143
0.0393701
144
1.0
145
0.0
146
0.71
147
1.0
 71
     0
 72
     0
 73
     0
 74
     0
 75
     0
 76
     0
 77
     3
 78
     8
170
     0
171
     2
172
     1
173
     0
174
     0
175
     0
176
   256
177
   256
178
     2
  0
DIMSTYLE
  2
AM_JIS$0
 70
     0
  3

  4
"
  5
OPEN
  6

  7

 40
1.0
 41
2.5
 42
1.0
 43
7.0
 44
1.0
 45
0.0
 46
0.0
 47
0.1
 48
0.1
140
3.0
141
0.0
142
0.0
143
0.0393701
144
1.0
145
0.0
146
0.71
147
1.0
 71
     0
 72
     0
 73
     0
 74
     0
 75
     0
 76
     0
 77
     3
 78
     8
170
     0
171
     2
172
     1
173
     0
174
     0
175
     0
176
   256
177
   256
178
     2
  0
DIMSTYLE
  2
AM_ANSI
 70
     0
  3

  4
mm
  5

  6

  7

 40
1.0
 41
0.12
 42
0.05
 43
0.5
 44
0.1
 45
0.0
 46
0.0
 47
0.1
 48
0.1
140
0.12
141
0.0
142
0.0
143
25.4
144
1.0
145
0.0
146
0.71
147
0.06
 71
     0
 72
     0
 73
     1
 74
     1
 75
     0
 76
     0
 77
     0
 78
     7
170
     0
171
     2
172
     0
173
     0
174
     0
175
     0
176
   256
177
   256
178
     2
  0
DIMSTYLE
  2
AM_ANSI$3
 70
     0
  3

  4
mm
  5

  6

  7

 40
1.0
 41
0.12
 42
0.05
 43
0.5
 44
0.1
 45
0.0
 46
0.0
 47
0.1
 48
0.1
140
0.12
141
0.0
142
0.0
143
25.4
144
1.0
145
0.0
146
0.71
147
0.06
 71
     0
 72
     0
 73
     1
 74
     1
 75
     0
 76
     0
 77
     0
 78
     7
170
     0
171
     2
172
     0
173
     0
174
     0
175
     0
176
   256
177
   256
178
     2
  0
DIMSTYLE
  2
AM_ANSI$4
 70
     0
  3

  4
mm
  5

  6

  7

 40
1.0
 41
0.12
 42
0.05
 43
0.5
 44
0.1
 45
0.0
 46
0.0
 47
0.1
 48
0.1
140
0.12
141
0.0
142
0.0
143
25.4
144
1.0
145
0.0
146
0.71
147
0.06
 71
     0
 72
     0
 73
     1
 74
     1
 75
     0
 76
     0
 77
     0
 78
     7
170
     0
171
     2
172
     0
173
     0
174
     0
175
     0
176
   256
177
   256
178
     2
  0
DIMSTYLE
  2
AM_ANSI$7
 70
     0
  3

  4
mm
  5

  6

  7

 40
1.0
 41
0.12
 42
0.05
 43
0.5
 44
0.1
 45
0.0
 46
0.0
 47
0.1
 48
0.1
140
0.12
141
0.0
142
0.0
143
25.4
144
1.0
145
0.0
146
0.71
147
0.06
 71
     0
 72
     0
 73
     1
 74
     1
 75
     0
 76
     0
 77
     0
 78
     7
170
     0
171
     2
172
     0
173
     0
174
     0
175
     0
176
   256
177
   256
178
     2
  0
DIMSTYLE
  2
AM_ANSI$SF
 70
     0
  3

  4
mm
  5

  6

  7

 40
1.0
 41
0.12
 42
0.05
 43
0.5
 44
0.1
 45
0.0
 46
0.0
 47
0.1
 48
0.1
140
0.12
141
0.0
142
0.0
143
25.4
144
1.0
145
0.0
146
0.71
147
0.06
 71
     0
 72
     0
 73
     1
 74
     1
 75
     1
 76
     1
 77
     0
 78
     7
170
     0
171
     2
172
     0
173
     0
174
     0
175
     0
176
   256
177
   256
178
     2
  0
DIMSTYLE
  2
AM_ANSI$SH
 70
     0
  3

  4
mm
  5

  6
GENAXEH
  7

 40
1.0
 41
0.12
 42
0.05
 43
0.5
 44
0.1
 45
0.0
 46
0.0
 47
0.1
 48
0.1
140
0.12
141
0.0
142
0.0
143
25.4
144
1.0
145
0.0
146
0.71
147
0.06
 71
     0
 72
     0
 73
     1
 74
     1
 75
     1
 76
     1
 77
     0
 78
     7
170
     0
171
     2
172
     0
173
     1
174
     0
175
     0
176
   256
177
   256
178
     2
  0
ENDTAB
  0
ENDSEC
  0
SECTION
  2
BLOCKS
  0
BLOCK
  8
0
  2
$MODEL_SPACE
 70
     0
 10
0.0
 20
0.0
 30
0.0
  3
$MODEL_SPACE
  1

  0
ENDBLK
  5
1C
  8
0
  0
BLOCK
 67
     1
  8
0
  2
$PAPER_SPACE
 70
     0
 10
0.0
 20
0.0
 30
0.0
  3
$PAPER_SPACE
  1

  0
ENDBLK
  5
19
 67
     1
  8
0
  0
BLOCK
  8
0
  2
_OPEN30
 70
     0
 10
0.0
 20
0.0
 30
0.0
  3
_OPEN30
  1

  0
LINE
  5
2EF
  8
0
  6
BYBLOCK
 62
     0
 10
-1.0
 20
0.26794919
 30
0.0
 11
0.0
 21
0.0
 31
0.0
  0
LINE
  5
2F0
  8
0
  6
BYBLOCK
 62
     0
 10
0.0
 20
0.0
 30
0.0
 11
-1.0
 21
-0.26794919
 31
0.0
  0
LINE
  5
2F1
  8
0
  6
BYBLOCK
 62
     0
 10
0.0
 20
0.0
 30
0.0
 11
-1.0
 21
0.0
 31
0.0
  0
ENDBLK
  5
2F3
  8
0
  0
BLOCK
  8
0
  2
GENAXEH
 70
     0
 10
0.0
 20
0.0
 30
0.0
  3
GENAXEH
  1

  0
LINE
  5
2F5
  8
0
 10
-1.0
 20
0.0
 30
0.0
 11
1.0
 21
0.0
 31
0.0
  0
ENDBLK
  5
2F7
  8
0
  0
BLOCK
  8
0
  2
_OPEN
 70
     0
 10
0.0
 20
0.0
 30
0.0
  3
_OPEN
  1

  0
LINE
  5
597
  8
0
  6
BYBLOCK
 62
     0
 10
-1.0
 20
0.1666666666666667
 30
0.0
 11
0.0
 21
0.0
 31
0.0
  0
LINE
  5
598
  8
0
  6
BYBLOCK
 62
     0
 10
-1.0
 20
-0.1666666666666667
 30
0.0
 11
0.0
 21
0.0
 31
0.0
  0
LINE
  5
599
  8
0
  6
BYBLOCK
 62
     0
 10
0.0
 20
0.0
 30
0.0
 11
-1.0
 21
0.0
 31
0.0
  0
ENDBLK
  5
59B
  8
0
  0
BLOCK
  8
0
  2
_TAGCIRCLE
 70
     2
 10
0.0
 20
0.0
 30
0.0
  3
_TAGCIRCLE
  1

  0
CIRCLE
  5
1151
  8
0
  6
BYBLOCK
 62
     0
 10
0.0
 20
0.0
 30
0.0
 40
4.0
  0
ATTDEF
  5
1152
  8
0
 62
     0
 10
-7.1
 20
-1.5
 30
0.0
 40
3.0
  1
タグ番号
 72
     1
 11
0.0
 21
-1.5
 31
0.0
  3
タグ番号を入力
  2
タグ番号
 70
     0
  0
ENDBLK
  5
1154
  8
0
  0
BLOCK
  8
0
  2
_ACMFILLED15
 70
     0
 10
0.0
 20
0.0
 30
0.0
  3
_ACMFILLED15
  1
Acad:XRef
  0
TRACE
  5
749B
  8
AM_0
 62
     0
 10
-1.0
 20
0.1316524975873958
 30
0.0
 11
-1.0
 21
-0.1316524975873958
 31
0.0
 12
0.0
 22
0.0
 32
0.0
 13
0.0
 23
0.0
 33
0.0
  0
ENDBLK
  5
7499
  8
0
  0
BLOCK
  8
0
  2
_ACMOPEN30
 70
     0
 10
0.0
 20
0.0
 30
0.0
  3
_ACMOPEN30
  1
Acad:XRef
  0
LINE
  5
74A5
  8
AM_0
 62
     0
 10
-1.0
 20
0.0
 30
0.0
 11
0.0
 21
0.0
 31
0.0
  0
LINE
  5
74A6
  8
AM_0
 62
     0
 10
-1.0
 20
-0.2679491924311227
 30
0.0
 11
0.0
 21
0.0
 31
0.0
  0
LINE
  5
74A7
  8
AM_0
 62
     0
 10
-1.0
 20
0.2679491924311227
 30
0.0
 11
0.0
 21
0.0
 31
0.0
  0
ENDBLK
  5
74A4
  8
0
  0
BLOCK
  8
0
  2
_ACMFILLEDHALF
 70
     0
 10
0.0
 20
0.0
 30
0.0
  3
_ACMFILLEDHALF
  1

  0
TRACE
  5
74B0
  8
0
 62
     0
 10
-0.8
 20
0.0
 30
0.0
 11
-1.0
 21
0.166666666
 31
0.0
 12
0.0
 22
0.0
 32
0.0
 13
0.0
 23
0.0
 33
0.0
  0
LINE
  5
74B1
  8
0
 62
     0
 10
-1.0
 20
0.0
 30
0.0
 11
-0.8
 21
0.0
 31
0.0
  0
ENDBLK
  5
74B2
  8
0
  0
BLOCK
  8
0
  2
_ACMOPEN15
 70
     0
 10
0.0
 20
0.0
 30
0.0
  3
_ACMOPEN15
  1
Acad:XRef
  0
LINE
  5
74BF
  8
AM_0
 62
     0
 10
-1.0
 20
0.0
 30
0.0
 11
0.0
 21
0.0
 31
0.0
  0
LINE
  5
74C0
  8
AM_0
 62
     0
 10
-1.0
 20
-0.1316524975873958
 30
0.0
 11
0.0
 21
0.0
 31
0.0
  0
LINE
  5
74C1
  8
AM_0
 62
     0
 10
-1.0
 20
0.1316524975873958
 30
0.0
 11
0.0
 21
0.0
 31
0.0
  0
ENDBLK
  5
74BE
  8
0
  0
BLOCK
  8
0
  2
*X14
 70
     1
 10
0.0
 20
0.0
 30
0.0
  3
*X14
  1
Acad:XRef
  0
TEXT
  5
A460
  8
0
 10
69.35713162404996
 20
206.6384461030275
 30
0.0
 40
1.9
  1
凍結
  0
TEXT
  5
A461
  8
0
 10
69.34303143852121
 20
203.314327364623
 30
0.0
 40
1.9
  1
予防
  0
ENDBLK
  5
A463
  8
0
  0
ENDSEC
  0
SECTION
  2
ENTITIES
  0
TEXT
  5
1AB1
  8
10
 10
-1.499993509006345
 20
0.0000050735020523
 30
0.0
 40
10.0
  1
2024.02.01 ER2000K 1台単独(子機対応)
 11
-1.499993509006345
 21
0.0000050735020523
 31
0.0
 73
     1
  0
LINE
  5
1E7B
  8
0
 10
25.52186071078961
 20
289.8911362700035
 30
0.0
 11
125.5218607107896
 21
289.8911362700032
 31
0.0
  0
LINE
  5
1E7C
  8
0
 10
25.52186071078961
 20
169.8911362700033
 30
0.0
 11
125.5218607107896
 21
169.8911362700033
 31
0.0
  0
ARC
  5
1E7E
  8
0
 10
25.52186071078961
 20
281.8911362700035
 30
0.0
 40
8.0
 50
90.0
 51
180.0
  0
LINE
  5
1E7F
  8
0
 10
21.27922002367029
 20
286.1337769571226
 30
0.0
 11
29.52186071078961
 21
277.8911362700035
 31
0.0
  0
LINE
  5
1E80
  8
0
 10
31.52186071078961
 20
181.8911362700033
 30
0.0
 11
119.5218607107896
 21
181.8911362700035
 31
0.0
  0
LINE
  5
1E81
  8
0
 10
31.52186071078961
 20
277.8911362700035
 30
0.0
 11
119.5218607107896
 21
277.8911362700034
 31
0.0
  0
LINE
  5
1E84
  8
0
 10
29.52186071078961
 20
275.8911362700035
 30
0.0
 11
29.52186071078961
 21
183.8911362700033
 31
0.0
  0
LINE
  5
1E86
  8
0
 10
17.52186071078961
 20
281.8911362700035
 30
0.0
 11
17.52186071078961
 21
177.8911362700033
 31
0.0
  0
LINE
  5
1E87
  8
0
 10
21.27922002367052
 20
173.648495582884
 30
0.0
 11
29.52186071078961
 21
181.8911362700033
 31
0.0
  0
ARC
  5
1E88
  8
0
 10
25.52186071078961
 20
177.8911362700033
 30
0.0
 40
8.0
 50
180.0
 51
270.0
  0
LINE
  5
1E8A
  8
0
 10
189.5661038972002
 20
280.475921694233
 30
0.0
 11
190.8619899514808
 21
287.8252567141703
 31
0.0
  0
LINE
  5
1E8B
  8
0
 10
194.6103364875664
 20
169.8911362700033
 30
0.0
 11
194.6103364875665
 21
289.8911362700032
 31
0.0
  0
ARC
  5
1E8C
  8
0
 10
125.5218607107896
 20
281.8911362700032
 30
0.0
 40
8.0
 50
0.0
 51
90.0
  0
LINE
  5
1E8D
  8
0
 10
129.7645013979089
 20
286.1337769571226
 30
0.0
 11
121.5218607107896
 21
277.8911362700032
 31
0.0
  0
LINE
  5
1E8E
  8
0
 10
189.1103364875665
 20
184.5157961757808
 30
0.0
 11
189.1103364875665
 21
275.2664763642251
 31
0.0
  0
LINE
  5
1E8F
  8
0
 10
121.5218607107896
 20
275.8911362700034
 30
0.0
 11
121.5218607107896
 21
183.8911362700035
 31
0.0
  0
LINE
  5
1E90
  8
0
 10
133.5218607107896
 20
281.8911362700032
 30
0.0
 11
133.5218607107896
 21
177.8911362700033
 31
0.0
  0
LINE
  5
1E91
  8
0
 10
121.5218607107896
 20
181.8911362700034
 30
0.0
 11
129.7645013979089
 21
173.6484955828839
 31
0.0
  0
ARC
  5
1E92
  8
0
 10
125.5218607107896
 20
177.8911362700033
 30
0.0
 40
8.0
 50
270.0
 51
0.0
  0
LINE
  5
1E93
  8
0
 10
189.5661038972002
 20
179.306350845773
 30
0.0
 11
190.8619899514808
 21
171.9570158258361
 31
0.0
  0
ARC
  5
1E94
  8
0
 10
193.3240093340114
 20
172.3911362700034
 30
0.0
 40
2.5
 50
190.0000000000002
 51
270.0
  0
LINE
  5
1E95
  8
0
 10
194.6103364875665
 20
169.8911362700034
 30
0.0
 11
193.3240093340114
 21
169.8911362700034
 31
0.0
  0
ARC
  5
1E96
  8
0
 10
219.1103364875666
 20
184.5157961757808
 30
0.0
 40
30.0
 50
180.0
 51
190.0000000000002
  0
ARC
  5
1EA0
  8
0
 10
219.1103364875666
 20
275.2664763642251
 30
0.0
 40
30.0
 50
169.9999999999997
 51
180.0
  0
ARC
  5
1EA8
  8
0
 10
193.3240093340114
 20
287.391136270003
 30
0.0
 40
2.5
 50
90.0
 51
169.9999999999997
  0
LINE
  5
1EA9
  8
0
 10
194.6103364875599
 20
289.8911362700032
 30
0.0
 11
193.3240093340048
 21
289.8911362700032
 31
0.0
  0
ARC
  5
1EAA
  8
0
 10
186.4103366337813
 20
259.6911362700033
 30
0.0
 40
1.0
 50
90.0
 51
180.0
  0
LINE
  5
1EAB
  8
0
 10
186.4103366337813
 20
260.6911362700033
 30
0.0
 11
189.1103366337812
 21
260.6911362700033
 31
0.0
  0
LINE
  5
1EAC
  8
0
 10
186.4103366337813
 20
253.6911362700033
 30
0.0
 11
189.1103366337812
 21
253.6911362700033
 31
0.0
  0
LINE
  5
1EAD
  8
0
 10
185.4103366337813
 20
259.6911362700033
 30
0.0
 11
185.4103366337813
 21
254.6911362700033
 31
0.0
  0
ARC
  5
1EAE
  8
0
 10
186.4103366337813
 20
254.6911362700033
 30
0.0
 40
1.0
 50
180.0
 51
270.0
  0
LINE
  5
1ECD
  8
0
 10
125.5218614558477
 20
144.5475054339941
 30
0.0
 11
25.52185996573161
 21
144.5475054339941
 31
0.0
  0
LINE
  5
1ECE
  8
0
 10
125.5218614558477
 20
140.5475055932502
 30
0.0
 11
25.52185996573161
 21
140.5475055932502
 31
0.0
  0
LINE
  5
1ECF
  8
0
 10
17.52186237971972
 20
140.5475055932502
 30
0.0
 11
17.52186237971972
 21
144.5475054339941
 31
0.0
  0
LINE
  5
1ED0
  8
0
 10
25.52185996573161
 20
144.5475054339941
 30
0.0
 11
17.52186237971972
 21
144.5475054339941
 31
0.0
  0
LINE
  5
1ED1
  8
0
 10
25.52185996573161
 20
140.5475055932502
 30
0.0
 11
17.52186237971972
 21
140.5475055932502
 31
0.0
  0
LINE
  5
1ED2
  8
0
 10
133.5218590418596
 20
140.5475055932502
 30
0.0
 11
133.5218590418596
 21
144.5475054339941
 31
0.0
  0
LINE
  5
1ED3
  8
0
 10
133.5218590418596
 20
144.5475054339941
 30
0.0
 11
125.5218614558477
 21
144.5475054339941
 31
0.0
  0
LINE
  5
1ED4
  8
0
 10
133.5218590418596
 20
140.5475055932502
 30
0.0
 11
125.5218614558477
 21
140.5475055932502
 31
0.0
  0
LINE
  5
1ED5
  8
0
 10
18.62186237375926
 20
144.5475054339941
 30
0.0
 11
18.62186237375926
 21
145.0475054339912
 31
0.0
  0
LINE
  5
1ED6
  8
0
 10
132.4218590478201
 20
144.5475054339941
 30
0.0
 11
132.4218590478201
 21
145.0475054339912
 31
0.0
  0
LINE
  5
1ED7
  8
0
 10
118.5218621711035
 20
138.0475056491296
 30
0.0
 11
32.52185925047587
 21
138.0475056491296
 31
0.0
  0
LINE
  5
1ED8
  8
0
 10
120.521862498929
 20
140.5475055932502
 30
0.0
 11
120.521862498929
 21
138.0475056491296
 31
0.0
  0
LINE
  5
1ED9
  8
0
 10
120.521862498929
 20
138.0475056491296
 30
0.0
 11
118.5218621711035
 21
138.0475056491296
 31
0.0
  0
LINE
  5
1EDA
  8
0
 10
30.52185892265032
 20
138.0475056491296
 30
0.0
 11
30.52185892265032
 21
140.5475055932502
 31
0.0
  0
LINE
  5
1EDB
  8
0
 10
32.52185925047587
 20
138.0475056491296
 30
0.0
 11
30.52185892265032
 21
138.0475056491296
 31
0.0
  0
LINE
  5
1EDC
  8
0
 10
39.02186124723147
 20
150.5475053697328
 30
0.0
 11
112.0218601743479
 21
150.5475053697328
 31
0.0
  0
LINE
  5
1EDD
  8
0
 10
118.5218621711039
 20
118.5475052467982
 30
0.0
 11
50.02186118762728
 21
118.5475052467982
 31
0.0
  0
LINE
  5
1EDE
  8
0
 10
50.02186118762728
 20
118.5475052467982
 30
0.0
 11
40.15028893153902
 21
118.5475052467982
 31
0.0
  0
LINE
  5
1EDF
  8
0
 10
38.73607560198542
 20
119.1332922450702
 30
0.0
 11
33.52186127703425
 21
124.3475047073762
 31
0.0
  0
LINE
  5
1EE0
  8
0
 10
33.52186127703425
 20
124.3475047073762
 30
0.0
 11
33.10764624874827
 21
124.7617197356622
 31
0.0
  0
ARC
  5
1EE1
  8
0
 10
118.5218607107901
 20
120.5475054554145
 30
0.0
 40
2.000000000000028
 50
270.0
 51
0.0
  0
ARC
  5
1EE2
  8
0
 10
40.15028783553606
 20
120.5475054554145
 30
0.0
 40
2.0
 50
224.9999999999943
 51
270.0
  0
LINE
  5
1EE3
  8
0
 10
118.5218621711039
 20
137.5475055671732
 30
0.0
 11
32.52185925047633
 21
137.5475055671732
 31
0.0
  0
LINE
  5
1EE4
  8
0
 10
120.5218624989295
 20
137.5475055671732
 30
0.0
 11
118.5218621711039
 21
137.5475055671732
 31
0.0
  0
LINE
  5
1EE5
  8
0
 10
120.5218624989295
 20
137.5475055671732
 30
0.0
 11
120.5218624989295
 21
120.5475055746238
 31
0.0
  0
ARC
  5
1EE6
  8
0
 10
34.52186071079012
 20
126.1759325801607
 30
0.0
 40
2.0
 50
180.0
 51
224.9999999999943
  0
LINE
  5
1EE7
  8
0
 10
32.52185925047633
 20
126.1759330652158
 30
0.0
 11
32.52185925047633
 21
135.0475056230526
 31
0.0
  0
LINE
  5
1EE8
  8
0
 10
30.52185892265078
 20
135.0475056230526
 30
0.0
 11
30.52185892265078
 21
137.5475055671732
 31
0.0
  0
LINE
  5
1EE9
  8
0
 10
32.52185925047633
 20
137.5475055671732
 30
0.0
 11
30.52185892265078
 21
137.5475055671732
 31
0.0
  0
LINE
  5
1EEA
  8
0
 10
32.52185925047633
 20
135.0475056230526
 30
0.0
 11
30.52185892265078
 21
135.0475056230526
 31
0.0
  0
LINE
  5
1EEB
  8
0
 10
31.62185891669031
 20
137.5475055671732
 30
0.0
 11
31.62185891669031
 21
138.0475056491296
 31
0.0
  0
LINE
  5
1EEC
  8
0
 10
119.4218625048899
 20
137.5475055671732
 30
0.0
 11
119.4218625048899
 21
138.0475056491296
 31
0.0
  0
ARC
  5
1EED
  8
0
 10
114.7218607107899
 20
118.3475054554144
 30
0.0
 40
0.2000000000000171
 50
90.0
 51
180.0
  0
LINE
  5
1EEE
  8
0
 10
48.52186001043555
 20
118.5475052467982
 30
0.0
 11
48.52186001043555
 21
118.3475055865447
 31
0.0
  0
LINE
  5
1EEF
  8
0
 10
50.02186118762728
 20
118.3475055865447
 30
0.0
 11
50.02186118762728
 21
118.5475052467982
 31
0.0
  0
LINE
  5
1EF1
  8
0
 10
49.82186152737376
 20
109.6934550575416
 30
0.0
 11
48.40028702419039
 21
109.6934550575416
 31
0.0
  0
LINE
  5
1EF3
  8
0
 10
50.02186118762728
 20
110.5792583100001
 30
0.0
 11
48.59898655812975
 21
110.5792583100001
 31
0.0
  0
LINE
  5
1EF4
  8
0
 10
112.5218611876273
 20
109.5475056342284
 30
0.0
 11
50.02186118762728
 21
109.5475056342284
 31
0.0
  0
LINE
  5
1EF5
  8
0
 10
50.02186118762728
 20
110.5792583100001
 30
0.0
 11
50.02186118762728
 21
111.547505962054
 31
0.0
  0
LINE
  5
1EF6
  8
0
 10
50.02186118762728
 20
109.5475056342284
 30
0.0
 11
50.02186118762728
 21
109.6246154181163
 31
0.0
  0
LINE
  5
1EF7
  8
0
 10
47.73607335191008
 20
110.1332926325004
 30
0.0
 11
38.91496776740786
 21
118.9544000796477
 31
0.0
  0
LINE
  5
1EF8
  8
0
 10
48.52186001043555
 20
111.9695273361604
 30
0.0
 11
48.52186001043555
 21
110.9190792910258
 31
0.0
  0
ARC
  5
1EF9
  8
0
 10
112.5218607107901
 20
111.5475054554145
 30
0.0
 40
2.0
 50
270.0
 51
0.0
  0
LINE
  5
1EFA
  8
0
 10
48.52186001043555
 20
111.9695273361604
 30
0.0
 11
48.52186001043555
 21
118.3475055865447
 31
0.0
  0
LINE
  5
1EFB
  8
0
 10
114.5218615154528
 20
118.3475055865447
 30
0.0
 11
114.5218615154528
 21
111.547505962054
 31
0.0
  0
LINE
  5
1EFC
  8
0
 10
50.02186118762728
 20
118.3475055865447
 30
0.0
 11
50.02186118762728
 21
111.547505962054
 31
0.0
  0
ARC
  5
1EFE
  8
0
 10
49.15028783553606
 20
111.5475054554145
 30
0.0
 40
1.114196214777944
 50
235.6658476036729
 51
240.3436094009313
  0
ARC
  5
1EFF
  8
0
 10
49.15028783553606
 20
111.5475054554145
 30
0.0
 40
2.000000000000035
 50
224.9999999999946
 51
247.9756871629579
  0
ARC
  5
1F01
  8
0
 10
48.72186071078994
 20
111.2475054554145
 30
0.0
 40
0.2000000000000171
 50
180.0
 51
270.0
  0
LINE
  5
1F02
  8
0
 10
48.72186153333422
 20
111.047504948775
 30
0.0
 11
49.82186152737376
 21
111.047504948775
 31
0.0
  0
ARC
  5
1F03
  8
0
 10
49.8218607107903
 20
111.2475054554145
 30
0.0
 40
0.1999999999999886
 50
270.0
 51
0.0
  0
ARC
  5
1F04
  8
0
 10
49.15028783553606
 20
111.5475054554145
 30
0.0
 40
2.000000000000035
 50
247.9756871629579
 51
270.0
  0
LINE
  5
1F05
  8
0
 10
49.15028854410883
 20
109.5475056342284
 30
0.0
 11
50.02186118762728
 21
109.5475056342284
 31
0.0
  0
LINE
  5
1F06
  8
0
 10
48.52186001043555
 20
112.1759326330821
 30
0.0
 11
49.09170835416552
 21
111.6060842893521
 31
0.0
  0
LINE
  5
1F07
  8
0
 10
49.23312968712088
 20
111.547505962054
 30
0.0
 11
50.02186118762728
 21
111.547505962054
 31
0.0
  0
ARC
  5
1F08
  8
0
 10
49.23313054801037
 20
111.7475054554145
 30
0.0
 40
0.1999999999999895
 50
224.9999999999946
 51
270.0
  0
LINE
  5
1F09
  8
0
 10
32.52186071079012
 20
126.1759325801607
 30
0.0
 11
32.52185925047633
 21
125.3475063767091
 31
0.0
  0
LINE
  5
1F0A
  8
0
 10
32.52185925047633
 20
125.3475063767091
 30
0.0
 11
33.10760591473462
 21
124.7616794071774
 31
0.0
  0
LINE
  5
1F0B
  8
0
 10
52.96669090893414
 20
153.747138105097
 30
0.0
 11
51.96669090893437
 21
153.747138105097
 31
0.0
  0
LINE
  5
1F0C
  8
0
 10
53.96669090893437
 20
154.247138105097
 30
0.0
 11
52.96669090893437
 21
154.247138105097
 31
0.0
  0
LINE
  5
1F0D
  8
0
 10
51.96669090893437
 20
154.247138105097
 30
0.0
 11
50.96669090893437
 21
154.247138105097
 31
0.0
  0
LINE
  5
1F0E
  8
0
 10
51.96669090893437
 20
154.247138105097
 30
0.0
 11
51.96669090893437
 21
153.747138105097
 31
0.0
  0
LINE
  5
1F0F
  8
0
 10
54.96669090893437
 20
154.247138105097
 30
0.0
 11
54.96669090893437
 21
153.747138105097
 31
0.0
  0
LINE
  5
1F10
  8
0
 10
52.96669090893437
 20
154.247138105097
 30
0.0
 11
52.96669090893414
 21
153.747138105097
 31
0.0
  0
LINE
  5
1F11
  8
0
 10
53.96669090893437
 20
154.247138105097
 30
0.0
 11
53.96669090893437
 21
153.747138105097
 31
0.0
  0
LINE
  5
1F12
  8
0
 10
54.96669090893437
 20
153.747138105097
 30
0.0
 11
53.96669090893437
 21
153.747138105097
 31
0.0
  0
LINE
  5
1F13
  8
0
 10
56.96669090893431
 20
150.5475053697328
 30
0.0
 11
56.96669090893414
 21
153.247138105097
 31
0.0
  0
ARC
  5
1F14
  8
0
 10
55.96669090893414
 20
153.247138105097
 30
0.0
 40
1.0
 50
0.0
 51
90.0
  0
LINE
  5
1F15
  8
0
 10
55.96669090893414
 20
154.247138105097
 30
0.0
 11
54.96669090893437
 21
154.247138105097
 31
0.0
  0
LINE
  5
1F16
  8
0
 10
49.96669090893437
 20
150.5475053697328
 30
0.0
 11
49.96669090893437
 21
153.247138105097
 31
0.0
  0
ARC
  5
1F17
  8
0
 10
50.96669090893437
 20
153.247138105097
 30
0.0
 40
1.0
 50
90.0
 51
180.0
  0
ARC
  5
1F18
  8
0
 10
40.32185308139464
 20
117.5475167449059
 30
0.0
 40
0.3000000119209
 50
179.9980552173233
 51
314.9996865396511
  0
LINE
  5
1F19
  8
0
 10
40.02186147372885
 20
117.5475167449059
 30
0.0
 11
33.52186528842657
 21
124.047512930209
 31
0.0
  0
LINE
  5
1F1A
  8
0
 10
35.5017694632308
 20
119.239182394321
 30
0.0
 11
36.91598073642461
 21
120.6533974822109
 31
0.0
  0
LINE
  5
1F1B
  8
0
 10
36.91598073642461
 20
117.8249711211269
 30
0.0
 11
38.33019582431479
 21
119.239182394321
 31
0.0
  0
LINE
  5
1F1C
  8
0
 10
36.6331285635726
 20
117.8249787505219
 30
0.0
 11
35.50176564853354
 21
118.9563416655609
 31
0.0
  0
ARC
  5
1F1D
  8
0
 10
35.64318792026273
 20
119.0977677519869
 30
0.0
 40
0.2000000029802
 50
135.0000039841161
 51
224.9999996583493
  0
ARC
  5
1F1E
  8
0
 10
36.77455846469564
 20
117.9664010222499
 30
0.0
 40
0.2000000029802
 50
224.9999996583493
 51
314.9999987478128
  0
LINE
  5
1F1F
  8
0
 10
33.52185765903158
 20
124.0475053008149
 30
0.0
 11
33.52185765903158
 21
124.3475083253789
 31
0.0
  0
LINE
  5
1F20
  8
0
 10
133.5218607107893
 20
145.0475054339912
 30
0.0
 11
17.52186071078921
 21
145.0475054339912
 31
0.0
  0
ARC
  5
1F21
  8
0
 10
118.8972008050119
 20
120.5475054339912
 30
0.0
 40
30.0
 50
80.00000000000146
 51
90.0
  0
LINE
  5
1F22
  8
0
 10
118.8972008050119
 20
150.5475054339912
 30
0.0
 11
32.14652061656733
 21
150.5475054339912
 31
0.0
  0
ARC
  5
1F23
  8
0
 10
131.0218607107893
 20
146.3338325875464
 30
0.0
 40
2.5
 50
0.0
 51
80.00000000000146
  0
LINE
  5
1F24
  8
0
 10
133.5218607107893
 20
145.0475054339912
 30
0.0
 11
133.5218607107893
 21
146.3338325875464
 31
0.0
  0
LINE
  5
1F25
  8
0
 10
124.1066461350197
 20
150.0917380243574
 30
0.0
 11
131.4559811549566
 21
148.7958519700769
 31
0.0
  0
ARC
  5
1F26
  8
0
 10
32.14652061656733
 20
120.5475054339912
 30
0.0
 40
30.0
 50
90.0
 51
99.99999999999855
  0
ARC
  5
1F27
  8
0
 10
20.02186071078944
 20
146.3338325875463
 30
0.0
 40
2.5
 50
99.99999999999855
 51
180.0
  0
LINE
  5
1F28
  8
0
 10
26.93707528655949
 20
150.0917380243574
 30
0.0
 11
19.58774026662212
 21
148.7958519700768
 31
0.0
  0
LINE
  5
1F29
  8
0
 10
17.52186071078921
 20
145.0475054339978
 30
0.0
 11
17.52186071078921
 21
146.333832587553
 31
0.0
  0
LINE
  5
1F2A
  8
0
 10
202.1103363543845
 20
263.0161354131874
 30
0.0
 11
202.1103363543845
 21
197.0161357708152
 31
0.0
  0
LINE
  5
1F2B
  8
0
 10
202.1103363543845
 20
265.0161357410129
 30
0.0
 11
202.1103363543845
 21
263.0161354131874
 31
0.0
  0
LINE
  5
1F2C
  8
0
 10
202.1103363543845
 20
265.0161357410129
 30
0.0
 11
204.6103362985051
 21
265.0161357410129
 31
0.0
  0
LINE
  5
1F2D
  8
0
 10
204.6103362985051
 20
195.0161354429897
 30
0.0
 11
202.1103363543845
 21
195.0161354429897
 31
0.0
  0
LINE
  5
1F2E
  8
0
 10
202.1103363543845
 20
197.0161357708152
 30
0.0
 11
202.1103363543845
 21
195.0161354429897
 31
0.0
  0
LINE
  5
1F2F
  8
0
 10
202.1103363543845
 20
263.9161357469734
 30
0.0
 11
201.6103363543845
 21
263.9161357469734
 31
0.0
  0
LINE
  5
1F30
  8
0
 10
202.1103363543845
 20
196.1161354370292
 30
0.0
 11
201.6103363543845
 21
196.1161354370292
 31
0.0
  0
LINE
  5
1F31
  8
0
 10
204.6103362985051
 20
265.0161357410129
 30
0.0
 11
213.4819088563419
 21
265.0161357410129
 31
0.0
  0
LINE
  5
1F32
  8
0
 10
213.4819088563419
 20
195.0161354429897
 30
0.0
 11
204.6103362985051
 21
195.0161354429897
 31
0.0
  0
LINE
  5
1F33
  8
0
 10
213.4819088563419
 20
265.0161357410129
 30
0.0
 11
219.1103363469339
 21
265.0161357410129
 31
0.0
  0
LINE
  5
1F34
  8
0
 10
219.1103363469339
 20
195.0161354429897
 30
0.0
 11
213.4819088563419
 21
195.0161354429897
 31
0.0
  0
LINE
  5
1F35
  8
0
 10
228.1103359595037
 20
201.7661360837396
 30
0.0
 11
221.3103363350129
 21
201.7661360837396
 31
0.0
  0
ARC
  5
1F36
  8
0
 10
219.1103364661432
 20
197.0161355920013
 30
0.0
 40
2.0
 50
270.0
 51
0.0
  0
LINE
  5
1F37
  8
0
 10
221.1103366747594
 20
230.0161355920013
 30
0.0
 11
221.1103366747594
 21
197.0161357708152
 31
0.0
  0
ARC
  5
1F38
  8
0
 10
219.1103364661432
 20
263.0161355920013
 30
0.0
 40
2.0
 50
0.0
 51
90.0
  0
LINE
  5
1F39
  8
0
 10
221.1103366747594
 20
262.0161371119198
 30
0.0
 11
221.1103366747594
 21
230.0161355920013
 31
0.0
  0
LINE
  5
1F3A
  8
0
 10
221.3103363350129
 20
258.266135100263
 30
0.0
 11
228.1103362873292
 21
258.266135100263
 31
0.0
  0
ARC
  5
1F3B
  8
0
 10
221.310336466143
 20
201.5661355920013
 30
0.0
 40
0.1999999999999957
 50
90.0
 51
180.0
  0
ARC
  5
1F3C
  8
0
 10
221.310336466143
 20
258.4661355920013
 30
0.0
 40
0.2000000000000171
 50
180.0
 51
270.0
  0
LINE
  5
1F3D
  8
0
 10
230.1103362873292
 20
256.2661351002631
 30
0.0
 11
230.1103362873292
 21
203.7661364115652
 31
0.0
  0
ARC
  5
1F3E
  8
0
 10
228.1103364661432
 20
203.7661355920013
 30
0.0
 40
2.0
 50
270.0
 51
0.0
  0
LINE
  5
1F45
  8
0
 10
221.1103366747594
 20
263.0161354131874
 30
0.0
 11
221.1103366747594
 21
262.0161371119198
 31
0.0
  0
LINE
  5
1F47
  8
0
 10
199.1103364102638
 20
290.0161342508968
 30
0.0
 11
195.11033656952
 21
290.0161342508968
 31
0.0
  0
LINE
  5
1F48
  8
0
 10
195.11033656952
 20
290.0161342508968
 30
0.0
 11
195.11033656952
 21
282.0161366648849
 31
0.0
  0
LINE
  5
1F49
  8
0
 10
199.1103364102638
 20
290.0161342508968
 30
0.0
 11
199.1103364102638
 21
282.0161366648849
 31
0.0
  0
LINE
  5
1F4A
  8
0
 10
195.11033656952
 20
282.0161366648849
 30
0.0
 11
195.11033656952
 21
178.0161345191177
 31
0.0
  0
LINE
  5
1F4B
  8
0
 10
199.1103364102638
 20
282.0161366648849
 30
0.0
 11
199.1103364102638
 21
178.0161345191177
 31
0.0
  0
LINE
  5
1F4C
  8
0
 10
199.1103364102638
 20
170.0161369331058
 30
0.0
 11
195.11033656952
 21
170.0161369331058
 31
0.0
  0
LINE
  5
1F4D
  8
0
 10
195.11033656952
 20
178.0161345191177
 30
0.0
 11
195.11033656952
 21
170.0161369331058
 31
0.0
  0
LINE
  5
1F4E
  8
0
 10
199.1103364102638
 20
178.0161345191177
 30
0.0
 11
199.1103364102638
 21
170.0161369331058
 31
0.0
  0
LINE
  5
1F50
  8
0
 10
195.11033656952
 20
171.1161369271453
 30
0.0
 11
194.6103364875663
 21
171.1161369271453
 31
0.0
  0
LINE
  5
1F52
  8
0
 10
195.11033656952
 20
288.9161342568573
 30
0.0
 11
194.6103364875665
 21
288.9161342568573
 31
0.0
  0
LINE
  5
1F54
  8
0
 10
201.6103363543845
 20
263.0161354131874
 30
0.0
 11
201.6103363543845
 21
197.0161357708152
 31
0.0
  0
LINE
  5
1F55
  8
0
 10
201.6103363543845
 20
195.0161354429897
 30
0.0
 11
199.1103364102638
 21
195.0161354429897
 31
0.0
  0
LINE
  5
1F56
  8
0
 10
201.6103363543845
 20
197.0161357708152
 30
0.0
 11
201.6103363543845
 21
195.0161354429897
 31
0.0
  0
LINE
  5
1F57
  8
0
 10
199.1103364102638
 20
265.0161357410129
 30
0.0
 11
201.6103363543845
 21
265.0161357410129
 31
0.0
  0
LINE
  5
1F58
  8
0
 10
201.6103363543845
 20
265.0161357410129
 30
0.0
 11
201.6103363543845
 21
263.0161354131874
 31
0.0
  0
LINE
  5
1F69
  8
0
 10
201.6103363543845
 20
263.0161354131874
 30
0.0
 11
201.6103363543845
 21
197.0161357708152
 31
0.0
  0
LINE
  5
220E
  8
7
 10
12.72786071078952
 20
229.8911362700034
 30
0.0
 11
138.3158607107895
 21
229.8911362700031
 31
0.0
1001
GENIUS_GENOBJ-N-CEN_13
1002
{
1000
OWNER
1000
GEN
1002
}
1001
GENIUS_GENODEF_13
1002
{
1000
HIER
1070
     0
1002
}
1002
{
1000
MANEDIT
1070
     0
1002
}
1002
{
1000
NOSEL
1070
     0
1002
}
1002
{
1000
BEHIND
1070
     0
1002
}
1002
{
1000
OTHER
1070
     0
1002
}
1002
{
1000
REACTOR
1002
}
1001
GENIUS_GENCEN_19
1002
{
1040
2.794
1002
}
  0
LINE
  5
220F
  8
7
 10
75.52186071078961
 20
294.6851362700035
 30
0.0
 11
75.52186071078961
 21
165.0971362700033
 31
0.0
1001
GENIUS_GENOBJ-N-CEN_13
1002
{
1000
OWNER
1000
GEN
1002
}
1001
GENIUS_GENODEF_13
1002
{
1000
HIER
1070
     0
1002
}
1002
{
1000
MANEDIT
1070
     0
1002
}
1002
{
1000
NOSEL
1070
     0
1002
}
1002
{
1000
BEHIND
1070
     0
1002
}
1002
{
1000
OTHER
1070
     0
1002
}
1002
{
1000
REACTOR
1002
}
1001
GENIUS_GENCEN_19
1002
{
1040
2.794
1002
}
  0
CIRCLE
  5
7246
  8
3A
 10
98.52186071078961
 20
177.8911362700033
 30
0.0
 40
4.0
  0
CIRCLE
  5
7247
  8
3A
 10
98.52186071078961
 20
177.8911362700033
 30
0.0
 40
2.5
  0
CIRCLE
  5
7248
  8
3A
 10
98.52186071078961
 20
281.8911362700032
 30
0.0
 40
2.5
  0
CIRCLE
  5
7249
  8
3A
 10
98.52186071078961
 20
281.8911362700032
 30
0.0
 40
4.0
  0
CIRCLE
  5
724A
  8
3A
 10
52.52186071078961
 20
281.8911362700032
 30
0.0
 40
4.0
  0
CIRCLE
  5
724B
  8
3A
 10
52.52186071078961
 20
281.8911362700032
 30
0.0
 40
2.5
  0
CIRCLE
  5
724C
  8
3A
 10
52.52186071078961
 20
177.8911362700033
 30
0.0
 40
4.0
  0
CIRCLE
  5
724D
  8
3A
 10
52.52186071078961
 20
177.8911362700033
 30
0.0
 40
2.5
  0
LINE
  5
7255
  8
7
 10
52.52186071078961
 20
281.8911362700032
 30
0.0
 11
59.31586071078961
 21
281.8911362700032
 31
0.0
1001
GENIUS_GENOREF_13
1005
7259
  0
LINE
  5
7256
  8
7
 10
52.52186071078961
 20
281.8911362700032
 30
0.0
 11
52.52186071078961
 21
288.6851362700032
 31
0.0
1001
GENIUS_GENOREF_13
1005
7259
  0
LINE
  5
7257
  8
7
 10
52.52186071078961
 20
281.8911362700032
 30
0.0
 11
45.72786071078961
 21
281.8911362700032
 31
0.0
1001
GENIUS_GENOREF_13
1005
7259
  0
LINE
  5
7258
  8
7
 10
52.52186071078961
 20
281.8911362700032
 30
0.0
 11
52.52186071078961
 21
275.0971362700033
 31
0.0
1001
GENIUS_GENOREF_13
1005
7259
  0
POINT
  5
7259
  8
0
 10
0.0
 20
0.0
 30
0.0
1001
GENIUS_GENOLIS_13
1002
{
1000
ENT
1005
7258
1005
7257
1005
7256
1005
7255
1002
}
1001
GENIUS_GENOENT_13
1002
{
1000
MYREF
1005
7259
1002
}
1002
{
1000
GRP
1005
0
1002
}
1001
GENIUS_GENOBJ-N-CRS_13
1002
{
1000
OWNER
1000
GEN
1002
}
1001
GENIUS_GENODEF_13
1002
{
1000
HIER
1070
    10
1002
}
1002
{
1000
MANEDIT
1070
     0
1002
}
1002
{
1000
NOSEL
1070
     0
1002
}
1002
{
1000
BEHIND
1070
     0
1002
}
1002
{
1000
OTHER
1070
     0
1002
}
1002
{
1000
REACTOR
1002
}
  0
LINE
  5
725E
  8
7
 10
98.52186071078961
 20
281.8911362700032
 30
0.0
 11
105.3158607107896
 21
281.8911362700032
 31
0.0
1001
GENIUS_GENOREF_13
1005
7262
  0
LINE
  5
725F
  8
7
 10
98.52186071078961
 20
281.8911362700032
 30
0.0
 11
98.52186071078961
 21
288.6851362700032
 31
0.0
1001
GENIUS_GENOREF_13
1005
7262
  0
LINE
  5
7260
  8
7
 10
98.52186071078961
 20
281.8911362700032
 30
0.0
 11
91.72786071078961
 21
281.8911362700032
 31
0.0
1001
GENIUS_GENOREF_13
1005
7262
  0
LINE
  5
7261
  8
7
 10
98.52186071078961
 20
281.8911362700032
 30
0.0
 11
98.52186071078961
 21
275.0971362700033
 31
0.0
1001
GENIUS_GENOREF_13
1005
7262
  0
POINT
  5
7262
  8
0
 10
0.0
 20
0.0
 30
0.0
1001
GENIUS_GENOLIS_13
1002
{
1000
ENT
1005
7261
1005
7260
1005
725F
1005
725E
1002
}
1001
GENIUS_GENOENT_13
1002
{
1000
MYREF
1005
7262
1002
}
1002
{
1000
GRP
1005
0
1002
}
1001
GENIUS_GENOBJ-N-CRS_13
1002
{
1000
OWNER
1000
GEN
1002
}
1001
GENIUS_GENODEF_13
1002
{
1000
HIER
1070
    10
1002
}
1002
{
1000
MANEDIT
1070
     0
1002
}
1002
{
1000
NOSEL
1070
     0
1002
}
1002
{
1000
BEHIND
1070
     0
1002
}
1002
{
1000
OTHER
1070
     0
1002
}
1002
{
1000
REACTOR
1002
}
  0
LINE
  5
7263
  8
7
 10
52.52186071078961
 20
177.8911362700033
 30
0.0
 11
59.31586071078961
 21
177.8911362700033
 31
0.0
1001
GENIUS_GENOREF_13
1005
7267
  0
LINE
  5
7264
  8
7
 10
52.52186071078961
 20
177.8911362700033
 30
0.0
 11
52.52186071078961
 21
184.6851362700033
 31
0.0
1001
GENIUS_GENOREF_13
1005
7267
  0
LINE
  5
7265
  8
7
 10
52.52186071078961
 20
177.8911362700033
 30
0.0
 11
45.72786071078961
 21
177.8911362700033
 31
0.0
1001
GENIUS_GENOREF_13
1005
7267
  0
LINE
  5
7266
  8
7
 10
52.52186071078961
 20
177.8911362700033
 30
0.0
 11
52.52186071078961
 21
171.0971362700033
 31
0.0
1001
GENIUS_GENOREF_13
1005
7267
  0
POINT
  5
7267
  8
0
 10
0.0
 20
0.0
 30
0.0
1001
GENIUS_GENODEF_13
1002
{
1000
HIER
1070
    10
1002
}
1002
{
1000
MANEDIT
1070
     0
1002
}
1002
{
1000
NOSEL
1070
     0
1002
}
1002
{
1000
BEHIND
1070
     0
1002
}
1002
{
1000
OTHER
1070
     0
1002
}
1002
{
1000
REACTOR
1002
}
1001
GENIUS_GENOBJ-N-CRS_13
1002
{
1000
OWNER
1000
GEN
1002
}
1001
GENIUS_GENOENT_13
1002
{
1000
MYREF
1005
7267
1002
}
1002
{
1000
GRP
1005
0
1002
}
1001
GENIUS_GENOLIS_13
1002
{
1000
ENT
1005
7266
1005
7265
1005
7264
1005
7263
1002
}
  0
LINE
  5
7268
  8
7
 10
98.52186071078961
 20
177.8911362700033
 30
0.0
 11
105.3158607107896
 21
177.8911362700033
 31
0.0
1001
GENIUS_GENOREF_13
1005
726C
  0
LINE
  5
7269
  8
7
 10
98.52186071078961
 20
177.8911362700033
 30
0.0
 11
98.52186071078961
 21
184.6851362700033
 31
0.0
1001
GENIUS_GENOREF_13
1005
726C
  0
LINE
  5
726A
  8
7
 10
98.52186071078961
 20
177.8911362700033
 30
0.0
 11
91.72786071078961
 21
177.8911362700033
 31
0.0
1001
GENIUS_GENOREF_13
1005
726C
  0
LINE
  5
726B
  8
7
 10
98.52186071078961
 20
177.8911362700033
 30
0.0
 11
98.52186071078961
 21
171.0971362700033
 31
0.0
1001
GENIUS_GENOREF_13
1005
726C
  0
POINT
  5
726C
  8
0
 10
0.0
 20
0.0
 30
0.0
1001
GENIUS_GENODEF_13
1002
{
1000
HIER
1070
    10
1002
}
1002
{
1000
MANEDIT
1070
     0
1002
}
1002
{
1000
NOSEL
1070
     0
1002
}
1002
{
1000
BEHIND
1070
     0
1002
}
1002
{
1000
OTHER
1070
     0
1002
}
1002
{
1000
REACTOR
1002
}
1001
GENIUS_GENOBJ-N-CRS_13
1002
{
1000
OWNER
1000
GEN
1002
}
1001
GENIUS_GENOENT_13
1002
{
1000
MYREF
1005
726C
1002
}
1002
{
1000
GRP
1005
0
1002
}
1001
GENIUS_GENOLIS_13
1002
{
1000
ENT
1005
726B
1005
726A
1005
7269
1005
7268
1002
}
  0
LINE
  5
726D
  8
7
 10
235.1103362873292
 20
230.0161355920013
 30
0.0
 11
184.1103364875665
 21
230.0161355920013
 31
0.0
1001
GENIUS_GENOBJ-N-CEN_13
1002
{
1000
OWNER
1000
GEN
1002
}
1001
GENIUS_GENODEF_13
1002
{
1000
HIER
1070
     0
1002
}
1002
{
1000
MANEDIT
1070
     0
1002
}
1002
{
1000
NOSEL
1070
     0
1002
}
1002
{
1000
BEHIND
1070
     0
1002
}
1002
{
1000
OTHER
1070
     0
1002
}
1002
{
1000
REACTOR
1002
}
1001
GENIUS_GENCEN_19
1002
{
1040
2.794
1002
}
  0
LINE
  5
726E
  8
7
 10
75.52186071078967
 20
104.5475056342284
 30
0.0
 11
75.52186071078967
 21
155.5475054339912
 31
0.0
1001
GENIUS_GENOBJ-N-CEN_13
1002
{
1000
OWNER
1000
GEN
1002
}
1001
GENIUS_GENODEF_13
1002
{
1000
HIER
1070
     0
1002
}
1002
{
1000
MANEDIT
1070
     0
1002
}
1002
{
1000
NOSEL
1070
     0
1002
}
1002
{
1000
BEHIND
1070
     0
1002
}
1002
{
1000
OTHER
1070
     0
1002
}
1002
{
1000
REACTOR
1002
}
1001
GENIUS_GENCEN_19
1002
{
1040
2.794
1002
}
  0
LINE
  5
7354
  8
0
 10
48.59898646148982
 20
110.5792596188625
 30
0.0
 11
48.40028702419039
 21
109.6934550575416
 31
0.0
  0
LINE
  5
7355
  8
0
 10
50.02186118762728
 20
109.5475056342284
 30
0.0
 11
50.02186118762728
 21
109.6246154181163
 31
0.0
  0
ARC
  5
7356
  8
0
 10
49.99818192784456
 20
109.6234257302165
 30
0.0
 40
0.0237091269589662
 50
2.876222857360828
 51
43.43589811605213
  0
ARC
  5
7357
  8
0
 10
49.93342100675543
 20
109.5593603589565
 30
0.0
 40
0.1147998884239122
 50
44.43153582575101
 51
70.88950362693414
  0
ARC
  5
7358
  8
0
 10
49.82917264239178
 20
109.2891290601922
 30
0.0
 40
0.4043928833089286
 50
69.46801332213882
 51
91.03603616465543
  0
LINE
  5
7359
  8
0
 10
48.59898655812975
 20
110.5792583100001
 30
0.0
 11
48.52186071079012
 21
110.6274442868451
 31
0.0
  0
LINE
  5
735A
  8
0
 10
48.52186071079012
 20
110.6274442868451
 30
0.0
 11
48.52186071079012
 21
110.9190783306683
 31
0.0
  0
LINE
  5
735B
  8
0
 10
38.91496776740786
 20
118.9544000796477
 30
0.0
 11
38.73607560198542
 21
119.1332922450702
 31
0.0
  0
ARC
  5
7392
  8
0
 10
228.1103362873292
 20
256.2661351002631
 30
0.0
 40
2.0
 50
0.0
 51
90.0
  0
LINE
  5
8BF0
  8
0
 10
38.27186071078961
 20
264.9911362700033
 30
0.0
 11
112.7718607107896
 21
264.9911362700033
 31
0.0
  0
LINE
  5
8BF1
  8
0
 10
38.27186071078961
 20
194.7911362700032
 30
0.0
 11
112.7718607107896
 21
194.7911362700032
 31
0.0
  0
LINE
  5
8BF2
  8
0
 10
38.27186071078961
 20
264.9911362700033
 30
0.0
 11
38.27186071078961
 21
194.7911362700032
 31
0.0
  0
LINE
  5
8BF3
  8
0
 10
112.7718607107896
 20
264.9911362700033
 30
0.0
 11
112.7718607107896
 21
194.7911362700032
 31
0.0
  0
LINE
  5
8BF4
  8
0
 10
112.0218601743478
 20
195.3911371342706
 30
0.0
 11
112.0218601743478
 21
264.3911354057359
 31
0.0
  0
LINE
  5
8BF5
  8
0
 10
39.02186124723141
 20
195.3911371342706
 30
0.0
 11
112.0218601743478
 21
195.3911371342706
 31
0.0
  0
LINE
  5
8BF6
  8
0
 10
39.02186124723141
 20
264.3911354057359
 30
0.0
 11
39.02186124723141
 21
195.3911371342706
 31
0.0
  0
LINE
  5
8BF7
  8
0
 10
112.0218601743478
 20
264.3911354057359
 30
0.0
 11
39.02186124723141
 21
264.3911354057359
 31
0.0
  0
LINE
  5
8BF8
  8
0
 10
40.521860561778
 20
196.8911364488172
 30
0.0
 11
110.5218608598012
 21
196.8911364488172
 31
0.0
  0
LINE
  5
8BF9
  8
0
 10
110.5218608598012
 20
196.8911364488172
 30
0.0
 11
110.5218608598012
 21
262.8911360911893
 31
0.0
  0
LINE
  5
8BFA
  8
0
 10
110.5218608598012
 20
262.8911360911893
 30
0.0
 11
65.52186093430701
 21
262.8911360911893
 31
0.0
  0
LINE
  5
8BFB
  8
0
 10
40.521860561778
 20
250.8911359868812
 30
0.0
 11
65.52186093430701
 21
250.8911359868812
 31
0.0
  0
LINE
  5
8BFC
  8
0
 10
40.521860561778
 20
250.8911359868812
 30
0.0
 11
40.521860561778
 21
196.8911364488172
 31
0.0
  0
LINE
  5
8BFD
  8
0
 10
47.32186018626874
 20
253.191135805087
 30
0.0
 11
57.3218599627513
 21
253.191135805087
 31
0.0
  0
LINE
  5
8BFE
  8
0
 10
57.3218599627513
 20
253.191135805087
 30
0.0
 11
57.3218599627513
 21
261.1911371163892
 31
0.0
  0
LINE
  5
8BFF
  8
0
 10
57.3218599627513
 20
261.1911371163892
 30
0.0
 11
47.32186018626874
 21
261.1911371163892
 31
0.0
  0
LINE
  5
8C00
  8
0
 10
47.32186018626874
 20
261.1911371163892
 30
0.0
 11
47.32186018626874
 21
253.191135805087
 31
0.0
  0
LINE
  5
8C01
  8
0
 10
65.52186093430701
 20
250.8911359868812
 30
0.0
 11
65.52186093430701
 21
262.8911360911893
 31
0.0
  0
LINE
  5
8C02
  8
0
 10
112.5218611876267
 20
194.8911361209916
 30
0.0
 11
112.5218611876267
 21
264.8911364190149
 31
0.0
  0
LINE
  5
8C03
  8
0
 10
38.52186023395245
 20
194.8911361209916
 30
0.0
 11
112.5218611876267
 21
194.8911361209916
 31
0.0
  0
LINE
  5
8C04
  8
0
 10
38.52186023395245
 20
264.8911364190149
 30
0.0
 11
38.52186023395245
 21
194.8911361209916
 31
0.0
  0
LINE
  5
8C05
  8
0
 10
112.5218611876267
 20
264.8911364190149
 30
0.0
 11
38.52186023395245
 21
264.8911364190149
 31
0.0
  0
ARC
  5
8C06
  8
0
 10
48.72186007451
 20
259.691135805087
 30
0.0
 40
1.0
 50
90.0
 51
180.0
  0
ARC
  5
8C07
  8
0
 10
53.72186007450999
 20
259.691135805087
 30
0.0
 40
1.0
 50
0.0
 51
90.0
  0
LINE
  5
8C08
  8
0
 10
48.72186007451
 20
260.691135805087
 30
0.0
 11
53.72186007450999
 21
260.691135805087
 31
0.0
  0
LINE
  5
8C09
  8
0
 10
53.72186007450999
 20
253.6911358050871
 30
0.0
 11
48.72186007451
 21
253.691135805087
 31
0.0
  0
ARC
  5
8C0A
  8
0
 10
48.72186007451
 20
254.691135805087
 30
0.0
 40
1.0
 50
180.0
 51
270.0
  0
ARC
  5
8C0B
  8
0
 10
53.72186007450999
 20
254.6911358050871
 30
0.0
 40
1.0
 50
270.0
 51
0.0
  0
LINE
  5
8C0C
  8
0
 10
52.72186007451
 20
253.6911358050871
 30
0.0
 11
52.72186007451
 21
260.691135805087
 31
0.0
  0
LINE
  5
8C0D
  8
0
 10
51.72186007451
 20
253.691135805087
 30
0.0
 11
51.72186007451
 21
260.691135805087
 31
0.0
  0
LINE
  5
8C0E
  8
0
 10
50.72186007451
 20
253.6911358050869
 30
0.0
 11
50.72186007451
 21
260.691135805087
 31
0.0
  0
LINE
  5
8C0F
  8
0
 10
49.72186007451
 20
253.6911358050869
 30
0.0
 11
49.72186007451
 21
260.691135805087
 31
0.0
  0
LINE
  5
8C10
  8
0
 10
47.72186007451
 20
254.691135805087
 30
0.0
 11
47.72186007451
 21
259.691135805087
 31
0.0
  0
LINE
  5
8C11
  8
0
 10
54.72186007450999
 20
259.691135805087
 30
0.0
 11
54.72186007450999
 21
254.6911358050871
 31
0.0
  0
LINE
  5
8C12
  8
0
 10
65.77186093430701
 20
262.6411362700034
 30
0.0
 11
110.2718607107896
 21
262.6411362700032
 31
0.0
  0
LINE
  5
8C13
  8
0
 10
110.2718607107896
 20
262.6411362700032
 30
0.0
 11
110.2718607107896
 21
197.1411362700032
 31
0.0
  0
LINE
  5
8C14
  8
0
 10
40.77186071078961
 20
197.1411362700034
 30
0.0
 11
40.77186071078961
 21
250.6411359868812
 31
0.0
  0
LINE
  5
8C15
  8
0
 10
110.2718607107896
 20
197.1411362700032
 30
0.0
 11
40.77186071078961
 21
197.1411362700034
 31
0.0
  0
LINE
  5
8C16
  8
0
  6
CONTINUOUS
 10
65.77186093430701
 20
250.6411359868812
 30
0.0
 11
65.77186093430701
 21
262.6411362700034
 31
0.0
  0
LINE
  5
8C17
  8
0
  6
CONTINUOUS
 10
40.77186071078961
 20
250.6411359868812
 30
0.0
 11
65.77186093430701
 21
250.6411359868812
 31
0.0
  0
LINE
  5
8D8D
  8
0
 10
55.82186007451001
 20
248.2411362700035
 30
0.0
 11
55.82186007451001
 21
246.2411362700035
 31
0.0
  0
LINE
  5
8D8E
  8
0
 10
48.82186007451003
 20
248.2411362700035
 30
0.0
 11
48.82186007451003
 21
246.2411362700035
 31
0.0
  0
ARC
  5
8D8F
  8
0
 10
49.82186007451003
 20
248.2411362700035
 30
0.0
 40
1.0
 50
90.0
 51
180.0
  0
ARC
  5
8D90
  8
0
 10
49.82186007451003
 20
246.2411362700035
 30
0.0
 40
1.0
 50
180.0
 51
270.0
  0
ARC
  5
8D91
  8
0
 10
54.82186007451001
 20
246.2411362700035
 30
0.0
 40
1.0
 50
270.0
 51
0.0
  0
ARC
  5
8D92
  8
0
 10
54.82186007451001
 20
248.2411362700035
 30
0.0
 40
1.0
 50
0.0
 51
90.0
  0
LINE
  5
8D93
  8
0
 10
49.82186007451003
 20
249.2411362700035
 30
0.0
 11
54.82186007451001
 21
249.2411362700035
 31
0.0
  0
LINE
  5
8D94
  8
0
 10
49.82186007451003
 20
245.2411362700035
 30
0.0
 11
54.82186007451001
 21
245.2411362700035
 31
0.0
  0
TEXT
  5
8D95
  8
0
 10
42.16044691739716
 20
246.2788604505848
 30
0.0
 40
2.0
  1
OFF
 41
1.5
  0
TEXT
  5
8D96
  8
0
 10
57.20729606708886
 20
246.2788604505848
 30
0.0
 40
2.0
  1
ON
 41
1.5
  0
TEXT
  5
8D97
  8
0
 10
49.75043150308146
 20
246.2980317554704
 30
0.0
 40
2.0
  1
電源
  0
LINE
  5
8D99
  8
0
 10
42.27186071078961
 20
217.1012443773085
 30
0.0
 11
42.27186071078961
 21
219.6387443773091
 31
0.0
  0
LINE
  5
8D9A
  8
0
 10
44.37436071078957
 20
217.1012443773085
 30
0.0
 11
44.37436071078957
 21
219.6387443773091
 31
0.0
  0
LINE
  5
8D9B
  8
0
 10
44.59186071078977
 20
217.1012443773085
 30
0.0
 11
44.59186071078977
 21
219.6387443773091
 31
0.0
  0
LINE
  5
8D9C
  8
0
 10
42.27186071078961
 20
217.1012443773085
 30
0.0
 11
43.06936071078974
 21
217.1012443773085
 31
0.0
  0
LINE
  5
8D9D
  8
0
 10
42.27186071078961
 20
219.6387443773091
 30
0.0
 11
43.06936071078974
 21
219.6387443773091
 31
0.0
  0
LINE
  5
8D9E
  8
0
 10
43.06936071078974
 20
219.6387443773091
 30
0.0
 11
43.06936071078974
 21
218.768744377309
 31
0.0
  0
LINE
  5
8D9F
  8
0
 10
43.57686071078945
 20
219.6387443773091
 30
0.0
 11
43.57686071078945
 21
218.768744377309
 31
0.0
  0
LINE
  5
8DA0
  8
0
 10
43.06936071078974
 20
217.1012443773085
 30
0.0
 11
43.06936071078974
 21
217.9712443773084
 31
0.0
  0
LINE
  5
8DA1
  8
0
 10
43.57686071078945
 20
217.1012443773085
 30
0.0
 11
43.57686071078945
 21
217.9712443773084
 31
0.0
  0
LINE
  5
8DA2
  8
0
 10
43.57686071078945
 20
219.6387443773091
 30
0.0
 11
44.37436071078957
 21
219.6387443773091
 31
0.0
  0
LINE
  5
8DA3
  8
0
 10
43.57686071078945
 20
217.1012443773085
 30
0.0
 11
44.37436071078957
 21
217.1012443773085
 31
0.0
  0
LINE
  5
8DA4
  8
0
 10
43.06936071078974
 20
218.768744377309
 30
0.0
 11
43.57686071078945
 21
218.768744377309
 31
0.0
  0
LINE
  5
8DA5
  8
0
 10
43.06936071078974
 20
217.9712443773084
 30
0.0
 11
43.57686071078945
 21
217.9712443773084
 31
0.0
  0
LINE
  5
8DA6
  8
0
 10
45.38936071078945
 20
217.1012443773085
 30
0.0
 11
45.38936071078945
 21
219.6387443773091
 31
0.0
  0
LINE
  5
8DA7
  8
0
 10
45.60686071078965
 20
217.1012443773085
 30
0.0
 11
45.60686071078965
 21
219.6387443773091
 31
0.0
  0
LINE
  5
8DA8
  8
0
 10
44.59186071078977
 20
219.6387443773091
 30
0.0
 11
45.38936071078945
 21
219.6387443773091
 31
0.0
  0
LINE
  5
8DA9
  8
0
 10
44.59186071078977
 20
217.1012443773085
 30
0.0
 11
45.38936071078945
 21
217.1012443773085
 31
0.0
  0
LINE
  5
8DAA
  8
0
 10
47.70936071078961
 20
217.1012443773085
 30
0.0
 11
47.70936071078961
 21
217.6812443773084
 31
0.0
  0
LINE
  5
8DAB
  8
0
 10
47.70936071078961
 20
219.0587443773092
 30
0.0
 11
47.70936071078961
 21
219.6387443773091
 31
0.0
  0
LINE
  5
8DAC
  8
0
 10
45.60686071078965
 20
217.1012443773085
 30
0.0
 11
46.40436071078977
 21
217.1012443773085
 31
0.0
  0
LINE
  5
8DAD
  8
0
 10
45.60686071078965
 20
219.6387443773091
 30
0.0
 11
46.40436071078977
 21
219.6387443773091
 31
0.0
  0
LINE
  5
8DAE
  8
0
 10
46.40436071078977
 20
219.6387443773091
 30
0.0
 11
46.40436071078977
 21
218.768744377309
 31
0.0
  0
LINE
  5
8DAF
  8
0
 10
46.91186071078948
 20
219.6387443773091
 30
0.0
 11
46.91186071078948
 21
219.0587443773092
 31
0.0
  0
LINE
  5
8DB0
  8
0
 10
46.40436071078977
 20
217.1012443773085
 30
0.0
 11
46.40436071078977
 21
217.9712443773084
 31
0.0
  0
LINE
  5
8DB1
  8
0
 10
46.91186071078948
 20
217.1012443773085
 30
0.0
 11
46.91186071078948
 21
217.6812443773084
 31
0.0
  0
ARC
  5
8DB2
  8
0
 10
46.62186071078952
 20
217.6812443773084
 30
0.0
 40
0.29
 50
0.0
 51
90.0
  0
ARC
  5
8DB3
  8
0
 10
46.62186071078952
 20
217.6812443773084
 30
0.0
 40
1.0875
 50
0.0
 51
39.29648023919388
  0
LINE
  5
8DB4
  8
0
 10
46.91186071078948
 20
219.6387443773091
 30
0.0
 11
47.70936071078961
 21
219.6387443773091
 31
0.0
  0
LINE
  5
8DB5
  8
0
 10
46.91186071078948
 20
217.1012443773085
 30
0.0
 11
47.70936071078961
 21
217.1012443773085
 31
0.0
  0
LINE
  5
8DB6
  8
0
 10
46.40436071078977
 20
218.768744377309
 30
0.0
 11
46.62186071078952
 21
218.768744377309
 31
0.0
  0
ARC
  5
8DB7
  8
0
 10
46.62186071078952
 20
219.0587443773092
 30
0.0
 40
0.29
 50
270.0
 51
0.0
  0
ARC
  5
8DB8
  8
0
 10
46.62186071078952
 20
219.0587443773092
 30
0.0
 40
1.0875
 50
320.703519760822
 51
0.0
  0
LINE
  5
8DB9
  8
0
 10
46.40436071078977
 20
217.9712443773084
 30
0.0
 11
46.62186071078952
 21
217.9712443773084
 31
0.0
  0
LINE
  5
8DBA
  8
0
 10
47.92686071078981
 20
217.1012443773085
 30
0.0
 11
47.92686071078981
 21
218.5874943773084
 31
0.0
  0
LINE
  5
8DBB
  8
0
 10
50.02936071078977
 20
217.1012443773085
 30
0.0
 11
50.02936071078977
 21
218.5874943773084
 31
0.0
  0
LINE
  5
8DBC
  8
0
 10
47.92686071078981
 20
217.1012443773085
 30
0.0
 11
48.72436071078948
 21
217.1012443773085
 31
0.0
  0
LINE
  5
8DBD
  8
0
 10
48.72436071078948
 20
217.1012443773085
 30
0.0
 11
48.72436071078948
 21
217.6087443773082
 31
0.0
  0
LINE
  5
8DBE
  8
0
 10
49.23186071078965
 20
217.1012443773085
 30
0.0
 11
49.23186071078965
 21
217.6087443773082
 31
0.0
  0
LINE
  5
8DBF
  8
0
 10
49.23186071078965
 20
217.1012443773085
 30
0.0
 11
50.02936071078977
 21
217.1012443773085
 31
0.0
  0
LINE
  5
8DC0
  8
0
 10
48.72436071078948
 20
217.6087443773082
 30
0.0
 11
49.23186071078965
 21
217.6087443773082
 31
0.0
  0
LINE
  5
8DC1
  8
0
 10
48.72436071078948
 20
218.3337443773086
 30
0.0
 11
49.23186071078965
 21
218.3337443773086
 31
0.0
  0
ARC
  5
8DC2
  8
0
 10
48.97811071078979
 20
218.5874943773084
 30
0.0
 40
1.05125
 50
0.0
 51
180.0
  0
ARC
  5
8DC3
  8
0
 10
48.97811071078979
 20
218.5874943773084
 30
0.0
 40
0.25375
 50
0.0
 51
180.0
  0
LINE
  5
8DC4
  8
0
 10
48.72436071078948
 20
218.3337443773086
 30
0.0
 11
48.72436071078948
 21
218.5874943773084
 31
0.0
  0
LINE
  5
8DC5
  8
0
 10
49.23186071078965
 20
218.5874943773084
 30
0.0
 11
49.23186071078965
 21
218.3337443773086
 31
0.0
  0
LINE
  5
8DC6
  8
0
 10
50.24686071078952
 20
217.1012443773085
 30
0.0
 11
50.24686071078952
 21
219.6387443773091
 31
0.0
  0
LINE
  5
8DC7
  8
0
 10
52.34936071078948
 20
217.1012443773085
 30
0.0
 11
52.34936071078948
 21
217.6812443773084
 31
0.0
  0
LINE
  5
8DC8
  8
0
 10
50.24686071078952
 20
217.1012443773085
 30
0.0
 11
51.04436071078965
 21
217.1012443773085
 31
0.0
  0
LINE
  5
8DC9
  8
0
 10
51.18936071078963
 20
217.8987443773086
 30
0.0
 11
51.33436071078961
 21
217.8987443773086
 31
0.0
  0
LINE
  5
8DCA
  8
0
 10
51.18936071078963
 20
218.478744377309
 30
0.0
 11
51.33436071078961
 21
218.478744377309
 31
0.0
  0
LINE
  5
8DCB
  8
0
 10
51.04436071078965
 20
217.1012443773085
 30
0.0
 11
51.04436071078965
 21
218.9137443773087
 31
0.0
  0
LINE
  5
8DCC
  8
0
 10
51.55186071078981
 20
217.1012443773085
 30
0.0
 11
51.55186071078981
 21
217.6812443773084
 31
0.0
  0
ARC
  5
8DCD
  8
0
 10
51.33436071078961
 20
217.6812443773084
 30
0.0
 40
0.2175
 50
0.0
 51
90.0
  0
ARC
  5
8DCE
  8
0
 10
51.33436071078961
 20
217.6812443773084
 30
0.0
 40
1.015
 50
0.0
 51
30.66296328368664
  0
LINE
  5
8DCF
  8
0
 10
50.24686071078952
 20
219.6387443773091
 30
0.0
 11
51.40686071078937
 21
219.6387443773091
 31
0.0
  0
LINE
  5
8DD0
  8
0
 10
51.04436071078965
 20
218.9137443773087
 30
0.0
 11
51.33436071078961
 21
218.9137443773087
 31
0.0
  0
LINE
  5
8DD1
  8
0
 10
51.55186071078981
 20
217.1012443773085
 30
0.0
 11
52.34936071078948
 21
217.1012443773085
 31
0.0
  0
ARC
  5
8DD2
  8
0
 10
51.33436071078961
 20
218.6962443773087
 30
0.0
 40
0.2175
 50
270.0
 51
90.0
  0
ARC
  5
8DD3
  8
0
 10
51.40686071078937
 20
218.6962443773087
 30
0.0
 40
0.9425
 50
328.1493895340829
 51
90.0
  0
LINE
  5
8DD4
  8
0
 10
51.18936071078963
 20
218.478744377309
 30
0.0
 11
51.18936071078963
 21
217.8987443773086
 31
0.0
  0
LINE
  5
8DD5
  8
0
 10
52.56686071078968
 20
217.1012443773085
 30
0.0
 11
52.56686071078968
 21
219.6387443773091
 31
0.0
  0
LINE
  5
8DD6
  8
0
 10
53.3643607107898
 20
217.1012443773085
 30
0.0
 11
53.3643607107898
 21
219.6387443773091
 31
0.0
  0
LINE
  5
8DD7
  8
0
 10
56.26436071078943
 20
217.1374943773086
 30
0.0
 11
56.26436071078943
 21
218.5874943773084
 31
0.0
  0
LINE
  5
8DD8
  8
0
 10
52.56686071078968
 20
219.6387443773091
 30
0.0
 11
53.3643607107898
 21
219.6387443773091
 31
0.0
  0
LINE
  5
8DD9
  8
0
 10
52.56686071078968
 20
217.1012443773085
 30
0.0
 11
53.3643607107898
 21
217.1012443773085
 31
0.0
  0
ARC
  5
8DDA
  8
0
 10
55.53936071078952
 20
218.3699943773087
 30
0.0
 40
1.305
 50
84.27518954777628
 51
281.4211862750073
  0
ARC
  5
8DDB
  8
0
 10
55.53936071078952
 20
218.3699943773087
 30
0.0
 40
0.5075000000000001
 50
84.27518954777645
 51
270.0
  0
CIRCLE
  5
8DDC
  8
0
 10
57.78686071078947
 20
218.3699943773087
 30
0.0
 40
1.305
  0
CIRCLE
  5
8DDD
  8
0
 10
57.78686071078947
 20
218.3699943773087
 30
0.0
 40
0.5075000000000001
  0
LINE
  5
8DDE
  8
0
 10
55.53936071078952
 20
217.862494377309
 30
0.0
 11
55.53936071078952
 21
218.5874943773084
 31
0.0
  0
LINE
  5
8DDF
  8
0
 10
55.53936071078952
 20
218.5874943773084
 30
0.0
 11
56.26436071078943
 21
218.5874943773084
 31
0.0
  0
LINE
  5
8DE0
  8
0
 10
55.79777655237386
 20
217.0908359614674
 30
0.0
 11
56.26436071078943
 21
217.1374943773086
 31
0.0
  0
LINE
  5
8DE1
  8
0
 10
55.66953527438055
 20
219.6684856491291
 30
0.0
 11
56.26436071078943
 21
219.6387443773091
 31
0.0
  0
LINE
  5
8DE2
  8
0
 10
56.26436071078943
 20
219.6387443773091
 30
0.0
 11
56.26436071078943
 21
218.8412443773085
 31
0.0
  0
LINE
  5
8DE3
  8
0
 10
56.26436071078943
 20
218.8412443773085
 30
0.0
 11
55.58998415218603
 21
218.8749632052394
 31
0.0
  0
LINE
  5
8DE4
  8
0
 10
59.30936071078951
 20
217.1012443773085
 30
0.0
 11
59.30936071078951
 21
219.6387443773091
 31
0.0
  0
LINE
  5
8DE5
  8
0
 10
61.41186071078947
 20
217.1012443773085
 30
0.0
 11
61.41186071078947
 21
217.6812443773084
 31
0.0
  0
LINE
  5
8DE6
  8
0
 10
61.41186071078947
 20
219.0587443773092
 30
0.0
 11
61.41186071078947
 21
219.6387443773091
 31
0.0
  0
LINE
  5
8DE7
  8
0
 10
59.30936071078951
 20
217.1012443773085
 30
0.0
 11
60.10686071078963
 21
217.1012443773085
 31
0.0
  0
LINE
  5
8DE8
  8
0
 10
59.30936071078951
 20
219.6387443773091
 30
0.0
 11
60.10686071078963
 21
219.6387443773091
 31
0.0
  0
LINE
  5
8DE9
  8
0
 10
60.10686071078963
 20
219.6387443773091
 30
0.0
 11
60.10686071078963
 21
218.768744377309
 31
0.0
  0
LINE
  5
8DEA
  8
0
 10
60.6143607107898
 20
219.6387443773091
 30
0.0
 11
60.6143607107898
 21
219.0587443773092
 31
0.0
  0
LINE
  5
8DEB
  8
0
 10
60.10686071078963
 20
217.1012443773085
 30
0.0
 11
60.10686071078963
 21
217.9712443773084
 31
0.0
  0
LINE
  5
8DEC
  8
0
 10
60.6143607107898
 20
217.1012443773085
 30
0.0
 11
60.6143607107898
 21
217.6812443773084
 31
0.0
  0
ARC
  5
8DED
  8
0
 10
60.32436071078938
 20
217.6812443773084
 30
0.0
 40
0.29
 50
0.0
 51
90.0
  0
ARC
  5
8DEE
  8
0
 10
60.32436071078938
 20
217.6812443773084
 30
0.0
 40
1.0875
 50
0.0
 51
39.29648023919341
  0
LINE
  5
8DEF
  8
0
 10
60.6143607107898
 20
219.6387443773091
 30
0.0
 11
61.41186071078947
 21
219.6387443773091
 31
0.0
  0
LINE
  5
8DF0
  8
0
 10
60.6143607107898
 20
217.1012443773085
 30
0.0
 11
61.41186071078947
 21
217.1012443773085
 31
0.0
  0
LINE
  5
8DF1
  8
0
 10
60.10686071078963
 20
218.768744377309
 30
0.0
 11
60.32436071078938
 21
218.768744377309
 31
0.0
  0
ARC
  5
8DF2
  8
0
 10
60.32436071078938
 20
219.0587443773092
 30
0.0
 40
0.29
 50
270.0
 51
0.0
  0
ARC
  5
8DF3
  8
0
 10
60.32436071078938
 20
219.0587443773092
 30
0.0
 40
1.0875
 50
320.7035197608225
 51
0.0
  0
LINE
  5
8DF4
  8
0
 10
60.10686071078963
 20
217.9712443773084
 30
0.0
 11
60.32436071078938
 21
217.9712443773084
 31
0.0
  0
LINE
  5
8DF5
  8
0
 10
61.62936071078967
 20
217.1012443773085
 30
0.0
 11
61.62936071078967
 21
219.6387443773091
 31
0.0
  0
LINE
  5
8DF6
  8
0
 10
62.4268607107898
 20
217.1012443773085
 30
0.0
 11
62.4268607107898
 21
219.6387443773091
 31
0.0
  0
LINE
  5
8DF7
  8
0
 10
61.62936071078967
 20
219.6387443773091
 30
0.0
 11
62.4268607107898
 21
219.6387443773091
 31
0.0
  0
LINE
  5
8DF8
  8
0
 10
61.62936071078967
 20
217.1012443773085
 30
0.0
 11
62.4268607107898
 21
217.1012443773085
 31
0.0
  0
LINE
  5
8DF9
  8
0
 10
62.64436071078954
 20
217.1012443773085
 30
0.0
 11
62.64436071078954
 21
218.5874943773084
 31
0.0
  0
LINE
  5
8DFA
  8
0
 10
64.7468607107895
 20
217.1012443773085
 30
0.0
 11
64.7468607107895
 21
218.5874943773084
 31
0.0
  0
LINE
  5
8DFB
  8
0
 10
62.64436071078954
 20
217.1012443773085
 30
0.0
 11
63.44186071078967
 21
217.1012443773085
 31
0.0
  0
LINE
  5
8DFC
  8
0
 10
63.44186071078967
 20
217.1012443773085
 30
0.0
 11
63.44186071078967
 21
218.5874943773084
 31
0.0
  0
LINE
  5
8DFD
  8
0
 10
63.94936071078938
 20
217.1012443773085
 30
0.0
 11
63.94936071078938
 21
218.5874943773084
 31
0.0
  0
LINE
  5
8DFE
  8
0
 10
63.94936071078938
 20
217.1012443773085
 30
0.0
 11
64.7468607107895
 21
217.1012443773085
 31
0.0
  0
ARC
  5
8DFF
  8
0
 10
63.69561071078952
 20
218.5874943773084
 30
0.0
 40
1.05125
 50
0.0
 51
180.0
  0
ARC
  5
8E00
  8
0
 10
63.69561071078952
 20
218.5874943773084
 30
0.0
 40
0.25375
 50
0.0
 51
180.0
  0
LINE
  5
8E01
  8
0
 10
56.5218607107896
 20
212.8911362700034
 30
0.0
 11
64.5218607107896
 21
212.8911362700034
 31
0.0
  0
ARC
  5
8E02
  8
0
 10
64.5218607107896
 20
210.8911362700034
 30
0.0
 40
2.0
 50
0.0
 51
90.0
  0
ARC
  5
8E03
  8
0
 10
56.5218607107896
 20
210.8911362700034
 30
0.0
 40
2.0
 50
90.0
 51
180.0
  0
ARC
  5
8E04
  8
0
 10
64.5218607107896
 20
203.8911362700029
 30
0.0
 40
2.0
 50
270.0
 51
0.0
  0
LINE
  5
8E05
  8
0
 10
66.5218607107896
 20
203.8911362700029
 30
0.0
 11
66.5218607107896
 21
210.8911362700034
 31
0.0
  0
LINE
  5
8E06
  8
0
 10
56.5218607107896
 20
201.8911362700029
 30
0.0
 11
64.5218607107896
 21
201.8911362700029
 31
0.0
  0
ARC
  5
8E07
  8
0
 10
56.5218607107896
 20
203.8911362700029
 30
0.0
 40
2.0
 50
180.0
 51
270.0
  0
LINE
  5
8E08
  8
0
 10
54.5218607107896
 20
203.8911362700029
 30
0.0
 11
54.5218607107896
 21
210.8911362700034
 31
0.0
  0
CIRCLE
  5
8E09
  8
0
 10
95.52186071078958
 20
209.8911362700034
 30
0.0
 40
7.499999999999949
  0
CIRCLE
  5
8E0A
  8
0
 10
95.52186071078958
 20
209.8911362700034
 30
0.0
 40
8.20000000000001
  0
CIRCLE
  5
8E0B
  8
0
 10
95.52186071078958
 20
209.8911362700034
 30
0.0
 40
8.499999999999963
  0
LINE
  5
8E0C
  8
0
 10
68.27186071078958
 20
203.8911362700029
 30
0.0
 11
68.27186071078958
 21
215.8911362700034
 31
0.0
  0
LINE
  5
8E0D
  8
0
 10
68.57186071078954
 20
203.8911362700029
 30
0.0
 11
68.57186071078954
 21
209.8911362700029
 31
0.0
  0
ARC
  5
8E0E
  8
0
 10
70.27186071078958
 20
203.8911362700029
 30
0.0
 40
2.0
 50
180.0
 51
270.0
1001
GENIUS_GENOBJ-N-FIL_13
1002
{
1000
OWNER
1000
GEN
1002
}
1001
GENIUS_GENODEF_13
1002
{
1000
HIER
1070
     0
1002
}
1002
{
1000
MANEDIT
1070
     0
1002
}
1002
{
1000
NOSEL
1070
     0
1002
}
1002
{
1000
BEHIND
1070
     0
1002
}
1002
{
1000
OTHER
1070
     0
1002
}
1002
{
1000
REACTOR
1002
}
  0
ARC
  5
8E0F
  8
0
 10
70.27186071078958
 20
203.8911362700029
 30
0.0
 40
1.7
 50
180.0
 51
270.0
1001
GENIUS_GENOBJ-N-FIL_13
1002
{
1000
OWNER
1000
GEN
1002
}
1001
GENIUS_GENODEF_13
1002
{
1000
HIER
1070
     0
1002
}
1002
{
1000
MANEDIT
1070
     0
1002
}
1002
{
1000
NOSEL
1070
     0
1002
}
1002
{
1000
BEHIND
1070
     0
1002
}
1002
{
1000
OTHER
1070
     0
1002
}
1002
{
1000
REACTOR
1002
}
  0
LINE
  5
8E10
  8
0
 10
86.27186071078867
 20
203.8911362700029
 30
0.0
 11
86.27186071078867
 21
215.8911362700024
 31
0.0
  0
LINE
  5
8E11
  8
0
 10
85.97186071078872
 20
203.8911362700029
 30
0.0
 11
85.97186071078872
 21
209.8911362700029
 31
0.0
  0
ARC
  5
8E12
  8
0
 10
84.27186071078867
 20
215.8911362700024
 30
0.0
 40
2.0
 50
0.0
 51
90.0
1001
GENIUS_GENODEF_13
1002
{
1000
HIER
1070
     0
1002
}
1002
{
1000
MANEDIT
1070
     0
1002
}
1002
{
1000
NOSEL
1070
     0
1002
}
1002
{
1000
BEHIND
1070
     0
1002
}
1002
{
1000
OTHER
1070
     0
1002
}
1002
{
1000
REACTOR
1002
}
1001
GENIUS_GENOBJ-N-FIL_13
1002
{
1000
OWNER
1000
GEN
1002
}
  0
INSERT
  5
8E13
  8
0
  2
*X14
 10
0.0
 20
0.0
 30
0.0
  0
LINE
  5
8E14
  8
0
 10
86.27186071078867
 20
209.8911362700029
 30
0.0
 11
68.27186071078958
 21
209.8911362700029
 31
0.0
  0
CIRCLE
  5
8E15
  8
0
 10
77.4734742502047
 20
213.8911362700034
 30
0.0
 40
2.0
  0
LINE
  5
8E16
  8
0
 10
84.27186071078867
 20
217.8911362700024
 30
0.0
 11
70.27186071078958
 21
217.8911362700034
 31
0.0
  0
ARC
  5
8E17
  8
0
 10
70.27186071078958
 20
215.8911362700034
 30
0.0
 40
2.0
 50
90.0
 51
180.0
1001
GENIUS_GENOBJ-N-FIL_13
1002
{
1000
OWNER
1000
GEN
1002
}
1001
GENIUS_GENODEF_13
1002
{
1000
HIER
1070
     0
1002
}
1002
{
1000
MANEDIT
1070
     0
1002
}
1002
{
1000
NOSEL
1070
     0
1002
}
1002
{
1000
BEHIND
1070
     0
1002
}
1002
{
1000
OTHER
1070
     0
1002
}
1002
{
1000
REACTOR
1002
}
  0
LINE
  5
8E18
  8
0
 10
84.27186071078867
 20
201.8911362700029
 30
0.0
 11
70.27186071078958
 21
201.8911362700029
 31
0.0
  0
LINE
  5
8E19
  8
0
 10
84.27186071078867
 20
202.1911362700029
 30
0.0
 11
70.27186071078958
 21
202.1911362700029
 31
0.0
  0
ARC
  5
8E1A
  8
0
 10
84.27186071078867
 20
203.8911362700029
 30
0.0
 40
2.0
 50
270.0
 51
0.0
1001
GENIUS_GENODEF_13
1002
{
1000
HIER
1070
     0
1002
}
1002
{
1000
MANEDIT
1070
     0
1002
}
1002
{
1000
NOSEL
1070
     0
1002
}
1002
{
1000
BEHIND
1070
     0
1002
}
1002
{
1000
OTHER
1070
     0
1002
}
1002
{
1000
REACTOR
1002
}
1001
GENIUS_GENOBJ-N-FIL_13
1002
{
1000
OWNER
1000
GEN
1002
}
  0
ARC
  5
8E1B
  8
0
 10
84.27186071078867
 20
203.8911362700029
 30
0.0
 40
1.7
 50
270.0
 51
0.0
1001
GENIUS_GENODEF_13
1002
{
1000
HIER
1070
     0
1002
}
1002
{
1000
MANEDIT
1070
     0
1002
}
1002
{
1000
NOSEL
1070
     0
1002
}
1002
{
1000
BEHIND
1070
     0
1002
}
1002
{
1000
OTHER
1070
     0
1002
}
1002
{
1000
REACTOR
1002
}
1001
GENIUS_GENOBJ-N-FIL_13
1002
{
1000
OWNER
1000
GEN
1002
}
  0
TEXT
  5
8E1C
  8
0
 10
69.34773150036412
 20
212.9769742415556
 30
0.0
 40
1.9
  1
給水
  0
TEXT
  5
8E1D
  8
0
 10
89.34301098908271
 20
207.9715320646849
 30
0.0
 40
4.0
  1
PUSH
 41
1.2
  0
TEXT
  5
8E1E
  8
0
 10
42.15052490373952
 20
220.3458387727714
 30
0.0
 40
1.8
  1
電動水抜操作盤
  0
TEXT
  5
8E1F
  8
0
 10
42.07371599835918
 20
214.4200502755542
 30
0.0
 40
1.8
  1
ER2000-K
  0
TEXT
  5
8E21
  8
0
 10
44.47302753709985
 20
198.5567190563594
 30
0.0
 40
1.3
  1
冬期以外(凍結の心配がない期間)や長期間使用しないときは電源をOFFにしてください
  0
CIRCLE
  5
8E24
  8
0
 10
42.83879638719452
 20
198.5903705977995
 30
0.0
 40
0.1
  0
LINE
  5
8E25
  8
0
 10
42.73879638719461
 20
199.5903705977995
 30
0.0
 11
42.78923886507062
 21
198.833733429659
 31
0.0
  0
LINE
  5
8E26
  8
0
 10
42.93879638719488
 20
199.5903705977995
 30
0.0
 11
42.88835390931843
 21
198.8337334296572
 31
0.0
  0
ARC
  5
8E27
  8
0
 10
42.83879638719452
 20
199.5903705977995
 30
0.0
 40
0.1
 50
0.0
 51
180.0
  0
ARC
  5
8E28
  8
0
 10
42.83879638719452
 20
198.8403705977995
 30
0.0
 40
0.05
 50
187.6281496672678
 51
352.3718503306272
  0
TEXT
  5
8E2C
  8
0
 10
55.65609498313665
 20
203.1068556636895
 30
0.0
 40
1.9
  1
点検
  0
CIRCLE
  5
8E2D
  8
0
 10
82.52186071079004
 20
205.8911362700032
 30
0.0
 40
2.0
  0
CIRCLE
  5
8E2E
  8
0
 10
82.52186071079004
 20
205.8911362700032
 30
0.0
 40
1.5
  0
CIRCLE
  5
8E2F
  8
0
 10
82.52186071079004
 20
213.8911362700032
 30
0.0
 40
2.0
  0
CIRCLE
  5
8E30
  8
0
 10
82.52186071079004
 20
213.8911362700032
 30
0.0
 40
1.5
  0
ARC
  5
8E31
  8
0
 10
64.27349690451776
 20
204.4584520354259
 30
0.0
 40
0.9999999999999992
 50
233.0491207032591
 51
57.32628399712536
  0
LINE
  5
8E32
  8
0
 10
63.67236678704718
 20
203.6593008720847
 30
0.0
 11
58.96523257543258
 21
207.2000579545677
 31
0.0
  0
LINE
  5
8E33
  8
0
 10
59.85525242607737
 20
208.4800423840364
 30
0.0
 11
64.81335113157989
 21
205.3002105598993
 31
0.0
  0
ARC
  5
8E34
  8
0
 10
57.40560133188032
 20
209.2339502767104
 30
0.0
 40
1.99079584716086
 50
1.683229077249547
 51
160.7903378653509
  0
ARC
  5
8E35
  8
0
 10
60.39510665313993
 20
209.3218009085096
 30
0.0
 40
0.9999999999999992
 50
181.6832290772424
 51
237.3262839971245
1001
GENIUS_GENODEF_13
1002
{
1000
HIER
1070
     0
1002
}
1002
{
1000
MANEDIT
1070
     0
1002
}
1002
{
1000
NOSEL
1070
     0
1002
}
1002
{
1000
BEHIND
1070
     0
1002
}
1002
{
1000
OTHER
1070
     0
1002
}
1002
{
1000
REACTOR
1002
}
1001
GENIUS_GENOBJ-N-FIL_13
1002
{
1000
OWNER
1000
GEN
1002
}
  0
ARC
  5
8E36
  8
0
 10
57.40560133188032
 20
209.2339502767104
 30
0.0
 40
1.99079584716086
 50
219.5850668351124
 51
288.6921756231421
  0
ARC
  5
8E37
  8
0
 10
58.36410245796237
 20
206.4009067912262
 30
0.0
 40
0.9999999999999992
 50
53.04912070325908
 51
108.6921756231406
1001
GENIUS_GENOBJ-N-FIL_13
1002
{
1000
OWNER
1000
GEN
1002
}
1001
GENIUS_GENODEF_13
1002
{
1000
HIER
1070
     0
1002
}
1002
{
1000
MANEDIT
1070
     0
1002
}
1002
{
1000
NOSEL
1070
     0
1002
}
1002
{
1000
BEHIND
1070
     0
1002
}
1002
{
1000
OTHER
1070
     0
1002
}
1002
{
1000
REACTOR
1002
}
  0
LINE
  5
8E38
  8
0
 10
57.96654585710498
 20
209.3347558361868
 30
0.0
 11
57.58409148041194
 21
208.273162916147
 31
0.0
  0
LINE
  5
8E39
  8
0
 10
57.58409148041194
 20
208.273162916147
 30
0.0
 11
55.87133608188206
 21
207.9653690819417
 31
0.0
  0
LINE
  5
8E3A
  8
0
 10
57.96654585710486
 20
209.3347558361875
 30
0.0
 11
57.23840660821813
 21
210.1967675022119
 31
0.0
  0
LINE
  5
8E3B
  8
0
 10
57.23840660821813
 20
210.1967675022119
 30
0.0
 11
55.52565120968801
 21
209.8889736680063
 31
0.0
  0
CIRCLE
  5
8E3C
  8
0
 10
64.27349690451776
 20
204.4584520354259
 30
0.0
 40
0.4999999999999996
  0
LINE
  5
8E3D
  8
0
 10
42.53437110525476
 20
212.5722712700029
 30
0.0
 11
44.87115260525479
 21
212.5722712700029
 31
0.0
  0
LINE
  5
8E3E
  8
0
 10
44.87115260525479
 20
212.5722712700029
 30
0.0
 11
44.87115260525479
 21
212.9062551700029
 31
0.0
  0
LINE
  5
8E3F
  8
0
 10
44.87115260525479
 20
212.9062551700029
 30
0.0
 11
42.53437110525476
 21
212.9062551700029
 31
0.0
  0
LINE
  5
8E40
  8
0
 10
42.53437110525476
 20
212.9062551700029
 30
0.0
 11
42.53437110525476
 21
212.5722712700029
 31
0.0
  0
LINE
  5
8E41
  8
0
 10
45.53874610525475
 20
212.5722712700029
 30
0.0
 11
46.53996060525475
 21
212.5722712700029
 31
0.0
  0
LINE
  5
8E42
  8
0
 10
46.53996060525475
 20
212.5722712700029
 30
0.0
 11
46.53996060525475
 21
212.9062551700029
 31
0.0
  0
LINE
  5
8E43
  8
0
 10
46.53996060525475
 20
212.9062551700029
 30
0.0
 11
45.53874610525475
 21
212.9062551700029
 31
0.0
  0
LINE
  5
8E44
  8
0
 10
45.53874610525475
 20
212.9062551700029
 30
0.0
 11
45.53874610525475
 21
212.5722712700029
 31
0.0
  0
LINE
  5
8E45
  8
0
 10
47.20751610525477
 20
212.5722712700029
 30
0.0
 11
47.54150000525476
 21
212.5722712700029
 31
0.0
  0
LINE
  5
8E46
  8
0
 10
47.54150000525476
 20
212.5722712700029
 30
0.0
 11
47.54150000525476
 21
212.9062551700029
 31
0.0
  0
LINE
  5
8E47
  8
0
 10
47.54150000525476
 20
212.9062551700029
 30
0.0
 11
47.20751610525477
 21
212.9062551700029
 31
0.0
  0
LINE
  5
8E48
  8
0
 10
47.20751610525477
 20
212.9062551700029
 30
0.0
 11
47.20751610525477
 21
212.5722712700029
 31
0.0
  0
LINE
  5
8E49
  8
0
 10
47.87508110525476
 20
212.5722712700029
 30
0.0
 11
48.20906595525474
 21
212.5722712700029
 31
0.0
  0
LINE
  5
8E4A
  8
0
 10
48.20906595525474
 20
212.5722712700029
 30
0.0
 11
48.20906595525474
 21
212.9062551700029
 31
0.0
  0
LINE
  5
8E4B
  8
0
 10
48.20906595525474
 20
212.9062551700029
 30
0.0
 11
47.87508110525476
 21
212.9062551700029
 31
0.0
  0
LINE
  5
8E4C
  8
0
 10
47.87508110525476
 20
212.9062551700029
 30
0.0
 11
47.87508110525476
 21
212.5722712700029
 31
0.0
  0
LINE
  5
8E4D
  8
0
 10
48.54274110525475
 20
212.5722712700029
 30
0.0
 11
48.87672595525476
 21
212.5722712700029
 31
0.0
  0
LINE
  5
8E4E
  8
0
 10
48.87672595525476
 20
212.5722712700029
 30
0.0
 11
48.87672595525476
 21
212.9062551700029
 31
0.0
  0
LINE
  5
8E4F
  8
0
 10
48.87672595525476
 20
212.9062551700029
 30
0.0
 11
48.54274110525475
 21
212.9062551700029
 31
0.0
  0
LINE
  5
8E50
  8
0
 10
48.54274110525475
 20
212.9062551700029
 30
0.0
 11
48.54274110525475
 21
212.5722712700029
 31
0.0
  0
LINE
  5
8E51
  8
0
 10
49.87749110525476
 20
212.5722712700029
 30
0.0
 11
50.21147500525475
 21
212.5722712700029
 31
0.0
  0
LINE
  5
8E52
  8
0
 10
50.21147500525475
 20
212.5722712700029
 30
0.0
 11
50.21147500525475
 21
212.9062551700029
 31
0.0
  0
LINE
  5
8E53
  8
0
 10
50.21147500525475
 20
212.9062551700029
 30
0.0
 11
49.87749110525476
 21
212.9062551700029
 31
0.0
  0
LINE
  5
8E54
  8
0
 10
49.87749110525476
 20
212.9062551700029
 30
0.0
 11
49.87749110525476
 21
212.5722712700029
 31
0.0
  0
LINE
  5
8E56
  8
0
 10
51.54708000525477
 20
212.5722712700029
 30
0.0
 11
53.21550610525476
 21
212.5722712700029
 31
0.0
  0
LINE
  5
8E57
  8
0
 10
53.54987760525475
 20
210.5691012700029
 30
0.0
 11
53.54987760525475
 21
212.9062551700029
 31
0.0
  0
LINE
  5
8E58
  8
0
 10
53.54987760525475
 20
212.9062551700029
 30
0.0
 11
51.21309610525475
 21
212.9062551700029
 31
0.0
  0
LINE
  5
8E59
  8
0
 10
51.21309610525475
 20
212.9062551700029
 30
0.0
 11
51.21309610525475
 21
210.5691012700029
 31
0.0
  0
LINE
  5
8E5A
  8
0
 10
42.53437110525476
 20
212.2383462700029
 30
0.0
 11
42.86872645525477
 21
212.2383462700029
 31
0.0
  0
LINE
  5
8E5B
  8
0
 10
42.86872645525477
 20
212.2383462700029
 30
0.0
 11
42.86872645525477
 21
212.5723311200029
 31
0.0
  0
LINE
  5
8E5C
  8
0
 10
42.86872645525477
 20
212.5723311200029
 30
0.0
 11
42.53437110525476
 21
212.5723311200029
 31
0.0
  0
LINE
  5
8E5D
  8
0
 10
42.53437110525476
 20
212.5723311200029
 30
0.0
 11
42.53437110525476
 21
212.2383462700029
 31
0.0
  0
LINE
  5
8E5E
  8
0
 10
44.53744610525473
 20
212.2383462700029
 30
0.0
 11
44.87143000525475
 21
212.2383462700029
 31
0.0
  0
LINE
  5
8E5F
  8
0
 10
44.87143000525475
 20
212.2383462700029
 30
0.0
 11
44.87143000525475
 21
212.5723311200029
 31
0.0
  0
LINE
  5
8E60
  8
0
 10
44.87143000525475
 20
212.5723311200029
 30
0.0
 11
44.53744610525473
 21
212.5723311200029
 31
0.0
  0
LINE
  5
8E61
  8
0
 10
44.53744610525473
 20
212.5723311200029
 30
0.0
 11
44.53744610525473
 21
212.2383462700029
 31
0.0
  0
LINE
  5
8E62
  8
0
 10
45.20510610525474
 20
212.2383462700029
 30
0.0
 11
46.20669110525475
 21
212.2383462700029
 31
0.0
  0
LINE
  5
8E63
  8
0
 10
46.20669110525475
 20
212.2383462700029
 30
0.0
 11
46.20669110525475
 21
212.5723311200029
 31
0.0
  0
LINE
  5
8E64
  8
0
 10
46.20669110525475
 20
212.5723311200029
 30
0.0
 11
45.20510610525474
 21
212.5723311200029
 31
0.0
  0
LINE
  5
8E65
  8
0
 10
45.20510610525474
 20
212.5723311200029
 30
0.0
 11
45.20510610525474
 21
212.2383462700029
 31
0.0
  0
LINE
  5
8E66
  8
0
 10
46.54033110525478
 20
212.2383462700029
 30
0.0
 11
47.54154560525475
 21
212.2383462700029
 31
0.0
  0
LINE
  5
8E67
  8
0
 10
47.54154560525475
 20
212.2383462700029
 30
0.0
 11
47.54154560525475
 21
212.5723311200029
 31
0.0
  0
LINE
  5
8E68
  8
0
 10
47.54154560525475
 20
212.5723311200029
 30
0.0
 11
46.54033110525478
 21
212.5723311200029
 31
0.0
  0
LINE
  5
8E69
  8
0
 10
46.54033110525478
 20
212.5723311200029
 30
0.0
 11
46.54033110525478
 21
212.2383462700029
 31
0.0
  0
LINE
  5
8E6A
  8
0
 10
48.20910110525477
 20
212.2383462700029
 30
0.0
 11
48.54308500525474
 21
212.2383462700029
 31
0.0
  0
LINE
  5
8E6B
  8
0
 10
48.54308500525474
 20
212.2383462700029
 30
0.0
 11
48.54308500525474
 21
212.5723311200029
 31
0.0
  0
LINE
  5
8E6C
  8
0
 10
48.54308500525474
 20
212.5723311200029
 30
0.0
 11
48.20910110525477
 21
212.5723311200029
 31
0.0
  0
LINE
  5
8E6D
  8
0
 10
48.20910110525477
 20
212.5723311200029
 30
0.0
 11
48.20910110525477
 21
212.2383462700029
 31
0.0
  0
LINE
  5
8E6E
  8
0
 10
49.20992610525477
 20
212.2383462700029
 30
0.0
 11
49.54428145525475
 21
212.2383462700029
 31
0.0
  0
LINE
  5
8E6F
  8
0
 10
49.54428145525475
 20
212.2383462700029
 30
0.0
 11
49.54428145525475
 21
212.5723311200029
 31
0.0
  0
LINE
  5
8E70
  8
0
 10
49.54428145525475
 20
212.5723311200029
 30
0.0
 11
49.20992610525477
 21
212.5723311200029
 31
0.0
  0
LINE
  5
8E71
  8
0
 10
49.20992610525477
 20
212.5723311200029
 30
0.0
 11
49.20992610525477
 21
212.2383462700029
 31
0.0
  0
LINE
  5
8E72
  8
0
 10
49.87749110525476
 20
212.2383462700029
 30
0.0
 11
50.21147500525475
 21
212.2383462700029
 31
0.0
  0
LINE
  5
8E73
  8
0
 10
50.21147500525475
 20
212.2383462700029
 30
0.0
 11
50.21147500525475
 21
212.5723311200029
 31
0.0
  0
LINE
  5
8E74
  8
0
 10
50.21147500525475
 20
212.5723311200029
 30
0.0
 11
49.87749110525476
 21
212.5723311200029
 31
0.0
  0
LINE
  5
8E75
  8
0
 10
49.87749110525476
 20
212.5723311200029
 30
0.0
 11
49.87749110525476
 21
212.2383462700029
 31
0.0
  0
LINE
  5
8E76
  8
0
 10
50.54591110525473
 20
212.2383462700029
 30
0.0
 11
50.87989595525477
 21
212.2383462700029
 31
0.0
  0
LINE
  5
8E78
  8
0
 10
50.87989595525477
 20
212.2383016200029
 30
0.0
 11
50.87989595525477
 21
212.5723311200029
 31
0.0
  0
LINE
  5
8E79
  8
0
 10
50.87989595525477
 20
212.5723311200029
 30
0.0
 11
50.54591110525473
 21
212.5723311200029
 31
0.0
  0
LINE
  5
8E7A
  8
0
 10
50.54591110525473
 20
212.5723311200029
 30
0.0
 11
50.54591110525473
 21
212.2383016200029
 31
0.0
  0
LINE
  5
8E7B
  8
0
 10
42.53437110525476
 20
211.9039462700029
 30
0.0
 11
42.86872645525477
 21
211.9039462700029
 31
0.0
  0
LINE
  5
8E7C
  8
0
 10
42.86872645525477
 20
211.9039462700029
 30
0.0
 11
42.86872645525477
 21
212.2383016200029
 31
0.0
  0
LINE
  5
8E7D
  8
0
 10
42.86872645525477
 20
212.2383016200029
 30
0.0
 11
42.53437110525476
 21
212.2383016200029
 31
0.0
  0
LINE
  5
8E7E
  8
0
 10
42.53437110525476
 20
212.2383016200029
 30
0.0
 11
42.53437110525476
 21
211.9039462700029
 31
0.0
  0
LINE
  5
8E7F
  8
0
 10
43.20193610525473
 20
211.9039462700029
 30
0.0
 11
44.20352110525477
 21
211.9039462700029
 31
0.0
  0
LINE
  5
8E80
  8
0
 10
44.20352110525477
 20
211.9039462700029
 30
0.0
 11
44.20352110525477
 21
212.2383016200029
 31
0.0
  0
LINE
  5
8E81
  8
0
 10
44.20352110525477
 20
212.2383016200029
 30
0.0
 11
43.20193610525473
 21
212.2383016200029
 31
0.0
  0
LINE
  5
8E82
  8
0
 10
43.20193610525473
 20
212.2383016200029
 30
0.0
 11
43.20193610525473
 21
211.9039462700029
 31
0.0
  0
LINE
  5
8E83
  8
0
 10
44.53744610525473
 20
211.9039462700029
 30
0.0
 11
44.87143000525475
 21
211.9039462700029
 31
0.0
  0
LINE
  5
8E84
  8
0
 10
44.87143000525475
 20
211.9039462700029
 30
0.0
 11
44.87143000525475
 21
212.2383016200029
 31
0.0
  0
LINE
  5
8E85
  8
0
 10
44.87143000525475
 20
212.2383016200029
 30
0.0
 11
44.53744610525473
 21
212.2383016200029
 31
0.0
  0
LINE
  5
8E86
  8
0
 10
44.53744610525473
 20
212.2383016200029
 30
0.0
 11
44.53744610525473
 21
211.9039462700029
 31
0.0
  0
LINE
  5
8E87
  8
0
 10
45.20510610525474
 20
211.9039462700029
 30
0.0
 11
46.20669110525475
 21
211.9039462700029
 31
0.0
  0
LINE
  5
8E88
  8
0
 10
46.20669110525475
 20
211.9039462700029
 30
0.0
 11
46.20669110525475
 21
212.2383016200029
 31
0.0
  0
LINE
  5
8E89
  8
0
 10
46.20669110525475
 20
212.2383016200029
 30
0.0
 11
45.20510610525474
 21
212.2383016200029
 31
0.0
  0
LINE
  5
8E8A
  8
0
 10
45.20510610525474
 20
212.2383016200029
 30
0.0
 11
45.20510610525474
 21
211.9039462700029
 31
0.0
  0
LINE
  5
8E8B
  8
0
 10
46.54033110525478
 20
211.9039462700029
 30
0.0
 11
47.20755790525476
 21
211.9039462700029
 31
0.0
  0
LINE
  5
8E8C
  8
0
 10
47.20755790525476
 20
211.9039462700029
 30
0.0
 11
47.20755790525476
 21
212.2383016200029
 31
0.0
  0
LINE
  5
8E8D
  8
0
 10
47.20755790525476
 20
212.2383016200029
 30
0.0
 11
46.54033110525478
 21
212.2383016200029
 31
0.0
  0
LINE
  5
8E8E
  8
0
 10
46.54033110525478
 20
212.2383016200029
 30
0.0
 11
46.54033110525478
 21
211.9039462700029
 31
0.0
  0
LINE
  5
8E8F
  8
0
 10
47.54153610525475
 20
211.9039462700029
 30
0.0
 11
47.87589145525476
 21
211.9039462700029
 31
0.0
  0
LINE
  5
8E90
  8
0
 10
47.87589145525476
 20
211.9039462700029
 30
0.0
 11
47.87589145525476
 21
212.2383016200029
 31
0.0
  0
LINE
  5
8E91
  8
0
 10
47.87589145525476
 20
212.2383016200029
 30
0.0
 11
47.54153610525475
 21
212.2383016200029
 31
0.0
  0
LINE
  5
8E92
  8
0
 10
47.54153610525475
 20
212.2383016200029
 30
0.0
 11
47.54153610525475
 21
211.9039462700029
 31
0.0
  0
LINE
  5
8E93
  8
0
 10
48.20910110525477
 20
211.9039462700029
 30
0.0
 11
49.21068610525475
 21
211.9039462700029
 31
0.0
  0
LINE
  5
8E94
  8
0
 10
49.21068610525475
 20
211.9039462700029
 30
0.0
 11
49.21068610525475
 21
212.2383016200029
 31
0.0
  0
LINE
  5
8E95
  8
0
 10
49.21068610525475
 20
212.2383016200029
 30
0.0
 11
48.20910110525477
 21
212.2383016200029
 31
0.0
  0
LINE
  5
8E96
  8
0
 10
48.20910110525477
 20
212.2383016200029
 30
0.0
 11
48.20910110525477
 21
211.9039462700029
 31
0.0
  0
LINE
  5
8E97
  8
0
 10
49.54432610525475
 20
211.9039462700029
 30
0.0
 11
49.87831095525473
 21
211.9039462700029
 31
0.0
  0
LINE
  5
8E98
  8
0
 10
49.87831095525473
 20
211.9039462700029
 30
0.0
 11
49.87831095525473
 21
212.2383016200029
 31
0.0
  0
LINE
  5
8E99
  8
0
 10
49.87831095525473
 20
212.2383016200029
 30
0.0
 11
49.54432610525475
 21
212.2383016200029
 31
0.0
  0
LINE
  5
8E9A
  8
0
 10
49.54432610525475
 20
212.2383016200029
 30
0.0
 11
49.54432610525475
 21
211.9039462700029
 31
0.0
  0
LINE
  5
8E9B
  8
0
 10
50.54591110525473
 20
211.9039462700029
 30
0.0
 11
50.87989595525477
 21
211.9039462700029
 31
0.0
  0
LINE
  5
8E9C
  8
0
 10
50.87989595525477
 20
211.9039462700029
 30
0.0
 11
50.87989595525477
 21
212.2383016200029
 31
0.0
  0
LINE
  5
8E9D
  8
0
 10
50.87989595525477
 20
212.2383016200029
 30
0.0
 11
50.54591110525473
 21
212.2383016200029
 31
0.0
  0
LINE
  5
8E9E
  8
0
 10
50.54591110525473
 20
212.2383016200029
 30
0.0
 11
50.54591110525473
 21
211.9039462700029
 31
0.0
  0
LINE
  5
8EA0
  8
0
 10
52.88224610525475
 20
211.2367612700029
 30
0.0
 11
52.88224610525475
 21
212.2383016200029
 31
0.0
  0
LINE
  5
8EA1
  8
0
 10
52.88224610525475
 20
212.2383016200029
 30
0.0
 11
51.88066110525475
 21
212.2383016200029
 31
0.0
  0
LINE
  5
8EA2
  8
0
 10
51.88066110525475
 20
212.2383016200029
 30
0.0
 11
51.88066110525475
 21
211.2367612700029
 31
0.0
  0
LINE
  5
8EA3
  8
0
 10
42.53437110525476
 20
211.5706862700029
 30
0.0
 11
42.86872645525477
 21
211.5706862700029
 31
0.0
  0
LINE
  5
8EA4
  8
0
 10
42.86872645525477
 20
211.5706862700029
 30
0.0
 11
42.86872645525477
 21
211.9046701700029
 31
0.0
  0
LINE
  5
8EA5
  8
0
 10
42.86872645525477
 20
211.9046701700029
 30
0.0
 11
42.53437110525476
 21
211.9046701700029
 31
0.0
  0
LINE
  5
8EA6
  8
0
 10
42.53437110525476
 20
211.9046701700029
 30
0.0
 11
42.53437110525476
 21
211.5706862700029
 31
0.0
  0
LINE
  5
8EA7
  8
0
 10
43.20193610525473
 20
211.5706862700029
 30
0.0
 11
44.20352110525477
 21
211.5706862700029
 31
0.0
  0
LINE
  5
8EA8
  8
0
 10
44.20352110525477
 20
211.5706862700029
 30
0.0
 11
44.20352110525477
 21
211.9046701700029
 31
0.0
  0
LINE
  5
8EA9
  8
0
 10
44.20352110525477
 20
211.9046701700029
 30
0.0
 11
43.20193610525473
 21
211.9046701700029
 31
0.0
  0
LINE
  5
8EAA
  8
0
 10
43.20193610525473
 20
211.9046701700029
 30
0.0
 11
43.20193610525473
 21
211.5706862700029
 31
0.0
  0
LINE
  5
8EAB
  8
0
 10
44.53744610525473
 20
211.5706862700029
 30
0.0
 11
44.87143000525475
 21
211.5706862700029
 31
0.0
  0
LINE
  5
8EAC
  8
0
 10
44.87143000525475
 20
211.5706862700029
 30
0.0
 11
44.87143000525475
 21
211.9046701700029
 31
0.0
  0
LINE
  5
8EAD
  8
0
 10
44.87143000525475
 20
211.9046701700029
 30
0.0
 11
44.53744610525473
 21
211.9046701700029
 31
0.0
  0
LINE
  5
8EAE
  8
0
 10
44.53744610525473
 20
211.9046701700029
 30
0.0
 11
44.53744610525473
 21
211.5706862700029
 31
0.0
  0
LINE
  5
8EAF
  8
0
 10
45.20510610525474
 20
211.5706862700029
 30
0.0
 11
45.53909095525478
 21
211.5706862700029
 31
0.0
  0
LINE
  5
8EB0
  8
0
 10
45.53909095525478
 20
211.5706862700029
 30
0.0
 11
45.53909095525478
 21
211.9046701700029
 31
0.0
  0
LINE
  5
8EB1
  8
0
 10
45.53909095525478
 20
211.9046701700029
 30
0.0
 11
45.20510610525474
 21
211.9046701700029
 31
0.0
  0
LINE
  5
8EB2
  8
0
 10
45.20510610525474
 20
211.9046701700029
 30
0.0
 11
45.20510610525474
 21
211.5706862700029
 31
0.0
  0
LINE
  5
8EB3
  8
0
 10
48.87666610525474
 20
211.5706862700029
 30
0.0
 11
49.21065000525476
 21
211.5706862700029
 31
0.0
  0
LINE
  5
8EB4
  8
0
 10
49.21065000525476
 20
211.5706862700029
 30
0.0
 11
49.21065000525476
 21
211.9046701700029
 31
0.0
  0
LINE
  5
8EB5
  8
0
 10
49.21065000525476
 20
211.9046701700029
 30
0.0
 11
48.87666610525474
 21
211.9046701700029
 31
0.0
  0
LINE
  5
8EB6
  8
0
 10
48.87666610525474
 20
211.9046701700029
 30
0.0
 11
48.87666610525474
 21
211.5706862700029
 31
0.0
  0
LINE
  5
8EB7
  8
0
 10
49.54432610525475
 20
211.5706862700029
 30
0.0
 11
50.87915210525475
 21
211.5706862700029
 31
0.0
  0
LINE
  5
8EB8
  8
0
 10
50.87915210525475
 20
211.5706862700029
 30
0.0
 11
50.87915210525475
 21
211.9046701700029
 31
0.0
  0
LINE
  5
8EB9
  8
0
 10
50.87915210525475
 20
211.9046701700029
 30
0.0
 11
49.54432610525475
 21
211.9046701700029
 31
0.0
  0
LINE
  5
8EBA
  8
0
 10
49.54432610525475
 20
211.9046701700029
 30
0.0
 11
49.54432610525475
 21
211.5706862700029
 31
0.0
  0
LINE
  5
8EBB
  8
0
 10
42.53437110525476
 20
211.2367612700029
 30
0.0
 11
42.86872645525477
 21
211.2367612700029
 31
0.0
  0
LINE
  5
8EBC
  8
0
 10
42.86872645525477
 20
211.2367612700029
 30
0.0
 11
42.86872645525477
 21
211.5707461200029
 31
0.0
  0
LINE
  5
8EBD
  8
0
 10
42.86872645525477
 20
211.5707461200029
 30
0.0
 11
42.53437110525476
 21
211.5707461200029
 31
0.0
  0
LINE
  5
8EBE
  8
0
 10
42.53437110525476
 20
211.5707461200029
 30
0.0
 11
42.53437110525476
 21
211.2367612700029
 31
0.0
  0
LINE
  5
8EBF
  8
0
 10
43.20193610525473
 20
211.2367612700029
 30
0.0
 11
44.20352110525477
 21
211.2367612700029
 31
0.0
  0
LINE
  5
8EC0
  8
0
 10
44.20352110525477
 20
211.2367612700029
 30
0.0
 11
44.20352110525477
 21
211.5707461200029
 31
0.0
  0
LINE
  5
8EC1
  8
0
 10
44.20352110525477
 20
211.5707461200029
 30
0.0
 11
43.20193610525473
 21
211.5707461200029
 31
0.0
  0
LINE
  5
8EC2
  8
0
 10
43.20193610525473
 20
211.5707461200029
 30
0.0
 11
43.20193610525473
 21
211.2367612700029
 31
0.0
  0
LINE
  5
8EC3
  8
0
 10
44.53744610525473
 20
211.2367612700029
 30
0.0
 11
44.87143000525475
 21
211.2367612700029
 31
0.0
  0
LINE
  5
8EC4
  8
0
 10
44.87143000525475
 20
211.2367612700029
 30
0.0
 11
44.87143000525475
 21
211.5707461200029
 31
0.0
  0
LINE
  5
8EC5
  8
0
 10
44.87143000525475
 20
211.5707461200029
 30
0.0
 11
44.53744610525473
 21
211.5707461200029
 31
0.0
  0
LINE
  5
8EC6
  8
0
 10
44.53744610525473
 20
211.5707461200029
 30
0.0
 11
44.53744610525473
 21
211.2367612700029
 31
0.0
  0
LINE
  5
8EC7
  8
0
 10
45.53874610525475
 20
211.2367612700029
 30
0.0
 11
45.87273095525472
 21
211.2367612700029
 31
0.0
  0
LINE
  5
8EC8
  8
0
 10
45.87273095525472
 20
211.2367612700029
 30
0.0
 11
45.87273095525472
 21
211.5707461200029
 31
0.0
  0
LINE
  5
8EC9
  8
0
 10
45.87273095525472
 20
211.5707461200029
 30
0.0
 11
45.53874610525475
 21
211.5707461200029
 31
0.0
  0
LINE
  5
8ECA
  8
0
 10
45.53874610525475
 20
211.5707461200029
 30
0.0
 11
45.53874610525475
 21
211.2367612700029
 31
0.0
  0
LINE
  5
8ECB
  8
0
 10
46.20593110525476
 20
211.2367612700029
 30
0.0
 11
47.20751610525477
 21
211.2367612700029
 31
0.0
  0
LINE
  5
8ECC
  8
0
 10
47.20751610525477
 20
211.2367612700029
 30
0.0
 11
47.20751610525477
 21
211.5707461200029
 31
0.0
  0
LINE
  5
8ECD
  8
0
 10
47.20751610525477
 20
211.5707461200029
 30
0.0
 11
46.20593110525476
 21
211.5707461200029
 31
0.0
  0
LINE
  5
8ECE
  8
0
 10
46.20593110525476
 20
211.5707461200029
 30
0.0
 11
46.20593110525476
 21
211.2367612700029
 31
0.0
  0
LINE
  5
8ECF
  8
0
 10
47.54153610525475
 20
211.2367612700029
 30
0.0
 11
47.87589145525476
 21
211.2367612700029
 31
0.0
  0
LINE
  5
8ED0
  8
0
 10
47.87589145525476
 20
211.2367612700029
 30
0.0
 11
47.87589145525476
 21
211.5707461200029
 31
0.0
  0
LINE
  5
8ED1
  8
0
 10
47.87589145525476
 20
211.5707461200029
 30
0.0
 11
47.54153610525475
 21
211.5707461200029
 31
0.0
  0
LINE
  5
8ED2
  8
0
 10
47.54153610525475
 20
211.5707461200029
 30
0.0
 11
47.54153610525475
 21
211.2367612700029
 31
0.0
  0
LINE
  5
8ED3
  8
0
 10
48.20910110525477
 20
211.2367612700029
 30
0.0
 11
48.87669840525476
 21
211.2367612700029
 31
0.0
  0
LINE
  5
8ED4
  8
0
 10
48.87669840525476
 20
211.2367612700029
 30
0.0
 11
48.87669840525476
 21
211.5707461200029
 31
0.0
  0
LINE
  5
8ED5
  8
0
 10
48.87669840525476
 20
211.5707461200029
 30
0.0
 11
48.20910110525477
 21
211.5707461200029
 31
0.0
  0
LINE
  5
8ED6
  8
0
 10
48.20910110525477
 20
211.5707461200029
 30
0.0
 11
48.20910110525477
 21
211.2367612700029
 31
0.0
  0
LINE
  5
8ED7
  8
0
 10
50.21151110525477
 20
211.2367612700029
 30
0.0
 11
50.54586645525475
 21
211.2367612700029
 31
0.0
  0
LINE
  5
8ED8
  8
0
 10
50.54586645525475
 20
211.2367612700029
 30
0.0
 11
50.54586645525475
 21
211.5707461200029
 31
0.0
  0
LINE
  5
8ED9
  8
0
 10
50.54586645525475
 20
211.5707461200029
 30
0.0
 11
50.21151110525477
 21
211.5707461200029
 31
0.0
  0
LINE
  5
8EDA
  8
0
 10
50.21151110525477
 20
211.5707461200029
 30
0.0
 11
50.21151110525477
 21
211.2367612700029
 31
0.0
  0
LINE
  5
8EDB
  8
0
 10
51.88066110525475
 20
211.2367612700029
 30
0.0
 11
52.88224610525475
 21
211.2367612700029
 31
0.0
  0
LINE
  5
8EDC
  8
0
 10
42.53437110525476
 20
210.9031212700029
 30
0.0
 11
42.86872645525477
 21
210.9031212700029
 31
0.0
  0
LINE
  5
8EDD
  8
0
 10
42.86872645525477
 20
210.9031212700029
 30
0.0
 11
42.86872645525477
 21
211.2371061200029
 31
0.0
  0
LINE
  5
8EDE
  8
0
 10
42.86872645525477
 20
211.2371061200029
 30
0.0
 11
42.53437110525476
 21
211.2371061200029
 31
0.0
  0
LINE
  5
8EDF
  8
0
 10
42.53437110525476
 20
211.2371061200029
 30
0.0
 11
42.53437110525476
 21
210.9031212700029
 31
0.0
  0
LINE
  5
8EE0
  8
0
 10
44.53744610525473
 20
210.9031212700029
 30
0.0
 11
44.87143000525475
 21
210.9031212700029
 31
0.0
  0
LINE
  5
8EE1
  8
0
 10
44.87143000525475
 20
210.9031212700029
 30
0.0
 11
44.87143000525475
 21
211.2371061200029
 31
0.0
  0
LINE
  5
8EE2
  8
0
 10
44.87143000525475
 20
211.2371061200029
 30
0.0
 11
44.53744610525473
 21
211.2371061200029
 31
0.0
  0
LINE
  5
8EE3
  8
0
 10
44.53744610525473
 20
211.2371061200029
 30
0.0
 11
44.53744610525473
 21
210.9031212700029
 31
0.0
  0
LINE
  5
8EE4
  8
0
 10
46.87349610525473
 20
210.9031212700029
 30
0.0
 11
47.54109435525476
 21
210.9031212700029
 31
0.0
  0
LINE
  5
8EE5
  8
0
 10
47.54109435525476
 20
210.9031212700029
 30
0.0
 11
47.54109435525476
 21
211.2371061200029
 31
0.0
  0
LINE
  5
8EE6
  8
0
 10
47.54109435525476
 20
211.2371061200029
 30
0.0
 11
46.87349610525473
 21
211.2371061200029
 31
0.0
  0
LINE
  5
8EE7
  8
0
 10
46.87349610525473
 20
211.2371061200029
 30
0.0
 11
46.87349610525473
 21
210.9031212700029
 31
0.0
  0
LINE
  5
8EE8
  8
0
 10
47.87508110525476
 20
210.9031212700029
 30
0.0
 11
48.20906595525474
 21
210.9031212700029
 31
0.0
  0
LINE
  5
8EE9
  8
0
 10
48.20906595525474
 20
210.9031212700029
 30
0.0
 11
48.20906595525474
 21
211.2371061200029
 31
0.0
  0
LINE
  5
8EEA
  8
0
 10
48.20906595525474
 20
211.2371061200029
 30
0.0
 11
47.87508110525476
 21
211.2371061200029
 31
0.0
  0
LINE
  5
8EEB
  8
0
 10
47.87508110525476
 20
211.2371061200029
 30
0.0
 11
47.87508110525476
 21
210.9031212700029
 31
0.0
  0
LINE
  5
8EEC
  8
0
 10
48.54274110525475
 20
210.9031212700029
 30
0.0
 11
48.87672595525476
 21
210.9031212700029
 31
0.0
  0
LINE
  5
8EED
  8
0
 10
48.87672595525476
 20
210.9031212700029
 30
0.0
 11
48.87672595525476
 21
211.2371061200029
 31
0.0
  0
LINE
  5
8EEE
  8
0
 10
48.87672595525476
 20
211.2371061200029
 30
0.0
 11
48.54274110525475
 21
211.2371061200029
 31
0.0
  0
LINE
  5
8EEF
  8
0
 10
48.54274110525475
 20
211.2371061200029
 30
0.0
 11
48.54274110525475
 21
210.9031212700029
 31
0.0
  0
LINE
  5
8EF0
  8
0
 10
49.20992610525477
 20
210.9031212700029
 30
0.0
 11
49.54428145525475
 21
210.9031212700029
 31
0.0
  0
LINE
  5
8EF1
  8
0
 10
49.54428145525475
 20
210.9031212700029
 30
0.0
 11
49.54428145525475
 21
211.2371061200029
 31
0.0
  0
LINE
  5
8EF2
  8
0
 10
49.54428145525475
 20
211.2371061200029
 30
0.0
 11
49.20992610525477
 21
211.2371061200029
 31
0.0
  0
LINE
  5
8EF3
  8
0
 10
49.20992610525477
 20
211.2371061200029
 30
0.0
 11
49.20992610525477
 21
210.9031212700029
 31
0.0
  0
LINE
  5
8EF4
  8
0
 10
51.54708000525477
 20
210.9030851700029
 30
0.0
 11
51.54708000525477
 21
212.5722712700029
 31
0.0
  0
LINE
  5
8EF5
  8
0
 10
53.21550610525476
 20
212.5722712700029
 30
0.0
 11
53.21550610525476
 21
210.9030851700029
 31
0.0
  0
LINE
  5
8EF6
  8
0
 10
42.53437110525476
 20
210.5691012700029
 30
0.0
 11
44.87115260525479
 21
210.5691012700029
 31
0.0
  0
LINE
  5
8EF7
  8
0
 10
44.87115260525479
 20
210.5691012700029
 30
0.0
 11
44.87115260525479
 21
210.9030851700029
 31
0.0
  0
LINE
  5
8EF8
  8
0
 10
44.87115260525479
 20
210.9030851700029
 30
0.0
 11
42.53437110525476
 21
210.9030851700029
 31
0.0
  0
LINE
  5
8EF9
  8
0
 10
42.53437110525476
 20
210.9030851700029
 30
0.0
 11
42.53437110525476
 21
210.5691012700029
 31
0.0
  0
LINE
  5
8EFA
  8
0
 10
45.20510610525474
 20
210.5691012700029
 30
0.0
 11
45.53909095525478
 21
210.5691012700029
 31
0.0
  0
LINE
  5
8EFB
  8
0
 10
45.53909095525478
 20
210.5691012700029
 30
0.0
 11
45.53909095525478
 21
210.9030851700029
 31
0.0
  0
LINE
  5
8EFC
  8
0
 10
45.53909095525478
 20
210.9030851700029
 30
0.0
 11
45.20510610525474
 21
210.9030851700029
 31
0.0
  0
LINE
  5
8EFD
  8
0
 10
45.20510610525474
 20
210.9030851700029
 30
0.0
 11
45.20510610525474
 21
210.5691012700029
 31
0.0
  0
LINE
  5
8EFE
  8
0
 10
45.87267110525477
 20
210.5691012700029
 30
0.0
 11
46.20665500525476
 21
210.5691012700029
 31
0.0
  0
LINE
  5
8EFF
  8
0
 10
46.20665500525476
 20
210.5691012700029
 30
0.0
 11
46.20665500525476
 21
210.9030851700029
 31
0.0
  0
LINE
  5
8F00
  8
0
 10
46.20665500525476
 20
210.9030851700029
 30
0.0
 11
45.87267110525477
 21
210.9030851700029
 31
0.0
  0
LINE
  5
8F01
  8
0
 10
45.87267110525477
 20
210.9030851700029
 30
0.0
 11
45.87267110525477
 21
210.5691012700029
 31
0.0
  0
LINE
  5
8F02
  8
0
 10
46.54033110525478
 20
210.5691012700029
 30
0.0
 11
46.87431500525474
 21
210.5691012700029
 31
0.0
  0
LINE
  5
8F03
  8
0
 10
46.87431500525474
 20
210.5691012700029
 30
0.0
 11
46.87431500525474
 21
210.9030851700029
 31
0.0
  0
LINE
  5
8F04
  8
0
 10
46.87431500525474
 20
210.9030851700029
 30
0.0
 11
46.54033110525478
 21
210.9030851700029
 31
0.0
  0
LINE
  5
8F05
  8
0
 10
46.54033110525478
 20
210.9030851700029
 30
0.0
 11
46.54033110525478
 21
210.5691012700029
 31
0.0
  0
LINE
  5
8F06
  8
0
 10
47.20751610525477
 20
210.5691012700029
 30
0.0
 11
47.54150000525476
 21
210.5691012700029
 31
0.0
  0
LINE
  5
8F07
  8
0
 10
47.54150000525476
 20
210.5691012700029
 30
0.0
 11
47.54150000525476
 21
210.9030851700029
 31
0.0
  0
LINE
  5
8F08
  8
0
 10
47.54150000525476
 20
210.9030851700029
 30
0.0
 11
47.20751610525477
 21
210.9030851700029
 31
0.0
  0
LINE
  5
8F09
  8
0
 10
47.20751610525477
 20
210.9030851700029
 30
0.0
 11
47.20751610525477
 21
210.5691012700029
 31
0.0
  0
LINE
  5
8F0A
  8
0
 10
47.87508110525476
 20
210.5691012700029
 30
0.0
 11
48.20906595525474
 21
210.5691012700029
 31
0.0
  0
LINE
  5
8F0B
  8
0
 10
48.20906595525474
 20
210.5691012700029
 30
0.0
 11
48.20906595525474
 21
210.9030851700029
 31
0.0
  0
LINE
  5
8F0C
  8
0
 10
48.20906595525474
 20
210.9030851700029
 30
0.0
 11
47.87508110525476
 21
210.9030851700029
 31
0.0
  0
LINE
  5
8F0D
  8
0
 10
47.87508110525476
 20
210.9030851700029
 30
0.0
 11
47.87508110525476
 21
210.5691012700029
 31
0.0
  0
LINE
  5
8F0E
  8
0
 10
48.54274110525475
 20
210.5691012700029
 30
0.0
 11
48.87672595525476
 21
210.5691012700029
 31
0.0
  0
LINE
  5
8F0F
  8
0
 10
48.87672595525476
 20
210.5691012700029
 30
0.0
 11
48.87672595525476
 21
210.9030851700029
 31
0.0
  0
LINE
  5
8F10
  8
0
 10
48.87672595525476
 20
210.9030851700029
 30
0.0
 11
48.54274110525475
 21
210.9030851700029
 31
0.0
  0
LINE
  5
8F11
  8
0
 10
48.54274110525475
 20
210.9030851700029
 30
0.0
 11
48.54274110525475
 21
210.5691012700029
 31
0.0
  0
LINE
  5
8F12
  8
0
 10
49.20992610525477
 20
210.5691012700029
 30
0.0
 11
49.54428145525475
 21
210.5691012700029
 31
0.0
  0
LINE
  5
8F13
  8
0
 10
49.54428145525475
 20
210.5691012700029
 30
0.0
 11
49.54428145525475
 21
210.9030851700029
 31
0.0
  0
LINE
  5
8F14
  8
0
 10
49.54428145525475
 20
210.9030851700029
 30
0.0
 11
49.20992610525477
 21
210.9030851700029
 31
0.0
  0
LINE
  5
8F15
  8
0
 10
49.20992610525477
 20
210.9030851700029
 30
0.0
 11
49.20992610525477
 21
210.5691012700029
 31
0.0
  0
LINE
  5
8F16
  8
0
 10
49.87749110525476
 20
210.5691012700029
 30
0.0
 11
50.21147500525475
 21
210.5691012700029
 31
0.0
  0
LINE
  5
8F17
  8
0
 10
50.21147500525475
 20
210.5691012700029
 30
0.0
 11
50.21147500525475
 21
210.9030851700029
 31
0.0
  0
LINE
  5
8F18
  8
0
 10
50.21147500525475
 20
210.9030851700029
 30
0.0
 11
49.87749110525476
 21
210.9030851700029
 31
0.0
  0
LINE
  5
8F19
  8
0
 10
49.87749110525476
 20
210.9030851700029
 30
0.0
 11
49.87749110525476
 21
210.5691012700029
 31
0.0
  0
LINE
  5
8F1A
  8
0
 10
50.54591110525473
 20
210.5691012700029
 30
0.0
 11
50.87989595525477
 21
210.5691012700029
 31
0.0
  0
LINE
  5
8F1B
  8
0
 10
50.87989595525477
 20
210.5691012700029
 30
0.0
 11
50.87989595525477
 21
210.9030851700029
 31
0.0
  0
LINE
  5
8F1C
  8
0
 10
50.87989595525477
 20
210.9030851700029
 30
0.0
 11
50.54591110525473
 21
210.9030851700029
 31
0.0
  0
LINE
  5
8F1D
  8
0
 10
50.54591110525473
 20
210.9030851700029
 30
0.0
 11
50.54591110525473
 21
210.5691012700029
 31
0.0
  0
LINE
  5
8F1E
  8
0
 10
51.21309610525475
 20
210.5691012700029
 30
0.0
 11
53.54987760525475
 21
210.5691012700029
 31
0.0
  0
LINE
  5
8F1F
  8
0
 10
53.21550610525476
 20
210.9030851700029
 30
0.0
 11
51.54708000525477
 21
210.9030851700029
 31
0.0
  0
LINE
  5
8F20
  8
0
 10
45.20510610525474
 20
210.2359362700029
 30
0.0
 11
45.53909095525478
 21
210.2359362700029
 31
0.0
  0
LINE
  5
8F21
  8
0
 10
45.53909095525478
 20
210.2359362700029
 30
0.0
 11
45.53909095525478
 21
210.5699201700029
 31
0.0
  0
LINE
  5
8F22
  8
0
 10
45.53909095525478
 20
210.5699201700029
 30
0.0
 11
45.20510610525474
 21
210.5699201700029
 31
0.0
  0
LINE
  5
8F23
  8
0
 10
45.20510610525474
 20
210.5699201700029
 30
0.0
 11
45.20510610525474
 21
210.2359362700029
 31
0.0
  0
LINE
  5
8F24
  8
0
 10
46.54033110525478
 20
210.2359362700029
 30
0.0
 11
46.87431500525474
 21
210.2359362700029
 31
0.0
  0
LINE
  5
8F25
  8
0
 10
46.87431500525474
 20
210.2359362700029
 30
0.0
 11
46.87431500525474
 21
210.5699201700029
 31
0.0
  0
LINE
  5
8F26
  8
0
 10
46.87431500525474
 20
210.5699201700029
 30
0.0
 11
46.54033110525478
 21
210.5699201700029
 31
0.0
  0
LINE
  5
8F27
  8
0
 10
46.54033110525478
 20
210.5699201700029
 30
0.0
 11
46.54033110525478
 21
210.2359362700029
 31
0.0
  0
LINE
  5
8F28
  8
0
 10
47.20751610525477
 20
210.2359362700029
 30
0.0
 11
47.54150000525476
 21
210.2359362700029
 31
0.0
  0
LINE
  5
8F29
  8
0
 10
47.54150000525476
 20
210.2359362700029
 30
0.0
 11
47.54150000525476
 21
210.5699201700029
 31
0.0
  0
LINE
  5
8F2A
  8
0
 10
47.54150000525476
 20
210.5699201700029
 30
0.0
 11
47.20751610525477
 21
210.5699201700029
 31
0.0
  0
LINE
  5
8F2B
  8
0
 10
47.20751610525477
 20
210.5699201700029
 30
0.0
 11
47.20751610525477
 21
210.2359362700029
 31
0.0
  0
LINE
  5
8F2C
  8
0
 10
49.87749110525476
 20
210.2359362700029
 30
0.0
 11
50.21147500525475
 21
210.2359362700029
 31
0.0
  0
LINE
  5
8F2D
  8
0
 10
50.21147500525475
 20
210.2359362700029
 30
0.0
 11
50.21147500525475
 21
210.5699201700029
 31
0.0
  0
LINE
  5
8F2E
  8
0
 10
50.21147500525475
 20
210.5699201700029
 30
0.0
 11
49.87749110525476
 21
210.5699201700029
 31
0.0
  0
LINE
  5
8F2F
  8
0
 10
49.87749110525476
 20
210.5699201700029
 30
0.0
 11
49.87749110525476
 21
210.2359362700029
 31
0.0
  0
LINE
  5
8F30
  8
0
 10
50.54591110525473
 20
210.2359362700029
 30
0.0
 11
50.87989595525477
 21
210.2359362700029
 31
0.0
  0
LINE
  5
8F31
  8
0
 10
50.87989595525477
 20
210.2359362700029
 30
0.0
 11
50.87989595525477
 21
210.5699201700029
 31
0.0
  0
LINE
  5
8F32
  8
0
 10
50.87989595525477
 20
210.5699201700029
 30
0.0
 11
50.54591110525473
 21
210.5699201700029
 31
0.0
  0
LINE
  5
8F33
  8
0
 10
50.54591110525473
 20
210.5699201700029
 30
0.0
 11
50.54591110525473
 21
210.2359362700029
 31
0.0
  0
LINE
  5
8F34
  8
0
 10
42.53437110525476
 20
209.9015362700029
 30
0.0
 11
42.86872645525477
 21
209.9015362700029
 31
0.0
  0
LINE
  5
8F35
  8
0
 10
42.86872645525477
 20
209.9015362700029
 30
0.0
 11
42.86872645525477
 21
210.2358916200029
 31
0.0
  0
LINE
  5
8F36
  8
0
 10
42.86872645525477
 20
210.2358916200029
 30
0.0
 11
42.53437110525476
 21
210.2358916200029
 31
0.0
  0
LINE
  5
8F37
  8
0
 10
42.53437110525476
 20
210.2358916200029
 30
0.0
 11
42.53437110525476
 21
209.9015362700029
 31
0.0
  0
LINE
  5
8F38
  8
0
 10
44.53744610525473
 20
209.9015362700029
 30
0.0
 11
44.87143000525475
 21
209.9015362700029
 31
0.0
  0
LINE
  5
8F39
  8
0
 10
44.87143000525475
 20
209.9015362700029
 30
0.0
 11
44.87143000525475
 21
210.2358916200029
 31
0.0
  0
LINE
  5
8F3A
  8
0
 10
44.87143000525475
 20
210.2358916200029
 30
0.0
 11
44.53744610525473
 21
210.2358916200029
 31
0.0
  0
LINE
  5
8F3B
  8
0
 10
44.53744610525473
 20
210.2358916200029
 30
0.0
 11
44.53744610525473
 21
209.9015362700029
 31
0.0
  0
LINE
  5
8F3C
  8
0
 10
45.20510610525474
 20
209.9015362700029
 30
0.0
 11
46.20669110525475
 21
209.9015362700029
 31
0.0
  0
LINE
  5
8F3D
  8
0
 10
46.20669110525475
 20
209.9015362700029
 30
0.0
 11
46.20669110525475
 21
210.2358916200029
 31
0.0
  0
LINE
  5
8F3E
  8
0
 10
46.20669110525475
 20
210.2358916200029
 30
0.0
 11
45.20510610525474
 21
210.2358916200029
 31
0.0
  0
LINE
  5
8F3F
  8
0
 10
45.20510610525474
 20
210.2358916200029
 30
0.0
 11
45.20510610525474
 21
209.9015362700029
 31
0.0
  0
LINE
  5
8F40
  8
0
 10
46.87349610525473
 20
209.9015362700029
 30
0.0
 11
48.54267460525477
 21
209.9015362700029
 31
0.0
  0
LINE
  5
8F41
  8
0
 10
48.54267460525477
 20
209.9015362700029
 30
0.0
 11
48.54267460525477
 21
210.2358916200029
 31
0.0
  0
LINE
  5
8F42
  8
0
 10
48.54267460525477
 20
210.2358916200029
 30
0.0
 11
46.87349610525473
 21
210.2358916200029
 31
0.0
  0
LINE
  5
8F43
  8
0
 10
46.87349610525473
 20
210.2358916200029
 30
0.0
 11
46.87349610525473
 21
209.9015362700029
 31
0.0
  0
LINE
  5
8F44
  8
0
 10
49.87749110525476
 20
209.9015362700029
 30
0.0
 11
50.21147500525475
 21
209.9015362700029
 31
0.0
  0
LINE
  5
8F45
  8
0
 10
50.21147500525475
 20
209.9015362700029
 30
0.0
 11
50.21147500525475
 21
210.2358916200029
 31
0.0
  0
LINE
  5
8F46
  8
0
 10
50.21147500525475
 20
210.2358916200029
 30
0.0
 11
49.87749110525476
 21
210.2358916200029
 31
0.0
  0
LINE
  5
8F47
  8
0
 10
49.87749110525476
 20
210.2358916200029
 30
0.0
 11
49.87749110525476
 21
209.9015362700029
 31
0.0
  0
LINE
  5
8F48
  8
0
 10
50.54591110525473
 20
209.9015362700029
 30
0.0
 11
51.54712560525473
 21
209.9015362700029
 31
0.0
  0
LINE
  5
8F49
  8
0
 10
51.54712560525473
 20
209.9015362700029
 30
0.0
 11
51.54712560525473
 21
210.2358916200029
 31
0.0
  0
LINE
  5
8F4A
  8
0
 10
51.54712560525473
 20
210.2358916200029
 30
0.0
 11
50.54591110525473
 21
210.2358916200029
 31
0.0
  0
LINE
  5
8F4B
  8
0
 10
50.54591110525473
 20
210.2358916200029
 30
0.0
 11
50.54591110525473
 21
209.9015362700029
 31
0.0
  0
LINE
  5
8F4C
  8
0
 10
52.21392110525477
 20
209.9015362700029
 30
0.0
 11
53.21550610525476
 21
209.9015362700029
 31
0.0
  0
LINE
  5
8F4D
  8
0
 10
53.21550610525476
 20
209.9015362700029
 30
0.0
 11
53.21550610525476
 21
210.2358916200029
 31
0.0
  0
LINE
  5
8F4E
  8
0
 10
53.21550610525476
 20
210.2358916200029
 30
0.0
 11
52.21392110525477
 21
210.2358916200029
 31
0.0
  0
LINE
  5
8F4F
  8
0
 10
52.21392110525477
 20
210.2358916200029
 30
0.0
 11
52.21392110525477
 21
209.9015362700029
 31
0.0
  0
LINE
  5
8F50
  8
0
 10
42.53437110525476
 20
209.5682762700029
 30
0.0
 11
42.86872645525477
 21
209.5682762700029
 31
0.0
  0
LINE
  5
8F51
  8
0
 10
42.86872645525477
 20
209.5682762700029
 30
0.0
 11
42.86872645525477
 21
209.9022611200029
 31
0.0
  0
LINE
  5
8F52
  8
0
 10
42.86872645525477
 20
209.9022611200029
 30
0.0
 11
42.53437110525476
 21
209.9022611200029
 31
0.0
  0
LINE
  5
8F53
  8
0
 10
42.53437110525476
 20
209.9022611200029
 30
0.0
 11
42.53437110525476
 21
209.5682762700029
 31
0.0
  0
LINE
  5
8F54
  8
0
 10
44.20352110525477
 20
209.5682762700029
 30
0.0
 11
44.53750595525474
 21
209.5682762700029
 31
0.0
  0
LINE
  5
8F55
  8
0
 10
44.53750595525474
 20
209.5682762700029
 30
0.0
 11
44.53750595525474
 21
209.9022611200029
 31
0.0
  0
LINE
  5
8F56
  8
0
 10
44.53750595525474
 20
209.9022611200029
 30
0.0
 11
44.20352110525477
 21
209.9022611200029
 31
0.0
  0
LINE
  5
8F57
  8
0
 10
44.20352110525477
 20
209.9022611200029
 30
0.0
 11
44.20352110525477
 21
209.5682762700029
 31
0.0
  0
LINE
  5
8F58
  8
0
 10
45.20510610525474
 20
209.5682762700029
 30
0.0
 11
45.53909095525478
 21
209.5682762700029
 31
0.0
  0
LINE
  5
8F59
  8
0
 10
45.53909095525478
 20
209.5682762700029
 30
0.0
 11
45.53909095525478
 21
209.9022611200029
 31
0.0
  0
LINE
  5
8F5A
  8
0
 10
45.53909095525478
 20
209.9022611200029
 30
0.0
 11
45.20510610525474
 21
209.9022611200029
 31
0.0
  0
LINE
  5
8F5B
  8
0
 10
45.20510610525474
 20
209.9022611200029
 30
0.0
 11
45.20510610525474
 21
209.5682762700029
 31
0.0
  0
LINE
  5
8F5C
  8
0
 10
45.87267110525477
 20
209.5682762700029
 30
0.0
 11
46.87388560525477
 21
209.5682762700029
 31
0.0
  0
LINE
  5
8F5D
  8
0
 10
46.87388560525477
 20
209.5682762700029
 30
0.0
 11
46.87388560525477
 21
209.9022611200029
 31
0.0
  0
LINE
  5
8F5E
  8
0
 10
46.87388560525477
 20
209.9022611200029
 30
0.0
 11
45.87267110525477
 21
209.9022611200029
 31
0.0
  0
LINE
  5
8F5F
  8
0
 10
45.87267110525477
 20
209.9022611200029
 30
0.0
 11
45.87267110525477
 21
209.5682762700029
 31
0.0
  0
LINE
  5
8F60
  8
0
 10
47.54153610525475
 20
209.5682762700029
 30
0.0
 11
47.87589145525476
 21
209.5682762700029
 31
0.0
  0
LINE
  5
8F61
  8
0
 10
47.87589145525476
 20
209.5682762700029
 30
0.0
 11
47.87589145525476
 21
209.9022611200029
 31
0.0
  0
LINE
  5
8F62
  8
0
 10
47.87589145525476
 20
209.9022611200029
 30
0.0
 11
47.54153610525475
 21
209.9022611200029
 31
0.0
  0
LINE
  5
8F63
  8
0
 10
47.54153610525475
 20
209.9022611200029
 30
0.0
 11
47.54153610525475
 21
209.5682762700029
 31
0.0
  0
LINE
  5
8F64
  8
0
 10
48.54274110525475
 20
209.5682762700029
 30
0.0
 11
49.20996790525476
 21
209.5682762700029
 31
0.0
  0
LINE
  5
8F65
  8
0
 10
49.20996790525476
 20
209.5682762700029
 30
0.0
 11
49.20996790525476
 21
209.9022611200029
 31
0.0
  0
LINE
  5
8F66
  8
0
 10
49.20996790525476
 20
209.9022611200029
 30
0.0
 11
48.54274110525475
 21
209.9022611200029
 31
0.0
  0
LINE
  5
8F67
  8
0
 10
48.54274110525475
 20
209.9022611200029
 30
0.0
 11
48.54274110525475
 21
209.5682762700029
 31
0.0
  0
LINE
  5
8F68
  8
0
 10
49.54432610525475
 20
209.5682762700029
 30
0.0
 11
50.54591110525473
 21
209.5682762700029
 31
0.0
  0
LINE
  5
8F69
  8
0
 10
50.54591110525473
 20
209.5682762700029
 30
0.0
 11
50.54591110525473
 21
209.9022611200029
 31
0.0
  0
LINE
  5
8F6A
  8
0
 10
50.54591110525473
 20
209.9022611200029
 30
0.0
 11
49.54432610525475
 21
209.9022611200029
 31
0.0
  0
LINE
  5
8F6B
  8
0
 10
49.54432610525475
 20
209.9022611200029
 30
0.0
 11
49.54432610525475
 21
209.5682762700029
 31
0.0
  0
LINE
  5
8F6C
  8
0
 10
51.88066110525475
 20
209.5682762700029
 30
0.0
 11
52.88224610525475
 21
209.5682762700029
 31
0.0
  0
LINE
  5
8F6D
  8
0
 10
52.88224610525475
 20
209.5682762700029
 30
0.0
 11
52.88224610525475
 21
209.9022611200029
 31
0.0
  0
LINE
  5
8F6E
  8
0
 10
52.88224610525475
 20
209.9022611200029
 30
0.0
 11
51.88066110525475
 21
209.9022611200029
 31
0.0
  0
LINE
  5
8F6F
  8
0
 10
51.88066110525475
 20
209.9022611200029
 30
0.0
 11
51.88066110525475
 21
209.5682762700029
 31
0.0
  0
LINE
  5
8F70
  8
0
 10
43.20193610525473
 20
209.2343512700029
 30
0.0
 11
43.53629240525476
 21
209.2343512700029
 31
0.0
  0
LINE
  5
8F71
  8
0
 10
43.53629240525476
 20
209.2343512700029
 30
0.0
 11
43.53629240525476
 21
209.5683351700029
 31
0.0
  0
LINE
  5
8F72
  8
0
 10
43.53629240525476
 20
209.5683351700029
 30
0.0
 11
43.20193610525473
 21
209.5683351700029
 31
0.0
  0
LINE
  5
8F73
  8
0
 10
43.20193610525473
 20
209.5683351700029
 30
0.0
 11
43.20193610525473
 21
209.2343512700029
 31
0.0
  0
LINE
  5
8F74
  8
0
 10
43.86950110525476
 20
209.2343512700029
 30
0.0
 11
45.20469760525475
 21
209.2343512700029
 31
0.0
  0
LINE
  5
8F75
  8
0
 10
45.20469760525475
 20
209.2343512700029
 30
0.0
 11
45.20469760525475
 21
209.5683351700029
 31
0.0
  0
LINE
  5
8F76
  8
0
 10
45.20469760525475
 20
209.5683351700029
 30
0.0
 11
43.86950110525476
 21
209.5683351700029
 31
0.0
  0
LINE
  5
8F77
  8
0
 10
43.86950110525476
 20
209.5683351700029
 30
0.0
 11
43.86950110525476
 21
209.2343512700029
 31
0.0
  0
LINE
  5
8F78
  8
0
 10
45.53874610525475
 20
209.2343512700029
 30
0.0
 11
46.20597290525475
 21
209.2343512700029
 31
0.0
  0
LINE
  5
8F79
  8
0
 10
46.20597290525475
 20
209.2343512700029
 30
0.0
 11
46.20597290525475
 21
209.5683351700029
 31
0.0
  0
LINE
  5
8F7A
  8
0
 10
46.20597290525475
 20
209.5683351700029
 30
0.0
 11
45.53874610525475
 21
209.5683351700029
 31
0.0
  0
LINE
  5
8F7B
  8
0
 10
45.53874610525475
 20
209.5683351700029
 30
0.0
 11
45.53874610525475
 21
209.2343512700029
 31
0.0
  0
LINE
  5
8F7C
  8
0
 10
46.54033110525478
 20
209.2343512700029
 30
0.0
 11
46.87431500525474
 21
209.2343512700029
 31
0.0
  0
LINE
  5
8F7D
  8
0
 10
46.87431500525474
 20
209.2343512700029
 30
0.0
 11
46.87431500525474
 21
209.5683351700029
 31
0.0
  0
LINE
  5
8F7E
  8
0
 10
46.87431500525474
 20
209.5683351700029
 30
0.0
 11
46.54033110525478
 21
209.5683351700029
 31
0.0
  0
LINE
  5
8F7F
  8
0
 10
46.54033110525478
 20
209.5683351700029
 30
0.0
 11
46.54033110525478
 21
209.2343512700029
 31
0.0
  0
LINE
  5
8F80
  8
0
 10
47.54153610525475
 20
209.2343512700029
 30
0.0
 11
47.87589145525476
 21
209.2343512700029
 31
0.0
  0
LINE
  5
8F81
  8
0
 10
47.87589145525476
 20
209.2343512700029
 30
0.0
 11
47.87589145525476
 21
209.5683351700029
 31
0.0
  0
LINE
  5
8F82
  8
0
 10
47.87589145525476
 20
209.5683351700029
 30
0.0
 11
47.54153610525475
 21
209.5683351700029
 31
0.0
  0
LINE
  5
8F83
  8
0
 10
47.54153610525475
 20
209.5683351700029
 30
0.0
 11
47.54153610525475
 21
209.2343512700029
 31
0.0
  0
LINE
  5
8F84
  8
0
 10
48.54274110525475
 20
209.2343512700029
 30
0.0
 11
48.87672595525476
 21
209.2343512700029
 31
0.0
  0
LINE
  5
8F85
  8
0
 10
48.87672595525476
 20
209.2343512700029
 30
0.0
 11
48.87672595525476
 21
209.5683351700029
 31
0.0
  0
LINE
  5
8F86
  8
0
 10
48.87672595525476
 20
209.5683351700029
 30
0.0
 11
48.54274110525475
 21
209.5683351700029
 31
0.0
  0
LINE
  5
8F87
  8
0
 10
48.54274110525475
 20
209.5683351700029
 30
0.0
 11
48.54274110525475
 21
209.2343512700029
 31
0.0
  0
LINE
  5
8F88
  8
0
 10
49.20992610525477
 20
209.2343512700029
 30
0.0
 11
49.54428145525475
 21
209.2343512700029
 31
0.0
  0
LINE
  5
8F89
  8
0
 10
49.54428145525475
 20
209.2343512700029
 30
0.0
 11
49.54428145525475
 21
209.5683351700029
 31
0.0
  0
LINE
  5
8F8A
  8
0
 10
49.54428145525475
 20
209.5683351700029
 30
0.0
 11
49.20992610525477
 21
209.5683351700029
 31
0.0
  0
LINE
  5
8F8B
  8
0
 10
49.20992610525477
 20
209.5683351700029
 30
0.0
 11
49.20992610525477
 21
209.2343512700029
 31
0.0
  0
LINE
  5
8F8C
  8
0
 10
49.87749110525476
 20
209.2343512700029
 30
0.0
 11
50.21147500525475
 21
209.2343512700029
 31
0.0
  0
LINE
  5
8F8D
  8
0
 10
50.21147500525475
 20
209.2343512700029
 30
0.0
 11
50.21147500525475
 21
209.5683351700029
 31
0.0
  0
LINE
  5
8F8E
  8
0
 10
50.21147500525475
 20
209.5683351700029
 30
0.0
 11
49.87749110525476
 21
209.5683351700029
 31
0.0
  0
LINE
  5
8F8F
  8
0
 10
49.87749110525476
 20
209.5683351700029
 30
0.0
 11
49.87749110525476
 21
209.2343512700029
 31
0.0
  0
LINE
  5
8F90
  8
0
 10
50.54591110525473
 20
209.2343512700029
 30
0.0
 11
51.54712560525473
 21
209.2343512700029
 31
0.0
  0
LINE
  5
8F91
  8
0
 10
51.54712560525473
 20
209.2343512700029
 30
0.0
 11
51.54712560525473
 21
209.5683351700029
 31
0.0
  0
LINE
  5
8F92
  8
0
 10
51.54712560525473
 20
209.5683351700029
 30
0.0
 11
50.54591110525473
 21
209.5683351700029
 31
0.0
  0
LINE
  5
8F93
  8
0
 10
50.54591110525473
 20
209.5683351700029
 30
0.0
 11
50.54591110525473
 21
209.2343512700029
 31
0.0
  0
LINE
  5
8F94
  8
0
 10
51.88066110525475
 20
209.2343512700029
 30
0.0
 11
52.21464595525475
 21
209.2343512700029
 31
0.0
  0
LINE
  5
8F95
  8
0
 10
52.21464595525475
 20
209.2343512700029
 30
0.0
 11
52.21464595525475
 21
209.5683351700029
 31
0.0
  0
LINE
  5
8F96
  8
0
 10
52.21464595525475
 20
209.5683351700029
 30
0.0
 11
51.88066110525475
 21
209.5683351700029
 31
0.0
  0
LINE
  5
8F97
  8
0
 10
51.88066110525475
 20
209.5683351700029
 30
0.0
 11
51.88066110525475
 21
209.2343512700029
 31
0.0
  0
LINE
  5
8F98
  8
0
 10
52.54832110525473
 20
209.2343512700029
 30
0.0
 11
53.21554695525477
 21
209.2343512700029
 31
0.0
  0
LINE
  5
8F99
  8
0
 10
53.21554695525477
 20
209.2343512700029
 30
0.0
 11
53.21554695525477
 21
209.5683351700029
 31
0.0
  0
LINE
  5
8F9A
  8
0
 10
53.21554695525477
 20
209.5683351700029
 30
0.0
 11
52.54832110525473
 21
209.5683351700029
 31
0.0
  0
LINE
  5
8F9B
  8
0
 10
52.54832110525473
 20
209.5683351700029
 30
0.0
 11
52.54832110525473
 21
209.2343512700029
 31
0.0
  0
LINE
  5
8F9C
  8
0
 10
42.53437110525476
 20
208.8999512700029
 30
0.0
 11
43.20196840525475
 21
208.8999512700029
 31
0.0
  0
LINE
  5
8F9D
  8
0
 10
43.20196840525475
 20
208.8999512700029
 30
0.0
 11
43.20196840525475
 21
209.2343066200029
 31
0.0
  0
LINE
  5
8F9E
  8
0
 10
43.20196840525475
 20
209.2343066200029
 30
0.0
 11
42.53437110525476
 21
209.2343066200029
 31
0.0
  0
LINE
  5
8F9F
  8
0
 10
42.53437110525476
 20
209.2343066200029
 30
0.0
 11
42.53437110525476
 21
208.8999512700029
 31
0.0
  0
LINE
  5
8FA0
  8
0
 10
43.53586110525475
 20
208.8999512700029
 30
0.0
 11
44.20345840525476
 21
208.8999512700029
 31
0.0
  0
LINE
  5
8FA1
  8
0
 10
44.20345840525476
 20
208.8999512700029
 30
0.0
 11
44.20345840525476
 21
209.2343066200029
 31
0.0
  0
LINE
  5
8FA2
  8
0
 10
44.20345840525476
 20
209.2343066200029
 30
0.0
 11
43.53586110525475
 21
209.2343066200029
 31
0.0
  0
LINE
  5
8FA3
  8
0
 10
43.53586110525475
 20
209.2343066200029
 30
0.0
 11
43.53586110525475
 21
208.8999512700029
 31
0.0
  0
LINE
  5
8FA4
  8
0
 10
44.87108610525473
 20
208.8999512700029
 30
0.0
 11
45.20507000525475
 21
208.8999512700029
 31
0.0
  0
LINE
  5
8FA5
  8
0
 10
45.20507000525475
 20
208.8999512700029
 30
0.0
 11
45.20507000525475
 21
209.2343066200029
 31
0.0
  0
LINE
  5
8FA6
  8
0
 10
45.20507000525475
 20
209.2343066200029
 30
0.0
 11
44.87108610525473
 21
209.2343066200029
 31
0.0
  0
LINE
  5
8FA7
  8
0
 10
44.87108610525473
 20
209.2343066200029
 30
0.0
 11
44.87108610525473
 21
208.8999512700029
 31
0.0
  0
LINE
  5
8FA8
  8
0
 10
45.87267110525477
 20
208.8999512700029
 30
0.0
 11
46.53989695525473
 21
208.8999512700029
 31
0.0
  0
LINE
  5
8FA9
  8
0
 10
46.53989695525473
 20
208.8999512700029
 30
0.0
 11
46.53989695525473
 21
209.2343066200029
 31
0.0
  0
LINE
  5
8FAA
  8
0
 10
46.53989695525473
 20
209.2343066200029
 30
0.0
 11
45.87267110525477
 21
209.2343066200029
 31
0.0
  0
LINE
  5
8FAB
  8
0
 10
45.87267110525477
 20
209.2343066200029
 30
0.0
 11
45.87267110525477
 21
208.8999512700029
 31
0.0
  0
LINE
  5
8FAC
  8
0
 10
47.20751610525477
 20
208.8999512700029
 30
0.0
 11
47.87511340525475
 21
208.8999512700029
 31
0.0
  0
LINE
  5
8FAD
  8
0
 10
47.87511340525475
 20
208.8999512700029
 30
0.0
 11
47.87511340525475
 21
209.2343066200029
 31
0.0
  0
LINE
  5
8FAE
  8
0
 10
47.87511340525475
 20
209.2343066200029
 30
0.0
 11
47.20751610525477
 21
209.2343066200029
 31
0.0
  0
LINE
  5
8FAF
  8
0
 10
47.20751610525477
 20
209.2343066200029
 30
0.0
 11
47.20751610525477
 21
208.8999512700029
 31
0.0
  0
LINE
  5
8FB0
  8
0
 10
48.87666610525474
 20
208.8999512700029
 30
0.0
 11
49.54426340525475
 21
208.8999512700029
 31
0.0
  0
LINE
  5
8FB1
  8
0
 10
49.54426340525475
 20
208.8999512700029
 30
0.0
 11
49.54426340525475
 21
209.2343066200029
 31
0.0
  0
LINE
  5
8FB2
  8
0
 10
49.54426340525475
 20
209.2343066200029
 30
0.0
 11
48.87666610525474
 21
209.2343066200029
 31
0.0
  0
LINE
  5
8FB3
  8
0
 10
48.87666610525474
 20
209.2343066200029
 30
0.0
 11
48.87666610525474
 21
208.8999512700029
 31
0.0
  0
LINE
  5
8FB4
  8
0
 10
49.87749110525476
 20
208.8999512700029
 30
0.0
 11
50.54508840525477
 21
208.8999512700029
 31
0.0
  0
LINE
  5
8FB5
  8
0
 10
50.54508840525477
 20
208.8999512700029
 30
0.0
 11
50.54508840525477
 21
209.2343066200029
 31
0.0
  0
LINE
  5
8FB6
  8
0
 10
50.54508840525477
 20
209.2343066200029
 30
0.0
 11
49.87749110525476
 21
209.2343066200029
 31
0.0
  0
LINE
  5
8FB7
  8
0
 10
49.87749110525476
 20
209.2343066200029
 30
0.0
 11
49.87749110525476
 21
208.8999512700029
 31
0.0
  0
LINE
  5
8FB8
  8
0
 10
50.87907610525474
 20
208.8999512700029
 30
0.0
 11
51.21306095525478
 21
208.8999512700029
 31
0.0
  0
LINE
  5
8FB9
  8
0
 10
51.21306095525478
 20
208.8999512700029
 30
0.0
 11
51.21306095525478
 21
209.2343066200029
 31
0.0
  0
LINE
  5
8FBA
  8
0
 10
51.21306095525478
 20
209.2343066200029
 30
0.0
 11
50.87907610525474
 21
209.2343066200029
 31
0.0
  0
LINE
  5
8FBB
  8
0
 10
50.87907610525474
 20
209.2343066200029
 30
0.0
 11
50.87907610525474
 21
208.8999512700029
 31
0.0
  0
LINE
  5
8FBC
  8
0
 10
51.54673610525475
 20
208.8999512700029
 30
0.0
 11
53.54915560525477
 21
208.8999512700029
 31
0.0
  0
LINE
  5
8FBD
  8
0
 10
53.54915560525477
 20
208.8999512700029
 30
0.0
 11
53.54915560525477
 21
209.2343066200029
 31
0.0
  0
LINE
  5
8FBE
  8
0
 10
53.54915560525477
 20
209.2343066200029
 30
0.0
 11
51.54673610525475
 21
209.2343066200029
 31
0.0
  0
LINE
  5
8FBF
  8
0
 10
51.54673610525475
 20
209.2343066200029
 30
0.0
 11
51.54673610525475
 21
208.8999512700029
 31
0.0
  0
LINE
  5
8FC0
  8
0
 10
42.86867610525474
 20
208.5666912700029
 30
0.0
 11
43.20266095525477
 21
208.5666912700029
 31
0.0
  0
LINE
  5
8FC1
  8
0
 10
43.20266095525477
 20
208.5666912700029
 30
0.0
 11
43.20266095525477
 21
208.9006761200029
 31
0.0
  0
LINE
  5
8FC2
  8
0
 10
43.20266095525477
 20
208.9006761200029
 30
0.0
 11
42.86867610525474
 21
208.9006761200029
 31
0.0
  0
LINE
  5
8FC3
  8
0
 10
42.86867610525474
 20
208.9006761200029
 30
0.0
 11
42.86867610525474
 21
208.5666912700029
 31
0.0
  0
LINE
  5
8FC4
  8
0
 10
43.53586110525475
 20
208.5666912700029
 30
0.0
 11
43.86984500525477
 21
208.5666912700029
 31
0.0
  0
LINE
  5
8FC5
  8
0
 10
43.86984500525477
 20
208.5666912700029
 30
0.0
 11
43.86984500525477
 21
208.9006761200029
 31
0.0
  0
LINE
  5
8FC6
  8
0
 10
43.86984500525477
 20
208.9006761200029
 30
0.0
 11
43.53586110525475
 21
208.9006761200029
 31
0.0
  0
LINE
  5
8FC7
  8
0
 10
43.53586110525475
 20
208.9006761200029
 30
0.0
 11
43.53586110525475
 21
208.5666912700029
 31
0.0
  0
LINE
  5
8FC8
  8
0
 10
44.53744610525473
 20
208.5666912700029
 30
0.0
 11
45.53903110525476
 21
208.5666912700029
 31
0.0
  0
LINE
  5
8FC9
  8
0
 10
45.53903110525476
 20
208.5666912700029
 30
0.0
 11
45.53903110525476
 21
208.9006761200029
 31
0.0
  0
LINE
  5
8FCA
  8
0
 10
45.53903110525476
 20
208.9006761200029
 30
0.0
 11
44.53744610525473
 21
208.9006761200029
 31
0.0
  0
LINE
  5
8FCB
  8
0
 10
44.53744610525473
 20
208.9006761200029
 30
0.0
 11
44.53744610525473
 21
208.5666912700029
 31
0.0
  0
LINE
  5
8FCC
  8
0
 10
46.87349610525473
 20
208.5666912700029
 30
0.0
 11
47.54109435525476
 21
208.5666912700029
 31
0.0
  0
LINE
  5
8FCD
  8
0
 10
47.54109435525476
 20
208.5666912700029
 30
0.0
 11
47.54109435525476
 21
208.9006761200029
 31
0.0
  0
LINE
  5
8FCE
  8
0
 10
47.54109435525476
 20
208.9006761200029
 30
0.0
 11
46.87349610525473
 21
208.9006761200029
 31
0.0
  0
LINE
  5
8FCF
  8
0
 10
46.87349610525473
 20
208.9006761200029
 30
0.0
 11
46.87349610525473
 21
208.5666912700029
 31
0.0
  0
LINE
  5
8FD0
  8
0
 10
47.87508110525476
 20
208.5666912700029
 30
0.0
 11
48.87666610525474
 21
208.5666912700029
 31
0.0
  0
LINE
  5
8FD1
  8
0
 10
48.87666610525474
 20
208.5666912700029
 30
0.0
 11
48.87666610525474
 21
208.9006761200029
 31
0.0
  0
LINE
  5
8FD2
  8
0
 10
48.87666610525474
 20
208.9006761200029
 30
0.0
 11
47.87508110525476
 21
208.9006761200029
 31
0.0
  0
LINE
  5
8FD3
  8
0
 10
47.87508110525476
 20
208.9006761200029
 30
0.0
 11
47.87508110525476
 21
208.5666912700029
 31
0.0
  0
LINE
  5
8FD4
  8
0
 10
49.20992610525477
 20
208.5666912700029
 30
0.0
 11
50.21151110525477
 21
208.5666912700029
 31
0.0
  0
LINE
  5
8FD5
  8
0
 10
50.21151110525477
 20
208.5666912700029
 30
0.0
 11
50.21151110525477
 21
208.9006761200029
 31
0.0
  0
LINE
  5
8FD6
  8
0
 10
50.21151110525477
 20
208.9006761200029
 30
0.0
 11
49.20992610525477
 21
208.9006761200029
 31
0.0
  0
LINE
  5
8FD7
  8
0
 10
49.20992610525477
 20
208.9006761200029
 30
0.0
 11
49.20992610525477
 21
208.5666912700029
 31
0.0
  0
LINE
  5
8FD8
  8
0
 10
50.54591110525473
 20
208.5666912700029
 30
0.0
 11
50.87989595525477
 21
208.5666912700029
 31
0.0
  0
LINE
  5
8FD9
  8
0
 10
50.87989595525477
 20
208.5666912700029
 30
0.0
 11
50.87989595525477
 21
208.9006761200029
 31
0.0
  0
LINE
  5
8FDA
  8
0
 10
50.87989595525477
 20
208.9006761200029
 30
0.0
 11
50.54591110525473
 21
208.9006761200029
 31
0.0
  0
LINE
  5
8FDB
  8
0
 10
50.54591110525473
 20
208.9006761200029
 30
0.0
 11
50.54591110525473
 21
208.5666912700029
 31
0.0
  0
LINE
  5
8FDC
  8
0
 10
51.21309610525475
 20
208.5666912700029
 30
0.0
 11
51.88069340525476
 21
208.5666912700029
 31
0.0
  0
LINE
  5
8FDD
  8
0
 10
51.88069340525476
 20
208.5666912700029
 30
0.0
 11
51.88069340525476
 21
208.9006761200029
 31
0.0
  0
LINE
  5
8FDE
  8
0
 10
51.88069340525476
 20
208.9006761200029
 30
0.0
 11
51.21309610525475
 21
208.9006761200029
 31
0.0
  0
LINE
  5
8FDF
  8
0
 10
51.21309610525475
 20
208.9006761200029
 30
0.0
 11
51.21309610525475
 21
208.5666912700029
 31
0.0
  0
LINE
  5
8FE0
  8
0
 10
42.53437110525476
 20
208.2327662700029
 30
0.0
 11
43.20196840525475
 21
208.2327662700029
 31
0.0
  0
LINE
  5
8FE1
  8
0
 10
43.20196840525475
 20
208.2327662700029
 30
0.0
 11
43.20196840525475
 21
208.5667501700029
 31
0.0
  0
LINE
  5
8FE2
  8
0
 10
43.20196840525475
 20
208.5667501700029
 30
0.0
 11
42.53437110525476
 21
208.5667501700029
 31
0.0
  0
LINE
  5
8FE3
  8
0
 10
42.53437110525476
 20
208.5667501700029
 30
0.0
 11
42.53437110525476
 21
208.2327662700029
 31
0.0
  0
LINE
  5
8FE4
  8
0
 10
43.53586110525475
 20
208.2327662700029
 30
0.0
 11
44.20345840525476
 21
208.2327662700029
 31
0.0
  0
LINE
  5
8FE5
  8
0
 10
44.20345840525476
 20
208.2327662700029
 30
0.0
 11
44.20345840525476
 21
208.5667501700029
 31
0.0
  0
LINE
  5
8FE6
  8
0
 10
44.20345840525476
 20
208.5667501700029
 30
0.0
 11
43.53586110525475
 21
208.5667501700029
 31
0.0
  0
LINE
  5
8FE7
  8
0
 10
43.53586110525475
 20
208.5667501700029
 30
0.0
 11
43.53586110525475
 21
208.2327662700029
 31
0.0
  0
LINE
  5
8FE8
  8
0
 10
44.87108610525473
 20
208.2327662700029
 30
0.0
 11
45.53868340525474
 21
208.2327662700029
 31
0.0
  0
LINE
  5
8FE9
  8
0
 10
45.53868340525474
 20
208.2327662700029
 30
0.0
 11
45.53868340525474
 21
208.5667501700029
 31
0.0
  0
LINE
  5
8FEA
  8
0
 10
45.53868340525474
 20
208.5667501700029
 30
0.0
 11
44.87108610525473
 21
208.5667501700029
 31
0.0
  0
LINE
  5
8FEB
  8
0
 10
44.87108610525473
 20
208.5667501700029
 30
0.0
 11
44.87108610525473
 21
208.2327662700029
 31
0.0
  0
LINE
  5
8FEC
  8
0
 10
46.20593110525476
 20
208.2327662700029
 30
0.0
 11
46.87352840525477
 21
208.2327662700029
 31
0.0
  0
LINE
  5
8FED
  8
0
 10
46.87352840525477
 20
208.2327662700029
 30
0.0
 11
46.87352840525477
 21
208.5667501700029
 31
0.0
  0
LINE
  5
8FEE
  8
0
 10
46.87352840525477
 20
208.5667501700029
 30
0.0
 11
46.20593110525476
 21
208.5667501700029
 31
0.0
  0
LINE
  5
8FEF
  8
0
 10
46.20593110525476
 20
208.5667501700029
 30
0.0
 11
46.20593110525476
 21
208.2327662700029
 31
0.0
  0
LINE
  5
8FF0
  8
0
 10
47.20751610525477
 20
208.2327662700029
 30
0.0
 11
47.54150000525476
 21
208.2327662700029
 31
0.0
  0
LINE
  5
8FF1
  8
0
 10
47.54150000525476
 20
208.2327662700029
 30
0.0
 11
47.54150000525476
 21
208.5667501700029
 31
0.0
  0
LINE
  5
8FF2
  8
0
 10
47.54150000525476
 20
208.5667501700029
 30
0.0
 11
47.20751610525477
 21
208.5667501700029
 31
0.0
  0
LINE
  5
8FF3
  8
0
 10
47.20751610525477
 20
208.5667501700029
 30
0.0
 11
47.20751610525477
 21
208.2327662700029
 31
0.0
  0
LINE
  5
8FF4
  8
0
 10
47.87508110525476
 20
208.2327662700029
 30
0.0
 11
48.54267840525475
 21
208.2327662700029
 31
0.0
  0
LINE
  5
8FF5
  8
0
 10
48.54267840525475
 20
208.2327662700029
 30
0.0
 11
48.54267840525475
 21
208.5667501700029
 31
0.0
  0
LINE
  5
8FF6
  8
0
 10
48.54267840525475
 20
208.5667501700029
 30
0.0
 11
47.87508110525476
 21
208.5667501700029
 31
0.0
  0
LINE
  5
8FF7
  8
0
 10
47.87508110525476
 20
208.5667501700029
 30
0.0
 11
47.87508110525476
 21
208.2327662700029
 31
0.0
  0
LINE
  5
8FF8
  8
0
 10
49.20992610525477
 20
208.2327662700029
 30
0.0
 11
49.87752435525476
 21
208.2327662700029
 31
0.0
  0
LINE
  5
8FF9
  8
0
 10
49.87752435525476
 20
208.2327662700029
 30
0.0
 11
49.87752435525476
 21
208.5667501700029
 31
0.0
  0
LINE
  5
8FFA
  8
0
 10
49.87752435525476
 20
208.5667501700029
 30
0.0
 11
49.20992610525477
 21
208.5667501700029
 31
0.0
  0
LINE
  5
8FFB
  8
0
 10
49.20992610525477
 20
208.5667501700029
 30
0.0
 11
49.20992610525477
 21
208.2327662700029
 31
0.0
  0
LINE
  5
8FFC
  8
0
 10
50.21151110525477
 20
208.2327662700029
 30
0.0
 11
50.54586645525475
 21
208.2327662700029
 31
0.0
  0
LINE
  5
8FFD
  8
0
 10
50.54586645525475
 20
208.2327662700029
 30
0.0
 11
50.54586645525475
 21
208.5667501700029
 31
0.0
  0
LINE
  5
8FFE
  8
0
 10
50.54586645525475
 20
208.5667501700029
 30
0.0
 11
50.21151110525477
 21
208.5667501700029
 31
0.0
  0
LINE
  5
8FFF
  8
0
 10
50.21151110525477
 20
208.5667501700029
 30
0.0
 11
50.21151110525477
 21
208.2327662700029
 31
0.0
  0
LINE
  5
9000
  8
0
 10
51.21309610525475
 20
208.2327662700029
 30
0.0
 11
51.54708000525477
 21
208.2327662700029
 31
0.0
  0
LINE
  5
9001
  8
0
 10
51.54708000525477
 20
208.2327662700029
 30
0.0
 11
51.54708000525477
 21
208.5667501700029
 31
0.0
  0
LINE
  5
9002
  8
0
 10
51.54708000525477
 20
208.5667501700029
 30
0.0
 11
51.21309610525475
 21
208.5667501700029
 31
0.0
  0
LINE
  5
9003
  8
0
 10
51.21309610525475
 20
208.5667501700029
 30
0.0
 11
51.21309610525475
 21
208.2327662700029
 31
0.0
  0
LINE
  5
9004
  8
0
 10
52.21392110525477
 20
208.2327662700029
 30
0.0
 11
53.54911760525475
 21
208.2327662700029
 31
0.0
  0
LINE
  5
9005
  8
0
 10
53.54911760525475
 20
208.2327662700029
 30
0.0
 11
53.54911760525475
 21
208.5667501700029
 31
0.0
  0
LINE
  5
9006
  8
0
 10
53.54911760525475
 20
208.5667501700029
 30
0.0
 11
52.21392110525477
 21
208.5667501700029
 31
0.0
  0
LINE
  5
9007
  8
0
 10
52.21392110525477
 20
208.5667501700029
 30
0.0
 11
52.21392110525477
 21
208.2327662700029
 31
0.0
  0
LINE
  5
9008
  8
0
 10
42.86867610525474
 20
207.8991262700029
 30
0.0
 11
46.20666260525473
 21
207.8991262700029
 31
0.0
  0
LINE
  5
9009
  8
0
 10
46.20666260525473
 20
207.8991262700029
 30
0.0
 11
46.20666260525473
 21
208.2331111200029
 31
0.0
  0
LINE
  5
900A
  8
0
 10
46.20666260525473
 20
208.2331111200029
 30
0.0
 11
42.86867610525474
 21
208.2331111200029
 31
0.0
  0
LINE
  5
900B
  8
0
 10
42.86867610525474
 20
208.2331111200029
 30
0.0
 11
42.86867610525474
 21
207.8991262700029
 31
0.0
  0
LINE
  5
900C
  8
0
 10
46.87349610525473
 20
207.8991262700029
 30
0.0
 11
47.20748095525477
 21
207.8991262700029
 31
0.0
  0
LINE
  5
900D
  8
0
 10
47.20748095525477
 20
207.8991262700029
 30
0.0
 11
47.20748095525477
 21
208.2331111200029
 31
0.0
  0
LINE
  5
900E
  8
0
 10
47.20748095525477
 20
208.2331111200029
 30
0.0
 11
46.87349610525473
 21
208.2331111200029
 31
0.0
  0
LINE
  5
900F
  8
0
 10
46.87349610525473
 20
208.2331111200029
 30
0.0
 11
46.87349610525473
 21
207.8991262700029
 31
0.0
  0
LINE
  5
9010
  8
0
 10
48.20910110525477
 20
207.8991262700029
 30
0.0
 11
48.54308500525474
 21
207.8991262700029
 31
0.0
  0
LINE
  5
9011
  8
0
 10
48.54308500525474
 20
207.8991262700029
 30
0.0
 11
48.54308500525474
 21
208.2331111200029
 31
0.0
  0
LINE
  5
9012
  8
0
 10
48.54308500525474
 20
208.2331111200029
 30
0.0
 11
48.20910110525477
 21
208.2331111200029
 31
0.0
  0
LINE
  5
9013
  8
0
 10
48.20910110525477
 20
208.2331111200029
 30
0.0
 11
48.20910110525477
 21
207.8991262700029
 31
0.0
  0
LINE
  5
9014
  8
0
 10
48.87666610525474
 20
207.8991262700029
 30
0.0
 11
49.21065000525476
 21
207.8991262700029
 31
0.0
  0
LINE
  5
9015
  8
0
 10
49.21065000525476
 20
207.8991262700029
 30
0.0
 11
49.21065000525476
 21
208.2331111200029
 31
0.0
  0
LINE
  5
9016
  8
0
 10
49.21065000525476
 20
208.2331111200029
 30
0.0
 11
48.87666610525474
 21
208.2331111200029
 31
0.0
  0
LINE
  5
9017
  8
0
 10
48.87666610525474
 20
208.2331111200029
 30
0.0
 11
48.87666610525474
 21
207.8991262700029
 31
0.0
  0
LINE
  5
9018
  8
0
 10
50.87907610525474
 20
207.8991262700029
 30
0.0
 11
51.54667435525477
 21
207.8991262700029
 31
0.0
  0
LINE
  5
9019
  8
0
 10
51.54667435525477
 20
207.8991262700029
 30
0.0
 11
51.54667435525477
 21
208.2331111200029
 31
0.0
  0
LINE
  5
901A
  8
0
 10
51.54667435525477
 20
208.2331111200029
 30
0.0
 11
50.87907610525474
 21
208.2331111200029
 31
0.0
  0
LINE
  5
901B
  8
0
 10
50.87907610525474
 20
208.2331111200029
 30
0.0
 11
50.87907610525474
 21
207.8991262700029
 31
0.0
  0
LINE
  5
901C
  8
0
 10
51.88066110525475
 20
207.8991262700029
 30
0.0
 11
52.21464595525475
 21
207.8991262700029
 31
0.0
  0
LINE
  5
901D
  8
0
 10
52.21464595525475
 20
207.8991262700029
 30
0.0
 11
52.21464595525475
 21
208.2331111200029
 31
0.0
  0
LINE
  5
901E
  8
0
 10
52.21464595525475
 20
208.2331111200029
 30
0.0
 11
51.88066110525475
 21
208.2331111200029
 31
0.0
  0
LINE
  5
901F
  8
0
 10
51.88066110525475
 20
208.2331111200029
 30
0.0
 11
51.88066110525475
 21
207.8991262700029
 31
0.0
  0
LINE
  5
9020
  8
0
 10
52.54832110525473
 20
207.8991262700029
 30
0.0
 11
53.21554695525477
 21
207.8991262700029
 31
0.0
  0
LINE
  5
9021
  8
0
 10
53.21554695525477
 20
207.8991262700029
 30
0.0
 11
53.21554695525477
 21
208.2331111200029
 31
0.0
  0
LINE
  5
9022
  8
0
 10
53.21554695525477
 20
208.2331111200029
 30
0.0
 11
52.54832110525473
 21
208.2331111200029
 31
0.0
  0
LINE
  5
9023
  8
0
 10
52.54832110525473
 20
208.2331111200029
 30
0.0
 11
52.54832110525473
 21
207.8991262700029
 31
0.0
  0
LINE
  5
9024
  8
0
 10
42.53437110525476
 20
207.5651062700029
 30
0.0
 11
43.20196840525475
 21
207.5651062700029
 31
0.0
  0
LINE
  5
9025
  8
0
 10
43.20196840525475
 20
207.5651062700029
 30
0.0
 11
43.20196840525475
 21
207.8991262700029
 31
0.0
  0
LINE
  5
9026
  8
0
 10
43.20196840525475
 20
207.8991262700029
 30
0.0
 11
42.53437110525476
 21
207.8991262700029
 31
0.0
  0
LINE
  5
9027
  8
0
 10
42.53437110525476
 20
207.8991262700029
 30
0.0
 11
42.53437110525476
 21
207.5651062700029
 31
0.0
  0
LINE
  5
9028
  8
0
 10
43.53586110525475
 20
207.5651062700029
 30
0.0
 11
44.20345840525476
 21
207.5651062700029
 31
0.0
  0
LINE
  5
9029
  8
0
 10
44.20345840525476
 20
207.5651062700029
 30
0.0
 11
44.20345840525476
 21
207.8991262700029
 31
0.0
  0
LINE
  5
902A
  8
0
 10
44.20345840525476
 20
207.8991262700029
 30
0.0
 11
43.53586110525475
 21
207.8991262700029
 31
0.0
  0
LINE
  5
902B
  8
0
 10
43.53586110525475
 20
207.8991262700029
 30
0.0
 11
43.53586110525475
 21
207.5651062700029
 31
0.0
  0
LINE
  5
902C
  8
0
 10
45.53874610525475
 20
207.5651062700029
 30
0.0
 11
45.87273095525472
 21
207.5651062700029
 31
0.0
  0
LINE
  5
902D
  8
0
 10
45.87273095525472
 20
207.5651062700029
 30
0.0
 11
45.87273095525472
 21
207.8991262700029
 31
0.0
  0
LINE
  5
902E
  8
0
 10
45.87273095525472
 20
207.8991262700029
 30
0.0
 11
45.53874610525475
 21
207.8991262700029
 31
0.0
  0
LINE
  5
902F
  8
0
 10
45.53874610525475
 20
207.8991262700029
 30
0.0
 11
45.53874610525475
 21
207.5651062700029
 31
0.0
  0
LINE
  5
9030
  8
0
 10
46.54033110525478
 20
207.5651062700029
 30
0.0
 11
46.87431500525474
 21
207.5651062700029
 31
0.0
  0
LINE
  5
9031
  8
0
 10
46.87431500525474
 20
207.5651062700029
 30
0.0
 11
46.87431500525474
 21
207.8991262700029
 31
0.0
  0
LINE
  5
9032
  8
0
 10
46.87431500525474
 20
207.8991262700029
 30
0.0
 11
46.54033110525478
 21
207.8991262700029
 31
0.0
  0
LINE
  5
9033
  8
0
 10
46.54033110525478
 20
207.8991262700029
 30
0.0
 11
46.54033110525478
 21
207.5651062700029
 31
0.0
  0
LINE
  5
9034
  8
0
 10
47.20751610525477
 20
207.5651062700029
 30
0.0
 11
47.87511340525475
 21
207.5651062700029
 31
0.0
  0
LINE
  5
9035
  8
0
 10
47.87511340525475
 20
207.5651062700029
 30
0.0
 11
47.87511340525475
 21
207.8991262700029
 31
0.0
  0
LINE
  5
9036
  8
0
 10
47.87511340525475
 20
207.8991262700029
 30
0.0
 11
47.20751610525477
 21
207.8991262700029
 31
0.0
  0
LINE
  5
9037
  8
0
 10
47.20751610525477
 20
207.8991262700029
 30
0.0
 11
47.20751610525477
 21
207.5651062700029
 31
0.0
  0
LINE
  5
9038
  8
0
 10
48.54274110525475
 20
207.5651062700029
 30
0.0
 11
49.20996790525476
 21
207.5651062700029
 31
0.0
  0
LINE
  5
9039
  8
0
 10
49.20996790525476
 20
207.5651062700029
 30
0.0
 11
49.20996790525476
 21
207.8991262700029
 31
0.0
  0
LINE
  5
903A
  8
0
 10
49.20996790525476
 20
207.8991262700029
 30
0.0
 11
48.54274110525475
 21
207.8991262700029
 31
0.0
  0
LINE
  5
903B
  8
0
 10
48.54274110525475
 20
207.8991262700029
 30
0.0
 11
48.54274110525475
 21
207.5651062700029
 31
0.0
  0
LINE
  5
903C
  8
0
 10
50.87907610525474
 20
207.5651062700029
 30
0.0
 11
51.21309610525475
 21
207.5651062700029
 31
0.0
  0
LINE
  5
903D
  8
0
 10
51.21309610525475
 20
207.5651062700029
 30
0.0
 11
51.21309610525475
 21
207.8991262700029
 31
0.0
  0
LINE
  5
903E
  8
0
 10
51.21309610525475
 20
207.8991262700029
 30
0.0
 11
50.87911125525477
 21
207.8991262700029
 31
0.0
  0
LINE
  5
903F
  8
0
 10
50.87911125525477
 20
207.8991262700029
 30
0.0
 11
50.87907610525474
 21
207.5651062700029
 31
0.0
  0
LINE
  5
9040
  8
0
 10
51.88066110525475
 20
207.5651062700029
 30
0.0
 11
52.88224610525475
 21
207.5651062700029
 31
0.0
  0
LINE
  5
9041
  8
0
 10
52.88224610525475
 20
207.5651062700029
 30
0.0
 11
52.88224610525475
 21
207.8991262700029
 31
0.0
  0
LINE
  5
9042
  8
0
 10
52.88224610525475
 20
207.8991262700029
 30
0.0
 11
51.88066110525475
 21
207.8991262700029
 31
0.0
  0
LINE
  5
9043
  8
0
 10
51.88066110525475
 20
207.8991262700029
 30
0.0
 11
51.88066110525475
 21
207.5651062700029
 31
0.0
  0
LINE
  5
9044
  8
0
 10
53.21550610525476
 20
207.5651062700029
 30
0.0
 11
53.54986240525476
 21
207.5651062700029
 31
0.0
  0
LINE
  5
9045
  8
0
 10
53.54986240525476
 20
207.5651062700029
 30
0.0
 11
53.54986240525476
 21
207.8991262700029
 31
0.0
  0
LINE
  5
9046
  8
0
 10
53.54986240525476
 20
207.8991262700029
 30
0.0
 11
53.21550610525476
 21
207.8991262700029
 31
0.0
  0
LINE
  5
9047
  8
0
 10
53.21550610525476
 20
207.8991262700029
 30
0.0
 11
53.21550610525476
 21
207.5651062700029
 31
0.0
  0
LINE
  5
9048
  8
0
 10
42.86867610525474
 20
207.2315612700029
 30
0.0
 11
43.20266095525477
 21
207.2315612700029
 31
0.0
  0
LINE
  5
9049
  8
0
 10
43.20266095525477
 20
207.2315612700029
 30
0.0
 11
43.20266095525477
 21
207.5659166200029
 31
0.0
  0
LINE
  5
904A
  8
0
 10
43.20266095525477
 20
207.5659166200029
 30
0.0
 11
42.86867610525474
 21
207.5659166200029
 31
0.0
  0
LINE
  5
904B
  8
0
 10
42.86867610525474
 20
207.5659166200029
 30
0.0
 11
42.86867610525474
 21
207.2315612700029
 31
0.0
  0
LINE
  5
904C
  8
0
 10
44.53744610525473
 20
207.2315612700029
 30
0.0
 11
44.87143000525475
 21
207.2315612700029
 31
0.0
  0
LINE
  5
904D
  8
0
 10
44.87143000525475
 20
207.2315612700029
 30
0.0
 11
44.87143000525475
 21
207.5659166200029
 31
0.0
  0
LINE
  5
904E
  8
0
 10
44.87143000525475
 20
207.5659166200029
 30
0.0
 11
44.53744610525473
 21
207.5659166200029
 31
0.0
  0
LINE
  5
904F
  8
0
 10
44.53744610525473
 20
207.5659166200029
 30
0.0
 11
44.53744610525473
 21
207.2315612700029
 31
0.0
  0
LINE
  5
9050
  8
0
 10
45.53874610525475
 20
207.2315612700029
 30
0.0
 11
46.20597290525475
 21
207.2315612700029
 31
0.0
  0
LINE
  5
9051
  8
0
 10
46.20597290525475
 20
207.2315612700029
 30
0.0
 11
46.20597290525475
 21
207.5659166200029
 31
0.0
  0
LINE
  5
9052
  8
0
 10
46.20597290525475
 20
207.5659166200029
 30
0.0
 11
45.53874610525475
 21
207.5659166200029
 31
0.0
  0
LINE
  5
9053
  8
0
 10
45.53874610525475
 20
207.5659166200029
 30
0.0
 11
45.53874610525475
 21
207.2315612700029
 31
0.0
  0
LINE
  5
9054
  8
0
 10
46.54033110525478
 20
207.2315612700029
 30
0.0
 11
47.20755790525476
 21
207.2315612700029
 31
0.0
  0
LINE
  5
9055
  8
0
 10
47.20755790525476
 20
207.2315612700029
 30
0.0
 11
47.20755790525476
 21
207.5659166200029
 31
0.0
  0
LINE
  5
9056
  8
0
 10
47.20755790525476
 20
207.5659166200029
 30
0.0
 11
46.54033110525478
 21
207.5659166200029
 31
0.0
  0
LINE
  5
9057
  8
0
 10
46.54033110525478
 20
207.5659166200029
 30
0.0
 11
46.54033110525478
 21
207.2315612700029
 31
0.0
  0
LINE
  5
9058
  8
0
 10
48.20910110525477
 20
207.2315612700029
 30
0.0
 11
49.21068610525475
 21
207.2315612700029
 31
0.0
  0
LINE
  5
9059
  8
0
 10
49.21068610525475
 20
207.2315612700029
 30
0.0
 11
49.21068610525475
 21
207.5659166200029
 31
0.0
  0
LINE
  5
905A
  8
0
 10
49.21068610525475
 20
207.5659166200029
 30
0.0
 11
48.20910110525477
 21
207.5659166200029
 31
0.0
  0
LINE
  5
905B
  8
0
 10
48.20910110525477
 20
207.5659166200029
 30
0.0
 11
48.20910110525477
 21
207.2315612700029
 31
0.0
  0
LINE
  5
905C
  8
0
 10
49.87749110525476
 20
207.2315612700029
 30
0.0
 11
50.21147500525475
 21
207.2315612700029
 31
0.0
  0
LINE
  5
905D
  8
0
 10
50.21147500525475
 20
207.2315612700029
 30
0.0
 11
50.21147500525475
 21
207.5659166200029
 31
0.0
  0
LINE
  5
905E
  8
0
 10
50.21147500525475
 20
207.5659166200029
 30
0.0
 11
49.87749110525476
 21
207.5659166200029
 31
0.0
  0
LINE
  5
905F
  8
0
 10
49.87749110525476
 20
207.5659166200029
 30
0.0
 11
49.87749110525476
 21
207.2315612700029
 31
0.0
  0
LINE
  5
9060
  8
0
 10
50.54591110525473
 20
207.2315612700029
 30
0.0
 11
51.21313790525477
 21
207.2315612700029
 31
0.0
  0
LINE
  5
9061
  8
0
 10
51.21313790525477
 20
207.2315612700029
 30
0.0
 11
51.21313790525477
 21
207.5659166200029
 31
0.0
  0
LINE
  5
9062
  8
0
 10
51.21313790525477
 20
207.5659166200029
 30
0.0
 11
50.54591110525473
 21
207.5659166200029
 31
0.0
  0
LINE
  5
9063
  8
0
 10
50.54591110525473
 20
207.5659166200029
 30
0.0
 11
50.54591110525473
 21
207.2315612700029
 31
0.0
  0
LINE
  5
9064
  8
0
 10
51.54673610525475
 20
207.2315612700029
 30
0.0
 11
52.54832110525473
 21
207.2315612700029
 31
0.0
  0
LINE
  5
9065
  8
0
 10
52.54832110525473
 20
207.2315612700029
 30
0.0
 11
52.54832110525473
 21
207.5659166200029
 31
0.0
  0
LINE
  5
9066
  8
0
 10
52.54832110525473
 20
207.5659166200029
 30
0.0
 11
51.54673610525475
 21
207.5659166200029
 31
0.0
  0
LINE
  5
9067
  8
0
 10
51.54673610525475
 20
207.5659166200029
 30
0.0
 11
51.54673610525475
 21
207.2315612700029
 31
0.0
  0
LINE
  5
9068
  8
0
 10
53.21550610525476
 20
207.2315612700029
 30
0.0
 11
53.54986240525476
 21
207.2315612700029
 31
0.0
  0
LINE
  5
9069
  8
0
 10
53.54986240525476
 20
207.2315612700029
 30
0.0
 11
53.54986240525476
 21
207.5659166200029
 31
0.0
  0
LINE
  5
906A
  8
0
 10
53.54986240525476
 20
207.5659166200029
 30
0.0
 11
53.21550610525476
 21
207.5659166200029
 31
0.0
  0
LINE
  5
906B
  8
0
 10
53.21550610525476
 20
207.5659166200029
 30
0.0
 11
53.21550610525476
 21
207.2315612700029
 31
0.0
  0
LINE
  5
906C
  8
0
 10
42.86867610525474
 20
206.8975412700029
 30
0.0
 11
43.53590290525477
 21
206.8975412700029
 31
0.0
  0
LINE
  5
906D
  8
0
 10
43.53590290525477
 20
206.8975412700029
 30
0.0
 11
43.53590290525477
 21
207.2315261200029
 31
0.0
  0
LINE
  5
906E
  8
0
 10
43.53590290525477
 20
207.2315261200029
 30
0.0
 11
42.86867610525474
 21
207.2315261200029
 31
0.0
  0
LINE
  5
906F
  8
0
 10
42.86867610525474
 20
207.2315261200029
 30
0.0
 11
42.86867610525474
 21
206.8975412700029
 31
0.0
  0
LINE
  5
9070
  8
0
 10
43.86950110525476
 20
206.8975412700029
 30
0.0
 11
44.20348500525478
 21
206.8975412700029
 31
0.0
  0
LINE
  5
9071
  8
0
 10
44.20348500525478
 20
206.8975412700029
 30
0.0
 11
44.20348500525478
 21
207.2315261200029
 31
0.0
  0
LINE
  5
9072
  8
0
 10
44.20348500525478
 20
207.2315261200029
 30
0.0
 11
43.86950110525476
 21
207.2315261200029
 31
0.0
  0
LINE
  5
9073
  8
0
 10
43.86950110525476
 20
207.2315261200029
 30
0.0
 11
43.86950110525476
 21
206.8975412700029
 31
0.0
  0
LINE
  5
9074
  8
0
 10
46.20593110525476
 20
206.8975412700029
 30
0.0
 11
46.53991500525476
 21
206.8975412700029
 31
0.0
  0
LINE
  5
9075
  8
0
 10
46.53991500525476
 20
206.8975412700029
 30
0.0
 11
46.53991500525476
 21
207.2315261200029
 31
0.0
  0
LINE
  5
9076
  8
0
 10
46.53991500525476
 20
207.2315261200029
 30
0.0
 11
46.20593110525476
 21
207.2315261200029
 31
0.0
  0
LINE
  5
9077
  8
0
 10
46.20593110525476
 20
207.2315261200029
 30
0.0
 11
46.20593110525476
 21
206.8975412700029
 31
0.0
  0
LINE
  5
9078
  8
0
 10
46.87349610525473
 20
206.8975412700029
 30
0.0
 11
49.87750060525474
 21
206.8975412700029
 31
0.0
  0
LINE
  5
9079
  8
0
 10
49.87750060525474
 20
206.8975412700029
 30
0.0
 11
49.87750060525474
 21
207.2315261200029
 31
0.0
  0
LINE
  5
907A
  8
0
 10
49.87750060525474
 20
207.2315261200029
 30
0.0
 11
46.87349610525473
 21
207.2315261200029
 31
0.0
  0
LINE
  5
907B
  8
0
 10
46.87349610525473
 20
207.2315261200029
 30
0.0
 11
46.87349610525473
 21
206.8975412700029
 31
0.0
  0
LINE
  5
907C
  8
0
 10
50.21151110525477
 20
206.8975412700029
 30
0.0
 11
51.54670760525477
 21
206.8975412700029
 31
0.0
  0
LINE
  5
907D
  8
0
 10
51.54670760525477
 20
206.8975412700029
 30
0.0
 11
51.54670760525477
 21
207.2315261200029
 31
0.0
  0
LINE
  5
907E
  8
0
 10
51.54670760525477
 20
207.2315261200029
 30
0.0
 11
50.21151110525477
 21
207.2315261200029
 31
0.0
  0
LINE
  5
907F
  8
0
 10
50.21151110525477
 20
207.2315261200029
 30
0.0
 11
50.21151110525477
 21
206.8975412700029
 31
0.0
  0
LINE
  5
9080
  8
0
 10
52.21392110525477
 20
206.8975412700029
 30
0.0
 11
52.88151840525475
 21
206.8975412700029
 31
0.0
  0
LINE
  5
9081
  8
0
 10
52.88151840525475
 20
206.8975412700029
 30
0.0
 11
52.88151840525475
 21
207.2315261200029
 31
0.0
  0
LINE
  5
9082
  8
0
 10
52.88151840525475
 20
207.2315261200029
 30
0.0
 11
52.21392110525477
 21
207.2315261200029
 31
0.0
  0
LINE
  5
9083
  8
0
 10
52.21392110525477
 20
207.2315261200029
 30
0.0
 11
52.21392110525477
 21
206.8975412700029
 31
0.0
  0
LINE
  5
9084
  8
0
 10
53.21550610525476
 20
206.8975412700029
 30
0.0
 11
53.54986240525476
 21
206.8975412700029
 31
0.0
  0
LINE
  5
9085
  8
0
 10
53.54986240525476
 20
206.8975412700029
 30
0.0
 11
53.54986240525476
 21
207.2315261200029
 31
0.0
  0
LINE
  5
9086
  8
0
 10
53.54986240525476
 20
207.2315261200029
 30
0.0
 11
53.21550610525476
 21
207.2315261200029
 31
0.0
  0
LINE
  5
9087
  8
0
 10
53.21550610525476
 20
207.2315261200029
 30
0.0
 11
53.21550610525476
 21
206.8975412700029
 31
0.0
  0
LINE
  5
9088
  8
0
 10
43.20193610525473
 20
206.5642812700029
 30
0.0
 11
43.53629240525476
 21
206.5642812700029
 31
0.0
  0
LINE
  5
9089
  8
0
 10
43.53629240525476
 20
206.5642812700029
 30
0.0
 11
43.53629240525476
 21
206.8982651700029
 31
0.0
  0
LINE
  5
908A
  8
0
 10
43.53629240525476
 20
206.8982651700029
 30
0.0
 11
43.20193610525473
 21
206.8982651700029
 31
0.0
  0
LINE
  5
908B
  8
0
 10
43.20193610525473
 20
206.8982651700029
 30
0.0
 11
43.20193610525473
 21
206.5642812700029
 31
0.0
  0
LINE
  5
908C
  8
0
 10
43.86950110525476
 20
206.5642812700029
 30
0.0
 11
44.20348500525478
 21
206.5642812700029
 31
0.0
  0
LINE
  5
908D
  8
0
 10
44.20348500525478
 20
206.5642812700029
 30
0.0
 11
44.20348500525478
 21
206.8982651700029
 31
0.0
  0
LINE
  5
908E
  8
0
 10
44.20348500525478
 20
206.8982651700029
 30
0.0
 11
43.86950110525476
 21
206.8982651700029
 31
0.0
  0
LINE
  5
908F
  8
0
 10
43.86950110525476
 20
206.8982651700029
 30
0.0
 11
43.86950110525476
 21
206.5642812700029
 31
0.0
  0
LINE
  5
9090
  8
0
 10
44.53744610525473
 20
206.5642812700029
 30
0.0
 11
46.54023610525473
 21
206.5642812700029
 31
0.0
  0
LINE
  5
9091
  8
0
 10
46.54023610525473
 20
206.5642812700029
 30
0.0
 11
46.54023610525473
 21
206.8982651700029
 31
0.0
  0
LINE
  5
9092
  8
0
 10
46.54023610525473
 20
206.8982651700029
 30
0.0
 11
44.53744610525473
 21
206.8982651700029
 31
0.0
  0
LINE
  5
9093
  8
0
 10
44.53744610525473
 20
206.8982651700029
 30
0.0
 11
44.53744610525473
 21
206.5642812700029
 31
0.0
  0
LINE
  5
9094
  8
0
 10
46.87349610525473
 20
206.5642812700029
 30
0.0
 11
47.20748095525477
 21
206.5642812700029
 31
0.0
  0
LINE
  5
9095
  8
0
 10
47.20748095525477
 20
206.5642812700029
 30
0.0
 11
47.20748095525477
 21
206.8982651700029
 31
0.0
  0
LINE
  5
9096
  8
0
 10
47.20748095525477
 20
206.8982651700029
 30
0.0
 11
46.87349610525473
 21
206.8982651700029
 31
0.0
  0
LINE
  5
9097
  8
0
 10
46.87349610525473
 20
206.8982651700029
 30
0.0
 11
46.87349610525473
 21
206.5642812700029
 31
0.0
  0
LINE
  5
9098
  8
0
 10
47.54153610525475
 20
206.5642812700029
 30
0.0
 11
48.20913435525475
 21
206.5642812700029
 31
0.0
  0
LINE
  5
9099
  8
0
 10
48.20913435525475
 20
206.5642812700029
 30
0.0
 11
48.20913435525475
 21
206.8982651700029
 31
0.0
  0
LINE
  5
909A
  8
0
 10
48.20913435525475
 20
206.8982651700029
 30
0.0
 11
47.54153610525475
 21
206.8982651700029
 31
0.0
  0
LINE
  5
909B
  8
0
 10
47.54153610525475
 20
206.8982651700029
 30
0.0
 11
47.54153610525475
 21
206.5642812700029
 31
0.0
  0
LINE
  5
909C
  8
0
 10
48.87666610525474
 20
206.5642812700029
 30
0.0
 11
49.21065000525476
 21
206.5642812700029
 31
0.0
  0
LINE
  5
909D
  8
0
 10
49.21065000525476
 20
206.5642812700029
 30
0.0
 11
49.21065000525476
 21
206.8982651700029
 31
0.0
  0
LINE
  5
909E
  8
0
 10
49.21065000525476
 20
206.8982651700029
 30
0.0
 11
48.87666610525474
 21
206.8982651700029
 31
0.0
  0
LINE
  5
909F
  8
0
 10
48.87666610525474
 20
206.8982651700029
 30
0.0
 11
48.87666610525474
 21
206.5642812700029
 31
0.0
  0
LINE
  5
90A0
  8
0
 10
50.21151110525477
 20
206.5642812700029
 30
0.0
 11
50.54586645525475
 21
206.5642812700029
 31
0.0
  0
LINE
  5
90A1
  8
0
 10
50.54586645525475
 20
206.5642812700029
 30
0.0
 11
50.54586645525475
 21
206.8982651700029
 31
0.0
  0
LINE
  5
90A2
  8
0
 10
50.54586645525475
 20
206.8982651700029
 30
0.0
 11
50.21151110525477
 21
206.8982651700029
 31
0.0
  0
LINE
  5
90A3
  8
0
 10
50.21151110525477
 20
206.8982651700029
 30
0.0
 11
50.21151110525477
 21
206.5642812700029
 31
0.0
  0
LINE
  5
90A4
  8
0
 10
51.54673610525475
 20
206.5642812700029
 30
0.0
 11
51.88072000525477
 21
206.5642812700029
 31
0.0
  0
LINE
  5
90A5
  8
0
 10
51.88072000525477
 20
206.5642812700029
 30
0.0
 11
51.88072000525477
 21
206.8982651700029
 31
0.0
  0
LINE
  5
90A6
  8
0
 10
51.88072000525477
 20
206.8982651700029
 30
0.0
 11
51.54673610525475
 21
206.8982651700029
 31
0.0
  0
LINE
  5
90A7
  8
0
 10
51.54673610525475
 20
206.8982651700029
 30
0.0
 11
51.54673610525475
 21
206.5642812700029
 31
0.0
  0
LINE
  5
90A8
  8
0
 10
52.21392110525477
 20
206.5642812700029
 30
0.0
 11
52.88151840525475
 21
206.5642812700029
 31
0.0
  0
LINE
  5
90A9
  8
0
 10
52.88151840525475
 20
206.5642812700029
 30
0.0
 11
52.88151840525475
 21
206.8982651700029
 31
0.0
  0
LINE
  5
90AA
  8
0
 10
52.88151840525475
 20
206.8982651700029
 30
0.0
 11
52.21392110525477
 21
206.8982651700029
 31
0.0
  0
LINE
  5
90AB
  8
0
 10
52.21392110525477
 20
206.8982651700029
 30
0.0
 11
52.21392110525477
 21
206.5642812700029
 31
0.0
  0
LINE
  5
90AC
  8
0
 10
53.21550610525476
 20
206.5642812700029
 30
0.0
 11
53.54986240525476
 21
206.5642812700029
 31
0.0
  0
LINE
  5
90AD
  8
0
 10
53.54986240525476
 20
206.5642812700029
 30
0.0
 11
53.54986240525476
 21
206.8982651700029
 31
0.0
  0
LINE
  5
90AE
  8
0
 10
53.54986240525476
 20
206.8982651700029
 30
0.0
 11
53.21550610525476
 21
206.8982651700029
 31
0.0
  0
LINE
  5
90AF
  8
0
 10
53.21550610525476
 20
206.8982651700029
 30
0.0
 11
53.21550610525476
 21
206.5642812700029
 31
0.0
  0
LINE
  5
90B0
  8
0
 10
42.86867610525474
 20
206.2303562700029
 30
0.0
 11
43.20266095525477
 21
206.2303562700029
 31
0.0
  0
LINE
  5
90B1
  8
0
 10
43.20266095525477
 20
206.2303562700029
 30
0.0
 11
43.20266095525477
 21
206.5643411200029
 31
0.0
  0
LINE
  5
90B2
  8
0
 10
43.20266095525477
 20
206.5643411200029
 30
0.0
 11
42.86867610525474
 21
206.5643411200029
 31
0.0
  0
LINE
  5
90B3
  8
0
 10
42.86867610525474
 20
206.5643411200029
 30
0.0
 11
42.86867610525474
 21
206.2303562700029
 31
0.0
  0
LINE
  5
90B4
  8
0
 10
43.53586110525475
 20
206.2303562700029
 30
0.0
 11
44.53744610525473
 21
206.2303562700029
 31
0.0
  0
LINE
  5
90B5
  8
0
 10
44.53744610525473
 20
206.2303562700029
 30
0.0
 11
44.53744610525473
 21
206.5643411200029
 31
0.0
  0
LINE
  5
90B6
  8
0
 10
44.53744610525473
 20
206.5643411200029
 30
0.0
 11
43.53586110525475
 21
206.5643411200029
 31
0.0
  0
LINE
  5
90B7
  8
0
 10
43.53586110525475
 20
206.5643411200029
 30
0.0
 11
43.53586110525475
 21
206.2303562700029
 31
0.0
  0
LINE
  5
90B8
  8
0
 10
44.87108610525473
 20
206.2303562700029
 30
0.0
 11
45.53868340525474
 21
206.2303562700029
 31
0.0
  0
LINE
  5
90B9
  8
0
 10
45.53868340525474
 20
206.2303562700029
 30
0.0
 11
45.53868340525474
 21
206.5643411200029
 31
0.0
  0
LINE
  5
90BA
  8
0
 10
45.53868340525474
 20
206.5643411200029
 30
0.0
 11
44.87108610525473
 21
206.5643411200029
 31
0.0
  0
LINE
  5
90BB
  8
0
 10
44.87108610525473
 20
206.5643411200029
 30
0.0
 11
44.87108610525473
 21
206.2303562700029
 31
0.0
  0
LINE
  5
90BC
  8
0
 10
45.87267110525477
 20
206.2303562700029
 30
0.0
 11
46.20665500525476
 21
206.2303562700029
 31
0.0
  0
LINE
  5
90BD
  8
0
 10
46.20665500525476
 20
206.2303562700029
 30
0.0
 11
46.20665500525476
 21
206.5643411200029
 31
0.0
  0
LINE
  5
90BE
  8
0
 10
46.20665500525476
 20
206.5643411200029
 30
0.0
 11
45.87267110525477
 21
206.5643411200029
 31
0.0
  0
LINE
  5
90BF
  8
0
 10
45.87267110525477
 20
206.5643411200029
 30
0.0
 11
45.87267110525477
 21
206.2303562700029
 31
0.0
  0
LINE
  5
90C0
  8
0
 10
47.54153610525475
 20
206.2303562700029
 30
0.0
 11
49.87831760525478
 21
206.2303562700029
 31
0.0
  0
LINE
  5
90C1
  8
0
 10
49.87831760525478
 20
206.2303562700029
 30
0.0
 11
49.87831760525478
 21
206.5643411200029
 31
0.0
  0
LINE
  5
90C2
  8
0
 10
49.87831760525478
 20
206.5643411200029
 30
0.0
 11
47.54153610525475
 21
206.5643411200029
 31
0.0
  0
LINE
  5
90C3
  8
0
 10
47.54153610525475
 20
206.5643411200029
 30
0.0
 11
47.54153610525475
 21
206.2303562700029
 31
0.0
  0
LINE
  5
90C4
  8
0
 10
50.21151110525477
 20
206.2303562700029
 30
0.0
 11
50.54586645525475
 21
206.2303562700029
 31
0.0
  0
LINE
  5
90C5
  8
0
 10
50.54586645525475
 20
206.2303562700029
 30
0.0
 11
50.54586645525475
 21
206.5643411200029
 31
0.0
  0
LINE
  5
90C6
  8
0
 10
50.54586645525475
 20
206.5643411200029
 30
0.0
 11
50.21151110525477
 21
206.5643411200029
 31
0.0
  0
LINE
  5
90C7
  8
0
 10
50.21151110525477
 20
206.5643411200029
 30
0.0
 11
50.21151110525477
 21
206.2303562700029
 31
0.0
  0
LINE
  5
90C8
  8
0
 10
50.87907610525474
 20
206.2303562700029
 30
0.0
 11
51.21306095525478
 21
206.2303562700029
 31
0.0
  0
LINE
  5
90C9
  8
0
 10
51.21306095525478
 20
206.2303562700029
 30
0.0
 11
51.21306095525478
 21
206.5643411200029
 31
0.0
  0
LINE
  5
90CA
  8
0
 10
51.21306095525478
 20
206.5643411200029
 30
0.0
 11
50.87907610525474
 21
206.5643411200029
 31
0.0
  0
LINE
  5
90CB
  8
0
 10
50.87907610525474
 20
206.5643411200029
 30
0.0
 11
50.87907610525474
 21
206.2303562700029
 31
0.0
  0
LINE
  5
90CC
  8
0
 10
51.88066110525475
 20
206.2303562700029
 30
0.0
 11
52.88224610525475
 21
206.2303562700029
 31
0.0
  0
LINE
  5
90CD
  8
0
 10
52.88224610525475
 20
206.2303562700029
 30
0.0
 11
52.88224610525475
 21
206.5643411200029
 31
0.0
  0
LINE
  5
90CE
  8
0
 10
52.88224610525475
 20
206.5643411200029
 30
0.0
 11
51.88066110525475
 21
206.5643411200029
 31
0.0
  0
LINE
  5
90CF
  8
0
 10
51.88066110525475
 20
206.5643411200029
 30
0.0
 11
51.88066110525475
 21
206.2303562700029
 31
0.0
  0
LINE
  5
90D0
  8
0
 10
53.21550610525476
 20
206.2303562700029
 30
0.0
 11
53.54986240525476
 21
206.2303562700029
 31
0.0
  0
LINE
  5
90D1
  8
0
 10
53.54986240525476
 20
206.2303562700029
 30
0.0
 11
53.54986240525476
 21
206.5643411200029
 31
0.0
  0
LINE
  5
90D2
  8
0
 10
53.54986240525476
 20
206.5643411200029
 30
0.0
 11
53.21550610525476
 21
206.5643411200029
 31
0.0
  0
LINE
  5
90D3
  8
0
 10
53.21550610525476
 20
206.5643411200029
 30
0.0
 11
53.21550610525476
 21
206.2303562700029
 31
0.0
  0
LINE
  5
90D4
  8
0
 10
42.53437110525476
 20
205.8959562700029
 30
0.0
 11
43.86956760525476
 21
205.8959562700029
 31
0.0
  0
LINE
  5
90D5
  8
0
 10
43.86956760525476
 20
205.8959562700029
 30
0.0
 11
43.86956760525476
 21
206.2303116200029
 31
0.0
  0
LINE
  5
90D6
  8
0
 10
43.86956760525476
 20
206.2303116200029
 30
0.0
 11
42.53437110525476
 21
206.2303116200029
 31
0.0
  0
LINE
  5
90D7
  8
0
 10
42.53437110525476
 20
206.2303116200029
 30
0.0
 11
42.53437110525476
 21
205.8959562700029
 31
0.0
  0
LINE
  5
90D8
  8
0
 10
44.53744610525473
 20
205.8959562700029
 30
0.0
 11
44.87143000525475
 21
205.8959562700029
 31
0.0
  0
LINE
  5
90D9
  8
0
 10
44.87143000525475
 20
205.8959562700029
 30
0.0
 11
44.87143000525475
 21
206.2303116200029
 31
0.0
  0
LINE
  5
90DA
  8
0
 10
44.87143000525475
 20
206.2303116200029
 30
0.0
 11
44.53744610525473
 21
206.2303116200029
 31
0.0
  0
LINE
  5
90DB
  8
0
 10
44.53744610525473
 20
206.2303116200029
 30
0.0
 11
44.53744610525473
 21
205.8959562700029
 31
0.0
  0
LINE
  5
90DC
  8
0
 10
45.20510610525474
 20
205.8959562700029
 30
0.0
 11
45.53909095525478
 21
205.8959562700029
 31
0.0
  0
LINE
  5
90DD
  8
0
 10
45.53909095525478
 20
205.8959562700029
 30
0.0
 11
45.53909095525478
 21
206.2303116200029
 31
0.0
  0
LINE
  5
90DE
  8
0
 10
45.53909095525478
 20
206.2303116200029
 30
0.0
 11
45.20510610525474
 21
206.2303116200029
 31
0.0
  0
LINE
  5
90DF
  8
0
 10
45.20510610525474
 20
206.2303116200029
 30
0.0
 11
45.20510610525474
 21
205.8959562700029
 31
0.0
  0
LINE
  5
90E0
  8
0
 10
45.87267110525477
 20
205.8959562700029
 30
0.0
 11
46.20665500525476
 21
205.8959562700029
 31
0.0
  0
LINE
  5
90E1
  8
0
 10
46.20665500525476
 20
205.8959562700029
 30
0.0
 11
46.20665500525476
 21
206.2303116200029
 31
0.0
  0
LINE
  5
90E2
  8
0
 10
46.20665500525476
 20
206.2303116200029
 30
0.0
 11
45.87267110525477
 21
206.2303116200029
 31
0.0
  0
LINE
  5
90E3
  8
0
 10
45.87267110525477
 20
206.2303116200029
 30
0.0
 11
45.87267110525477
 21
205.8959562700029
 31
0.0
  0
LINE
  5
90E4
  8
0
 10
46.54033110525478
 20
205.8959562700029
 30
0.0
 11
47.54154560525475
 21
205.8959562700029
 31
0.0
  0
LINE
  5
90E5
  8
0
 10
47.54154560525475
 20
205.8959562700029
 30
0.0
 11
47.54154560525475
 21
206.2303116200029
 31
0.0
  0
LINE
  5
90E6
  8
0
 10
47.54154560525475
 20
206.2303116200029
 30
0.0
 11
46.54033110525478
 21
206.2303116200029
 31
0.0
  0
LINE
  5
90E7
  8
0
 10
46.54033110525478
 20
206.2303116200029
 30
0.0
 11
46.54033110525478
 21
205.8959562700029
 31
0.0
  0
LINE
  5
90E8
  8
0
 10
47.87508110525476
 20
205.8959562700029
 30
0.0
 11
48.20906595525474
 21
205.8959562700029
 31
0.0
  0
LINE
  5
90E9
  8
0
 10
48.20906595525474
 20
205.8959562700029
 30
0.0
 11
48.20906595525474
 21
206.2303116200029
 31
0.0
  0
LINE
  5
90EA
  8
0
 10
48.20906595525474
 20
206.2303116200029
 30
0.0
 11
47.87508110525476
 21
206.2303116200029
 31
0.0
  0
LINE
  5
90EB
  8
0
 10
47.87508110525476
 20
206.2303116200029
 30
0.0
 11
47.87508110525476
 21
205.8959562700029
 31
0.0
  0
LINE
  5
90EC
  8
0
 10
49.20992610525477
 20
205.8959562700029
 30
0.0
 11
50.21151110525477
 21
205.8959562700029
 31
0.0
  0
LINE
  5
90ED
  8
0
 10
50.21151110525477
 20
205.8959562700029
 30
0.0
 11
50.21151110525477
 21
206.2303116200029
 31
0.0
  0
LINE
  5
90EE
  8
0
 10
50.21151110525477
 20
206.2303116200029
 30
0.0
 11
49.20992610525477
 21
206.2303116200029
 31
0.0
  0
LINE
  5
90EF
  8
0
 10
49.20992610525477
 20
206.2303116200029
 30
0.0
 11
49.20992610525477
 21
205.8959562700029
 31
0.0
  0
LINE
  5
90F0
  8
0
 10
50.87907610525474
 20
205.8959562700029
 30
0.0
 11
51.21306095525478
 21
205.8959562700029
 31
0.0
  0
LINE
  5
90F1
  8
0
 10
51.21306095525478
 20
205.8959562700029
 30
0.0
 11
51.21306095525478
 21
206.2303116200029
 31
0.0
  0
LINE
  5
90F2
  8
0
 10
51.21306095525478
 20
206.2303116200029
 30
0.0
 11
50.87907610525474
 21
206.2303116200029
 31
0.0
  0
LINE
  5
90F3
  8
0
 10
50.87907610525474
 20
206.2303116200029
 30
0.0
 11
50.87907610525474
 21
205.8959562700029
 31
0.0
  0
LINE
  5
90F4
  8
0
 10
51.88066110525475
 20
205.8959562700029
 30
0.0
 11
52.54788790525475
 21
205.8959562700029
 31
0.0
  0
LINE
  5
90F5
  8
0
 10
52.54788790525475
 20
205.8959562700029
 30
0.0
 11
52.54788790525475
 21
206.2303116200029
 31
0.0
  0
LINE
  5
90F6
  8
0
 10
52.54788790525475
 20
206.2303116200029
 30
0.0
 11
51.88066110525475
 21
206.2303116200029
 31
0.0
  0
LINE
  5
90F7
  8
0
 10
51.88066110525475
 20
206.2303116200029
 30
0.0
 11
51.88066110525475
 21
205.8959562700029
 31
0.0
  0
LINE
  5
90F8
  8
0
 10
42.53437110525476
 20
205.5626962700029
 30
0.0
 11
43.20196840525475
 21
205.5626962700029
 31
0.0
  0
LINE
  5
90F9
  8
0
 10
43.20196840525475
 20
205.5626962700029
 30
0.0
 11
43.20196840525475
 21
205.8966811200029
 31
0.0
  0
LINE
  5
90FA
  8
0
 10
43.20196840525475
 20
205.8966811200029
 30
0.0
 11
42.53437110525476
 21
205.8966811200029
 31
0.0
  0
LINE
  5
90FB
  8
0
 10
42.53437110525476
 20
205.8966811200029
 30
0.0
 11
42.53437110525476
 21
205.5626962700029
 31
0.0
  0
LINE
  5
90FC
  8
0
 10
43.53586110525475
 20
205.5626962700029
 30
0.0
 11
43.86984500525477
 21
205.5626962700029
 31
0.0
  0
LINE
  5
90FD
  8
0
 10
43.86984500525477
 20
205.5626962700029
 30
0.0
 11
43.86984500525477
 21
205.8966811200029
 31
0.0
  0
LINE
  5
90FE
  8
0
 10
43.86984500525477
 20
205.8966811200029
 30
0.0
 11
43.53586110525475
 21
205.8966811200029
 31
0.0
  0
LINE
  5
90FF
  8
0
 10
43.53586110525475
 20
205.8966811200029
 30
0.0
 11
43.53586110525475
 21
205.5626962700029
 31
0.0
  0
LINE
  5
9100
  8
0
 10
44.20352110525477
 20
205.5626962700029
 30
0.0
 11
44.53750595525474
 21
205.5626962700029
 31
0.0
  0
LINE
  5
9101
  8
0
 10
44.53750595525474
 20
205.5626962700029
 30
0.0
 11
44.53750595525474
 21
205.8966811200029
 31
0.0
  0
LINE
  5
9102
  8
0
 10
44.53750595525474
 20
205.8966811200029
 30
0.0
 11
44.20352110525477
 21
205.8966811200029
 31
0.0
  0
LINE
  5
9103
  8
0
 10
44.20352110525477
 20
205.8966811200029
 30
0.0
 11
44.20352110525477
 21
205.5626962700029
 31
0.0
  0
LINE
  5
9104
  8
0
 10
45.20510610525474
 20
205.5626962700029
 30
0.0
 11
45.53909095525478
 21
205.5626962700029
 31
0.0
  0
LINE
  5
9105
  8
0
 10
45.53909095525478
 20
205.5626962700029
 30
0.0
 11
45.53909095525478
 21
205.8966811200029
 31
0.0
  0
LINE
  5
9106
  8
0
 10
45.53909095525478
 20
205.8966811200029
 30
0.0
 11
45.20510610525474
 21
205.8966811200029
 31
0.0
  0
LINE
  5
9107
  8
0
 10
45.20510610525474
 20
205.8966811200029
 30
0.0
 11
45.20510610525474
 21
205.5626962700029
 31
0.0
  0
LINE
  5
9108
  8
0
 10
45.87267110525477
 20
205.5626962700029
 30
0.0
 11
46.87388560525477
 21
205.5626962700029
 31
0.0
  0
LINE
  5
9109
  8
0
 10
46.87388560525477
 20
205.5626962700029
 30
0.0
 11
46.87388560525477
 21
205.8966811200029
 31
0.0
  0
LINE
  5
910A
  8
0
 10
46.87388560525477
 20
205.8966811200029
 30
0.0
 11
45.87267110525477
 21
205.8966811200029
 31
0.0
  0
LINE
  5
910B
  8
0
 10
45.87267110525477
 20
205.8966811200029
 30
0.0
 11
45.87267110525477
 21
205.5626962700029
 31
0.0
  0
LINE
  5
910C
  8
0
 10
47.20751610525477
 20
205.5626962700029
 30
0.0
 11
47.54150000525476
 21
205.5626962700029
 31
0.0
  0
LINE
  5
910D
  8
0
 10
47.54150000525476
 20
205.5626962700029
 30
0.0
 11
47.54150000525476
 21
205.8966811200029
 31
0.0
  0
LINE
  5
910E
  8
0
 10
47.54150000525476
 20
205.8966811200029
 30
0.0
 11
47.20751610525477
 21
205.8966811200029
 31
0.0
  0
LINE
  5
910F
  8
0
 10
47.20751610525477
 20
205.8966811200029
 30
0.0
 11
47.20751610525477
 21
205.5626962700029
 31
0.0
  0
LINE
  5
9110
  8
0
 10
47.87508110525476
 20
205.5626962700029
 30
0.0
 11
48.87666610525474
 21
205.5626962700029
 31
0.0
  0
LINE
  5
9111
  8
0
 10
48.87666610525474
 20
205.5626962700029
 30
0.0
 11
48.87666610525474
 21
205.8966811200029
 31
0.0
  0
LINE
  5
9112
  8
0
 10
48.87666610525474
 20
205.8966811200029
 30
0.0
 11
47.87508110525476
 21
205.8966811200029
 31
0.0
  0
LINE
  5
9113
  8
0
 10
47.87508110525476
 20
205.8966811200029
 30
0.0
 11
47.87508110525476
 21
205.5626962700029
 31
0.0
  0
LINE
  5
9114
  8
0
 10
49.20992610525477
 20
205.5626962700029
 30
0.0
 11
49.54428145525475
 21
205.5626962700029
 31
0.0
  0
LINE
  5
9115
  8
0
 10
49.54428145525475
 20
205.5626962700029
 30
0.0
 11
49.54428145525475
 21
205.8966811200029
 31
0.0
  0
LINE
  5
9116
  8
0
 10
49.54428145525475
 20
205.8966811200029
 30
0.0
 11
49.20992610525477
 21
205.8966811200029
 31
0.0
  0
LINE
  5
9117
  8
0
 10
49.20992610525477
 20
205.8966811200029
 30
0.0
 11
49.20992610525477
 21
205.5626962700029
 31
0.0
  0
LINE
  5
9118
  8
0
 10
49.87749110525476
 20
205.5626962700029
 30
0.0
 11
50.54508840525477
 21
205.5626962700029
 31
0.0
  0
LINE
  5
9119
  8
0
 10
50.54508840525477
 20
205.5626962700029
 30
0.0
 11
50.54508840525477
 21
205.8966811200029
 31
0.0
  0
LINE
  5
911A
  8
0
 10
50.54508840525477
 20
205.8966811200029
 30
0.0
 11
49.87749110525476
 21
205.8966811200029
 31
0.0
  0
LINE
  5
911B
  8
0
 10
49.87749110525476
 20
205.8966811200029
 30
0.0
 11
49.87749110525476
 21
205.5626962700029
 31
0.0
  0
LINE
  5
911C
  8
0
 10
51.54673610525475
 20
205.5626962700029
 30
0.0
 11
52.88156210525474
 21
205.5626962700029
 31
0.0
  0
LINE
  5
911D
  8
0
 10
52.88156210525474
 20
205.5626962700029
 30
0.0
 11
52.88156210525474
 21
205.8966811200029
 31
0.0
  0
LINE
  5
911E
  8
0
 10
52.88156210525474
 20
205.8966811200029
 30
0.0
 11
51.54673610525475
 21
205.8966811200029
 31
0.0
  0
LINE
  5
911F
  8
0
 10
51.54673610525475
 20
205.8966811200029
 30
0.0
 11
51.54673610525475
 21
205.5626962700029
 31
0.0
  0
LINE
  5
9120
  8
0
 10
42.53437110525476
 20
205.2287712700029
 30
0.0
 11
42.86872645525477
 21
205.2287712700029
 31
0.0
  0
LINE
  5
9121
  8
0
 10
42.86872645525477
 20
205.2287712700029
 30
0.0
 11
42.86872645525477
 21
205.5627551700029
 31
0.0
  0
LINE
  5
9122
  8
0
 10
42.86872645525477
 20
205.5627551700029
 30
0.0
 11
42.53437110525476
 21
205.5627551700029
 31
0.0
  0
LINE
  5
9123
  8
0
 10
42.53437110525476
 20
205.5627551700029
 30
0.0
 11
42.53437110525476
 21
205.2287712700029
 31
0.0
  0
LINE
  5
9124
  8
0
 10
43.20193610525473
 20
205.2287712700029
 30
0.0
 11
43.53629240525476
 21
205.2287712700029
 31
0.0
  0
LINE
  5
9125
  8
0
 10
43.53629240525476
 20
205.2287712700029
 30
0.0
 11
43.53629240525476
 21
205.5627551700029
 31
0.0
  0
LINE
  5
9126
  8
0
 10
43.53629240525476
 20
205.5627551700029
 30
0.0
 11
43.20193610525473
 21
205.5627551700029
 31
0.0
  0
LINE
  5
9127
  8
0
 10
43.20193610525473
 20
205.5627551700029
 30
0.0
 11
43.20193610525473
 21
205.2287712700029
 31
0.0
  0
LINE
  5
9128
  8
0
 10
43.86950110525476
 20
205.2287712700029
 30
0.0
 11
44.87108610525473
 21
205.2287712700029
 31
0.0
  0
LINE
  5
9129
  8
0
 10
44.87108610525473
 20
205.2287712700029
 30
0.0
 11
44.87108610525473
 21
205.5627551700029
 31
0.0
  0
LINE
  5
912A
  8
0
 10
44.87108610525473
 20
205.5627551700029
 30
0.0
 11
43.86950110525476
 21
205.5627551700029
 31
0.0
  0
LINE
  5
912B
  8
0
 10
43.86950110525476
 20
205.5627551700029
 30
0.0
 11
43.86950110525476
 21
205.2287712700029
 31
0.0
  0
LINE
  5
912C
  8
0
 10
45.53874610525475
 20
205.2287712700029
 30
0.0
 11
45.87273095525472
 21
205.2287712700029
 31
0.0
  0
LINE
  5
912D
  8
0
 10
45.87273095525472
 20
205.2287712700029
 30
0.0
 11
45.87273095525472
 21
205.5627551700029
 31
0.0
  0
LINE
  5
912E
  8
0
 10
45.87273095525472
 20
205.5627551700029
 30
0.0
 11
45.53874610525475
 21
205.5627551700029
 31
0.0
  0
LINE
  5
912F
  8
0
 10
45.53874610525475
 20
205.5627551700029
 30
0.0
 11
45.53874610525475
 21
205.2287712700029
 31
0.0
  0
LINE
  5
9130
  8
0
 10
46.20593110525476
 20
205.2287712700029
 30
0.0
 11
46.53991500525476
 21
205.2287712700029
 31
0.0
  0
LINE
  5
9131
  8
0
 10
46.53991500525476
 20
205.2287712700029
 30
0.0
 11
46.53991500525476
 21
205.5627551700029
 31
0.0
  0
LINE
  5
9132
  8
0
 10
46.53991500525476
 20
205.5627551700029
 30
0.0
 11
46.20593110525476
 21
205.5627551700029
 31
0.0
  0
LINE
  5
9133
  8
0
 10
46.20593110525476
 20
205.5627551700029
 30
0.0
 11
46.20593110525476
 21
205.2287712700029
 31
0.0
  0
LINE
  5
9134
  8
0
 10
47.54153610525475
 20
205.2287712700029
 30
0.0
 11
48.54312110525476
 21
205.2287712700029
 31
0.0
  0
LINE
  5
9135
  8
0
 10
48.54312110525476
 20
205.2287712700029
 30
0.0
 11
48.54312110525476
 21
205.5627551700029
 31
0.0
  0
LINE
  5
9136
  8
0
 10
48.54312110525476
 20
205.5627551700029
 30
0.0
 11
47.54153610525475
 21
205.5627551700029
 31
0.0
  0
LINE
  5
9137
  8
0
 10
47.54153610525475
 20
205.5627551700029
 30
0.0
 11
47.54153610525475
 21
205.2287712700029
 31
0.0
  0
LINE
  5
9138
  8
0
 10
49.20992610525477
 20
205.2287712700029
 30
0.0
 11
49.87752435525476
 21
205.2287712700029
 31
0.0
  0
LINE
  5
9139
  8
0
 10
49.87752435525476
 20
205.2287712700029
 30
0.0
 11
49.87752435525476
 21
205.5627551700029
 31
0.0
  0
LINE
  5
913A
  8
0
 10
49.87752435525476
 20
205.5627551700029
 30
0.0
 11
49.20992610525477
 21
205.5627551700029
 31
0.0
  0
LINE
  5
913B
  8
0
 10
49.20992610525477
 20
205.5627551700029
 30
0.0
 11
49.20992610525477
 21
205.2287712700029
 31
0.0
  0
LINE
  5
913C
  8
0
 10
50.54591110525473
 20
205.2287712700029
 30
0.0
 11
51.21313790525477
 21
205.2287712700029
 31
0.0
  0
LINE
  5
913D
  8
0
 10
51.21313790525477
 20
205.2287712700029
 30
0.0
 11
51.21313790525477
 21
205.5627551700029
 31
0.0
  0
LINE
  5
913E
  8
0
 10
51.21313790525477
 20
205.5627551700029
 30
0.0
 11
50.54591110525473
 21
205.5627551700029
 31
0.0
  0
LINE
  5
913F
  8
0
 10
50.54591110525473
 20
205.5627551700029
 30
0.0
 11
50.54591110525473
 21
205.2287712700029
 31
0.0
  0
LINE
  5
9140
  8
0
 10
51.54673610525475
 20
205.2287712700029
 30
0.0
 11
51.88072000525477
 21
205.2287712700029
 31
0.0
  0
LINE
  5
9141
  8
0
 10
51.88072000525477
 20
205.2287712700029
 30
0.0
 11
51.88072000525477
 21
205.5627551700029
 31
0.0
  0
LINE
  5
9142
  8
0
 10
51.88072000525477
 20
205.5627551700029
 30
0.0
 11
51.54673610525475
 21
205.5627551700029
 31
0.0
  0
LINE
  5
9143
  8
0
 10
51.54673610525475
 20
205.5627551700029
 30
0.0
 11
51.54673610525475
 21
205.2287712700029
 31
0.0
  0
LINE
  5
9144
  8
0
 10
52.21392110525477
 20
205.2287712700029
 30
0.0
 11
53.21550610525476
 21
205.2287712700029
 31
0.0
  0
LINE
  5
9145
  8
0
 10
53.21550610525476
 20
205.2287712700029
 30
0.0
 11
53.21550610525476
 21
205.5627551700029
 31
0.0
  0
LINE
  5
9146
  8
0
 10
53.21550610525476
 20
205.5627551700029
 30
0.0
 11
52.21392110525477
 21
205.5627551700029
 31
0.0
  0
LINE
  5
9147
  8
0
 10
52.21392110525477
 20
205.5627551700029
 30
0.0
 11
52.21392110525477
 21
205.2287712700029
 31
0.0
  0
LINE
  5
9148
  8
0
 10
42.53437110525476
 20
204.8951312700029
 30
0.0
 11
42.86872645525477
 21
204.8951312700029
 31
0.0
  0
LINE
  5
9149
  8
0
 10
42.86872645525477
 20
204.8951312700029
 30
0.0
 11
42.86872645525477
 21
205.2291151700029
 31
0.0
  0
LINE
  5
914A
  8
0
 10
42.86872645525477
 20
205.2291151700029
 30
0.0
 11
42.53437110525476
 21
205.2291151700029
 31
0.0
  0
LINE
  5
914B
  8
0
 10
42.53437110525476
 20
205.2291151700029
 30
0.0
 11
42.53437110525476
 21
204.8951312700029
 31
0.0
  0
LINE
  5
914C
  8
0
 10
43.86950110525476
 20
204.8951312700029
 30
0.0
 11
44.53709840525477
 21
204.8951312700029
 31
0.0
  0
LINE
  5
914D
  8
0
 10
44.53709840525477
 20
204.8951312700029
 30
0.0
 11
44.53709840525477
 21
205.2291151700029
 31
0.0
  0
LINE
  5
914E
  8
0
 10
44.53709840525477
 20
205.2291151700029
 30
0.0
 11
43.86950110525476
 21
205.2291151700029
 31
0.0
  0
LINE
  5
914F
  8
0
 10
43.86950110525476
 20
205.2291151700029
 30
0.0
 11
43.86950110525476
 21
204.8951312700029
 31
0.0
  0
LINE
  5
9150
  8
0
 10
44.87108610525473
 20
204.8951312700029
 30
0.0
 11
46.87350560525476
 21
204.8951312700029
 31
0.0
  0
LINE
  5
9151
  8
0
 10
46.87350560525476
 20
204.8951312700029
 30
0.0
 11
46.87350560525476
 21
205.2291151700029
 31
0.0
  0
LINE
  5
9152
  8
0
 10
46.87350560525476
 20
205.2291151700029
 30
0.0
 11
44.87108610525473
 21
205.2291151700029
 31
0.0
  0
LINE
  5
9153
  8
0
 10
44.87108610525473
 20
205.2291151700029
 30
0.0
 11
44.87108610525473
 21
204.8951312700029
 31
0.0
  0
LINE
  5
9154
  8
0
 10
48.54274110525475
 20
204.8951312700029
 30
0.0
 11
48.87672595525476
 21
204.8951312700029
 31
0.0
  0
LINE
  5
9155
  8
0
 10
48.87672595525476
 20
204.8951312700029
 30
0.0
 11
48.87672595525476
 21
205.2291151700029
 31
0.0
  0
LINE
  5
9156
  8
0
 10
48.87672595525476
 20
205.2291151700029
 30
0.0
 11
48.54274110525475
 21
205.2291151700029
 31
0.0
  0
LINE
  5
9157
  8
0
 10
48.54274110525475
 20
205.2291151700029
 30
0.0
 11
48.54274110525475
 21
204.8951312700029
 31
0.0
  0
LINE
  5
9158
  8
0
 10
49.87749110525476
 20
204.8951312700029
 30
0.0
 11
50.54508840525477
 21
204.8951312700029
 31
0.0
  0
LINE
  5
9159
  8
0
 10
50.54508840525477
 20
204.8951312700029
 30
0.0
 11
50.54508840525477
 21
205.2291151700029
 31
0.0
  0
LINE
  5
915A
  8
0
 10
50.54508840525477
 20
205.2291151700029
 30
0.0
 11
49.87749110525476
 21
205.2291151700029
 31
0.0
  0
LINE
  5
915B
  8
0
 10
49.87749110525476
 20
205.2291151700029
 30
0.0
 11
49.87749110525476
 21
204.8951312700029
 31
0.0
  0
LINE
  5
915C
  8
0
 10
50.87907610525474
 20
204.8951312700029
 30
0.0
 11
51.88066110525475
 21
204.8951312700029
 31
0.0
  0
LINE
  5
915D
  8
0
 10
51.88066110525475
 20
204.8951312700029
 30
0.0
 11
51.88066110525475
 21
205.2291151700029
 31
0.0
  0
LINE
  5
915E
  8
0
 10
51.88066110525475
 20
205.2291151700029
 30
0.0
 11
50.87907610525474
 21
205.2291151700029
 31
0.0
  0
LINE
  5
915F
  8
0
 10
50.87907610525474
 20
205.2291151700029
 30
0.0
 11
50.87907610525474
 21
204.8951312700029
 31
0.0
  0
LINE
  5
9160
  8
0
 10
52.21392110525477
 20
204.8951312700029
 30
0.0
 11
52.88151840525475
 21
204.8951312700029
 31
0.0
  0
LINE
  5
9161
  8
0
 10
52.88151840525475
 20
204.8951312700029
 30
0.0
 11
52.88151840525475
 21
205.2291151700029
 31
0.0
  0
LINE
  5
9162
  8
0
 10
52.88151840525475
 20
205.2291151700029
 30
0.0
 11
52.21392110525477
 21
205.2291151700029
 31
0.0
  0
LINE
  5
9163
  8
0
 10
52.21392110525477
 20
205.2291151700029
 30
0.0
 11
52.21392110525477
 21
204.8951312700029
 31
0.0
  0
LINE
  5
9164
  8
0
 10
53.21550610525476
 20
204.8951312700029
 30
0.0
 11
53.54986240525476
 21
204.8951312700029
 31
0.0
  0
LINE
  5
9165
  8
0
 10
53.54986240525476
 20
204.8951312700029
 30
0.0
 11
53.54986240525476
 21
205.2291151700029
 31
0.0
  0
LINE
  5
9166
  8
0
 10
53.54986240525476
 20
205.2291151700029
 30
0.0
 11
53.21550610525476
 21
205.2291151700029
 31
0.0
  0
LINE
  5
9167
  8
0
 10
53.21550610525476
 20
205.2291151700029
 30
0.0
 11
53.21550610525476
 21
204.8951312700029
 31
0.0
  0
LINE
  5
9168
  8
0
 10
42.53437110525476
 20
204.5611112700029
 30
0.0
 11
43.20196840525475
 21
204.5611112700029
 31
0.0
  0
LINE
  5
9169
  8
0
 10
43.20196840525475
 20
204.5611112700029
 30
0.0
 11
43.20196840525475
 21
204.8950961200029
 31
0.0
  0
LINE
  5
916A
  8
0
 10
43.20196840525475
 20
204.8950961200029
 30
0.0
 11
42.53437110525476
 21
204.8950961200029
 31
0.0
  0
LINE
  5
916B
  8
0
 10
42.53437110525476
 20
204.8950961200029
 30
0.0
 11
42.53437110525476
 21
204.5611112700029
 31
0.0
  0
LINE
  5
916C
  8
0
 10
43.53586110525475
 20
204.5611112700029
 30
0.0
 11
43.86984500525477
 21
204.5611112700029
 31
0.0
  0
LINE
  5
916D
  8
0
 10
43.86984500525477
 20
204.5611112700029
 30
0.0
 11
43.86984500525477
 21
204.8950961200029
 31
0.0
  0
LINE
  5
916E
  8
0
 10
43.86984500525477
 20
204.8950961200029
 30
0.0
 11
43.53586110525475
 21
204.8950961200029
 31
0.0
  0
LINE
  5
916F
  8
0
 10
43.53586110525475
 20
204.8950961200029
 30
0.0
 11
43.53586110525475
 21
204.5611112700029
 31
0.0
  0
LINE
  5
9170
  8
0
 10
44.20352110525477
 20
204.5611112700029
 30
0.0
 11
46.20594060525474
 21
204.5611112700029
 31
0.0
  0
LINE
  5
9171
  8
0
 10
46.20594060525474
 20
204.5611112700029
 30
0.0
 11
46.20594060525474
 21
204.8950961200029
 31
0.0
  0
LINE
  5
9172
  8
0
 10
46.20594060525474
 20
204.8950961200029
 30
0.0
 11
44.20352110525477
 21
204.8950961200029
 31
0.0
  0
LINE
  5
9173
  8
0
 10
44.20352110525477
 20
204.8950961200029
 30
0.0
 11
44.20352110525477
 21
204.5611112700029
 31
0.0
  0
LINE
  5
9174
  8
0
 10
47.54153610525475
 20
204.5611112700029
 30
0.0
 11
48.20913435525475
 21
204.5611112700029
 31
0.0
  0
LINE
  5
9175
  8
0
 10
48.20913435525475
 20
204.5611112700029
 30
0.0
 11
48.20913435525475
 21
204.8950961200029
 31
0.0
  0
LINE
  5
9176
  8
0
 10
48.20913435525475
 20
204.8950961200029
 30
0.0
 11
47.54153610525475
 21
204.8950961200029
 31
0.0
  0
LINE
  5
9177
  8
0
 10
47.54153610525475
 20
204.8950961200029
 30
0.0
 11
47.54153610525475
 21
204.5611112700029
 31
0.0
  0
LINE
  5
9178
  8
0
 10
48.87666610525474
 20
204.5611112700029
 30
0.0
 11
49.54426340525475
 21
204.5611112700029
 31
0.0
  0
LINE
  5
9179
  8
0
 10
49.54426340525475
 20
204.5611112700029
 30
0.0
 11
49.54426340525475
 21
204.8950961200029
 31
0.0
  0
LINE
  5
917A
  8
0
 10
49.54426340525475
 20
204.8950961200029
 30
0.0
 11
48.87666610525474
 21
204.8950961200029
 31
0.0
  0
LINE
  5
917B
  8
0
 10
48.87666610525474
 20
204.8950961200029
 30
0.0
 11
48.87666610525474
 21
204.5611112700029
 31
0.0
  0
LINE
  5
917C
  8
0
 10
50.54591110525473
 20
204.5611112700029
 30
0.0
 11
52.54833060525476
 21
204.5611112700029
 31
0.0
  0
LINE
  5
917D
  8
0
 10
52.54833060525476
 20
204.5611112700029
 30
0.0
 11
52.54833060525476
 21
204.8950961200029
 31
0.0
  0
LINE
  5
917E
  8
0
 10
52.54833060525476
 20
204.8950961200029
 30
0.0
 11
50.54591110525473
 21
204.8950961200029
 31
0.0
  0
LINE
  5
917F
  8
0
 10
50.54591110525473
 20
204.8950961200029
 30
0.0
 11
50.54591110525473
 21
204.5611112700029
 31
0.0
  0
LINE
  5
9180
  8
0
 10
45.20510610525474
 20
204.2275662700029
 30
0.0
 11
45.53909095525478
 21
204.2275662700029
 31
0.0
  0
LINE
  5
9181
  8
0
 10
45.53909095525478
 20
204.2275662700029
 30
0.0
 11
45.53909095525478
 21
204.5615511200029
 31
0.0
  0
LINE
  5
9182
  8
0
 10
45.53909095525478
 20
204.5615511200029
 30
0.0
 11
45.20510610525474
 21
204.5615511200029
 31
0.0
  0
LINE
  5
9183
  8
0
 10
45.20510610525474
 20
204.5615511200029
 30
0.0
 11
45.20510610525474
 21
204.2275662700029
 31
0.0
  0
LINE
  5
9184
  8
0
 10
46.20593110525476
 20
204.2275662700029
 30
0.0
 11
46.53991500525476
 21
204.2275662700029
 31
0.0
  0
LINE
  5
9185
  8
0
 10
46.53991500525476
 20
204.2275662700029
 30
0.0
 11
46.53991500525476
 21
204.5615511200029
 31
0.0
  0
LINE
  5
9186
  8
0
 10
46.53991500525476
 20
204.5615511200029
 30
0.0
 11
46.20593110525476
 21
204.5615511200029
 31
0.0
  0
LINE
  5
9187
  8
0
 10
46.20593110525476
 20
204.5615511200029
 30
0.0
 11
46.20593110525476
 21
204.2275662700029
 31
0.0
  0
LINE
  5
9188
  8
0
 10
46.87349610525473
 20
204.2275662700029
 30
0.0
 11
47.20748095525477
 21
204.2275662700029
 31
0.0
  0
LINE
  5
9189
  8
0
 10
47.20748095525477
 20
204.2275662700029
 30
0.0
 11
47.20748095525477
 21
204.5615511200029
 31
0.0
  0
LINE
  5
918A
  8
0
 10
47.20748095525477
 20
204.5615511200029
 30
0.0
 11
46.87349610525473
 21
204.5615511200029
 31
0.0
  0
LINE
  5
918B
  8
0
 10
46.87349610525473
 20
204.5615511200029
 30
0.0
 11
46.87349610525473
 21
204.2275662700029
 31
0.0
  0
LINE
  5
918C
  8
0
 10
47.54153610525475
 20
204.2275662700029
 30
0.0
 11
47.87589145525476
 21
204.2275662700029
 31
0.0
  0
LINE
  5
918D
  8
0
 10
47.87589145525476
 20
204.2275662700029
 30
0.0
 11
47.87589145525476
 21
204.5615511200029
 31
0.0
  0
LINE
  5
918E
  8
0
 10
47.87589145525476
 20
204.5615511200029
 30
0.0
 11
47.54153610525475
 21
204.5615511200029
 31
0.0
  0
LINE
  5
918F
  8
0
 10
47.54153610525475
 20
204.5615511200029
 30
0.0
 11
47.54153610525475
 21
204.2275662700029
 31
0.0
  0
LINE
  5
9190
  8
0
 10
48.54274110525475
 20
204.2275662700029
 30
0.0
 11
49.54395560525475
 21
204.2275662700029
 31
0.0
  0
LINE
  5
9191
  8
0
 10
49.54395560525475
 20
204.2275662700029
 30
0.0
 11
49.54395560525475
 21
204.5615511200029
 31
0.0
  0
LINE
  5
9192
  8
0
 10
49.54395560525475
 20
204.5615511200029
 30
0.0
 11
48.54274110525475
 21
204.5615511200029
 31
0.0
  0
LINE
  5
9193
  8
0
 10
48.54274110525475
 20
204.5615511200029
 30
0.0
 11
48.54274110525475
 21
204.2275662700029
 31
0.0
  0
LINE
  5
9194
  8
0
 10
49.87749110525476
 20
204.2275662700029
 30
0.0
 11
50.87907610525474
 21
204.2275662700029
 31
0.0
  0
LINE
  5
9195
  8
0
 10
50.87907610525474
 20
204.2275662700029
 30
0.0
 11
50.87907610525474
 21
204.5615511200029
 31
0.0
  0
LINE
  5
9196
  8
0
 10
50.87907610525474
 20
204.5615511200029
 30
0.0
 11
49.87749110525476
 21
204.5615511200029
 31
0.0
  0
LINE
  5
9197
  8
0
 10
49.87749110525476
 20
204.5615511200029
 30
0.0
 11
49.87749110525476
 21
204.2275662700029
 31
0.0
  0
LINE
  5
9198
  8
0
 10
51.88066110525475
 20
204.2275662700029
 30
0.0
 11
52.21464595525475
 21
204.2275662700029
 31
0.0
  0
LINE
  5
9199
  8
0
 10
52.21464595525475
 20
204.2275662700029
 30
0.0
 11
52.21464595525475
 21
204.5615511200029
 31
0.0
  0
LINE
  5
919A
  8
0
 10
52.21464595525475
 20
204.5615511200029
 30
0.0
 11
51.88066110525475
 21
204.5615511200029
 31
0.0
  0
LINE
  5
919B
  8
0
 10
51.88066110525475
 20
204.5615511200029
 30
0.0
 11
51.88066110525475
 21
204.2275662700029
 31
0.0
  0
LINE
  5
919C
  8
0
 10
52.54832110525473
 20
204.2275662700029
 30
0.0
 11
53.54990610525476
 21
204.2275662700029
 31
0.0
  0
LINE
  5
919D
  8
0
 10
53.54990610525476
 20
204.2275662700029
 30
0.0
 11
53.54990610525476
 21
204.5615511200029
 31
0.0
  0
LINE
  5
919E
  8
0
 10
53.54990610525476
 20
204.5615511200029
 30
0.0
 11
52.54832110525473
 21
204.5615511200029
 31
0.0
  0
LINE
  5
919F
  8
0
 10
52.54832110525473
 20
204.5615511200029
 30
0.0
 11
52.54832110525473
 21
204.2275662700029
 31
0.0
  0
LINE
  5
91A0
  8
0
 10
42.53437110525476
 20
203.8935462700029
 30
0.0
 11
44.87115260525479
 21
203.8935462700029
 31
0.0
  0
LINE
  5
91A1
  8
0
 10
44.87115260525479
 20
203.8935462700029
 30
0.0
 11
44.87115260525479
 21
204.2275301700029
 31
0.0
  0
LINE
  5
91A2
  8
0
 10
44.87115260525479
 20
204.2275301700029
 30
0.0
 11
42.53437110525476
 21
204.2275301700029
 31
0.0
  0
LINE
  5
91A3
  8
0
 10
42.53437110525476
 20
204.2275301700029
 30
0.0
 11
42.53437110525476
 21
203.8935462700029
 31
0.0
  0
LINE
  5
91A4
  8
0
 10
46.20593110525476
 20
203.8935462700029
 30
0.0
 11
47.20751610525477
 21
203.8935462700029
 31
0.0
  0
LINE
  5
91A5
  8
0
 10
47.20751610525477
 20
203.8935462700029
 30
0.0
 11
47.20751610525477
 21
204.2275301700029
 31
0.0
  0
LINE
  5
91A6
  8
0
 10
47.20751610525477
 20
204.2275301700029
 30
0.0
 11
46.20593110525476
 21
204.2275301700029
 31
0.0
  0
LINE
  5
91A7
  8
0
 10
46.20593110525476
 20
204.2275301700029
 30
0.0
 11
46.20593110525476
 21
203.8935462700029
 31
0.0
  0
LINE
  5
91A8
  8
0
 10
47.54153610525475
 20
203.8935462700029
 30
0.0
 11
48.20913435525475
 21
203.8935462700029
 31
0.0
  0
LINE
  5
91A9
  8
0
 10
48.20913435525475
 20
203.8935462700029
 30
0.0
 11
48.20913435525475
 21
204.2275301700029
 31
0.0
  0
LINE
  5
91AA
  8
0
 10
48.20913435525475
 20
204.2275301700029
 30
0.0
 11
47.54153610525475
 21
204.2275301700029
 31
0.0
  0
LINE
  5
91AB
  8
0
 10
47.54153610525475
 20
204.2275301700029
 30
0.0
 11
47.54153610525475
 21
203.8935462700029
 31
0.0
  0
LINE
  5
91AC
  8
0
 10
48.54274110525475
 20
203.8935462700029
 30
0.0
 11
48.87672595525476
 21
203.8935462700029
 31
0.0
  0
LINE
  5
91AD
  8
0
 10
48.87672595525476
 20
203.8935462700029
 30
0.0
 11
48.87672595525476
 21
204.2275301700029
 31
0.0
  0
LINE
  5
91AE
  8
0
 10
48.87672595525476
 20
204.2275301700029
 30
0.0
 11
48.54274110525475
 21
204.2275301700029
 31
0.0
  0
LINE
  5
91AF
  8
0
 10
48.54274110525475
 20
204.2275301700029
 30
0.0
 11
48.54274110525475
 21
203.8935462700029
 31
0.0
  0
LINE
  5
91B0
  8
0
 10
49.20992610525477
 20
203.8935462700029
 30
0.0
 11
49.87752435525476
 21
203.8935462700029
 31
0.0
  0
LINE
  5
91B1
  8
0
 10
49.87752435525476
 20
203.8935462700029
 30
0.0
 11
49.87752435525476
 21
204.2275301700029
 31
0.0
  0
LINE
  5
91B2
  8
0
 10
49.87752435525476
 20
204.2275301700029
 30
0.0
 11
49.20992610525477
 21
204.2275301700029
 31
0.0
  0
LINE
  5
91B3
  8
0
 10
49.20992610525477
 20
204.2275301700029
 30
0.0
 11
49.20992610525477
 21
203.8935462700029
 31
0.0
  0
LINE
  5
91B4
  8
0
 10
50.21151110525477
 20
203.8935462700029
 30
0.0
 11
50.87910840525475
 21
203.8935462700029
 31
0.0
  0
LINE
  5
91B5
  8
0
 10
50.87910840525475
 20
203.8935462700029
 30
0.0
 11
50.87910840525475
 21
204.2275301700029
 31
0.0
  0
LINE
  5
91B6
  8
0
 10
50.87910840525475
 20
204.2275301700029
 30
0.0
 11
50.21151110525477
 21
204.2275301700029
 31
0.0
  0
LINE
  5
91B7
  8
0
 10
50.21151110525477
 20
204.2275301700029
 30
0.0
 11
50.21151110525477
 21
203.8935462700029
 31
0.0
  0
LINE
  5
91B8
  8
0
 10
51.21309610525475
 20
203.8935462700029
 30
0.0
 11
51.54708000525477
 21
203.8935462700029
 31
0.0
  0
LINE
  5
91B9
  8
0
 10
51.54708000525477
 20
203.8935462700029
 30
0.0
 11
51.54708000525477
 21
204.2275301700029
 31
0.0
  0
LINE
  5
91BA
  8
0
 10
51.54708000525477
 20
204.2275301700029
 30
0.0
 11
51.21309610525475
 21
204.2275301700029
 31
0.0
  0
LINE
  5
91BB
  8
0
 10
51.21309610525475
 20
204.2275301700029
 30
0.0
 11
51.21309610525475
 21
203.8935462700029
 31
0.0
  0
LINE
  5
91BC
  8
0
 10
51.88066110525475
 20
203.8935462700029
 30
0.0
 11
52.21464595525475
 21
203.8935462700029
 31
0.0
  0
LINE
  5
91BD
  8
0
 10
52.21464595525475
 20
203.8935462700029
 30
0.0
 11
52.21464595525475
 21
204.2275301700029
 31
0.0
  0
LINE
  5
91BE
  8
0
 10
52.21464595525475
 20
204.2275301700029
 30
0.0
 11
51.88066110525475
 21
204.2275301700029
 31
0.0
  0
LINE
  5
91BF
  8
0
 10
51.88066110525475
 20
204.2275301700029
 30
0.0
 11
51.88066110525475
 21
203.8935462700029
 31
0.0
  0
LINE
  5
91C0
  8
0
 10
52.54832110525473
 20
203.8935462700029
 30
0.0
 11
53.21554695525477
 21
203.8935462700029
 31
0.0
  0
LINE
  5
91C1
  8
0
 10
53.21554695525477
 20
203.8935462700029
 30
0.0
 11
53.21554695525477
 21
204.2275301700029
 31
0.0
  0
LINE
  5
91C2
  8
0
 10
53.21554695525477
 20
204.2275301700029
 30
0.0
 11
52.54832110525473
 21
204.2275301700029
 31
0.0
  0
LINE
  5
91C3
  8
0
 10
52.54832110525473
 20
204.2275301700029
 30
0.0
 11
52.54832110525473
 21
203.8935462700029
 31
0.0
  0
LINE
  5
91C4
  8
0
 10
42.53437110525476
 20
203.5602862700029
 30
0.0
 11
42.86872645525477
 21
203.5602862700029
 31
0.0
  0
LINE
  5
91C5
  8
0
 10
42.86872645525477
 20
203.5602862700029
 30
0.0
 11
42.86872645525477
 21
203.8942701700029
 31
0.0
  0
LINE
  5
91C6
  8
0
 10
42.86872645525477
 20
203.8942701700029
 30
0.0
 11
42.53437110525476
 21
203.8942701700029
 31
0.0
  0
LINE
  5
91C7
  8
0
 10
42.53437110525476
 20
203.8942701700029
 30
0.0
 11
42.53437110525476
 21
203.5602862700029
 31
0.0
  0
LINE
  5
91C8
  8
0
 10
44.53744610525473
 20
203.5602862700029
 30
0.0
 11
44.87143000525475
 21
203.5602862700029
 31
0.0
  0
LINE
  5
91C9
  8
0
 10
44.87143000525475
 20
203.5602862700029
 30
0.0
 11
44.87143000525475
 21
203.8942701700029
 31
0.0
  0
LINE
  5
91CA
  8
0
 10
44.87143000525475
 20
203.8942701700029
 30
0.0
 11
44.53744610525473
 21
203.8942701700029
 31
0.0
  0
LINE
  5
91CB
  8
0
 10
44.53744610525473
 20
203.8942701700029
 30
0.0
 11
44.53744610525473
 21
203.5602862700029
 31
0.0
  0
LINE
  5
91CC
  8
0
 10
45.53874610525475
 20
203.5602862700029
 30
0.0
 11
46.53996060525475
 21
203.5602862700029
 31
0.0
  0
LINE
  5
91CD
  8
0
 10
46.53996060525475
 20
203.5602862700029
 30
0.0
 11
46.53996060525475
 21
203.8942701700029
 31
0.0
  0
LINE
  5
91CE
  8
0
 10
46.53996060525475
 20
203.8942701700029
 30
0.0
 11
45.53874610525475
 21
203.8942701700029
 31
0.0
  0
LINE
  5
91CF
  8
0
 10
45.53874610525475
 20
203.8942701700029
 30
0.0
 11
45.53874610525475
 21
203.5602862700029
 31
0.0
  0
LINE
  5
91D0
  8
0
 10
47.54153610525475
 20
203.5602862700029
 30
0.0
 11
47.87589145525476
 21
203.5602862700029
 31
0.0
  0
LINE
  5
91D1
  8
0
 10
47.87589145525476
 20
203.5602862700029
 30
0.0
 11
47.87589145525476
 21
203.8942701700029
 31
0.0
  0
LINE
  5
91D2
  8
0
 10
47.87589145525476
 20
203.8942701700029
 30
0.0
 11
47.54153610525475
 21
203.8942701700029
 31
0.0
  0
LINE
  5
91D3
  8
0
 10
47.54153610525475
 20
203.8942701700029
 30
0.0
 11
47.54153610525475
 21
203.5602862700029
 31
0.0
  0
LINE
  5
91D4
  8
0
 10
49.20992610525477
 20
203.5602862700029
 30
0.0
 11
49.54428145525475
 21
203.5602862700029
 31
0.0
  0
LINE
  5
91D5
  8
0
 10
49.54428145525475
 20
203.5602862700029
 30
0.0
 11
49.54428145525475
 21
203.8942701700029
 31
0.0
  0
LINE
  5
91D6
  8
0
 10
49.54428145525475
 20
203.8942701700029
 30
0.0
 11
49.20992610525477
 21
203.8942701700029
 31
0.0
  0
LINE
  5
91D7
  8
0
 10
49.20992610525477
 20
203.8942701700029
 30
0.0
 11
49.20992610525477
 21
203.5602862700029
 31
0.0
  0
LINE
  5
91D8
  8
0
 10
50.21151110525477
 20
203.5602862700029
 30
0.0
 11
50.87910840525475
 21
203.5602862700029
 31
0.0
  0
LINE
  5
91D9
  8
0
 10
50.87910840525475
 20
203.5602862700029
 30
0.0
 11
50.87910840525475
 21
203.8942701700029
 31
0.0
  0
LINE
  5
91DA
  8
0
 10
50.87910840525475
 20
203.8942701700029
 30
0.0
 11
50.21151110525477
 21
203.8942701700029
 31
0.0
  0
LINE
  5
91DB
  8
0
 10
50.21151110525477
 20
203.8942701700029
 30
0.0
 11
50.21151110525477
 21
203.5602862700029
 31
0.0
  0
LINE
  5
91DC
  8
0
 10
51.88066110525475
 20
203.5602862700029
 30
0.0
 11
52.88224610525475
 21
203.5602862700029
 31
0.0
  0
LINE
  5
91DD
  8
0
 10
52.88224610525475
 20
203.5602862700029
 30
0.0
 11
52.88224610525475
 21
203.8942701700029
 31
0.0
  0
LINE
  5
91DE
  8
0
 10
52.88224610525475
 20
203.8942701700029
 30
0.0
 11
51.88066110525475
 21
203.8942701700029
 31
0.0
  0
LINE
  5
91DF
  8
0
 10
51.88066110525475
 20
203.8942701700029
 30
0.0
 11
51.88066110525475
 21
203.5602862700029
 31
0.0
  0
LINE
  5
91E0
  8
0
 10
53.21550610525476
 20
203.5602862700029
 30
0.0
 11
53.54986240525476
 21
203.5602862700029
 31
0.0
  0
LINE
  5
91E1
  8
0
 10
53.54986240525476
 20
203.5602862700029
 30
0.0
 11
53.54986240525476
 21
203.8942701700029
 31
0.0
  0
LINE
  5
91E2
  8
0
 10
53.54986240525476
 20
203.8942701700029
 30
0.0
 11
53.21550610525476
 21
203.8942701700029
 31
0.0
  0
LINE
  5
91E3
  8
0
 10
53.21550610525476
 20
203.8942701700029
 30
0.0
 11
53.21550610525476
 21
203.5602862700029
 31
0.0
  0
LINE
  5
91E4
  8
0
 10
42.53437110525476
 20
203.2262662700029
 30
0.0
 11
42.86872645525477
 21
203.2262662700029
 31
0.0
  0
LINE
  5
91E5
  8
0
 10
42.86872645525477
 20
203.2262662700029
 30
0.0
 11
42.86872645525477
 21
203.5602511200029
 31
0.0
  0
LINE
  5
91E6
  8
0
 10
42.86872645525477
 20
203.5602511200029
 30
0.0
 11
42.53437110525476
 21
203.5602511200029
 31
0.0
  0
LINE
  5
91E7
  8
0
 10
42.53437110525476
 20
203.5602511200029
 30
0.0
 11
42.53437110525476
 21
203.2262662700029
 31
0.0
  0
LINE
  5
91E8
  8
0
 10
43.20193610525473
 20
203.2262662700029
 30
0.0
 11
44.20352110525477
 21
203.2262662700029
 31
0.0
  0
LINE
  5
91E9
  8
0
 10
44.20352110525477
 20
203.2262662700029
 30
0.0
 11
44.20352110525477
 21
203.5602511200029
 31
0.0
  0
LINE
  5
91EA
  8
0
 10
44.20352110525477
 20
203.5602511200029
 30
0.0
 11
43.20193610525473
 21
203.5602511200029
 31
0.0
  0
LINE
  5
91EB
  8
0
 10
43.20193610525473
 20
203.5602511200029
 30
0.0
 11
43.20193610525473
 21
203.2262662700029
 31
0.0
  0
LINE
  5
91EC
  8
0
 10
44.53744610525473
 20
203.2262662700029
 30
0.0
 11
44.87143000525475
 21
203.2262662700029
 31
0.0
  0
LINE
  5
91ED
  8
0
 10
44.87143000525475
 20
203.2262662700029
 30
0.0
 11
44.87143000525475
 21
203.5602511200029
 31
0.0
  0
LINE
  5
91EE
  8
0
 10
44.87143000525475
 20
203.5602511200029
 30
0.0
 11
44.53744610525473
 21
203.5602511200029
 31
0.0
  0
LINE
  5
91EF
  8
0
 10
44.53744610525473
 20
203.5602511200029
 30
0.0
 11
44.53744610525473
 21
203.2262662700029
 31
0.0
  0
LINE
  5
91F0
  8
0
 10
45.87267110525477
 20
203.2262662700029
 30
0.0
 11
46.53989695525473
 21
203.2262662700029
 31
0.0
  0
LINE
  5
91F1
  8
0
 10
46.53989695525473
 20
203.2262662700029
 30
0.0
 11
46.53989695525473
 21
203.5602511200029
 31
0.0
  0
LINE
  5
91F2
  8
0
 10
46.53989695525473
 20
203.5602511200029
 30
0.0
 11
45.87267110525477
 21
203.5602511200029
 31
0.0
  0
LINE
  5
91F3
  8
0
 10
45.87267110525477
 20
203.5602511200029
 30
0.0
 11
45.87267110525477
 21
203.2262662700029
 31
0.0
  0
LINE
  5
91F4
  8
0
 10
46.87349610525473
 20
203.2262662700029
 30
0.0
 11
47.54109435525476
 21
203.2262662700029
 31
0.0
  0
LINE
  5
91F5
  8
0
 10
47.54109435525476
 20
203.2262662700029
 30
0.0
 11
47.54109435525476
 21
203.5602511200029
 31
0.0
  0
LINE
  5
91F6
  8
0
 10
47.54109435525476
 20
203.5602511200029
 30
0.0
 11
46.87349610525473
 21
203.5602511200029
 31
0.0
  0
LINE
  5
91F7
  8
0
 10
46.87349610525473
 20
203.5602511200029
 30
0.0
 11
46.87349610525473
 21
203.2262662700029
 31
0.0
  0
LINE
  5
91F8
  8
0
 10
48.54274110525475
 20
203.2262662700029
 30
0.0
 11
49.20996790525476
 21
203.2262662700029
 31
0.0
  0
LINE
  5
91F9
  8
0
 10
49.20996790525476
 20
203.2262662700029
 30
0.0
 11
49.20996790525476
 21
203.5602511200029
 31
0.0
  0
LINE
  5
91FA
  8
0
 10
49.20996790525476
 20
203.5602511200029
 30
0.0
 11
48.54274110525475
 21
203.5602511200029
 31
0.0
  0
LINE
  5
91FB
  8
0
 10
48.54274110525475
 20
203.5602511200029
 30
0.0
 11
48.54274110525475
 21
203.2262662700029
 31
0.0
  0
LINE
  5
91FC
  8
0
 10
49.54432610525475
 20
203.2262662700029
 30
0.0
 11
49.87831095525473
 21
203.2262662700029
 31
0.0
  0
LINE
  5
91FD
  8
0
 10
49.87831095525473
 20
203.2262662700029
 30
0.0
 11
49.87831095525473
 21
203.5602511200029
 31
0.0
  0
LINE
  5
91FE
  8
0
 10
49.87831095525473
 20
203.5602511200029
 30
0.0
 11
49.54432610525475
 21
203.5602511200029
 31
0.0
  0
LINE
  5
91FF
  8
0
 10
49.54432610525475
 20
203.5602511200029
 30
0.0
 11
49.54432610525475
 21
203.2262662700029
 31
0.0
  0
LINE
  5
9200
  8
0
 10
50.54591110525473
 20
203.2262662700029
 30
0.0
 11
52.54833060525476
 21
203.2262662700029
 31
0.0
  0
LINE
  5
9201
  8
0
 10
52.54833060525476
 20
203.2262662700029
 30
0.0
 11
52.54833060525476
 21
203.5602511200029
 31
0.0
  0
LINE
  5
9202
  8
0
 10
52.54833060525476
 20
203.5602511200029
 30
0.0
 11
50.54591110525473
 21
203.5602511200029
 31
0.0
  0
LINE
  5
9203
  8
0
 10
50.54591110525473
 20
203.5602511200029
 30
0.0
 11
50.54591110525473
 21
203.2262662700029
 31
0.0
  0
LINE
  5
9204
  8
0
 10
42.53437110525476
 20
202.8919612700029
 30
0.0
 11
42.86872645525477
 21
202.8919612700029
 31
0.0
  0
LINE
  5
9205
  8
0
 10
42.86872645525477
 20
202.8919612700029
 30
0.0
 11
42.86872645525477
 21
203.2263166200029
 31
0.0
  0
LINE
  5
9206
  8
0
 10
42.86872645525477
 20
203.2263166200029
 30
0.0
 11
42.53437110525476
 21
203.2263166200029
 31
0.0
  0
LINE
  5
9207
  8
0
 10
42.53437110525476
 20
203.2263166200029
 30
0.0
 11
42.53437110525476
 21
202.8919612700029
 31
0.0
  0
LINE
  5
9208
  8
0
 10
43.20193610525473
 20
202.8919612700029
 30
0.0
 11
44.20352110525477
 21
202.8919612700029
 31
0.0
  0
LINE
  5
9209
  8
0
 10
44.20352110525477
 20
202.8919612700029
 30
0.0
 11
44.20352110525477
 21
203.2263166200029
 31
0.0
  0
LINE
  5
920A
  8
0
 10
44.20352110525477
 20
203.2263166200029
 30
0.0
 11
43.20193610525473
 21
203.2263166200029
 31
0.0
  0
LINE
  5
920B
  8
0
 10
43.20193610525473
 20
203.2263166200029
 30
0.0
 11
43.20193610525473
 21
202.8919612700029
 31
0.0
  0
LINE
  5
920C
  8
0
 10
44.53744610525473
 20
202.8919612700029
 30
0.0
 11
44.87143000525475
 21
202.8919612700029
 31
0.0
  0
LINE
  5
920D
  8
0
 10
44.87143000525475
 20
202.8919612700029
 30
0.0
 11
44.87143000525475
 21
203.2263166200029
 31
0.0
  0
LINE
  5
920E
  8
0
 10
44.87143000525475
 20
203.2263166200029
 30
0.0
 11
44.53744610525473
 21
203.2263166200029
 31
0.0
  0
LINE
  5
920F
  8
0
 10
44.53744610525473
 20
203.2263166200029
 30
0.0
 11
44.53744610525473
 21
202.8919612700029
 31
0.0
  0
LINE
  5
9210
  8
0
 10
45.53874610525475
 20
202.8919612700029
 30
0.0
 11
46.87357210525477
 21
202.8919612700029
 31
0.0
  0
LINE
  5
9211
  8
0
 10
46.87357210525477
 20
202.8919612700029
 30
0.0
 11
46.87357210525477
 21
203.2263166200029
 31
0.0
  0
LINE
  5
9212
  8
0
 10
46.87357210525477
 20
203.2263166200029
 30
0.0
 11
45.53874610525475
 21
203.2263166200029
 31
0.0
  0
LINE
  5
9213
  8
0
 10
45.53874610525475
 20
203.2263166200029
 30
0.0
 11
45.53874610525475
 21
202.8919612700029
 31
0.0
  0
LINE
  5
9214
  8
0
 10
47.20751610525477
 20
202.8919612700029
 30
0.0
 11
47.54150000525476
 21
202.8919612700029
 31
0.0
  0
LINE
  5
9215
  8
0
 10
47.54150000525476
 20
202.8919612700029
 30
0.0
 11
47.54150000525476
 21
203.2263166200029
 31
0.0
  0
LINE
  5
9216
  8
0
 10
47.54150000525476
 20
203.2263166200029
 30
0.0
 11
47.20751610525477
 21
203.2263166200029
 31
0.0
  0
LINE
  5
9217
  8
0
 10
47.20751610525477
 20
203.2263166200029
 30
0.0
 11
47.20751610525477
 21
202.8919612700029
 31
0.0
  0
LINE
  5
9218
  8
0
 10
47.87508110525476
 20
202.8919612700029
 30
0.0
 11
48.20906595525474
 21
202.8919612700029
 31
0.0
  0
LINE
  5
9219
  8
0
 10
48.20906595525474
 20
202.8919612700029
 30
0.0
 11
48.20906595525474
 21
203.2263166200029
 31
0.0
  0
LINE
  5
921A
  8
0
 10
48.20906595525474
 20
203.2263166200029
 30
0.0
 11
47.87508110525476
 21
203.2263166200029
 31
0.0
  0
LINE
  5
921B
  8
0
 10
47.87508110525476
 20
203.2263166200029
 30
0.0
 11
47.87508110525476
 21
202.8919612700029
 31
0.0
  0
LINE
  5
921C
  8
0
 10
49.20992610525477
 20
202.8919612700029
 30
0.0
 11
49.54428145525475
 21
202.8919612700029
 31
0.0
  0
LINE
  5
921D
  8
0
 10
49.54428145525475
 20
202.8919612700029
 30
0.0
 11
49.54428145525475
 21
203.2263166200029
 31
0.0
  0
LINE
  5
921E
  8
0
 10
49.54428145525475
 20
203.2263166200029
 30
0.0
 11
49.20992610525477
 21
203.2263166200029
 31
0.0
  0
LINE
  5
921F
  8
0
 10
49.20992610525477
 20
203.2263166200029
 30
0.0
 11
49.20992610525477
 21
202.8919612700029
 31
0.0
  0
LINE
  5
9220
  8
0
 10
49.87749110525476
 20
202.8919612700029
 30
0.0
 11
50.54508840525477
 21
202.8919612700029
 31
0.0
  0
LINE
  5
9221
  8
0
 10
50.54508840525477
 20
202.8919612700029
 30
0.0
 11
50.54508840525477
 21
203.2263166200029
 31
0.0
  0
LINE
  5
9222
  8
0
 10
50.54508840525477
 20
203.2263166200029
 30
0.0
 11
49.87749110525476
 21
203.2263166200029
 31
0.0
  0
LINE
  5
9223
  8
0
 10
49.87749110525476
 20
203.2263166200029
 30
0.0
 11
49.87749110525476
 21
202.8919612700029
 31
0.0
  0
LINE
  5
9224
  8
0
 10
50.87907610525474
 20
202.8919612700029
 30
0.0
 11
51.21306095525478
 21
202.8919612700029
 31
0.0
  0
LINE
  5
9225
  8
0
 10
51.21306095525478
 20
202.8919612700029
 30
0.0
 11
51.21306095525478
 21
203.2263166200029
 31
0.0
  0
LINE
  5
9226
  8
0
 10
51.21306095525478
 20
203.2263166200029
 30
0.0
 11
50.87907610525474
 21
203.2263166200029
 31
0.0
  0
LINE
  5
9227
  8
0
 10
50.87907610525474
 20
203.2263166200029
 30
0.0
 11
50.87907610525474
 21
202.8919612700029
 31
0.0
  0
LINE
  5
9228
  8
0
 10
51.54673610525475
 20
202.8919612700029
 30
0.0
 11
52.21396290525476
 21
202.8919612700029
 31
0.0
  0
LINE
  5
9229
  8
0
 10
52.21396290525476
 20
202.8919612700029
 30
0.0
 11
52.21396290525476
 21
203.2263166200029
 31
0.0
  0
LINE
  5
922A
  8
0
 10
52.21396290525476
 20
203.2263166200029
 30
0.0
 11
51.54673610525475
 21
203.2263166200029
 31
0.0
  0
LINE
  5
922B
  8
0
 10
51.54673610525475
 20
203.2263166200029
 30
0.0
 11
51.54673610525475
 21
202.8919612700029
 31
0.0
  0
LINE
  5
922C
  8
0
 10
52.54832110525473
 20
202.8919612700029
 30
0.0
 11
52.88230500525475
 21
202.8919612700029
 31
0.0
  0
LINE
  5
922D
  8
0
 10
52.88230500525475
 20
202.8919612700029
 30
0.0
 11
52.88230500525475
 21
203.2263166200029
 31
0.0
  0
LINE
  5
922E
  8
0
 10
52.88230500525475
 20
203.2263166200029
 30
0.0
 11
52.54832110525473
 21
203.2263166200029
 31
0.0
  0
LINE
  5
922F
  8
0
 10
52.54832110525473
 20
203.2263166200029
 30
0.0
 11
52.54832110525473
 21
202.8919612700029
 31
0.0
  0
LINE
  5
9230
  8
0
 10
53.21550610525476
 20
202.8919612700029
 30
0.0
 11
53.54986240525476
 21
202.8919612700029
 31
0.0
  0
LINE
  5
9231
  8
0
 10
53.54986240525476
 20
202.8919612700029
 30
0.0
 11
53.54986240525476
 21
203.2263166200029
 31
0.0
  0
LINE
  5
9232
  8
0
 10
53.54986240525476
 20
203.2263166200029
 30
0.0
 11
53.21550610525476
 21
203.2263166200029
 31
0.0
  0
LINE
  5
9233
  8
0
 10
53.21550610525476
 20
203.2263166200029
 30
0.0
 11
53.21550610525476
 21
202.8919612700029
 31
0.0
  0
LINE
  5
9234
  8
0
 10
42.53437110525476
 20
202.5587012700029
 30
0.0
 11
42.86872645525477
 21
202.5587012700029
 31
0.0
  0
LINE
  5
9235
  8
0
 10
42.86872645525477
 20
202.5587012700029
 30
0.0
 11
42.86872645525477
 21
202.8926851700029
 31
0.0
  0
LINE
  5
9236
  8
0
 10
42.86872645525477
 20
202.8926851700029
 30
0.0
 11
42.53437110525476
 21
202.8926851700029
 31
0.0
  0
LINE
  5
9237
  8
0
 10
42.53437110525476
 20
202.8926851700029
 30
0.0
 11
42.53437110525476
 21
202.5587012700029
 31
0.0
  0
LINE
  5
9238
  8
0
 10
43.20193610525473
 20
202.5587012700029
 30
0.0
 11
44.20352110525477
 21
202.5587012700029
 31
0.0
  0
LINE
  5
9239
  8
0
 10
44.20352110525477
 20
202.5587012700029
 30
0.0
 11
44.20352110525477
 21
202.8926851700029
 31
0.0
  0
LINE
  5
923A
  8
0
 10
44.20352110525477
 20
202.8926851700029
 30
0.0
 11
43.20193610525473
 21
202.8926851700029
 31
0.0
  0
LINE
  5
923B
  8
0
 10
43.20193610525473
 20
202.8926851700029
 30
0.0
 11
43.20193610525473
 21
202.5587012700029
 31
0.0
  0
LINE
  5
923C
  8
0
 10
44.53744610525473
 20
202.5587012700029
 30
0.0
 11
44.87143000525475
 21
202.5587012700029
 31
0.0
  0
LINE
  5
923D
  8
0
 10
44.87143000525475
 20
202.5587012700029
 30
0.0
 11
44.87143000525475
 21
202.8926851700029
 31
0.0
  0
LINE
  5
923E
  8
0
 10
44.87143000525475
 20
202.8926851700029
 30
0.0
 11
44.53744610525473
 21
202.8926851700029
 31
0.0
  0
LINE
  5
923F
  8
0
 10
44.53744610525473
 20
202.8926851700029
 30
0.0
 11
44.53744610525473
 21
202.5587012700029
 31
0.0
  0
LINE
  5
9240
  8
0
 10
45.87267110525477
 20
202.5587012700029
 30
0.0
 11
47.20749710525476
 21
202.5587012700029
 31
0.0
  0
LINE
  5
9241
  8
0
 10
47.20749710525476
 20
202.5587012700029
 30
0.0
 11
47.20749710525476
 21
202.8926851700029
 31
0.0
  0
LINE
  5
9242
  8
0
 10
47.20749710525476
 20
202.8926851700029
 30
0.0
 11
45.87267110525477
 21
202.8926851700029
 31
0.0
  0
LINE
  5
9243
  8
0
 10
45.87267110525477
 20
202.8926851700029
 30
0.0
 11
45.87267110525477
 21
202.5587012700029
 31
0.0
  0
LINE
  5
9244
  8
0
 10
47.87508110525476
 20
202.5587012700029
 30
0.0
 11
48.20906595525474
 21
202.5587012700029
 31
0.0
  0
LINE
  5
9245
  8
0
 10
48.20906595525474
 20
202.5587012700029
 30
0.0
 11
48.20906595525474
 21
202.8926851700029
 31
0.0
  0
LINE
  5
9246
  8
0
 10
48.20906595525474
 20
202.8926851700029
 30
0.0
 11
47.87508110525476
 21
202.8926851700029
 31
0.0
  0
LINE
  5
9247
  8
0
 10
47.87508110525476
 20
202.8926851700029
 30
0.0
 11
47.87508110525476
 21
202.5587012700029
 31
0.0
  0
LINE
  5
9248
  8
0
 10
48.54274110525475
 20
202.5587012700029
 30
0.0
 11
48.87672595525476
 21
202.5587012700029
 31
0.0
  0
LINE
  5
9249
  8
0
 10
48.87672595525476
 20
202.5587012700029
 30
0.0
 11
48.87672595525476
 21
202.8926851700029
 31
0.0
  0
LINE
  5
924A
  8
0
 10
48.87672595525476
 20
202.8926851700029
 30
0.0
 11
48.54274110525475
 21
202.8926851700029
 31
0.0
  0
LINE
  5
924B
  8
0
 10
48.54274110525475
 20
202.8926851700029
 30
0.0
 11
48.54274110525475
 21
202.5587012700029
 31
0.0
  0
LINE
  5
924C
  8
0
 10
49.20992610525477
 20
202.5587012700029
 30
0.0
 11
49.54428145525475
 21
202.5587012700029
 31
0.0
  0
LINE
  5
924D
  8
0
 10
49.54428145525475
 20
202.5587012700029
 30
0.0
 11
49.54428145525475
 21
202.8926851700029
 31
0.0
  0
LINE
  5
924E
  8
0
 10
49.54428145525475
 20
202.8926851700029
 30
0.0
 11
49.20992610525477
 21
202.8926851700029
 31
0.0
  0
LINE
  5
924F
  8
0
 10
49.20992610525477
 20
202.8926851700029
 30
0.0
 11
49.20992610525477
 21
202.5587012700029
 31
0.0
  0
LINE
  5
9250
  8
0
 10
49.87749110525476
 20
202.5587012700029
 30
0.0
 11
50.21147500525475
 21
202.5587012700029
 31
0.0
  0
LINE
  5
9251
  8
0
 10
50.21147500525475
 20
202.5587012700029
 30
0.0
 11
50.21147500525475
 21
202.8926851700029
 31
0.0
  0
LINE
  5
9252
  8
0
 10
50.21147500525475
 20
202.8926851700029
 30
0.0
 11
49.87749110525476
 21
202.8926851700029
 31
0.0
  0
LINE
  5
9253
  8
0
 10
49.87749110525476
 20
202.8926851700029
 30
0.0
 11
49.87749110525476
 21
202.5587012700029
 31
0.0
  0
LINE
  5
9254
  8
0
 10
50.54591110525473
 20
202.5587012700029
 30
0.0
 11
50.87989595525477
 21
202.5587012700029
 31
0.0
  0
LINE
  5
9255
  8
0
 10
50.87989595525477
 20
202.5587012700029
 30
0.0
 11
50.87989595525477
 21
202.8926851700029
 31
0.0
  0
LINE
  5
9256
  8
0
 10
50.87989595525477
 20
202.8926851700029
 30
0.0
 11
50.54591110525473
 21
202.8926851700029
 31
0.0
  0
LINE
  5
9257
  8
0
 10
50.54591110525473
 20
202.8926851700029
 30
0.0
 11
50.54591110525473
 21
202.5587012700029
 31
0.0
  0
LINE
  5
9258
  8
0
 10
51.54673610525475
 20
202.5587012700029
 30
0.0
 11
52.21396290525476
 21
202.5587012700029
 31
0.0
  0
LINE
  5
9259
  8
0
 10
52.21396290525476
 20
202.5587012700029
 30
0.0
 11
52.21396290525476
 21
202.8926851700029
 31
0.0
  0
LINE
  5
925A
  8
0
 10
52.21396290525476
 20
202.8926851700029
 30
0.0
 11
51.54673610525475
 21
202.8926851700029
 31
0.0
  0
LINE
  5
925B
  8
0
 10
51.54673610525475
 20
202.8926851700029
 30
0.0
 11
51.54673610525475
 21
202.5587012700029
 31
0.0
  0
LINE
  5
925C
  8
0
 10
52.88158110525475
 20
202.5587012700029
 30
0.0
 11
53.54917840525476
 21
202.5587012700029
 31
0.0
  0
LINE
  5
925D
  8
0
 10
53.54917840525476
 20
202.5587012700029
 30
0.0
 11
53.54917840525476
 21
202.8926851700029
 31
0.0
  0
LINE
  5
925E
  8
0
 10
53.54917840525476
 20
202.8926851700029
 30
0.0
 11
52.88158110525475
 21
202.8926851700029
 31
0.0
  0
LINE
  5
925F
  8
0
 10
52.88158110525475
 20
202.8926851700029
 30
0.0
 11
52.88158110525475
 21
202.5587012700029
 31
0.0
  0
LINE
  5
9260
  8
0
 10
42.53437110525476
 20
202.2247762700029
 30
0.0
 11
42.86872645525477
 21
202.2247762700029
 31
0.0
  0
LINE
  5
9261
  8
0
 10
42.86872645525477
 20
202.2247762700029
 30
0.0
 11
42.86872645525477
 21
202.5587611200029
 31
0.0
  0
LINE
  5
9262
  8
0
 10
42.86872645525477
 20
202.5587611200029
 30
0.0
 11
42.53437110525476
 21
202.5587611200029
 31
0.0
  0
LINE
  5
9263
  8
0
 10
42.53437110525476
 20
202.5587611200029
 30
0.0
 11
42.53437110525476
 21
202.2247762700029
 31
0.0
  0
LINE
  5
9264
  8
0
 10
44.53744610525473
 20
202.2247762700029
 30
0.0
 11
44.87143000525475
 21
202.2247762700029
 31
0.0
  0
LINE
  5
9265
  8
0
 10
44.87143000525475
 20
202.2247762700029
 30
0.0
 11
44.87143000525475
 21
202.5587611200029
 31
0.0
  0
LINE
  5
9266
  8
0
 10
44.87143000525475
 20
202.5587611200029
 30
0.0
 11
44.53744610525473
 21
202.5587611200029
 31
0.0
  0
LINE
  5
9267
  8
0
 10
44.53744610525473
 20
202.5587611200029
 30
0.0
 11
44.53744610525473
 21
202.2247762700029
 31
0.0
  0
LINE
  5
9268
  8
0
 10
45.87267110525477
 20
202.2247762700029
 30
0.0
 11
46.53989695525473
 21
202.2247762700029
 31
0.0
  0
LINE
  5
9269
  8
0
 10
46.53989695525473
 20
202.2247762700029
 30
0.0
 11
46.53989695525473
 21
202.5587611200029
 31
0.0
  0
LINE
  5
926A
  8
0
 10
46.53989695525473
 20
202.5587611200029
 30
0.0
 11
45.87267110525477
 21
202.5587611200029
 31
0.0
  0
LINE
  5
926B
  8
0
 10
45.87267110525477
 20
202.5587611200029
 30
0.0
 11
45.87267110525477
 21
202.2247762700029
 31
0.0
  0
LINE
  5
926C
  8
0
 10
47.20751610525477
 20
202.2247762700029
 30
0.0
 11
48.20910110525477
 21
202.2247762700029
 31
0.0
  0
LINE
  5
926D
  8
0
 10
48.20910110525477
 20
202.2247762700029
 30
0.0
 11
48.20910110525477
 21
202.5587611200029
 31
0.0
  0
LINE
  5
926E
  8
0
 10
48.20910110525477
 20
202.5587611200029
 30
0.0
 11
47.20751610525477
 21
202.5587611200029
 31
0.0
  0
LINE
  5
926F
  8
0
 10
47.20751610525477
 20
202.5587611200029
 30
0.0
 11
47.20751610525477
 21
202.2247762700029
 31
0.0
  0
LINE
  5
9270
  8
0
 10
48.87666610525474
 20
202.2247762700029
 30
0.0
 11
49.54426340525475
 21
202.2247762700029
 31
0.0
  0
LINE
  5
9271
  8
0
 10
49.54426340525475
 20
202.2247762700029
 30
0.0
 11
49.54426340525475
 21
202.5587611200029
 31
0.0
  0
LINE
  5
9272
  8
0
 10
49.54426340525475
 20
202.5587611200029
 30
0.0
 11
48.87666610525474
 21
202.5587611200029
 31
0.0
  0
LINE
  5
9273
  8
0
 10
48.87666610525474
 20
202.5587611200029
 30
0.0
 11
48.87666610525474
 21
202.2247762700029
 31
0.0
  0
LINE
  5
9274
  8
0
 10
51.54673610525475
 20
202.2247762700029
 30
0.0
 11
52.88156210525474
 21
202.2247762700029
 31
0.0
  0
LINE
  5
9275
  8
0
 10
52.88156210525474
 20
202.2247762700029
 30
0.0
 11
52.88156210525474
 21
202.5587611200029
 31
0.0
  0
LINE
  5
9276
  8
0
 10
52.88156210525474
 20
202.5587611200029
 30
0.0
 11
51.54673610525475
 21
202.5587611200029
 31
0.0
  0
LINE
  5
9277
  8
0
 10
51.54673610525475
 20
202.5587611200029
 30
0.0
 11
51.54673610525475
 21
202.2247762700029
 31
0.0
  0
LINE
  5
9278
  8
0
 10
42.53437110525476
 20
201.8911362700029
 30
0.0
 11
44.87115260525479
 21
201.8911362700029
 31
0.0
  0
LINE
  5
9279
  8
0
 10
44.87115260525479
 20
201.8911362700029
 30
0.0
 11
44.87115260525479
 21
202.2251211200029
 31
0.0
  0
LINE
  5
927A
  8
0
 10
44.87115260525479
 20
202.2251211200029
 30
0.0
 11
42.53437110525476
 21
202.2251211200029
 31
0.0
  0
LINE
  5
927B
  8
0
 10
42.53437110525476
 20
202.2251211200029
 30
0.0
 11
42.53437110525476
 21
201.8911362700029
 31
0.0
  0
LINE
  5
927C
  8
0
 10
45.20510610525474
 20
201.8911362700029
 30
0.0
 11
45.53909095525478
 21
201.8911362700029
 31
0.0
  0
LINE
  5
927D
  8
0
 10
45.53909095525478
 20
201.8911362700029
 30
0.0
 11
45.53909095525478
 21
202.2251211200029
 31
0.0
  0
LINE
  5
927E
  8
0
 10
45.53909095525478
 20
202.2251211200029
 30
0.0
 11
45.20510610525474
 21
202.2251211200029
 31
0.0
  0
LINE
  5
927F
  8
0
 10
45.20510610525474
 20
202.2251211200029
 30
0.0
 11
45.20510610525474
 21
201.8911362700029
 31
0.0
  0
LINE
  5
9280
  8
0
 10
46.20593110525476
 20
201.8911362700029
 30
0.0
 11
46.53991500525476
 21
201.8911362700029
 31
0.0
  0
LINE
  5
9281
  8
0
 10
46.53991500525476
 20
201.8911362700029
 30
0.0
 11
46.53991500525476
 21
202.2251211200029
 31
0.0
  0
LINE
  5
9282
  8
0
 10
46.53991500525476
 20
202.2251211200029
 30
0.0
 11
46.20593110525476
 21
202.2251211200029
 31
0.0
  0
LINE
  5
9283
  8
0
 10
46.20593110525476
 20
202.2251211200029
 30
0.0
 11
46.20593110525476
 21
201.8911362700029
 31
0.0
  0
LINE
  5
9284
  8
0
 10
47.20751610525477
 20
201.8911362700029
 30
0.0
 11
47.54150000525476
 21
201.8911362700029
 31
0.0
  0
LINE
  5
9285
  8
0
 10
47.54150000525476
 20
201.8911362700029
 30
0.0
 11
47.54150000525476
 21
202.2251211200029
 31
0.0
  0
LINE
  5
9286
  8
0
 10
47.54150000525476
 20
202.2251211200029
 30
0.0
 11
47.20751610525477
 21
202.2251211200029
 31
0.0
  0
LINE
  5
9287
  8
0
 10
47.20751610525477
 20
202.2251211200029
 30
0.0
 11
47.20751610525477
 21
201.8911362700029
 31
0.0
  0
LINE
  5
9288
  8
0
 10
48.20910110525477
 20
201.8911362700029
 30
0.0
 11
48.54308500525474
 21
201.8911362700029
 31
0.0
  0
LINE
  5
9289
  8
0
 10
48.54308500525474
 20
201.8911362700029
 30
0.0
 11
48.54308500525474
 21
202.2251211200029
 31
0.0
  0
LINE
  5
928A
  8
0
 10
48.54308500525474
 20
202.2251211200029
 30
0.0
 11
48.20910110525477
 21
202.2251211200029
 31
0.0
  0
LINE
  5
928B
  8
0
 10
48.20910110525477
 20
202.2251211200029
 30
0.0
 11
48.20910110525477
 21
201.8911362700029
 31
0.0
  0
LINE
  5
928C
  8
0
 10
48.87666610525474
 20
201.8911362700029
 30
0.0
 11
49.21065000525476
 21
201.8911362700029
 31
0.0
  0
LINE
  5
928D
  8
0
 10
49.21065000525476
 20
201.8911362700029
 30
0.0
 11
49.21065000525476
 21
202.2251211200029
 31
0.0
  0
LINE
  5
928E
  8
0
 10
49.21065000525476
 20
202.2251211200029
 30
0.0
 11
48.87666610525474
 21
202.2251211200029
 31
0.0
  0
LINE
  5
928F
  8
0
 10
48.87666610525474
 20
202.2251211200029
 30
0.0
 11
48.87666610525474
 21
201.8911362700029
 31
0.0
  0
LINE
  5
9290
  8
0
 10
49.87749110525476
 20
201.8911362700029
 30
0.0
 11
51.21231710525475
 21
201.8911362700029
 31
0.0
  0
LINE
  5
9291
  8
0
 10
51.21231710525475
 20
201.8911362700029
 30
0.0
 11
51.21231710525475
 21
202.2251211200029
 31
0.0
  0
LINE
  5
9292
  8
0
 10
51.21231710525475
 20
202.2251211200029
 30
0.0
 11
49.87749110525476
 21
202.2251211200029
 31
0.0
  0
LINE
  5
9293
  8
0
 10
49.87749110525476
 20
202.2251211200029
 30
0.0
 11
49.87749110525476
 21
201.8911362700029
 31
0.0
  0
LINE
  5
9294
  8
0
 10
51.54673610525475
 20
201.8911362700029
 30
0.0
 11
51.88072000525477
 21
201.8911362700029
 31
0.0
  0
LINE
  5
9295
  8
0
 10
51.88072000525477
 20
201.8911362700029
 30
0.0
 11
51.88072000525477
 21
202.2251211200029
 31
0.0
  0
LINE
  5
9296
  8
0
 10
51.88072000525477
 20
202.2251211200029
 30
0.0
 11
51.54673610525475
 21
202.2251211200029
 31
0.0
  0
LINE
  5
9297
  8
0
 10
51.54673610525475
 20
202.2251211200029
 30
0.0
 11
51.54673610525475
 21
201.8911362700029
 31
0.0
  0
LINE
  5
9298
  8
0
 10
52.21392110525477
 20
201.8911362700029
 30
0.0
 11
52.54827645525475
 21
201.8911362700029
 31
0.0
  0
LINE
  5
9299
  8
0
 10
52.54827645525475
 20
201.8911362700029
 30
0.0
 11
52.54827645525475
 21
202.2251211200029
 31
0.0
  0
LINE
  5
929A
  8
0
 10
52.54827645525475
 20
202.2251211200029
 30
0.0
 11
52.21392110525477
 21
202.2251211200029
 31
0.0
  0
LINE
  5
929B
  8
0
 10
52.21392110525477
 20
202.2251211200029
 30
0.0
 11
52.21392110525477
 21
201.8911362700029
 31
0.0
  0
LINE
  5
929C
  8
0
 10
52.88158110525475
 20
201.8911362700029
 30
0.0
 11
53.21556500525476
 21
201.8911362700029
 31
0.0
  0
LINE
  5
929D
  8
0
 10
53.21556500525476
 20
201.8911362700029
 30
0.0
 11
53.21556500525476
 21
202.2251211200029
 31
0.0
  0
LINE
  5
929E
  8
0
 10
53.21556500525476
 20
202.2251211200029
 30
0.0
 11
52.88158110525475
 21
202.2251211200029
 31
0.0
  0
LINE
  5
929F
  8
0
 10
52.88158110525475
 20
202.2251211200029
 30
0.0
 11
52.88158110525475
 21
201.8911362700029
 31
0.0
  0
CIRCLE
  5
9475
  8
0
 10
63.5218607107896
 20
209.8911362700031
 30
0.0
 40
1.5
  0
LINE
  5
9C94
  8
0
 10
50.98249511685668
 20
232.063287217329
 30
0.0
 11
52.12611815685665
 21
232.063287217329
 31
0.0
  0
LINE
  5
9C95
  8
0
 10
52.12611815685665
 20
232.063287217329
 30
0.0
 11
52.12611815685665
 21
226.1082673773288
 31
0.0
  0
LINE
  5
9C96
  8
0
 10
52.12611815685665
 20
226.1082673773288
 30
0.0
 11
50.98249511685668
 21
226.1082673773288
 31
0.0
  0
LINE
  5
9C97
  8
0
 10
50.98249511685668
 20
226.1082673773288
 30
0.0
 11
50.98249511685668
 21
232.063287217329
 31
0.0
  0
LINE
  5
9C98
  8
0
 10
59.90707287685706
 20
230.4253051373288
 30
0.0
 11
61.05049879685663
 21
230.4253051373288
 31
0.0
  0
LINE
  5
9C99
  8
0
 10
61.05049879685663
 20
230.4253051373288
 30
0.0
 11
61.05049879685663
 21
226.1082673773288
 31
0.0
  0
LINE
  5
9C9A
  8
0
 10
61.05049879685663
 20
226.1082673773288
 30
0.0
 11
59.90707287685706
 21
226.1082673773288
 31
0.0
  0
LINE
  5
9C9B
  8
0
 10
59.90707287685706
 20
226.1082673773288
 30
0.0
 11
59.90707287685706
 21
230.4253051373288
 31
0.0
  0
LINE
  5
9C9C
  8
0
 10
60.13497527795886
 20
230.9231380388254
 30
0.0
 11
60.04352135685673
 21
230.8550603373291
 31
0.0
  0
LINE
  5
9C9D
  8
0
 10
60.04352135685673
 20
230.8550603373291
 30
0.0
 11
60.06822017909104
 21
230.9527546280314
 31
0.0
  0
LINE
  5
9C9E
  8
0
 10
59.8750218581045
 20
231.9529162407306
 30
0.0
 11
59.80713191685669
 21
232.0440568173289
 31
0.0
  0
LINE
  5
9C9F
  8
0
 10
59.80713191685669
 20
232.0440568173289
 30
0.0
 11
59.90488425292966
 21
232.0193807765539
 31
0.0
  0
LINE
  5
9CA0
  8
0
 10
60.90499310420643
 20
232.2126296407763
 30
0.0
 11
60.99606231685681
 21
232.2804473773293
 31
0.0
  0
LINE
  5
9CA1
  8
0
 10
60.99606231685681
 20
232.2804473773293
 30
0.0
 11
60.97139713446137
 21
232.1825671242276
 31
0.0
  0
LINE
  5
9CA2
  8
0
 10
61.16516338733123
 20
231.1824874828752
 30
0.0
 11
61.23277767685664
 21
231.0916457773291
 31
0.0
  0
LINE
  5
9CA3
  8
0
 10
61.23277767685664
 20
231.0916457773291
 30
0.0
 11
61.1350247562778
 21
231.116295918141
 31
0.0
  0
LINE
  5
9CA4
  8
0
 10
60.70367401377376
 20
230.8393341306254
 30
0.0
 11
60.68724023685678
 21
230.7270219373294
 31
0.0
  0
LINE
  5
9CA5
  8
0
 10
60.68724023685678
 20
230.7270219373294
 30
0.0
 11
60.63559066998101
 21
230.8135883653239
 31
0.0
  0
LINE
  5
9CA6
  8
0
 10
59.79194143583442
 20
231.3841968127889
 30
0.0
 11
59.67922007685644
 21
231.4006638573291
 31
0.0
  0
LINE
  5
9CA7
  8
0
 10
59.67922007685644
 20
231.4006638573291
 30
0.0
 11
59.7655971820505
 21
231.452203505275
 31
0.0
  0
LINE
  5
9CA8
  8
0
 10
60.33618766449678
 20
232.2960544829292
 30
0.0
 11
60.35266935685655
 21
232.4084880173294
 31
0.0
  0
LINE
  5
9CA9
  8
0
 10
60.35266935685655
 20
232.4084880173294
 30
0.0
 11
60.40441033803614
 21
232.321849205984
 31
0.0
  0
LINE
  5
9CAA
  8
0
 10
61.2484739561724
 20
231.7516357958556
 30
0.0
 11
61.36068615685696
 21
231.7351720173291
 31
0.0
  0
LINE
  5
9CAB
  8
0
 10
61.36068615685696
 20
231.7351720173291
 30
0.0
 11
61.27399198498875
 21
231.6834161158948
 31
0.0
  0
LINE
  5
9CAC
  8
0
 10
60.4108720884538
 20
230.8244892674983
 30
0.0
 11
60.35266935685655
 21
230.7270219373294
 31
0.0
  0
LINE
  5
9CAD
  8
0
 10
60.35266935685655
 20
230.7270219373294
 30
0.0
 11
60.33810185698036
 21
230.8264240391453
 31
0.0
  0
LINE
  5
9CAE
  8
0
 10
59.77699738429516
 20
231.676752710733
 30
0.0
 11
59.6790901568566
 21
231.7351720173291
 31
0.0
  0
LINE
  5
9CAF
  8
0
 10
59.6790901568566
 20
231.7351720173291
 30
0.0
 11
59.77881582015385
 21
231.7497387079619
 31
0.0
  0
LINE
  5
9CB0
  8
0
 10
60.62891590188343
 20
232.3109028259204
 30
0.0
 11
60.68717639685707
 21
232.4084880173294
 31
0.0
  0
LINE
  5
9CB1
  8
0
 10
60.68717639685707
 20
232.4084880173294
 30
0.0
 11
60.70177459553184
 21
232.3088103799172
 31
0.0
  0
LINE
  5
9CB2
  8
0
 10
61.2630399463597
 20
231.4587447037646
 30
0.0
 11
61.36068615685696
 21
231.4004017773294
 31
0.0
  0
LINE
  5
9CB3
  8
0
 10
60.96847517643852
 20
230.9651948999334
 30
0.0
 11
60.99625831685677
 21
230.8550603373291
 31
0.0
  0
LINE
  5
9CB4
  8
0
 10
60.99625831685677
 20
230.8550603373291
 30
0.0
 11
60.91543910138267
 21
230.9152687406703
 31
0.0
  0
LINE
  5
9CB5
  8
0
 10
59.91749508680147
 20
231.119517532993
 30
0.0
 11
59.80713191685669
 21
231.0916457773291
 31
0.0
  0
LINE
  5
9CB6
  8
0
 10
59.80713191685669
 20
231.0916457773291
 30
0.0
 11
59.86718926716281
 21
231.1722986689618
 31
0.0
  0
LINE
  5
9CB7
  8
0
 10
60.07131278011099
 20
232.1704442902809
 30
0.0
 11
60.04352135685673
 21
232.2804473773293
 31
0.0
  0
LINE
  5
9CB8
  8
0
 10
60.04352135685673
 20
232.2804473773293
 30
0.0
 11
60.12454461489011
 21
232.2201882539219
 31
0.0
  0
LINE
  5
9CB9
  8
0
 10
61.12278772418591
 20
232.0163294547991
 30
0.0
 11
61.23277767685664
 21
232.0440568173289
 31
0.0
  0
LINE
  5
9CBA
  8
0
 10
61.23277767685664
 20
232.0440568173289
 30
0.0
 11
61.17248734306946
 21
231.963127697404
 31
0.0
  0
LINE
  5
9CBB
  8
0
 10
60.2021248805209
 20
230.8870423630796
 30
0.0
 11
60.11842807685667
 21
230.810402577329
 31
0.0
  0
LINE
  5
9CBC
  8
0
 10
60.11842807685667
 20
230.810402577329
 30
0.0
 11
60.13497527795886
 21
230.9231380388254
 31
0.0
  0
LINE
  5
9CBD
  8
0
 10
59.83937154461506
 20
231.8856396339596
 30
0.0
 11
59.76266679685665
 21
231.9694088173291
 31
0.0
  0
LINE
  5
9CBE
  8
0
 10
59.76266679685665
 20
231.9694088173291
 30
0.0
 11
59.8750218581045
 21
231.9529162407306
 31
0.0
  0
LINE
  5
9CBF
  8
0
 10
60.83788039467987
 20
232.2484648526082
 30
0.0
 11
60.92148039685668
 21
232.3250412973292
 31
0.0
  0
LINE
  5
9CC0
  8
0
 10
60.92148039685668
 20
232.3250412973292
 30
0.0
 11
60.90499310420643
 21
232.2126296407763
 31
0.0
  0
LINE
  5
9CC1
  8
0
 10
61.20051978715088
 20
231.2499288962725
 30
0.0
 11
61.27737159685654
 21
231.1659678573286
 31
0.0
  0
LINE
  5
9CC2
  8
0
 10
60.77643125302717
 20
230.8618929599451
 30
0.0
 11
60.77139815685683
 21
230.7482089773292
 31
0.0
  0
LINE
  5
9CC3
  8
0
 10
60.77139815685683
 20
230.7482089773292
 30
0.0
 11
60.70367401377376
 21
230.8393341306254
 31
0.0
  0
LINE
  5
9CC4
  8
0
 10
59.81396389748949
 20
231.3112493032949
 30
0.0
 11
59.70053367685665
 21
231.316164337329
 31
0.0
  0
LINE
  5
9CC5
  8
0
 10
59.70053367685665
 20
231.316164337329
 30
0.0
 11
59.79194143583442
 21
231.3841968127889
 31
0.0
  0
LINE
  5
9CC6
  8
0
 10
60.26338708585132
 20
232.2738074118332
 30
0.0
 11
60.26837815685627
 21
232.3871587373291
 31
0.0
  0
LINE
  5
9CC7
  8
0
 10
60.26837815685627
 20
232.3871587373291
 30
0.0
 11
60.33618766449678
 21
232.2960544829292
 31
0.0
  0
LINE
  5
9CC8
  8
0
 10
61.22605328535525
 20
231.8243877224603
 30
0.0
 11
61.3395013568566
 21
231.8193814573291
 31
0.0
  0
LINE
  5
9CC9
  8
0
 10
61.3395013568566
 20
231.8193814573291
 30
0.0
 11
61.2484739561724
 21
231.7516357958556
 31
0.0
  0
LINE
  5
9CCA
  8
0
 10
60.48672052814578
 20
230.8175369750633
 30
0.0
 11
60.43852855685651
 21
230.714438737329
 31
0.0
  0
LINE
  5
9CCB
  8
0
 10
60.43852855685651
 20
230.714438737329
 30
0.0
 11
60.4108720884538
 21
230.8244892674983
 31
0.0
  0
LINE
  5
9CCC
  8
0
 10
59.76945545452969
 20
231.6010115903053
 30
0.0
 11
59.66663911685697
 21
231.6489208173288
 31
0.0
  0
LINE
  5
9CCD
  8
0
 10
59.66663911685697
 20
231.6489208173288
 30
0.0
 11
59.77699738429516
 21
231.676752710733
 31
0.0
  0
LINE
  5
9CCE
  8
0
 10
60.55304512097615
 20
232.3182495919935
 30
0.0
 11
60.60105511685703
 21
232.421135057329
 31
0.0
  0
LINE
  5
9CCF
  8
0
 10
60.60105511685703
 20
232.421135057329
 30
0.0
 11
60.62891590188343
 21
232.3109028259204
 31
0.0
  0
LINE
  5
9CD0
  8
0
 10
61.27050992567689
 20
231.5345292225101
 30
0.0
 11
61.37333655685649
 21
231.4865230573295
 31
0.0
  0
LINE
  5
9CD1
  8
0
 10
61.37333655685649
 20
231.4865230573295
 30
0.0
 11
61.2630399463597
 21
231.4587447037646
 31
0.0
  0
LINE
  5
9CD2
  8
0
 10
61.02714387091561
 20
231.0136102660134
 30
0.0
 11
61.0658831168567
 21
230.9069555373288
 31
0.0
  0
LINE
  5
9CD3
  8
0
 10
59.96570042366199
 20
231.0605882082535
 30
0.0
 11
59.85908983685664
 21
231.0217712173288
 31
0.0
  0
LINE
  5
9CD4
  8
0
 10
59.85908983685664
 20
231.0217712173288
 30
0.0
 11
59.91749508680147
 21
231.119517532993
 31
0.0
  0
LINE
  5
9CD5
  8
0
 10
60.01288289015389
 20
232.1216582749702
 30
0.0
 11
59.97407351685666
 21
232.2285006573292
 31
0.0
  0
LINE
  5
9CD6
  8
0
 10
59.97407351685666
 20
232.2285006573292
 30
0.0
 11
60.07131278011099
 21
232.1704442902809
 31
0.0
  0
LINE
  5
9CD7
  8
0
 10
61.07385674956373
 20
232.0746482126459
 30
0.0
 11
61.18093287685639
 21
232.1134956973291
 31
0.0
  0
LINE
  5
9CD8
  8
0
 10
61.18093287685639
 20
232.1134956973291
 30
0.0
 11
61.12278772418591
 21
232.0163294547991
 31
0.0
  0
LINE
  5
9CD9
  8
0
 10
60.27269934656857
 20
230.8585865568729
 30
0.0
 11
60.19705207685689
 21
230.773765137329
 31
0.0
  0
LINE
  5
9CDA
  8
0
 10
60.19705207685689
 20
230.773765137329
 30
0.0
 11
60.2021248805209
 21
230.8870423630796
 31
0.0
  0
LINE
  5
9CDB
  8
0
 10
59.81084091319559
 20
231.8150890368087
 30
0.0
 11
59.7260293568566
 21
231.890656017329
 31
0.0
  0
LINE
  5
9CDC
  8
0
 10
59.7260293568566
 20
231.890656017329
 30
0.0
 11
59.83937154461506
 21
231.8856396339596
 31
0.0
  0
LINE
  5
9CDD
  8
0
 10
60.76719768671097
 20
232.27671171893
 30
0.0
 11
60.84292359685656
 21
232.361669777329
 31
0.0
  0
LINE
  5
9CDE
  8
0
 10
60.84292359685656
 20
232.361669777329
 30
0.0
 11
60.83788039467987
 21
232.2484648526082
 31
0.0
  0
LINE
  5
9CDF
  8
0
 10
61.22923539242453
 20
231.3205022754572
 30
0.0
 11
61.31413559685694
 21
231.2448416173291
 31
0.0
  0
LINE
  5
9CE0
  8
0
 10
60.84664274330913
 20
230.8913257903513
 30
0.0
 11
60.85315815685641
 21
230.778004337329
 31
0.0
  0
LINE
  5
9CE1
  8
0
 10
60.85315815685641
 20
230.778004337329
 30
0.0
 11
60.77643125302717
 21
230.8618929599451
 31
0.0
  0
LINE
  5
9CE2
  8
0
 10
59.84367646117431
 20
231.2411590282067
 30
0.0
 11
59.73020135685698
 21
231.2345600173293
 31
0.0
  0
LINE
  5
9CE3
  8
0
 10
59.73020135685698
 20
231.2345600173293
 30
0.0
 11
59.81396389748949
 21
231.3112493032949
 31
0.0
  0
LINE
  5
9CE4
  8
0
 10
60.1933314291569
 20
232.2441103816676
 30
0.0
 11
60.18681415685666
 21
232.3574496173291
 31
0.0
  0
LINE
  5
9CE5
  8
0
 10
60.18681415685666
 20
232.3574496173291
 30
0.0
 11
60.26338708585132
 21
232.2738074118332
 31
0.0
  0
LINE
  5
9CE6
  8
0
 10
61.19674338518786
 20
231.8945301190787
 30
0.0
 11
61.30983367685673
 21
231.9010328173289
 31
0.0
  0
LINE
  5
9CE7
  8
0
 10
61.30983367685673
 20
231.9010328173289
 30
0.0
 11
61.22605328535525
 21
231.8243877224603
 31
0.0
  0
LINE
  5
9CE8
  8
0
 10
60.56288158759213
 20
230.8177209425511
 30
0.0
 11
60.52556039685675
 21
230.7104616173291
 31
0.0
  0
LINE
  5
9CE9
  8
0
 10
60.52556039685675
 20
230.7104616173291
 30
0.0
 11
60.48672052814578
 21
230.8175369750633
 31
0.0
  0
LINE
  5
9CEA
  8
0
 10
59.77009028473236
 20
231.5249246967677
 30
0.0
 11
59.66272583685674
 21
231.5622776173294
 31
0.0
  0
LINE
  5
9CEB
  8
0
 10
59.66272583685674
 20
231.5622776173294
 30
0.0
 11
59.76945545452969
 21
231.6010115903053
 31
0.0
  0
LINE
  5
9CEC
  8
0
 10
60.47702819435705
 20
232.3178021349366
 30
0.0
 11
60.51428199685694
 21
232.4248523373288
 31
0.0
  0
LINE
  5
9CED
  8
0
 10
60.51428199685694
 20
232.4248523373288
 30
0.0
 11
60.55304512097615
 21
232.3182495919935
 31
0.0
  0
LINE
  5
9CEE
  8
0
 10
61.26977259734628
 20
231.6106230816675
 30
0.0
 11
61.37711655685649
 21
231.5731662573288
 31
0.0
  0
LINE
  5
9CEF
  8
0
 10
61.08069536869749
 20
231.0678008550802
 30
0.0
 11
61.13009943685671
 21
230.9654979373289
 31
0.0
  0
LINE
  5
9CF0
  8
0
 10
61.13009943685671
 20
230.9654979373289
 30
0.0
 11
61.02714387091561
 21
231.0136102660134
 31
0.0
  0
LINE
  5
9CF1
  8
0
 10
60.01987561762104
 20
231.0071638760872
 30
0.0
 11
59.9176333568567
 21
230.9577452973289
 31
0.0
  0
LINE
  5
9CF2
  8
0
 10
59.9176333568567
 20
230.9577452973289
 30
0.0
 11
59.96570042366199
 21
231.0605882082535
 31
0.0
  0
LINE
  5
9CF3
  8
0
 10
59.959156644698
 20
232.0677012381601
 30
0.0
 11
59.90987623685675
 21
232.1696860973287
 31
0.0
  0
LINE
  5
9CF4
  8
0
 10
59.90987623685675
 20
232.1696860973287
 30
0.0
 11
60.01288289015389
 21
232.1216582749702
 31
0.0
  0
LINE
  5
9CF5
  8
0
 10
61.02014616936918
 20
232.1287813584867
 30
0.0
 11
61.12221239685647
 21
232.1780939373292
 31
0.0
  0
LINE
  5
9CF6
  8
0
 10
61.12221239685647
 20
232.1780939373292
 30
0.0
 11
61.07385674956373
 21
232.0746482126459
 31
0.0
  0
LINE
  5
9CF7
  8
0
 10
60.33810185698036
 20
230.8264240391453
 30
0.0
 11
60.27919399685703
 21
230.7450796973288
 31
0.0
  0
LINE
  5
9CF8
  8
0
 10
60.27919399685703
 20
230.7450796973288
 30
0.0
 11
60.27269934656857
 21
230.8585865568729
 31
0.0
  0
LINE
  5
9CF9
  8
0
 10
59.77881582015294
 20
231.7497387079619
 30
0.0
 11
59.69740439685626
 21
231.8086428973292
 31
0.0
  0
LINE
  5
9CFA
  8
0
 10
59.69740439685626
 20
231.8086428973292
 30
0.0
 11
59.81084091319559
 21
231.8150890368087
 31
0.0
  0
LINE
  5
9CFB
  8
0
 10
60.70177459553184
 20
232.3088103799172
 30
0.0
 11
60.76070887685688
 21
232.3903104173286
 31
0.0
  0
LINE
  5
9CFC
  8
0
 10
60.76070887685688
 20
232.3903104173286
 30
0.0
 11
60.76719768671097
 21
232.27671171893
 31
0.0
  0
LINE
  5
9CFD
  8
0
 10
61.26134601064047
 20
231.3859205450407
 30
0.0
 11
61.3428266368565
 21
231.3269432173291
 31
0.0
  0
LINE
  5
9CFE
  8
0
 10
61.3428266368565
 20
231.3269432173291
 30
0.0
 11
61.22923539242453
 21
231.3205022754572
 31
0.0
  0
LINE
  5
9CFF
  8
0
 10
60.91543910138267
 20
230.9152687406703
 30
0.0
 11
60.93139015685671
 21
230.815684497329
 31
0.0
  0
LINE
  5
9D00
  8
0
 10
60.93139015685671
 20
230.815684497329
 30
0.0
 11
60.84664274330913
 21
230.8913257903513
 31
0.0
  0
LINE
  5
9D01
  8
0
 10
59.86718926716281
 20
231.1722986689618
 30
0.0
 11
59.7680786368565
 21
231.1563840173293
 31
0.0
  0
LINE
  5
9D02
  8
0
 10
59.7680786368565
 20
231.1563840173293
 30
0.0
 11
59.84367646117431
 21
231.2411590282067
 31
0.0
  0
LINE
  5
9D03
  8
0
 10
60.12454461489011
 20
232.2201882539219
 30
0.0
 11
60.10864823685648
 21
232.3196294573289
 31
0.0
  0
LINE
  5
9D04
  8
0
 10
60.10864823685648
 20
232.3196294573289
 30
0.0
 11
60.1933314291569
 21
232.2441103816676
 31
0.0
  0
LINE
  5
9D05
  8
0
 10
61.17248734306946
 20
231.963127697404
 30
0.0
 11
61.27221959685636
 21
231.9790598573289
 31
0.0
  0
LINE
  5
9D06
  8
0
 10
61.27221959685636
 20
231.9790598573289
 30
0.0
 11
61.19674338518786
 21
231.8945301190787
 31
0.0
  0
LINE
  5
9D07
  8
0
 10
60.63559066998101
 20
230.8135883653239
 30
0.0
 11
60.61220359685655
 21
230.7154187373288
 31
0.0
  0
LINE
  5
9D08
  8
0
 10
59.7655971820505
 20
231.452203505275
 30
0.0
 11
59.66761575685683
 21
231.4755044973289
 31
0.0
  0
LINE
  5
9D09
  8
0
 10
59.66761575685683
 20
231.4755044973289
 30
0.0
 11
59.77009028473236
 21
231.5249246967677
 31
0.0
  0
LINE
  5
9D0A
  8
0
 10
60.40441033803614
 20
232.321849205984
 30
0.0
 11
60.42777207685646
 21
232.4198324973294
 31
0.0
  0
LINE
  5
9D0B
  8
0
 10
60.42777207685646
 20
232.4198324973294
 30
0.0
 11
60.47702819435705
 21
232.3178021349366
 31
0.0
  0
LINE
  5
9D0C
  8
0
 10
61.27399198498875
 20
231.6834161158948
 30
0.0
 11
61.37216391685666
 21
231.6600020973291
 31
0.0
  0
LINE
  5
9D0D
  8
0
 10
61.37216391685666
 20
231.6600020973291
 30
0.0
 11
61.26977259734628
 21
231.6106230816675
 31
0.0
  0
LINE
  5
9D0E
  8
0
 10
61.1350247562778
 20
231.116295918141
 30
0.0
 11
61.18786119685689
 21
231.0303660973294
 31
0.0
  0
LINE
  5
9D0F
  8
0
 10
60.06822017909104
 20
230.9527546280314
 30
0.0
 11
59.98243431685711
 21
230.8999790573288
 31
0.0
  0
LINE
  5
9D10
  8
0
 10
59.98243431685711
 20
230.8999790573288
 30
0.0
 11
60.01987561762104
 21
231.0071638760872
 31
0.0
  0
LINE
  5
9D11
  8
0
 10
59.90488425292966
 20
232.0193807765539
 30
0.0
 11
59.85224327685643
 21
232.104947857329
 31
0.0
  0
LINE
  5
9D12
  8
0
 10
59.85224327685643
 20
232.104947857329
 30
0.0
 11
59.959156644698
 21
232.0677012381601
 31
0.0
  0
LINE
  5
9D13
  8
0
 10
60.97139713446137
 20
232.1825671242276
 30
0.0
 11
61.05740807685658
 21
232.235464817329
 31
0.0
  0
LINE
  5
9D14
  8
0
 10
55.2607427968565
 20
228.170596177329
 30
0.0
 11
55.2607427968565
 21
227.944308017329
 31
0.0
  0
LINE
  5
9D15
  8
0
 10
52.69116487685693
 20
229.2818792173292
 30
0.0
 11
53.79990663685618
 21
229.2818792173292
 31
0.0
  0
LINE
  5
9D16
  8
0
 10
55.49193319685679
 20
226.1082673773288
 30
0.0
 11
56.62251719685634
 21
226.1082673773288
 31
0.0
  0
LINE
  5
9D17
  8
0
 10
58.09508983685652
 20
229.8122921773291
 30
0.0
 11
58.09508983685652
 21
230.4253051373288
 31
0.0
  0
LINE
  5
9D18
  8
0
 10
58.09508983685652
 20
230.4253051373288
 30
0.0
 11
57.03530663685666
 21
230.4253051373288
 31
0.0
  0
LINE
  5
9D19
  8
0
 10
57.03530663685666
 20
230.4253051373288
 30
0.0
 11
57.03530663685666
 21
226.1082673773288
 31
0.0
  0
LINE
  5
9D1A
  8
0
 10
57.03530663685666
 20
226.1082673773288
 30
0.0
 11
58.17866647685656
 21
226.1082673773288
 31
0.0
  0
LINE
  5
9D1B
  8
0
 10
58.17866647685656
 20
226.1082673773288
 30
0.0
 11
58.17866647685656
 21
227.4397132973289
 31
0.0
  0
LINE
  5
9D1C
  8
0
 10
59.4796002368567
 20
229.3071755373293
 30
0.0
 11
59.4796002368567
 21
230.4555552173287
 31
0.0
  0
LINE
  5
9D1D
  8
0
 10
64.11745191685674
 20
229.3719137773286
 30
0.0
 11
65.27750199685676
 21
229.3719137773286
 31
0.0
  0
LINE
  5
9D1E
  8
0
 10
62.59590503685655
 20
227.3287537773293
 30
0.0
 11
61.39726087685682
 21
227.3287537773293
 31
0.0
  0
LINE
  5
9D1F
  8
0
 10
44.87127447685685
 20
233.695469937329
 30
0.0
 11
45.39836215685642
 21
233.695469937329
 31
0.0
  0
LINE
  5
9D20
  8
0
 10
45.43636823685671
 20
229.3110854573287
 30
0.0
 11
44.93451079685707
 21
229.3110854573287
 31
0.0
  0
LINE
  5
9D21
  8
0
 10
44.67165127685672
 20
229.6025004973288
 30
0.0
 11
44.67165127685672
 21
233.2240574573287
 31
0.0
  0
LINE
  5
9D22
  8
0
 10
44.72243767685683
 20
228.8267649773287
 30
0.0
 11
45.2578693568567
 21
228.8267649773287
 31
0.0
  0
LINE
  5
9D23
  8
0
 10
45.70398775685686
 20
234.1801824173289
 30
0.0
 11
42.0331463168564
 21
234.1801824173289
 31
0.0
  0
LINE
  5
9D24
  8
0
 10
42.0331463168564
 20
234.1801824173289
 30
0.0
 11
42.0331463168564
 21
233.7338019373291
 31
0.0
  0
LINE
  5
9D25
  8
0
 10
42.0331463168564
 20
233.7338019373291
 30
0.0
 11
42.34776887685672
 21
233.7338019373291
 31
0.0
  0
LINE
  5
9D26
  8
0
 10
43.11659511685644
 20
232.8588422573292
 30
0.0
 11
43.11659511685644
 21
227.2732734573291
 31
0.0
  0
LINE
  5
9D27
  8
0
 10
42.08419143685666
 20
226.3541790573289
 30
0.0
 11
42.08419143685666
 21
225.9081894573291
 31
0.0
  0
LINE
  5
9D28
  8
0
 10
42.08419143685666
 20
225.9081894573291
 30
0.0
 11
46.02917079685636
 21
225.9081894573291
 31
0.0
  0
LINE
  5
9D29
  8
0
 10
46.02917079685636
 20
225.9081894573291
 30
0.0
 11
46.02917079685636
 21
226.3543078573292
 31
0.0
  0
LINE
  5
9D2A
  8
0
 10
44.67165127685672
 20
227.3208633773291
 30
0.0
 11
44.67165127685672
 21
228.6231030573289
 31
0.0
  0
LINE
  5
9D2B
  8
0
  6
CONTINUOUS
 10
60.56288158759213
 20
230.8177209425511
 30
0.0
 11
60.61220359685655
 21
230.7154187373288
 31
0.0
  0
LINE
  5
9D2C
  8
0
  6
CONTINUOUS
 10
60.96847517643852
 20
230.9651948999334
 30
0.0
 11
61.0658831168567
 21
230.9069555373288
 31
0.0
  0
LINE
  5
9D2D
  8
0
  6
CONTINUOUS
 10
61.08069536869749
 20
231.0678008550802
 30
0.0
 11
61.18786119685689
 21
231.0303660973294
 31
0.0
  0
LINE
  5
9D2E
  8
0
  6
CONTINUOUS
 10
61.16516338733123
 20
231.1824874828752
 30
0.0
 11
61.27737159685654
 21
231.1659678573286
 31
0.0
  0
LINE
  5
9D2F
  8
0
  6
CONTINUOUS
 10
61.20051978715088
 20
231.2499288962725
 30
0.0
 11
61.31413559685694
 21
231.2448416173291
 31
0.0
  0
LINE
  5
9D30
  8
0
  6
CONTINUOUS
 10
61.26134601064047
 20
231.3859205450407
 30
0.0
 11
61.36068615685696
 21
231.4004017773294
 31
0.0
  0
LINE
  5
9D31
  8
0
  6
CONTINUOUS
 10
61.27050992567689
 20
231.5345292225101
 30
0.0
 11
61.37711655685649
 21
231.5731662573288
 31
0.0
  0
LINE
  5
9D32
  8
0
  6
CONTINUOUS
 10
61.05740807685658
 20
232.235464817329
 30
0.0
 11
61.02014616936918
 21
232.1287813584867
 31
0.0
  0
LINE
  5
9D33
  8
0
 10
54.60330254796787
 20
238.277967235107
 30
0.0
 11
56.88752193996794
 21
238.7501735711065
 31
0.0
  0
LINE
  5
9D34
  8
0
 10
56.88752193996794
 20
238.7501735711065
 30
0.0
 11
54.60338184396784
 21
239.222148739107
 31
0.0
  0
LINE
  5
9D35
  8
0
 10
54.60338184396784
 20
239.222148739107
 30
0.0
 11
55.8887350599685
 21
241.0060735391079
 31
0.0
  0
LINE
  5
9D36
  8
0
 10
55.8887350599685
 20
241.0060735391079
 30
0.0
 11
54.10465435596785
 21
239.7207996191067
 31
0.0
  0
LINE
  5
9D37
  8
0
 10
54.10465435596785
 20
239.7207996191067
 30
0.0
 11
53.82589984044267
 21
241.0698861584032
 31
0.0
  0
LINE
  5
9D38
  8
0
 10
53.41422135681074
 20
240.9476374394561
 30
0.0
 11
53.16078465996731
 21
239.7209555231065
 31
0.0
  0
LINE
  5
9D39
  8
0
 10
53.16078465996731
 20
239.7209555231065
 30
0.0
 11
52.31630278512063
 21
240.3292038163453
 31
0.0
  0
LINE
  5
9D3A
  8
0
 10
52.04114494434822
 20
240.08368537169
 30
0.0
 11
52.6618972359675
 21
239.222148739107
 31
0.0
  0
LINE
  5
9D3B
  8
0
 10
52.6618972359675
 20
239.222148739107
 30
0.0
 11
51.60073220244209
 21
239.0027260689111
 31
0.0
  0
LINE
  5
9D3C
  8
0
 10
51.62145527260969
 20
238.4931215962014
 30
0.0
 11
52.66213243596809
 21
238.278277699107
 31
0.0
  0
LINE
  5
9D3D
  8
0
 10
52.66213243596809
 20
238.278277699107
 30
0.0
 11
52.04907205628393
 21
237.4273210216933
 31
0.0
  0
LINE
  5
9D3E
  8
0
 10
52.28871939702464
 20
237.1510284747372
 30
0.0
 11
53.16078465996731
 21
237.7792357151064
 31
0.0
  0
LINE
  5
9D3F
  8
0
 10
53.16078465996731
 20
237.7792357151064
 30
0.0
 11
53.46670710367067
 21
236.2986129795225
 31
0.0
  0
LINE
  5
9D40
  8
0
 10
53.77137802213252
 20
236.1665686084297
 30
0.0
 11
54.10465435596785
 21
237.7794709151066
 31
0.0
  0
LINE
  5
9D41
  8
0
 10
54.10465435596785
 20
237.7794709151066
 30
0.0
 11
55.8888909639673
 21
236.494042435107
 31
0.0
  0
LINE
  5
9D42
  8
0
 10
55.8888909639673
 20
236.494042435107
 30
0.0
 11
54.60330254796787
 21
238.277967235107
 31
0.0
  0
LINE
  5
9D43
  8
0
 10
58.36152477018965
 20
224.9475095038223
 30
0.0
 11
58.36152477018965
 21
225.4104116795514
 31
0.0
  0
LINE
  5
9D44
  8
0
 10
57.58389194420175
 20
224.7932016180047
 30
0.0
 11
57.58389194420175
 21
224.9475095038223
 31
0.0
  0
LINE
  5
9D45
  8
0
 10
58.36152477018965
 20
224.9475095038223
 30
0.0
 11
57.58389194420175
 21
224.9475095038223
 31
0.0
  0
LINE
  5
9D46
  8
0
 10
58.35782365944402
 20
224.7932016180047
 30
0.0
 11
57.58389194420175
 21
224.7932016180047
 31
0.0
  0
LINE
  5
9D47
  8
0
 10
58.75008906553381
 20
225.4104116795514
 30
0.0
 11
58.36152477018965
 21
225.4104116795514
 31
0.0
  0
LINE
  5
9D48
  8
0
 10
58.75008906553381
 20
225.4104116795514
 30
0.0
 11
58.75008906553381
 21
224.9401394659025
 31
0.0
  0
LINE
  5
9D49
  8
0
 10
59.4978074957167
 20
224.9401394659025
 30
0.0
 11
58.75008906553381
 21
224.9401394659025
 31
0.0
  0
LINE
  5
9D4A
  8
0
 10
59.4978074957167
 20
224.7907556665554
 30
0.0
 11
59.4978074957167
 21
224.9401394659025
 31
0.0
  0
LINE
  5
9D4B
  8
0
 10
58.74498796941867
 20
224.7907556665554
 30
0.0
 11
59.4978074957167
 21
224.7907556665554
 31
0.0
  0
ARC
  5
9D4C
  8
0
 10
56.51468731447909
 20
225.600734648311
 30
0.0
 40
1.78373366193507
 50
310.0456923729903
 51
327.1738262384467
  0
ARC
  5
9D4D
  8
0
 10
56.25651791752676
 20
224.9441370296835
 30
0.0
 40
1.92069235163314
 50
325.4885178757467
 51
349.9185299046333
  0
LINE
  5
9D4E
  8
0
 10
58.01359269708934
 20
224.6337866503808
 30
0.0
 11
58.14755447859039
 21
224.6079230586146
 31
0.0
  0
LINE
  5
9D4F
  8
0
 10
57.4598094319968
 20
224.0921810821773
 30
0.0
 11
57.83919273847783
 21
223.8559277112389
 31
0.0
  0
ARC
  5
9D50
  8
0
 10
56.22875497254751
 20
226.0500046538062
 30
0.0
 40
2.312697174244312
 50
302.1611570594345
 51
308.3070197817706
  0
LINE
  5
9D51
  8
0
 10
58.35782365944402
 20
224.7932016180047
 30
0.0
 11
58.35782365944402
 21
223.9044490475361
 31
0.0
  0
LINE
  5
9D52
  8
0
 10
58.02107968023262
 20
223.9118373371156
 30
0.0
 11
58.02107968023262
 21
223.7651339502162
 31
0.0
  0
LINE
  5
9D53
  8
0
 10
58.02107968023262
 20
223.9118373371156
 30
0.0
 11
58.25988413308147
 21
223.8335019890154
 31
0.0
  0
ARC
  5
9D54
  8
0
 10
58.28315699277715
 20
223.9044490475361
 30
0.0
 40
0.0746666666666667
 50
251.8388875732299
 51
0.0
  0
LINE
  5
9D55
  8
0
 10
58.74498796941867
 20
223.8773354219092
 30
0.0
 11
58.74498796941867
 21
224.7907556665554
 31
0.0
  0
LINE
  5
9D56
  8
0
 10
58.36789030949927
 20
223.623801847093
 30
0.0
 11
58.02107968023262
 21
223.7651339502162
 31
0.0
  0
ARC
  5
9D57
  8
0
 10
58.47121019164075
 20
223.8773354219092
 30
0.0
 40
0.2737777777777778
 50
247.8281449539039
 51
0.0
  0
LINE
  5
9D58
  8
0
 10
59.05427140421949
 20
224.6443725989155
 30
0.0
 11
59.16637915675989
 21
224.5391122384789
 31
0.0
  0
LINE
  5
9D59
  8
0
 10
58.93140859331521
 20
224.6028549833558
 30
0.0
 11
59.05427140421949
 21
224.6443725989155
 31
0.0
  0
LINE
  5
9D5A
  8
0
 10
59.56812368847665
 20
224.0461933657015
 30
0.0
 11
59.13668292439712
 21
223.8598233733295
 31
0.0
  0
ARC
  5
9D5B
  8
0
 10
56.54297614292642
 20
223.543141472904
 30
0.0
 40
2.61296810051403
 50
6.961145816582685
 51
23.92618042379387
  0
ARC
  5
9D5C
  8
0
 10
57.4939184080136
 20
222.784190613141
 30
0.0
 40
2.4279576794027
 50
31.31746538013244
 51
50.00949102187557
  0
LINE
  5
9D5D
  8
0
 10
61.3451091460243
 20
225.2716749403743
 30
0.0
 11
61.3451091460243
 21
225.1173670545562
 31
0.0
  0
LINE
  5
9D5E
  8
0
 10
61.3451091460243
 20
225.2716749403743
 30
0.0
 11
59.85344299742434
 21
225.2716749403743
 31
0.0
  0
LINE
  5
9D5F
  8
0
 10
59.85344299742434
 20
225.1173670545562
 30
0.0
 11
59.85344299742434
 21
225.2716749403743
 31
0.0
  0
LINE
  5
9D60
  8
0
 10
61.3451091460243
 20
225.1173670545562
 30
0.0
 11
59.85344299742434
 21
225.1173670545562
 31
0.0
  0
LINE
  5
9D61
  8
0
 10
61.48553528862209
 20
224.7953737750012
 30
0.0
 11
59.6959972133655
 21
224.7953737750012
 31
0.0
  0
LINE
  5
9D62
  8
0
 10
59.6959972133655
 20
224.6342484399519
 30
0.0
 11
59.6959972133655
 21
224.7953737750012
 31
0.0
  0
LINE
  5
9D63
  8
0
 10
60.99630183440973
 20
224.6342484399519
 30
0.0
 11
59.6959972133655
 21
224.6342484399519
 31
0.0
  0
LINE
  5
9D64
  8
0
 10
61.48553528862209
 20
224.6564185591868
 30
0.0
 11
61.48553528862209
 21
224.7953737750012
 31
0.0
  0
LINE
  5
9D65
  8
0
 10
59.8551407097321
 20
223.7357089598648
 30
0.0
 11
59.90345790072939
 21
223.6109495154268
 31
0.0
  0
ARC
  5
9D66
  8
0
 10
59.38489231898126
 20
225.7243577305734
 30
0.0
 40
2.043491493068839
 50
283.3041404476273
 51
312.187984758957
  0
ARC
  5
9D67
  8
0
 10
59.72960287778193
 20
225.0690614445629
 30
0.0
 40
1.33924926570833
 50
320.1134675612495
 51
341.0544644537724
  0
ARC
  5
9D68
  8
0
 10
60.28015248987782
 20
224.9681588859584
 30
0.0
 40
1.245042056656759
 50
284.1440925346391
 51
345.4996819276624
  0
ARC
  5
9D69
  8
0
 10
59.86880951040672
 20
225.3897705958397
 30
0.0
 40
1.77915849408482
 50
271.1158826182763
 51
293.7159784209443
  0
LINE
  5
9D6A
  8
0
 10
62.14129556700578
 20
224.2933903535021
 30
0.0
 11
62.14129556700578
 21
225.3337241643384
 31
0.0
  0
LINE
  5
9D6B
  8
0
 10
62.14129556700578
 20
225.3337241643384
 30
0.0
 11
61.73249874100071
 21
225.3337241643384
 31
0.0
  0
LINE
  5
9D6C
  8
0
 10
61.73249874100071
 20
224.2933903535021
 30
0.0
 11
61.73249874100071
 21
225.3337241643384
 31
0.0
  0
LINE
  5
9D6D
  8
0
 10
62.14129556700578
 20
224.2933903535021
 30
0.0
 11
61.73249874100071
 21
224.2933903535021
 31
0.0
  0
LINE
  5
9D6E
  8
0
 10
63.07892191309389
 20
224.5884835887845
 30
0.0
 11
63.07892191309389
 21
225.3337241643384
 31
0.0
  0
LINE
  5
9D6F
  8
0
 10
62.68049882099291
 20
224.6430941549487
 30
0.0
 11
62.68049882099291
 21
225.3337241643384
 31
0.0
  0
LINE
  5
9D70
  8
0
 10
62.68049882099291
 20
225.3337241643384
 30
0.0
 11
63.07892191309389
 21
225.3337241643384
 31
0.0
  0
LINE
  5
9D71
  8
0
 10
61.847591256822
 20
223.6730477836535
 30
0.0
 11
61.9313887721292
 21
223.5654815245451
 31
0.0
  0
ARC
  5
9D72
  8
0
 10
61.73526096789107
 20
224.6120990091921
 30
0.0
 40
0.9457458950466363
 50
276.8213681552839
 51
1.878103949386534
  0
ARC
  5
9D73
  8
0
 10
61.87426527407348
 20
224.9016265543158
 30
0.0
 40
1.337365557583815
 50
272.4480452339944
 51
323.9127955890404
  0
ARC
  5
9D74
  8
0
 10
62.03129566426611
 20
224.6085256532787
 30
0.0
 40
1.047817942956835
 50
331.8321656005633
 51
358.9040121443402
  0
LINE
  5
9D75
  8
0
 10
64.716421044338
 20
225.0632396768855
 30
0.0
 11
64.716421044338
 21
225.1826719751078
 31
0.0
  0
LINE
  5
9D76
  8
0
 10
63.36816650495763
 20
225.0438657129415
 30
0.0
 11
63.36816650495763
 21
225.1826719751078
 31
0.0
  0
LINE
  5
9D77
  8
0
 10
64.716421044338
 20
225.1826719751078
 30
0.0
 11
63.36816650495763
 21
225.1826719751078
 31
0.0
  0
LINE
  5
9D78
  8
0
 10
64.23955169759626
 20
225.0438657129415
 30
0.0
 11
63.36816650495763
 21
225.0438657129415
 31
0.0
  0
LINE
  5
9D79
  8
0
 10
62.98337905088471
 20
223.7254388332029
 30
0.0
 11
63.06039726727164
 21
223.6054717016731
 31
0.0
  0
ARC
  5
9D7A
  8
0
 10
62.37740299873082
 20
225.5604439868747
 30
0.0
 40
1.932472739726369
 50
288.2748377643807
 51
344.4954648401276
  0
ARC
  5
9D7B
  8
0
 10
62.39068372267235
 20
226.1655475208585
 30
0.0
 40
2.646224561861322
 50
284.6600032593546
 51
312.5396667739578
  0
LINE
  5
9D7C
  8
0
 10
64.81691565058424
 20
223.5841590194494
 30
0.0
 11
65.1224032140122
 21
223.9279877389916
 31
0.0
  0
ARC
  5
9D7D
  8
0
 10
62.78856148968731
 20
222.175307250839
 30
0.0
 40
2.469632342666266
 50
34.78302390875149
 51
55.71309290050228
  0
ARC
  5
9D7E
  8
0
 10
62.96248485210168
 20
225.6001422727176
 30
0.0
 40
1.834272761572525
 50
316.4306178633717
 51
342.9799715932805
  0
ARC
  5
9D7F
  8
0
 10
62.71363163530265
 20
220.0715989281151
 30
0.0
 40
4.546857725842939
 50
58.0103401497656
 51
69.6947510335346
  0
ARC
  5
A28A
  8
0
 10
53.6297063969736
 20
238.7350848939367
 30
0.0
 40
5.33214218313847
 50
74.3144994222587
 51
104.1724498576072
  0
ARC
  5
A28B
  8
0
 10
53.63719310871346
 20
238.7456142235752
 30
0.0
 40
5.323775476131433
 50
104.2783165563116
 51
166.1870765708273
  0
ARC
  5
A28C
  8
0
 10
53.64133191370587
 20
238.7525398869675
 30
0.0
 40
5.326146654840227
 50
166.270054507626
 51
215.0482339935348
  0
ARC
  5
A28D
  8
0
 10
53.62940012956
 20
238.7439086252603
 30
0.0
 40
5.311421839969246
 50
215.0459241187442
 51
273.2408824576858
  0
ARC
  5
A28E
  8
0
 10
53.63143619020701
 20
238.7515076461241
 30
0.0
 40
5.318894171081752
 50
273.2143571100679
 51
346.1779060677009
  0
ARC
  5
A28F
  8
0
 10
53.64154207740785
 20
238.7440264506568
 30
0.0
 40
5.307295827239366
 50
346.2302669880835
 51
43.78488871851541
  0
ARC
  5
A290
  8
0
 10
55.70429788432017
 20
238.3225619000506
 30
0.0
 40
4.459640505811445
 50
66.63259795322786
 51
109.905871685035
  0
ARC
  5
A291
  8
0
 10
55.48614554150342
 20
238.842793745149
 30
0.0
 40
3.896315762598357
 50
109.4942419685547
 51
167.6530237580676
  0
ARC
  5
A292
  8
0
 10
54.74744579647209
 20
237.3224448470789
 30
0.0
 40
3.866330758866939
 50
121.4932770185398
 51
142.5031668973391
  0
ARC
  5
A293
  8
0
 10
54.69575980310059
 20
237.3858960712945
 30
0.0
 40
3.78524088928143
 50
91.77940320266809
 51
121.3278955587064
  0
ARC
  5
A294
  8
0
 10
54.68348645526382
 20
237.2682308314999
 30
0.0
 40
3.90250076108918
 50
65.20023754136542
 51
91.54565188015103
  0
ARC
  5
A295
  8
0
 10
54.50975541463978
 20
236.9088421619266
 30
0.0
 40
4.301623157105358
 50
30.14973546883459
 51
65.10747394303505
  0
ARC
  5
A296
  8
0
 10
54.29351862566173
 20
236.7694634305015
 30
0.0
 40
4.558626665475829
 50
8.9769926527231
 51
30.2994981683211
  0
ARC
  5
A297
  8
0
 10
55.40717092376008
 20
240.2893006882697
 30
0.0
 40
4.401593171265135
 50
288.3388974970104
 51
320.3520397443188
  0
ARC
  5
A298
  8
0
 10
55.35629633250588
 20
240.3478100476892
 30
0.0
 40
4.473237795108389
 50
252.8403059470313
 51
288.7216405446108
  0
ARC
  5
A299
  8
0
 10
55.20805891152547
 20
239.9192648725294
 30
0.0
 40
4.020062191481092
 50
209.1938724537274
 51
253.0569803949629
  0
ARC
  5
A29A
  8
0
 10
55.02000816794094
 20
239.7659953378289
 30
0.0
 40
3.781373116886767
 50
175.5970978715927
 51
208.5563260925432
  0
ARC
  5
A29B
  8
0
 10
55.24427287128482
 20
239.7234456850751
 30
0.0
 40
4.008321764107
 50
141.0080554268092
 51
175.2367758980932
  0
ARC
  5
A29C
  8
0
 10
55.58905229317243
 20
239.4514726625823
 30
0.0
 40
4.447428119007347
 50
96.68547469604019
 51
141.0795845301957
  0
ARC
  5
A29D
  8
0
 10
55.38954236543675
 20
238.9015744777802
 30
0.0
 40
3.790160167539093
 50
178.4707117364453
 51
186.1865889351898
  0
ARC
  5
A29E
  8
0
 10
42.35595743418997
 20
231.6312899610298
 30
0.0
 40
2.102527922038834
 50
84.9561999668056
 51
90.22314612645847
  0
ARC
  5
A29F
  8
0
 10
42.4880237290636
 20
232.8785642924757
 30
0.0
 40
0.848754935304436
 50
65.19337763183492
 51
86.43460068621052
  0
ARC
  5
A2A0
  8
0
 10
42.64724748005949
 20
233.2638841398046
 30
0.0
 40
0.432524910680116
 50
13.9863879207907
 51
62.92338893732329
  0
ARC
  5
A2A1
  8
0
 10
41.97679210851953
 20
233.0598774403767
 30
0.0
 40
1.132979464242894
 50
3.904131892889081
 51
15.80295944671843
  0
ARC
  5
A2A2
  8
0
 10
39.9171757226629
 20
232.8893711467008
 30
0.0
 40
3.199565044350259
 50
359.4532997353156
 51
4.439158366316591
  0
ARC
  5
A2A3
  8
0
 10
42.09848132486891
 20
228.3160074207784
 30
0.0
 40
1.961880406277173
 50
269.5826669607686
 51
281.2467372863051
  0
ARC
  5
A2A4
  8
0
 10
42.32568579859657
 20
227.2422159314706
 30
0.0
 40
0.8645009778283242
 50
280.3576091429006
 51
308.9726038906425
  0
ARC
  5
A2A5
  8
0
 10
42.39730952214262
 20
227.0954556395916
 30
0.0
 40
0.7063050293075379
 50
311.9446536813444
 51
353.5803040312001
  0
ARC
  5
A2A6
  8
0
 10
41.45875165978413
 20
227.2566838684473
 30
0.0
 40
1.657926458748007
 50
351.6696629683137
 51
0.5733241568774463
  0
ARC
  5
A2A7
  8
0
 10
46.7403340145263
 20
232.2628627592073
 30
0.0
 40
5.95119938757511
 50
257.5813101393111
 51
263.1368024967187
  0
ARC
  5
A2A8
  8
0
 10
45.7506314446284
 20
227.8189353527109
 30
0.0
 40
1.398452974297173
 50
235.2289453505774
 51
258.0263291625699
  0
ARC
  5
A2A9
  8
0
 10
45.40572338769644
 20
227.2440373227567
 30
0.0
 40
0.7308682337771808
 50
181.3642075179843
 51
231.7348554842791
  0
ARC
  5
A2AA
  8
0
 10
45.95041944077485
 20
227.3199804747561
 30
0.0
 40
1.278768468710234
 50
179.9604411616191
 51
184.1860155147163
  0
ARC
  5
A2AB
  8
0
 10
33.22875335713422
 20
228.4535444424593
 30
0.0
 40
11.44415409390602
 50
0.848935483152986
 51
1.690006264274332
  0
ARC
  5
A2AC
  8
0
 10
44.70342547741777
 20
228.7937764300504
 30
0.0
 40
0.0356002396173115
 50
132.0995794755948
 51
184.3854082312399
  0
ARC
  5
A2AD
  8
0
 10
44.71173765960569
 20
228.7534263512298
 30
0.0
 40
0.0741150757083008
 50
81.69918243476886
 51
115.7331729843349
  0
ARC
  5
A2AE
  8
0
 10
44.91831029065847
 20
229.5834029103029
 30
0.0
 40
0.2727989215437704
 50
229.3422064805662
 51
273.4045849244121
  0
ARC
  5
A2AF
  8
0
 10
44.94464848448195
 20
229.5524855828703
 30
0.0
 40
0.2695085644996453
 50
184.8442539947764
 51
220.7801867736532
  0
ARC
  5
A2B0
  8
0
 10
45.23608322764125
 20
229.6005015776188
 30
0.0
 40
0.5644354903320787
 50
179.7970894737595
 51
187.2033550483905
  0
ARC
  5
A2B1
  8
0
 10
45.2442300800289
 20
234.4519826785331
 30
0.0
 40
5.625234236528772
 50
270.1389228840429
 51
282.574963880413
  0
ARC
  5
A2B2
  8
0
 10
45.70357304034965
 20
232.7862955506673
 30
0.0
 40
3.900438044695806
 50
281.31631568977
 51
306.6736079669237
  0
ARC
  5
A2B3
  8
0
 10
46.06753711661798
 20
232.0841885337474
 30
0.0
 40
3.122533740917625
 50
309.0122993056875
 51
333.1868714432045
  0
ARC
  5
A2B4
  8
0
 10
46.78214621315971
 20
231.6418402059549
 30
0.0
 40
2.286370135056757
 50
335.0025208531055
 51
3.132350940942409
  0
ARC
  5
A2B5
  8
0
 10
46.673989016517
 20
231.5562991867482
 30
0.0
 40
2.400356917899017
 50
5.030415615660186
 51
45.88015556804394
  0
ARC
  5
A2B6
  8
0
 10
46.02389455579987
 20
230.6135374435609
 30
0.0
 40
3.534812041936091
 50
48.95520224166617
 51
77.68716474380041
  0
ARC
  5
A2B7
  8
0
 10
45.74608315557899
 20
229.4284120845902
 30
0.0
 40
4.751956788280896
 50
77.46176455392263
 51
90.50756358638267
  0
ARC
  5
A2B8
  8
0
 10
44.86914345818187
 20
233.5626296242963
 30
0.0
 40
0.1328574047888303
 50
89.08094236461791
 51
124.4007292599872
  0
ARC
  5
A2B9
  8
0
 10
44.92148369101267
 20
233.5016315281935
 30
0.0
 40
0.2129371461418388
 50
126.7487054586267
 51
162.0338218173676
  0
ARC
  5
A2BA
  8
0
 10
45.4292182219356
 20
233.3135112975951
 30
0.0
 40
0.7542713589800576
 50
160.3370642577249
 51
177.7002884087945
  0
ARC
  5
A2BB
  8
0
 10
46.36590144124071
 20
233.2287459003552
 30
0.0
 40
1.69425665145904
 50
176.1068976128699
 51
180.1585523306186
  0
ARC
  5
A2BC
  8
0
 10
45.37356275037314
 20
231.5295049167036
 30
0.0
 40
2.219308321722258
 50
271.6216628224748
 51
290.5180238120254
  0
ARC
  5
A2BD
  8
0
 10
45.55354670475745
 20
230.959659583261
 30
0.0
 40
1.622827402472289
 50
291.6184361004764
 51
329.2928533987833
  0
ARC
  5
A2BE
  8
0
 10
44.62443842257287
 20
231.4713035268958
 30
0.0
 40
2.683157532333741
 50
330.0305147082963
 51
359.7069691972517
  0
ARC
  5
A2BF
  8
0
 10
44.49651675808983
 20
231.5819283884702
 30
0.0
 40
2.813793035039953
 50
357.4671544818835
 51
18.09389103936943
  0
ARC
  5
A2C0
  8
0
 10
45.34875832821615
 20
231.8783577836431
 30
0.0
 40
1.911708557628758
 50
17.58181129013311
 51
44.10613559949745
  0
ARC
  5
A2C1
  8
0
 10
45.60837962687492
 20
232.0888241937693
 30
0.0
 40
1.579081423259486
 50
45.17904980442386
 51
71.36379322642686
  0
ARC
  5
A2C2
  8
0
 10
45.43169608899942
 20
231.5424097700177
 30
0.0
 40
2.153318191790253
 50
71.55515292962627
 51
90.8869891698155
  0
ARC
  5
A2C3
  8
0
 10
48.45918952960554
 20
228.6333881785937
 30
0.0
 40
0.9504697930117868
 50
45.647846390803
 51
90.95907175324457
  0
ARC
  5
A2C4
  8
0
 10
48.19057423128962
 20
228.4027637392794
 30
0.0
 40
1.303524477208397
 50
356.2866180422669
 51
44.29157541670799
  0
ARC
  5
A2C5
  8
0
 10
47.74044742681951
 20
228.2344303708505
 30
0.0
 40
1.752924040513615
 50
332.8282653512688
 51
2.743720271344923
  0
ARC
  5
A2C6
  8
0
 10
48.43247162729926
 20
227.9488180566552
 30
0.0
 40
1.008745565207887
 50
281.1029522262601
 51
329.3086861457625
  0
ARC
  5
A2C7
  8
0
 10
48.44503473972424
 20
228.021098754923
 30
0.0
 40
1.077573765673208
 50
254.3735857114849
 51
279.7072195183892
  0
ARC
  5
A2C8
  8
0
 10
48.4586562371357
 20
227.9612207880263
 30
0.0
 40
1.023995873514749
 50
198.078198350464
 51
252.7369026576832
  0
ARC
  5
A2C9
  8
0
 10
49.50470998084251
 20
228.2675024232262
 30
0.0
 40
2.113718303506307
 50
164.6942276189749
 51
197.1716014617761
  0
ARC
  5
A2CA
  8
0
 10
48.50065069068066
 20
228.5323229271201
 30
0.0
 40
1.07541041250608
 50
123.3084104466144
 51
164.1819940011187
  0
ARC
  5
A2CB
  8
0
 10
48.42975451827672
 20
228.6234824883749
 30
0.0
 40
0.9603375863241239
 50
89.19299068101529
 51
122.7601092117214
  0
ARC
  5
A2CC
  8
0
 10
48.74599718647394
 20
228.2713834184521
 30
0.0
 40
2.529168051565525
 50
164.9665044400625
 51
190.6145490228779
  0
ARC
  5
A2CD
  8
0
 10
48.37943253112849
 20
228.0951996003275
 30
0.0
 40
2.13903317801624
 50
187.7835408718213
 51
220.8538282758054
  0
ARC
  5
A2CE
  8
0
 10
48.3629086532718
 20
228.2577228443549
 30
0.0
 40
2.23684800464541
 50
224.28151327257
 51
262.3352180838961
  0
ARC
  5
A2CF
  8
0
 10
48.4441029574578
 20
228.4258870562357
 30
0.0
 40
2.415036709056927
 50
260.9581187463501
 51
295.9617934482598
  0
ARC
  5
A2D0
  8
0
 10
48.46881443093594
 20
228.1923753066364
 30
0.0
 40
2.195729658493223
 50
298.0499757225375
 51
338.9010076102918
  0
ARC
  5
A2D1
  8
0
 10
48.07925792781015
 20
228.2778110653488
 30
0.0
 40
2.590632549888452
 50
340.2397223934027
 51
12.59603457387198
  0
ARC
  5
A2D2
  8
0
 10
48.55389651119862
 20
228.3963500884722
 30
0.0
 40
2.101602444292964
 50
12.26400142418717
 51
42.00204460107005
  0
ARC
  5
A2D3
  8
0
 10
48.55340540655567
 20
228.423835936863
 30
0.0
 40
2.083678402800012
 50
41.43135548057312
 51
84.31090183999093
  0
ARC
  5
A2D4
  8
0
 10
54.44238830636199
 20
228.9527725670663
 30
0.0
 40
0.7218683279506627
 50
130.1010359850333
 51
152.8765297157261
  0
ARC
  5
A2D5
  8
0
 10
54.38442435428124
 20
228.9390567321503
 30
0.0
 40
0.6970539232955045
 50
93.62160758699905
 51
125.7261982466873
  0
ARC
  5
A2D6
  8
0
 10
54.49550482082101
 20
227.9945807705272
 30
0.0
 40
1.647456117640462
 50
86.1442592668658
 51
95.40251107253543
  0
ARC
  5
A2D7
  8
0
 10
54.54423721877016
 20
228.166375504329
 30
0.0
 40
1.473239699002557
 50
75.78444603343868
 51
87.58609443775944
  0
ARC
  5
A2D8
  8
0
 10
54.80892063113751
 20
229.1636055042649
 30
0.0
 40
0.4417023764257507
 50
38.65642909797035
 51
77.30076056537986
  0
ARC
  5
A2D9
  8
0
 10
54.6372288167415
 20
229.0930976084561
 30
0.0
 40
0.622013293909289
 50
359.8735965182385
 51
33.84363804094075
  0
ARC
  5
A2DA
  8
0
 10
51.67911811270642
 20
228.9728314573288
 30
0.0
 40
3.582096140528945
 50
359.0859929973961
 51
1.902062204167362
  0
ARC
  5
A2DB
  8
0
 10
54.3217771593753
 20
231.2426141428668
 30
0.0
 40
2.509234634269819
 50
284.9657500733399
 51
291.97550982172
  0
ARC
  5
A2DC
  8
0
 10
52.64245385887475
 20
237.3904516565599
 30
0.0
 40
8.882278806531481
 50
280.2043110183695
 51
285.1898042810342
  0
ARC
  5
A2DD
  8
0
 10
55.10755945142205
 20
223.491055066708
 30
0.0
 40
5.234101951295329
 50
99.80708673503382
 51
108.902900218375
  0
ARC
  5
A2DE
  8
0
 10
53.80234854898913
 20
227.2414515514254
 30
0.0
 40
1.263280702218469
 50
108.0038789458555
 51
139.5346921255566
  0
ARC
  5
A2DF
  8
0
 10
53.74244764032559
 20
227.3252883411066
 30
0.0
 40
1.163565746446632
 50
140.7612947780745
 51
168.9659435881561
  0
ARC
  5
A2E0
  8
0
 10
53.9768152382901
 20
227.2835874024578
 30
0.0
 40
1.401587473098195
 50
169.1264415873884
 51
196.8129880402175
  0
ARC
  5
A2E1
  8
0
 10
53.77683507748728
 20
227.2500683390098
 30
0.0
 40
1.200736629503124
 50
198.0421705376476
 51
235.7348582477595
  0
ARC
  5
A2E2
  8
0
 10
53.93369472243597
 20
227.5481145575433
 30
0.0
 40
1.535844315416191
 50
237.1590292494224
 51
270.7198132743666
  0
ARC
  5
A2E3
  8
0
 10
54.01363110535331
 20
227.8221268430794
 30
0.0
 40
1.810751131158588
 50
268.0808101764746
 51
292.8635926074776
  0
ARC
  5
A2E4
  8
0
 10
53.88282183575743
 20
228.0491329627265
 30
0.0
 40
2.070998767971581
 50
293.7580989581123
 51
314.7899657835182
  0
ARC
  5
A2E5
  8
0
 10
58.86200473000088
 20
227.2175759158164
 30
0.0
 40
2.499173832420186
 50
192.2727471956715
 51
206.3510707099188
  0
ARC
  5
A2E6
  8
0
 10
60.82763071078568
 20
227.3923950189459
 30
0.0
 40
4.463878389973498
 50
178.3054146575074
 51
189.1007693226515
  0
ARC
  5
A2E7
  8
0
 10
-122.3404779120987
 20
230.4452596713798
 30
0.0
 40
178.7300508439498
 50
359.0636135939208
 51
359.5331222948618
  0
ARC
  5
A2E8
  8
0
 10
53.30452549634902
 20
228.9884418275467
 30
0.0
 40
3.07911375910394
 50
0.0082366020401114
 51
13.70501902078777
  0
ARC
  5
A2E9
  8
0
 10
55.44388379996924
 20
229.4575729658941
 30
0.0
 40
0.8909843556742496
 50
16.99219239725991
 51
58.15468777164648
  0
ARC
  5
A2EA
  8
0
 10
54.97608523618607
 20
228.7980040280947
 30
0.0
 40
1.698813368729804
 50
56.4891308086457
 51
88.52476597508146
  0
ARC
  5
A2EB
  8
0
 10
54.61316639129558
 20
226.2210050950321
 30
0.0
 40
4.294545824498953
 50
84.56646884241289
 51
99.63736677787178
  0
ARC
  5
A2EC
  8
0
 10
54.13967752931242
 20
229.0003035836623
 30
0.0
 40
1.475204576717583
 50
99.5783577095598
 51
133.4108128523492
  0
ARC
  5
A2ED
  8
0
 10
54.39336012037573
 20
228.8599348743268
 30
0.0
 40
1.753711970549818
 50
136.2812462218212
 51
166.078002621643
  0
ARC
  5
A2EE
  8
0
 10
53.2712121660262
 20
234.6295065997299
 30
0.0
 40
6.758384124597473
 50
280.6962555586757
 51
287.1203411217375
  0
ARC
  5
A2EF
  8
0
 10
55.23844411769085
 20
224.5367767024742
 30
0.0
 40
3.524614443440088
 50
101.6686696910117
 51
109.1101391117779
  0
ARC
  5
A2F0
  8
0
 10
54.24780114577183
 20
227.3431177129735
 30
0.0
 40
0.5488788980844314
 50
107.304431562489
 51
142.6785974978685
  0
ARC
  5
A2F1
  8
0
 10
54.16061746956547
 20
227.4055097714721
 30
0.0
 40
0.4417308257590526
 50
142.2581992011812
 51
180.7216068092584
  0
ARC
  5
A2F2
  8
0
 10
54.26475672049051
 20
227.3946907893871
 30
0.0
 40
0.5458603467606972
 50
179.4483220443287
 51
220.6412737198986
  0
ARC
  5
A2F3
  8
0
 10
54.31853279352934
 20
227.4229316523672
 30
0.0
 40
0.6052123636331186
 50
219.3540008203606
 51
262.0493699394866
  0
ARC
  5
A2F4
  8
0
 10
54.3579500811085
 20
227.7219520575335
 30
0.0
 40
0.9068136346841665
 50
262.1960849641753
 51
288.4736708280107
  0
ARC
  5
A2F5
  8
0
 10
54.31018420135024
 20
227.865281223592
 30
0.0
 40
1.057892482791887
 50
288.467600933972
 51
313.9760865401699
  0
ARC
  5
A2F6
  8
0
 10
54.56843688096315
 20
227.5823939640183
 30
0.0
 40
0.6750814753682137
 50
314.8739683616068
 51
353.3371743964237
  0
ARC
  5
A2F7
  8
0
 10
51.80432293624358
 20
227.8946776497835
 30
0.0
 40
3.456776160850171
 50
353.5117984853132
 51
0.8226475095749395
  0
ARC
  5
A2F8
  8
0
 10
62.41484515251645
 20
228.5731047350085
 30
0.0
 40
7.34861436909221
 50
195.7421928264704
 51
199.597791318071
  0
ARC
  5
A2F9
  8
0
 10
75.1863121803333
 20
227.4760667368361
 30
0.0
 40
17.00768455573995
 50
177.5431527159517
 51
180.1224681839423
  0
ARC
  5
A2FA
  8
0
 10
62.17308935800014
 20
228.0814609680977
 30
0.0
 40
3.98074969577439
 50
168.3575610519279
 51
178.2196605600729
  0
ARC
  5
A2FB
  8
0
 10
59.2639480109768
 20
228.6605515997981
 30
0.0
 40
1.014793522696064
 50
138.3863021467757
 51
167.2340218536034
  0
ARC
  5
A2FC
  8
0
 10
58.90834637183781
 20
228.8937710022973
 30
0.0
 40
0.5972547683434593
 50
96.77586538956558
 51
132.447773558299
  0
ARC
  5
A2FD
  8
0
 10
58.93913971537418
 20
228.7418712131837
 30
0.0
 40
0.7518332906437697
 50
71.72267914677991
 51
97.74042030460295
  0
ARC
  5
A2FE
  8
0
 10
58.76568800753998
 20
228.2300721440404
 30
0.0
 40
1.29221607752043
 50
56.46328333653608
 51
71.53679490684749
  0
ARC
  5
A2FF
  8
0
 10
60.6993528957434
 20
228.2080443656951
 30
0.0
 40
3.058724754046294
 50
139.5470247594359
 51
148.3665835328131
  0
ARC
  5
A300
  8
0
 10
59.04756343606113
 20
229.6400095464882
 30
0.0
 40
0.8729050829687197
 50
109.5979517564685
 51
140.7231812093455
  0
ARC
  5
A301
  8
0
 10
59.07795105936685
 20
229.5124962286376
 30
0.0
 40
1.003323721815536
 50
86.36469047660621
 51
108.7902753767986
  0
ARC
  5
A302
  8
0
 10
59.07698552933512
 20
229.1373180438208
 30
0.0
 40
1.377997254265745
 50
78.84643697971599
 51
87.31376656527219
  0
ARC
  5
A303
  8
0
 10
59.06326719858237
 20
229.0675886718833
 30
0.0
 40
1.449063259500479
 50
73.30291166206497
 51
78.8475905402678
  0
ARC
  5
A304
  8
0
 10
63.66424728098912
 20
228.9259274007161
 30
0.0
 40
1.673766598535952
 50
15.45353000298215
 51
35.65921843237705
  0
ARC
  5
A305
  8
0
 10
63.94936654552879
 20
229.115635186166
 30
0.0
 40
1.331569712949468
 50
36.17886961743995
 51
65.18032133965768
  0
ARC
  5
A306
  8
0
 10
63.56608375979567
 20
228.0470273041457
 30
0.0
 40
2.464419661937123
 50
67.52176510600205
 51
89.95176516883794
  0
ARC
  5
A307
  8
0
 10
63.38651319318035
 20
226.785504728192
 30
0.0
 40
3.730366476747655
 50
87.208954205559
 51
101.0994306540248
  0
ARC
  5
A308
  8
0
 10
62.94850651561225
 20
228.9845563147574
 30
0.0
 40
1.488141506149253
 50
100.8503522773502
 51
133.1120733601343
  0
ARC
  5
A309
  8
0
 10
62.76145707744757
 20
229.1943306723544
 30
0.0
 40
1.207186880999289
 50
133.4355814373259
 51
160.54030576771
  0
ARC
  5
A30A
  8
0
 10
62.85913337287168
 20
229.1871527588574
 30
0.0
 40
1.30192991328094
 50
161.6745785399147
 51
192.4880693726293
  0
ARC
  5
A30B
  8
0
 10
62.62543913118887
 20
229.1332170776282
 30
0.0
 40
1.06210390647494
 50
192.3733574320921
 51
226.495337067095
  0
ARC
  5
A30C
  8
0
 10
62.78676830254697
 20
229.2884836291263
 30
0.0
 40
1.285822665205259
 50
226.0440591685035
 51
249.5155775654867
  0
ARC
  5
A30D
  8
0
 10
64.73357905773726
 20
234.18923976032
 30
0.0
 40
6.558883186265355
 50
248.5661847695235
 51
256.3648823317471
  0
ARC
  5
A30E
  8
0
 10
73.48599801232078
 20
269.2980454940125
 30
0.0
 40
42.74209767946007
 50
256.0575388595495
 51
257.0500330678841
  0
ARC
  5
A30F
  8
0
 10
63.76554476188176
 20
226.9182261413976
 30
0.0
 40
0.738586693301286
 50
53.94494987543574
 51
78.91973275289719
  0
ARC
  5
A310
  8
0
 10
63.97533764177845
 20
227.3050359988913
 30
0.0
 40
0.3079156393342173
 50
351.7054337157874
 51
43.07738885190663
  0
ARC
  5
A311
  8
0
 10
63.92301508296148
 20
227.2876877473988
 30
0.0
 40
0.3580422081846633
 50
305.5545895016557
 51
355.6635972446031
  0
ARC
  5
A312
  8
0
 10
63.60152364599209
 20
227.808395152529
 30
0.0
 40
0.9694871848616392
 50
270.6346537603566
 51
303.1173831021151
  0
ARC
  5
A313
  8
0
 10
63.47389066174802
 20
228.3682974707993
 30
0.0
 40
1.535577099296554
 50
255.0528385911238
 51
275.1699625266891
  0
ARC
  5
A314
  8
0
 10
63.27465533834267
 20
227.5786333745772
 30
0.0
 40
0.72133028502093
 50
220.3482025964629
 51
254.1645624218334
  0
ARC
  5
A315
  8
0
 10
63.35127921402272
 20
227.630662696387
 30
0.0
 40
0.8134735047535518
 50
201.7856653156537
 51
219.6469566048348
  0
ARC
  5
A316
  8
0
 10
63.02558367137095
 20
227.7411040232937
 30
0.0
 40
1.679722551042641
 50
194.210622631723
 51
218.9435761559328
  0
ARC
  5
A317
  8
0
 10
63.03591206439518
 20
227.7783839335924
 30
0.0
 40
1.711336039747307
 50
219.6970036238809
 51
248.5406571485441
  0
ARC
  5
A318
  8
0
 10
63.33653074007501
 20
228.6338659455119
 30
0.0
 40
2.617702860846573
 50
249.2671616286075
 51
267.747025064058
  0
ARC
  5
A319
  8
0
 10
63.46981174030469
 20
229.1618176892009
 30
0.0
 40
3.152491240768179
 50
265.7033250605309
 51
289.3905439589275
  0
ARC
  5
A31A
  8
0
 10
63.94426730960424
 20
227.604327192669
 30
0.0
 40
1.527408099999837
 50
292.0004687572242
 51
331.7243378576277
  0
ARC
  5
A31B
  8
0
 10
64.13360255601557
 20
227.4613655084706
 30
0.0
 40
1.293448633509429
 50
333.3286501185843
 51
10.01278361973784
  0
ARC
  5
A31C
  8
0
 10
64.43045511397317
 20
227.5489731765698
 30
0.0
 40
0.9864943557164728
 50
7.999299177210378
 51
56.09544702440729
  0
ARC
  5
A31D
  8
0
 10
63.41324836749412
 20
225.8490001016582
 30
0.0
 40
2.966650730685512
 50
58.10472620690843
 51
77.57165611660318
  0
ARC
  5
A31E
  8
0
 10
69.6439450428199
 20
253.1738884356833
 30
0.0
 40
25.05969444260865
 50
254.9920383624129
 51
257.1055378385227
  0
ARC
  5
A31F
  8
0
 10
63.57116716342514
 20
230.708279675848
 30
0.0
 40
1.788471967299355
 50
241.9968666432906
 51
256.5329008491028
  0
ARC
  5
A320
  8
0
 10
62.87463969629835
 20
229.3424993244687
 30
0.0
 40
0.2569089219111538
 50
181.4229295114256
 51
236.1252737546306
  0
ARC
  5
A321
  8
0
 10
62.88986033395858
 20
229.3369929384019
 30
0.0
 40
0.272051738584831
 50
114.9382961617164
 51
180.1839102890763
  0
ARC
  5
A322
  8
0
 10
63.29184761236078
 20
228.4278886539884
 30
0.0
 40
1.266027764923893
 50
87.40586972974698
 51
114.0870118917362
  0
ARC
  5
A323
  8
0
 10
63.39235586872036
 20
228.1086688846726
 30
0.0
 40
1.584539315298479
 50
81.26152734193053
 51
91.56252783870202
  0
ARC
  5
A324
  8
0
 10
63.52585264114882
 20
228.9144559269085
 30
0.0
 40
0.767883455285971
 50
58.63150134670305
 51
81.97250411125933
  0
ARC
  5
A325
  8
0
 10
63.58578561950702
 20
229.0491454059141
 30
0.0
 40
0.6219714409278794
 50
31.26144626097709
 51
56.88664282448827
  0
ARC
  5
A326
  8
0
 10
59.2325699635783
 20
225.2464552220883
 30
0.0
 40
0.1450093835969383
 50
152.3324835633369
 51
201.6883497501597
  0
ARC
  5
A327
  8
0
 10
59.2828499301414
 20
225.213470999783
 30
0.0
 40
0.2049400430791757
 50
94.26849177823954
 51
150.6923636878295
  0
ARC
  5
A328
  8
0
 10
59.29528997282732
 20
225.175861096011
 30
0.0
 40
0.2435610534233947
 50
65.67526895000451
 51
96.52886377924207
  0
ARC
  5
A329
  8
0
 10
59.32619666219074
 20
225.2323580792767
 30
0.0
 40
0.1794155440342952
 50
15.00501194484213
 51
67.2375225199484
  0
ARC
  5
A32A
  8
0
 10
59.35879971028909
 20
225.2462032537973
 30
0.0
 40
0.1444238304842776
 50
334.547571826115
 51
13.047988576613
  0
ARC
  5
A32B
  8
0
 10
59.31704976757631
 20
225.2690745908979
 30
0.0
 40
0.1919699607925253
 50
283.3392084596498
 51
333.7390166514095
  0
ARC
  5
A32C
  8
0
 10
59.29549833912463
 20
225.3182155562782
 30
0.0
 40
0.2449468824808138
 50
249.2475068279205
 51
285.5929160340207
  0
ARC
  5
A32D
  8
0
 10
59.27216905525674
 20
225.2681426666467
 30
0.0
 40
0.1899001165681578
 50
203.353445485098
 51
250.4765665943434
  0
ARC
  5
A32E
  8
0
 10
59.23345617450272
 20
225.2463935409643
 30
0.0
 40
0.220563220518459
 50
149.5924277991477
 51
208.5026443066654
  0
ARC
  5
A32F
  8
0
 10
59.28313473185251
 20
225.2113997497825
 30
0.0
 40
0.2811654578303905
 50
99.15226556107332
 51
148.5662219609103
  0
ARC
  5
A330
  8
0
 10
59.29525052237449
 20
225.1742846505662
 30
0.0
 40
0.3197925578412533
 50
69.2643536209876
 51
100.2377265552896
  0
ARC
  5
A331
  8
0
 10
59.31447537002502
 20
225.2179471878174
 30
0.0
 40
0.2721632922277281
 50
34.33047436698183
 51
69.79498100629164
  0
ARC
  5
A332
  8
0
 10
59.3567456570199
 20
225.2465143819345
 30
0.0
 40
0.2211457863352724
 50
330.8904082426641
 51
34.39478799471744
  0
ARC
  5
A333
  8
0
 10
59.312544211963
 20
225.2747306594016
 30
0.0
 40
0.2735090128067355
 50
281.5278040705526
 51
330.2307053142214
  0
ARC
  5
A334
  8
0
 10
59.29551632932055
 20
225.3182204739273
 30
0.0
 40
0.3196244185618837
 50
249.2057013607624
 51
282.9608191978165
  0
ARC
  5
A335
  8
0
 10
59.2749652188665
 20
225.2723110855099
 30
0.0
 40
0.2694253491506349
 50
209.1338557825235
 51
249.8253936421853
  0
LINE
  5
A3C3
  8
D002
 10
77.32347425020461
 20
202.7911362700033
 30
0.0
 11
77.32347425020461
 21
203.3375828794101
 31
0.0
1001
GENIUS_GENODEF_13
1002
{
1000
HIER
1070
     0
1002
}
1002
{
1000
MANEDIT
1070
     0
1002
}
1002
{
1000
NOSEL
1070
     0
1002
}
1002
{
1000
BEHIND
1070
     0
1002
}
1002
{
1000
OTHER
1070
     0
1002
}
1002
{
1000
REACTOR
1002
}
1001
GENIUS_GENOBJ-N-CEN_13
1002
{
1000
OWNER
1000
GEN
1002
}
1001
GENIUS_GENCEN_19
1002
{
1040
3.0
1002
}
  0
LINE
  5
A3C4
  8
D002
 10
77.6234742502048
 20
202.7911362700033
 30
0.0
 11
77.6234742502048
 21
203.3375828794101
 31
0.0
1001
GENIUS_GENODEF_13
1002
{
1000
HIER
1070
     0
1002
}
1002
{
1000
MANEDIT
1070
     0
1002
}
1002
{
1000
NOSEL
1070
     0
1002
}
1002
{
1000
BEHIND
1070
     0
1002
}
1002
{
1000
OTHER
1070
     0
1002
}
1002
{
1000
REACTOR
1002
}
1001
GENIUS_GENOBJ-N-CEN_13
1002
{
1000
OWNER
1000
GEN
1002
}
1001
GENIUS_GENCEN_19
1002
{
1040
3.0
1002
}
  0
LINE
  5
A3C5
  8
D002
 10
77.6234742502048
 20
206.8911362700035
 30
0.0
 11
78.26930105515166
 21
207.5369630749504
 31
0.0
  0
LINE
  5
A3C6
  8
D002
 10
77.6234742502048
 20
207.3911362700035
 30
0.0
 11
78.01930105515166
 21
207.7869630749504
 31
0.0
  0
ARC
  5
A3C7
  8
D002
 10
77.4734742502047
 20
208.9911362700034
 30
0.0
 40
0.1499999999999773
 50
0.0
 51
180.0
  0
ARC
  5
A3C8
  8
D002
 10
78.14430105515166
 20
207.6619630749504
 30
0.0
 40
0.1767766952966168
 50
315.0000000000228
 51
134.9999999999967
  0
LINE
  5
A3C9
  8
D002
 10
77.32347425020461
 20
206.8911362700035
 30
0.0
 11
76.67764744525775
 21
207.5369630749504
 31
0.0
  0
LINE
  5
A3CA
  8
D002
 10
77.32347425020461
 20
207.3911362700035
 30
0.0
 11
76.92764744525775
 21
207.7869630749504
 31
0.0
  0
ARC
  5
A3CB
  8
D002
 10
76.80264744525775
 20
207.6619630749504
 30
0.0
 40
0.1767766952966168
 50
45.00000000000327
 51
224.9999999999772
  0
LINE
  5
A3CC
  8
D002
 10
77.6234742502048
 20
208.0911362700034
 30
0.0
 11
78.02226014742618
 21
208.4899221672248
 31
0.0
  0
LINE
  5
A3CD
  8
D002
 10
77.6234742502048
 20
208.4446896605966
 30
0.0
 11
77.84548345212951
 21
208.6666988625213
 31
0.0
  0
ARC
  5
A3CE
  8
D002
 10
77.93387179977762
 20
208.5783105148732
 30
0.0
 40
0.1249999999999206
 50
314.9999999998848
 51
134.9999999999217
  0
LINE
  5
A3CF
  8
D002
 10
79.30373013853054
 20
204.6612324594358
 30
0.0
 11
79.44969590758441
 21
204.1164807931605
 31
0.0
  0
LINE
  5
A3D0
  8
D002
 10
79.60991635637842
 20
204.4844557641392
 30
0.0
 11
79.69117736415669
 21
204.1811855544362
 31
0.0
  0
ARC
  5
A3D1
  8
D002
 10
80.0308341854437
 20
204.9462651213389
 30
0.0
 40
0.1249999999999206
 50
285.0000000000046
 51
105.0000000000046
  0
LINE
  5
A3D2
  8
D002
 10
77.6234742502048
 20
204.8911362700035
 30
0.0
 11
77.6234742502048
 21
205.2836194346141
 31
0.0
1001
GENIUS_GENODEF_13
1002
{
1000
HIER
1070
     0
1002
}
1002
{
1000
MANEDIT
1070
     0
1002
}
1002
{
1000
NOSEL
1070
     0
1002
}
1002
{
1000
BEHIND
1070
     0
1002
}
1002
{
1000
OTHER
1070
     0
1002
}
1002
{
1000
REACTOR
1002
}
1001
GENIUS_GENOBJ-N-CEN_13
1002
{
1000
OWNER
1000
GEN
1002
}
1001
GENIUS_GENCEN_19
1002
{
1040
3.0
1002
}
  0
LINE
  5
A3D3
  8
D002
 10
79.75991635637828
 20
204.7442633852745
 30
0.0
 11
80.0631865660815
 21
204.8255243930529
 31
0.0
  0
ARC
  5
A3D4
  8
D002
 10
79.57043663587078
 20
204.1488331737983
 30
0.0
 40
0.1249999999999206
 50
194.9999999999509
 51
15.00000000000457
  0
LINE
  5
A3D5
  8
D002
 10
79.4537301385304
 20
204.9210400805712
 30
0.0
 11
79.99848180480589
 21
205.0670058496252
 31
0.0
  0
LINE
  5
A3D6
  8
D002
 10
77.6234742502048
 20
203.6911362700034
 30
0.0
 11
77.6234742502048
 21
204.3911362700035
 31
0.0
1001
GENIUS_GENODEF_13
1002
{
1000
HIER
1070
     0
1002
}
1002
{
1000
MANEDIT
1070
     0
1002
}
1002
{
1000
NOSEL
1070
     0
1002
}
1002
{
1000
BEHIND
1070
     0
1002
}
1002
{
1000
OTHER
1070
     0
1002
}
1002
{
1000
REACTOR
1002
}
1001
GENIUS_GENOBJ-N-CEN_13
1002
{
1000
OWNER
1000
GEN
1002
}
1001
GENIUS_GENCEN_19
1002
{
1040
3.0
1002
}
  0
LINE
  5
A3D7
  8
D002
 10
77.32347425020461
 20
203.6911362700034
 30
0.0
 11
77.32347425020461
 21
204.3911362700035
 31
0.0
1001
GENIUS_GENODEF_13
1002
{
1000
HIER
1070
     0
1002
}
1002
{
1000
MANEDIT
1070
     0
1002
}
1002
{
1000
NOSEL
1070
     0
1002
}
1002
{
1000
BEHIND
1070
     0
1002
}
1002
{
1000
OTHER
1070
     0
1002
}
1002
{
1000
REACTOR
1002
}
1001
GENIUS_GENOBJ-N-CEN_13
1002
{
1000
OWNER
1000
GEN
1002
}
1001
GENIUS_GENCEN_19
1002
{
1040
3.0
1002
}
  0
LINE
  5
A3D8
  8
D002
 10
77.32347425020461
 20
208.4446896605966
 30
0.0
 11
77.32347425020461
 21
208.9911362700034
 31
0.0
1001
GENIUS_GENODEF_13
1002
{
1000
HIER
1070
     0
1002
}
1002
{
1000
MANEDIT
1070
     0
1002
}
1002
{
1000
NOSEL
1070
     0
1002
}
1002
{
1000
BEHIND
1070
     0
1002
}
1002
{
1000
OTHER
1070
     0
1002
}
1002
{
1000
REACTOR
1002
}
1001
GENIUS_GENOBJ-N-CEN_13
1002
{
1000
OWNER
1000
GEN
1002
}
1001
GENIUS_GENCEN_19
1002
{
1040
3.0
1002
}
  0
LINE
  5
A3D9
  8
D002
 10
77.6234742502048
 20
208.4446896605966
 30
0.0
 11
77.6234742502048
 21
208.9911362700034
 31
0.0
1001
GENIUS_GENODEF_13
1002
{
1000
HIER
1070
     0
1002
}
1002
{
1000
MANEDIT
1070
     0
1002
}
1002
{
1000
NOSEL
1070
     0
1002
}
1002
{
1000
BEHIND
1070
     0
1002
}
1002
{
1000
OTHER
1070
     0
1002
}
1002
{
1000
REACTOR
1002
}
1001
GENIUS_GENOBJ-N-CEN_13
1002
{
1000
OWNER
1000
GEN
1002
}
1001
GENIUS_GENCEN_19
1002
{
1040
3.0
1002
}
  0
ARC
  5
A3DA
  8
D002
 10
77.01307670063179
 20
208.5783105148732
 30
0.0
 40
0.1249999999999206
 50
45.00000000007829
 51
224.9999999999677
  0
LINE
  5
A3DB
  8
D002
 10
77.32347425020461
 20
208.4446896605966
 30
0.0
 11
77.10146504827989
 21
208.6666988625213
 31
0.0
  0
LINE
  5
A3DC
  8
D002
 10
77.32347425020461
 20
208.0911362700034
 30
0.0
 11
76.92468835298322
 21
208.4899221672248
 31
0.0
  0
LINE
  5
A3DD
  8
D002
 10
77.6234742502048
 20
207.3911362700035
 30
0.0
 11
77.6234742502048
 21
208.0911362700034
 31
0.0
1001
GENIUS_GENODEF_13
1002
{
1000
HIER
1070
     0
1002
}
1002
{
1000
MANEDIT
1070
     0
1002
}
1002
{
1000
NOSEL
1070
     0
1002
}
1002
{
1000
BEHIND
1070
     0
1002
}
1002
{
1000
OTHER
1070
     0
1002
}
1002
{
1000
REACTOR
1002
}
1001
GENIUS_GENOBJ-N-CEN_13
1002
{
1000
OWNER
1000
GEN
1002
}
1001
GENIUS_GENCEN_19
1002
{
1040
3.0
1002
}
  0
LINE
  5
A3DE
  8
D002
 10
77.32347425020461
 20
207.3911362700035
 30
0.0
 11
77.32347425020461
 21
208.0911362700034
 31
0.0
1001
GENIUS_GENODEF_13
1002
{
1000
HIER
1070
     0
1002
}
1002
{
1000
MANEDIT
1070
     0
1002
}
1002
{
1000
NOSEL
1070
     0
1002
}
1002
{
1000
BEHIND
1070
     0
1002
}
1002
{
1000
OTHER
1070
     0
1002
}
1002
{
1000
REACTOR
1002
}
1001
GENIUS_GENOBJ-N-CEN_13
1002
{
1000
OWNER
1000
GEN
1002
}
1001
GENIUS_GENCEN_19
1002
{
1040
3.0
1002
}
  0
LINE
  5
A3DF
  8
D002
 10
77.6234742502048
 20
203.3375828794101
 30
0.0
 11
77.84548345212951
 21
203.1155736774854
 31
0.0
  0
LINE
  5
A3E0
  8
D002
 10
77.32347425020461
 20
204.3911362700035
 30
0.0
 11
76.92764744525775
 21
203.9953094650564
 31
0.0
  0
ARC
  5
A3E1
  8
D002
 10
77.4734742502047
 20
202.7911362700033
 30
0.0
 40
0.1499999999999773
 50
180.0
 51
0.0
  0
ARC
  5
A3E2
  8
D002
 10
78.14430105515166
 20
204.1203094650564
 30
0.0
 40
0.1767766952966168
 50
225.0000000000032
 51
45.00000000000327
  0
ARC
  5
A3E3
  8
D002
 10
76.80264744525775
 20
204.1203094650564
 30
0.0
 40
0.1767766952966168
 50
134.9999999999967
 51
314.9999999999968
  0
LINE
  5
A3E4
  8
D002
 10
77.6234742502048
 20
204.3911362700035
 30
0.0
 11
78.01930105515166
 21
203.9953094650564
 31
0.0
  0
LINE
  5
A3E5
  8
D002
 10
77.32347425020461
 20
204.8911362700035
 30
0.0
 11
76.67764744525775
 21
204.2453094650564
 31
0.0
  0
ARC
  5
A3E6
  8
D002
 10
77.93387179977762
 20
203.2039620251336
 30
0.0
 40
0.1249999999999206
 50
225.0000000000783
 51
44.99999999996776
  0
LINE
  5
A3E7
  8
D002
 10
77.32347425020461
 20
203.6911362700034
 30
0.0
 11
76.92468835298322
 21
203.292350372782
 31
0.0
  0
LINE
  5
A3E8
  8
D002
 10
77.6234742502048
 20
203.6911362700034
 30
0.0
 11
78.02226014742618
 21
203.292350372782
 31
0.0
  0
LINE
  5
A3E9
  8
D002
 10
77.6234742502048
 20
204.8911362700035
 30
0.0
 11
78.26930105515166
 21
204.2453094650564
 31
0.0
  0
ARC
  5
A3EA
  8
D002
 10
77.01307670063179
 20
203.2039620251336
 30
0.0
 40
0.1249999999999206
 50
134.9999999998849
 51
314.9999999998848
  0
LINE
  5
A3EB
  8
D002
 10
77.32347425020461
 20
203.3375828794101
 30
0.0
 11
77.10146504827989
 21
203.1155736774854
 31
0.0
  0
LINE
  5
A3EC
  8
D002
 10
78.69751235588146
 20
206.7710400805711
 30
0.0
 11
78.84239502199088
 21
207.3117495516275
 31
0.0
  0
ARC
  5
A3ED
  8
D002
 10
78.67164184651787
 20
207.3575027271006
 30
0.0
 40
0.1767766952966168
 50
344.9999999999747
 51
164.9999999999747
  0
LINE
  5
A3EE
  8
D002
 10
75.33703214403099
 20
204.4844557641392
 30
0.0
 11
74.86379549847297
 21
204.2112324594358
 31
0.0
1001
GENIUS_GENODEF_13
1002
{
1000
HIER
1070
     0
1002
}
1002
{
1000
MANEDIT
1070
     0
1002
}
1002
{
1000
NOSEL
1070
     0
1002
}
1002
{
1000
BEHIND
1070
     0
1002
}
1002
{
1000
OTHER
1070
     0
1002
}
1002
{
1000
REACTOR
1002
}
1001
GENIUS_GENOBJ-N-CEN_13
1002
{
1000
OWNER
1000
GEN
1002
}
1001
GENIUS_GENCEN_19
1002
{
1040
3.0
1002
}
  0
LINE
  5
A3EF
  8
D002
 10
78.41449965398905
 20
206.2612324594357
 30
0.0
 11
79.29671547599182
 21
206.0248434423802
 31
0.0
  0
LINE
  5
A3F0
  8
D002
 10
79.4537301385304
 20
206.8612324594358
 30
0.0
 11
79.99848180480589
 21
206.7152666903818
 31
0.0
  0
LINE
  5
A3F1
  8
D002
 10
79.75991635637828
 20
207.0380091547324
 30
0.0
 11
80.0631865660815
 21
206.9567481469541
 31
0.0
  0
ARC
  5
A3F2
  8
D002
 10
80.0308341854437
 20
206.836007418668
 30
0.0
 40
0.1249999999999206
 50
254.9999999999954
 51
74.99999999999544
  0
LINE
  5
A3F3
  8
D002
 10
79.30373013853054
 20
207.1210400805711
 30
0.0
 11
79.44969590758441
 21
207.6657917468465
 31
0.0
  0
LINE
  5
A3F4
  8
D002
 10
76.09943614452808
 20
205.2710400805711
 30
0.0
 11
75.493218361879
 21
204.9210400805711
 31
0.0
1001
GENIUS_GENODEF_13
1002
{
1000
HIER
1070
     0
1002
}
1002
{
1000
MANEDIT
1070
     0
1002
}
1002
{
1000
NOSEL
1070
     0
1002
}
1002
{
1000
BEHIND
1070
     0
1002
}
1002
{
1000
OTHER
1070
     0
1002
}
1002
{
1000
REACTOR
1002
}
1001
GENIUS_GENOBJ-N-CEN_13
1002
{
1000
OWNER
1000
GEN
1002
}
1001
GENIUS_GENCEN_19
1002
{
1040
3.0
1002
}
  0
ARC
  5
A3F5
  8
D002
 10
76.27530665389153
 20
204.4247698129062
 30
0.0
 40
0.1767766952966168
 50
164.9999999999747
 51
345.0000000000139
  0
LINE
  5
A3F6
  8
D002
 10
76.09943614452808
 20
205.2710400805711
 30
0.0
 11
75.55872667347157
 21
205.4159227466805
 31
0.0
  0
ARC
  5
A3F7
  8
D002
 10
80.15815300193648
 20
207.4411362700034
 30
0.0
 40
0.1499999999999773
 50
300.0000000000254
 51
120.0000000000254
  0
LINE
  5
A3F8
  8
D002
 10
78.41449965398905
 20
206.2612324594357
 30
0.0
 11
78.07459926287842
 21
206.0649908771303
 31
0.0
1001
GENIUS_GENODEF_13
1002
{
1000
HIER
1070
     0
1002
}
1002
{
1000
MANEDIT
1070
     0
1002
}
1002
{
1000
NOSEL
1070
     0
1002
}
1002
{
1000
BEHIND
1070
     0
1002
}
1002
{
1000
OTHER
1070
     0
1002
}
1002
{
1000
REACTOR
1002
}
1001
GENIUS_GENOBJ-N-CEN_13
1002
{
1000
OWNER
1000
GEN
1002
}
1001
GENIUS_GENCEN_19
1002
{
1040
3.0
1002
}
  0
LINE
  5
A3F9
  8
D002
 10
78.26449965398919
 20
206.5210400805711
 30
0.0
 11
77.92459926287856
 21
206.3247984982656
 31
0.0
1001
GENIUS_GENODEF_13
1002
{
1000
HIER
1070
     0
1002
}
1002
{
1000
MANEDIT
1070
     0
1002
}
1002
{
1000
NOSEL
1070
     0
1002
}
1002
{
1000
BEHIND
1070
     0
1002
}
1002
{
1000
OTHER
1070
     0
1002
}
1002
{
1000
REACTOR
1002
}
1001
GENIUS_GENOBJ-N-CEN_13
1002
{
1000
OWNER
1000
GEN
1002
}
1001
GENIUS_GENCEN_19
1002
{
1040
3.0
1002
}
  0
LINE
  5
A3FA
  8
D002
 10
76.24943614452795
 20
205.0112324594357
 30
0.0
 11
76.10455347841852
 21
204.4705229883793
 31
0.0
  0
LINE
  5
A3FB
  8
D002
 10
76.68244884642021
 20
205.2612324594357
 30
0.0
 11
76.44605982936477
 21
204.3790166374332
 31
0.0
  0
LINE
  5
A3FC
  8
D002
 10
80.23315300193653
 20
207.3112324594358
 30
0.0
 11
79.75991635637828
 21
207.0380091547324
 31
0.0
1001
GENIUS_GENODEF_13
1002
{
1000
HIER
1070
     0
1002
}
1002
{
1000
MANEDIT
1070
     0
1002
}
1002
{
1000
NOSEL
1070
     0
1002
}
1002
{
1000
BEHIND
1070
     0
1002
}
1002
{
1000
OTHER
1070
     0
1002
}
1002
{
1000
REACTOR
1002
}
1001
GENIUS_GENOBJ-N-CEN_13
1002
{
1000
OWNER
1000
GEN
1002
}
1001
GENIUS_GENCEN_19
1002
{
1040
3.0
1002
}
  0
ARC
  5
A3FD
  8
D002
 10
74.78879549847292
 20
204.3411362700034
 30
0.0
 40
0.1499999999999773
 50
120.0000000000254
 51
300.0000000000254
  0
ARC
  5
A3FE
  8
D002
 10
75.60447984894458
 20
205.5866759221535
 30
0.0
 40
0.1767766952966168
 50
75.0000000000127
 51
255.0000000000127
  0
LINE
  5
A3FF
  8
D002
 10
80.08315300193644
 20
207.5710400805712
 30
0.0
 11
79.60991635637842
 21
207.2978167758678
 31
0.0
1001
GENIUS_GENODEF_13
1002
{
1000
HIER
1070
     0
1002
}
1002
{
1000
MANEDIT
1070
     0
1002
}
1002
{
1000
NOSEL
1070
     0
1002
}
1002
{
1000
BEHIND
1070
     0
1002
}
1002
{
1000
OTHER
1070
     0
1002
}
1002
{
1000
REACTOR
1002
}
1001
GENIUS_GENOBJ-N-CEN_13
1002
{
1000
OWNER
1000
GEN
1002
}
1001
GENIUS_GENCEN_19
1002
{
1040
3.0
1002
}
  0
LINE
  5
A400
  8
D002
 10
79.30373013853054
 20
207.1210400805711
 30
0.0
 11
78.69751235588146
 21
206.7710400805711
 31
0.0
1001
GENIUS_GENODEF_13
1002
{
1000
HIER
1070
     0
1002
}
1002
{
1000
MANEDIT
1070
     0
1002
}
1002
{
1000
NOSEL
1070
     0
1002
}
1002
{
1000
BEHIND
1070
     0
1002
}
1002
{
1000
OTHER
1070
     0
1002
}
1002
{
1000
REACTOR
1002
}
1001
GENIUS_GENOBJ-N-CEN_13
1002
{
1000
OWNER
1000
GEN
1002
}
1001
GENIUS_GENCEN_19
1002
{
1040
3.0
1002
}
  0
LINE
  5
A401
  8
D002
 10
75.18703214403112
 20
204.7442633852745
 30
0.0
 11
74.71379549847288
 21
204.4710400805711
 31
0.0
1001
GENIUS_GENODEF_13
1002
{
1000
HIER
1070
     0
1002
}
1002
{
1000
MANEDIT
1070
     0
1002
}
1002
{
1000
NOSEL
1070
     0
1002
}
1002
{
1000
BEHIND
1070
     0
1002
}
1002
{
1000
OTHER
1070
     0
1002
}
1002
{
1000
REACTOR
1002
}
1001
GENIUS_GENOBJ-N-CEN_13
1002
{
1000
OWNER
1000
GEN
1002
}
1001
GENIUS_GENCEN_19
1002
{
1040
3.0
1002
}
  0
LINE
  5
A402
  8
D002
 10
79.4537301385304
 20
206.8612324594358
 30
0.0
 11
78.84751235588132
 21
206.5112324594357
 31
0.0
1001
GENIUS_GENODEF_13
1002
{
1000
HIER
1070
     0
1002
}
1002
{
1000
MANEDIT
1070
     0
1002
}
1002
{
1000
NOSEL
1070
     0
1002
}
1002
{
1000
BEHIND
1070
     0
1002
}
1002
{
1000
OTHER
1070
     0
1002
}
1002
{
1000
REACTOR
1002
}
1001
GENIUS_GENOBJ-N-CEN_13
1002
{
1000
OWNER
1000
GEN
1002
}
1001
GENIUS_GENCEN_19
1002
{
1040
3.0
1002
}
  0
LINE
  5
A403
  8
D002
 10
75.64321836187887
 20
204.6612324594357
 30
0.0
 11
75.49725259282499
 21
204.1164807931603
 31
0.0
  0
LINE
  5
A404
  8
D002
 10
75.33703214403099
 20
204.4844557641392
 30
0.0
 11
75.25577113625272
 21
204.1811855544361
 31
0.0
  0
ARC
  5
A405
  8
D002
 10
75.37651186453863
 20
204.1488331737982
 30
0.0
 40
0.1249999999999206
 50
164.9999999999954
 51
345.0000000001045
  0
LINE
  5
A406
  8
D002
 10
75.493218361879
 20
204.9210400805711
 30
0.0
 11
74.94846669560351
 21
205.067005849625
 31
0.0
  0
LINE
  5
A407
  8
D002
 10
75.18703214403112
 20
204.7442633852745
 30
0.0
 11
74.88376193432791
 21
204.8255243930528
 31
0.0
  0
LINE
  5
A408
  8
D002
 10
76.24943614452795
 20
205.0112324594357
 30
0.0
 11
75.64321836187887
 21
204.6612324594357
 31
0.0
1001
GENIUS_GENODEF_13
1002
{
1000
HIER
1070
     0
1002
}
1002
{
1000
MANEDIT
1070
     0
1002
}
1002
{
1000
NOSEL
1070
     0
1002
}
1002
{
1000
BEHIND
1070
     0
1002
}
1002
{
1000
OTHER
1070
     0
1002
}
1002
{
1000
REACTOR
1002
}
1001
GENIUS_GENOBJ-N-CEN_13
1002
{
1000
OWNER
1000
GEN
1002
}
1001
GENIUS_GENCEN_19
1002
{
1040
3.0
1002
}
  0
LINE
  5
A409
  8
D002
 10
76.53244884642035
 20
205.5210400805711
 30
0.0
 11
75.65023302441759
 21
205.7574290976266
 31
0.0
  0
ARC
  5
A40A
  8
D002
 10
74.91611431496571
 20
204.9462651213388
 30
0.0
 40
0.1249999999999206
 50
74.99999999999544
 51
254.9999999999954
  0
LINE
  5
A40B
  8
D002
 10
78.84751235588132
 20
206.5112324594357
 30
0.0
 11
79.38822182693784
 21
206.3663497933263
 31
0.0
  0
ARC
  5
A40C
  8
D002
 10
79.34246865146483
 20
206.1955966178533
 30
0.0
 40
0.1767766952966168
 50
255.0000000000127
 51
75.0000000000127
  0
LINE
  5
A40D
  8
D002
 10
78.26449965398919
 20
206.5210400805711
 30
0.0
 11
78.50088867104486
 21
207.4032559025736
 31
0.0
  0
LINE
  5
A40E
  8
D002
 10
77.32347425020461
 20
204.8911362700035
 30
0.0
 11
77.32347425020461
 21
205.2836194346141
 31
0.0
1001
GENIUS_GENODEF_13
1002
{
1000
HIER
1070
     0
1002
}
1002
{
1000
MANEDIT
1070
     0
1002
}
1002
{
1000
NOSEL
1070
     0
1002
}
1002
{
1000
BEHIND
1070
     0
1002
}
1002
{
1000
OTHER
1070
     0
1002
}
1002
{
1000
REACTOR
1002
}
1001
GENIUS_GENOBJ-N-CEN_13
1002
{
1000
OWNER
1000
GEN
1002
}
1001
GENIUS_GENCEN_19
1002
{
1040
3.0
1002
}
  0
LINE
  5
A40F
  8
D002
 10
79.60991635637842
 20
207.2978167758678
 30
0.0
 11
79.69117736415669
 21
207.6010869855708
 31
0.0
  0
ARC
  5
A410
  8
D002
 10
79.57043663587078
 20
207.6334393662087
 30
0.0
 40
0.1249999999999206
 50
344.9999999999954
 51
165.0000000001046
  0
LINE
  5
A411
  8
D002
 10
75.33703214403099
 20
207.2978167758678
 30
0.0
 11
75.25577113625272
 21
207.6010869855709
 31
0.0
  0
LINE
  5
A412
  8
D002
 10
75.493218361879
 20
206.8612324594358
 30
0.0
 11
74.94846669560351
 21
206.7152666903818
 31
0.0
  0
LINE
  5
A413
  8
D002
 10
75.18703214403112
 20
207.0380091547324
 30
0.0
 11
74.88376193432791
 21
206.9567481469542
 31
0.0
  0
LINE
  5
A414
  8
D002
 10
79.30373013853054
 20
204.6612324594358
 30
0.0
 11
78.69751235588146
 21
205.0112324594359
 31
0.0
1001
GENIUS_GENODEF_13
1002
{
1000
HIER
1070
     0
1002
}
1002
{
1000
MANEDIT
1070
     0
1002
}
1002
{
1000
NOSEL
1070
     0
1002
}
1002
{
1000
BEHIND
1070
     0
1002
}
1002
{
1000
OTHER
1070
     0
1002
}
1002
{
1000
REACTOR
1002
}
1001
GENIUS_GENOBJ-N-CEN_13
1002
{
1000
OWNER
1000
GEN
1002
}
1001
GENIUS_GENCEN_19
1002
{
1040
3.0
1002
}
  0
LINE
  5
A415
  8
D002
 10
79.4537301385304
 20
204.9210400805712
 30
0.0
 11
78.84751235588132
 21
205.2710400805712
 31
0.0
1001
GENIUS_GENODEF_13
1002
{
1000
HIER
1070
     0
1002
}
1002
{
1000
MANEDIT
1070
     0
1002
}
1002
{
1000
NOSEL
1070
     0
1002
}
1002
{
1000
BEHIND
1070
     0
1002
}
1002
{
1000
OTHER
1070
     0
1002
}
1002
{
1000
REACTOR
1002
}
1001
GENIUS_GENOBJ-N-CEN_13
1002
{
1000
OWNER
1000
GEN
1002
}
1001
GENIUS_GENCEN_19
1002
{
1040
3.0
1002
}
  0
ARC
  5
A416
  8
D002
 10
75.37651186453863
 20
207.6334393662087
 30
0.0
 40
0.1249999999999206
 50
14.99999999995087
 51
194.9999999999509
  0
ARC
  5
A417
  8
D002
 10
74.91611431496571
 20
206.836007418668
 30
0.0
 40
0.1249999999999206
 50
105.0000000000046
 51
285.0000000000046
  0
LINE
  5
A418
  8
D002
 10
78.26449965398919
 20
205.2612324594359
 30
0.0
 11
77.92459926287856
 21
205.4574740417412
 31
0.0
1001
GENIUS_GENODEF_13
1002
{
1000
HIER
1070
     0
1002
}
1002
{
1000
MANEDIT
1070
     0
1002
}
1002
{
1000
NOSEL
1070
     0
1002
}
1002
{
1000
BEHIND
1070
     0
1002
}
1002
{
1000
OTHER
1070
     0
1002
}
1002
{
1000
REACTOR
1002
}
1001
GENIUS_GENOBJ-N-CEN_13
1002
{
1000
OWNER
1000
GEN
1002
}
1001
GENIUS_GENCEN_19
1002
{
1040
3.0
1002
}
  0
LINE
  5
A419
  8
D002
 10
75.33703214403099
 20
207.2978167758678
 30
0.0
 11
74.86379549847297
 21
207.5710400805712
 31
0.0
1001
GENIUS_GENODEF_13
1002
{
1000
HIER
1070
     0
1002
}
1002
{
1000
MANEDIT
1070
     0
1002
}
1002
{
1000
NOSEL
1070
     0
1002
}
1002
{
1000
BEHIND
1070
     0
1002
}
1002
{
1000
OTHER
1070
     0
1002
}
1002
{
1000
REACTOR
1002
}
1001
GENIUS_GENOBJ-N-CEN_13
1002
{
1000
OWNER
1000
GEN
1002
}
1001
GENIUS_GENCEN_19
1002
{
1040
3.0
1002
}
  0
LINE
  5
A41A
  8
D002
 10
76.24943614452795
 20
206.7710400805712
 30
0.0
 11
76.10455347841852
 21
207.3117495516276
 31
0.0
  0
LINE
  5
A41B
  8
D002
 10
78.41449965398905
 20
205.5210400805712
 30
0.0
 11
79.29671547599182
 21
205.7574290976266
 31
0.0
  0
ARC
  5
A41C
  8
D002
 10
76.27530665389153
 20
207.3575027271006
 30
0.0
 40
0.1767766952966168
 50
15.00000000002528
 51
194.9999999999861
  0
LINE
  5
A41D
  8
D002
 10
80.08315300193644
 20
204.2112324594358
 30
0.0
 11
79.60991635637842
 21
204.4844557641392
 31
0.0
1001
GENIUS_GENODEF_13
1002
{
1000
HIER
1070
     0
1002
}
1002
{
1000
MANEDIT
1070
     0
1002
}
1002
{
1000
NOSEL
1070
     0
1002
}
1002
{
1000
BEHIND
1070
     0
1002
}
1002
{
1000
OTHER
1070
     0
1002
}
1002
{
1000
REACTOR
1002
}
1001
GENIUS_GENOBJ-N-CEN_13
1002
{
1000
OWNER
1000
GEN
1002
}
1001
GENIUS_GENCEN_19
1002
{
1040
3.0
1002
}
  0
LINE
  5
A41E
  8
D002
 10
76.53244884642035
 20
206.2612324594359
 30
0.0
 11
75.65023302441759
 21
206.0248434423803
 31
0.0
  0
LINE
  5
A41F
  8
D002
 10
78.41449965398905
 20
205.5210400805712
 30
0.0
 11
78.07459926287842
 21
205.7172816628765
 31
0.0
1001
GENIUS_GENODEF_13
1002
{
1000
HIER
1070
     0
1002
}
1002
{
1000
MANEDIT
1070
     0
1002
}
1002
{
1000
NOSEL
1070
     0
1002
}
1002
{
1000
BEHIND
1070
     0
1002
}
1002
{
1000
OTHER
1070
     0
1002
}
1002
{
1000
REACTOR
1002
}
1001
GENIUS_GENOBJ-N-CEN_13
1002
{
1000
OWNER
1000
GEN
1002
}
1001
GENIUS_GENCEN_19
1002
{
1040
3.0
1002
}
  0
LINE
  5
A420
  8
D002
 10
80.23315300193653
 20
204.4710400805711
 30
0.0
 11
79.75991635637828
 21
204.7442633852745
 31
0.0
1001
GENIUS_GENODEF_13
1002
{
1000
HIER
1070
     0
1002
}
1002
{
1000
MANEDIT
1070
     0
1002
}
1002
{
1000
NOSEL
1070
     0
1002
}
1002
{
1000
BEHIND
1070
     0
1002
}
1002
{
1000
OTHER
1070
     0
1002
}
1002
{
1000
REACTOR
1002
}
1001
GENIUS_GENOBJ-N-CEN_13
1002
{
1000
OWNER
1000
GEN
1002
}
1001
GENIUS_GENCEN_19
1002
{
1040
3.0
1002
}
  0
LINE
  5
A421
  8
D002
 10
75.64321836187887
 20
207.1210400805711
 30
0.0
 11
75.49725259282499
 21
207.6657917468465
 31
0.0
  0
ARC
  5
A422
  8
D002
 10
75.60447984894458
 20
206.1955966178533
 30
0.0
 40
0.1767766952966168
 50
104.9999999999873
 51
284.9999999999873
  0
ARC
  5
A423
  8
D002
 10
74.78879549847292
 20
207.4411362700035
 30
0.0
 40
0.1499999999999773
 50
59.99999999997465
 51
239.9999999999746
  0
LINE
  5
A424
  8
D002
 10
78.84751235588132
 20
205.2710400805712
 30
0.0
 11
79.38822182693784
 21
205.4159227466805
 31
0.0
  0
LINE
  5
A425
  8
D002
 10
76.24943614452795
 20
206.7710400805712
 30
0.0
 11
75.64321836187887
 21
207.1210400805711
 31
0.0
1001
GENIUS_GENODEF_13
1002
{
1000
HIER
1070
     0
1002
}
1002
{
1000
MANEDIT
1070
     0
1002
}
1002
{
1000
NOSEL
1070
     0
1002
}
1002
{
1000
BEHIND
1070
     0
1002
}
1002
{
1000
OTHER
1070
     0
1002
}
1002
{
1000
REACTOR
1002
}
1001
GENIUS_GENOBJ-N-CEN_13
1002
{
1000
OWNER
1000
GEN
1002
}
1001
GENIUS_GENCEN_19
1002
{
1040
3.0
1002
}
  0
ARC
  5
A426
  8
D002
 10
80.15815300193648
 20
204.3411362700035
 30
0.0
 40
0.1499999999999773
 50
239.9999999999746
 51
59.99999999997465
  0
ARC
  5
A427
  8
D002
 10
79.34246865146483
 20
205.5866759221536
 30
0.0
 40
0.1767766952966168
 50
284.9999999999873
 51
104.9999999999873
  0
LINE
  5
A428
  8
D002
 10
78.26449965398919
 20
205.2612324594359
 30
0.0
 11
78.50088867104486
 21
204.3790166374332
 31
0.0
  0
LINE
  5
A429
  8
D002
 10
75.18703214403112
 20
207.0380091547324
 30
0.0
 11
74.71379549847288
 21
207.3112324594358
 31
0.0
1001
GENIUS_GENODEF_13
1002
{
1000
HIER
1070
     0
1002
}
1002
{
1000
MANEDIT
1070
     0
1002
}
1002
{
1000
NOSEL
1070
     0
1002
}
1002
{
1000
BEHIND
1070
     0
1002
}
1002
{
1000
OTHER
1070
     0
1002
}
1002
{
1000
REACTOR
1002
}
1001
GENIUS_GENOBJ-N-CEN_13
1002
{
1000
OWNER
1000
GEN
1002
}
1001
GENIUS_GENCEN_19
1002
{
1040
3.0
1002
}
  0
LINE
  5
A42A
  8
D002
 10
78.69751235588146
 20
205.0112324594359
 30
0.0
 11
78.84239502199088
 21
204.4705229883793
 31
0.0
  0
LINE
  5
A42B
  8
D002
 10
76.09943614452808
 20
206.5112324594359
 30
0.0
 11
75.55872667347157
 21
206.3663497933264
 31
0.0
  0
LINE
  5
A42C
  8
D002
 10
76.68244884642021
 20
206.5210400805712
 30
0.0
 11
76.44605982936477
 21
207.4032559025737
 31
0.0
  0
ARC
  5
A42D
  8
D002
 10
78.67164184651787
 20
204.4247698129063
 30
0.0
 40
0.1767766952966168
 50
195.0000000000253
 51
14.99999999998613
  0
LINE
  5
A42E
  8
D002
 10
76.09943614452808
 20
206.5112324594359
 30
0.0
 11
75.493218361879
 21
206.8612324594358
 31
0.0
1001
GENIUS_GENODEF_13
1002
{
1000
HIER
1070
     0
1002
}
1002
{
1000
MANEDIT
1070
     0
1002
}
1002
{
1000
NOSEL
1070
     0
1002
}
1002
{
1000
BEHIND
1070
     0
1002
}
1002
{
1000
OTHER
1070
     0
1002
}
1002
{
1000
REACTOR
1002
}
1001
GENIUS_GENOBJ-N-CEN_13
1002
{
1000
OWNER
1000
GEN
1002
}
1001
GENIUS_GENCEN_19
1002
{
1040
3.0
1002
}
  0
LINE
  5
A434
  8
D002
 10
76.87234923753098
 20
206.0649908771304
 30
0.0
 11
76.53244884642035
 21
206.2612324594359
 31
0.0
1001
GENIUS_GENODEF_13
1002
{
1000
HIER
1070
     0
1002
}
1002
{
1000
MANEDIT
1070
     0
1002
}
1002
{
1000
NOSEL
1070
     0
1002
}
1002
{
1000
BEHIND
1070
     0
1002
}
1002
{
1000
OTHER
1070
     0
1002
}
1002
{
1000
REACTOR
1002
}
1001
GENIUS_GENOBJ-N-CEN_13
1002
{
1000
OWNER
1000
GEN
1002
}
1001
GENIUS_GENCEN_19
1002
{
1040
3.0
1002
}
  0
LINE
  5
A435
  8
D002
 10
77.02234923753085
 20
205.4574740417411
 30
0.0
 11
76.68244884642021
 21
205.2612324594357
 31
0.0
1001
GENIUS_GENODEF_13
1002
{
1000
HIER
1070
     0
1002
}
1002
{
1000
MANEDIT
1070
     0
1002
}
1002
{
1000
NOSEL
1070
     0
1002
}
1002
{
1000
BEHIND
1070
     0
1002
}
1002
{
1000
OTHER
1070
     0
1002
}
1002
{
1000
REACTOR
1002
}
1001
GENIUS_GENOBJ-N-CEN_13
1002
{
1000
OWNER
1000
GEN
1002
}
1001
GENIUS_GENCEN_19
1002
{
1040
3.0
1002
}
  0
LINE
  5
A436
  8
D002
 10
77.6234742502048
 20
206.4986531053927
 30
0.0
 11
77.6234742502048
 21
206.8911362700035
 31
0.0
1001
GENIUS_GENODEF_13
1002
{
1000
HIER
1070
     0
1002
}
1002
{
1000
MANEDIT
1070
     0
1002
}
1002
{
1000
NOSEL
1070
     0
1002
}
1002
{
1000
BEHIND
1070
     0
1002
}
1002
{
1000
OTHER
1070
     0
1002
}
1002
{
1000
REACTOR
1002
}
1001
GENIUS_GENOBJ-N-CEN_13
1002
{
1000
OWNER
1000
GEN
1002
}
1001
GENIUS_GENCEN_19
1002
{
1040
3.0
1002
}
  0
LINE
  5
A437
  8
D002
 10
76.87234923753098
 20
205.7172816628764
 30
0.0
 11
76.53244884642035
 21
205.5210400805711
 31
0.0
1001
GENIUS_GENODEF_13
1002
{
1000
HIER
1070
     0
1002
}
1002
{
1000
MANEDIT
1070
     0
1002
}
1002
{
1000
NOSEL
1070
     0
1002
}
1002
{
1000
BEHIND
1070
     0
1002
}
1002
{
1000
OTHER
1070
     0
1002
}
1002
{
1000
REACTOR
1002
}
1001
GENIUS_GENOBJ-N-CEN_13
1002
{
1000
OWNER
1000
GEN
1002
}
1001
GENIUS_GENCEN_19
1002
{
1040
3.0
1002
}
  0
LINE
  5
A438
  8
D002
 10
77.02234923753107
 20
206.3247984982657
 30
0.0
 11
76.68244884642021
 21
206.5210400805712
 31
0.0
1001
GENIUS_GENODEF_13
1002
{
1000
HIER
1070
     0
1002
}
1002
{
1000
MANEDIT
1070
     0
1002
}
1002
{
1000
NOSEL
1070
     0
1002
}
1002
{
1000
BEHIND
1070
     0
1002
}
1002
{
1000
OTHER
1070
     0
1002
}
1002
{
1000
REACTOR
1002
}
1001
GENIUS_GENOBJ-N-CEN_13
1002
{
1000
OWNER
1000
GEN
1002
}
1001
GENIUS_GENCEN_19
1002
{
1040
3.0
1002
}
  0
LINE
  5
A439
  8
D002
 10
77.32347425020461
 20
206.4986531053927
 30
0.0
 11
77.32347425020461
 21
206.8911362700035
 31
0.0
1001
GENIUS_GENODEF_13
1002
{
1000
HIER
1070
     0
1002
}
1002
{
1000
MANEDIT
1070
     0
1002
}
1002
{
1000
NOSEL
1070
     0
1002
}
1002
{
1000
BEHIND
1070
     0
1002
}
1002
{
1000
OTHER
1070
     0
1002
}
1002
{
1000
REACTOR
1002
}
1001
GENIUS_GENOBJ-N-CEN_13
1002
{
1000
OWNER
1000
GEN
1002
}
1001
GENIUS_GENCEN_19
1002
{
1040
3.0
1002
}
  0
POINT
  5
A43A
  8
D002
 10
77.4734742502047
 20
205.8911362700035
 30
0.0
  0
LINE
  5
A43C
  8
0
 10
42.75219384681611
 20
200.4403705977999
 30
0.0
 11
41.53975828151795
 21
198.3403705977995
 31
0.0
  0
ARC
  5
A43D
  8
0
 10
41.62636082189627
 20
198.2903705977997
 30
0.0
 40
0.0999999999998077
 50
150.0000000000498
 51
270.0000000000499
  0
LINE
  5
A43E
  8
0
 10
41.62636082189636
 20
198.1903705977999
 30
0.0
 11
44.05123195249269
 21
198.1903705977999
 31
0.0
  0
ARC
  5
A43F
  8
0
 10
44.05123195249277
 20
198.2903705977997
 30
0.0
 40
0.0999999999998075
 50
269.9999999999499
 51
29.9999999999503
  0
LINE
  5
A440
  8
0
 10
44.13783449287109
 20
198.3403705977995
 30
0.0
 11
42.92539892757293
 21
200.4403705977999
 31
0.0
  0
ARC
  5
A441
  8
0
 10
42.83879638719452
 20
200.3903705977999
 30
0.0
 40
0.0999999999999585
 50
29.99999999999998
 51
150.0
  0
LINE
  5
A442
  8
0
 10
42.79549511770063
 20
200.3153705977999
 30
0.0
 11
41.66966209211785
 21
198.365370597811
 31
0.0
  0
ARC
  5
A443
  8
0
 10
41.7129633623008
 20
198.3403705977996
 30
0.0
 40
0.0500000000002611
 50
149.9999999851142
 51
269.9999999998677
  0
LINE
  5
A444
  8
0
 10
41.71296336230068
 20
198.2903705977993
 30
0.0
 11
43.9646294121402
 21
198.2903705977993
 31
0.0
  0
ARC
  5
A445
  8
0
 10
43.96462941214014
 20
198.3403705977993
 30
0.0
 40
0.0500000000000013
 50
270.0000000000688
 51
29.99999998531542
  0
LINE
  5
A446
  8
0
 10
44.00793068233577
 20
198.3653705977882
 30
0.0
 11
42.88209765807903
 21
200.3153705977999
 31
0.0
  0
ARC
  5
A447
  8
0
 10
42.83879638788983
 20
200.2903705977999
 30
0.0
 40
0.0499999999999793
 50
30.00000000000012
 51
149.9999999999999
  0
LINE
  5
A448
  8
D002
 10
77.4734742502047
 20
206.2010027188037
 30
0.0
 11
77.2051220337631
 21
206.0460694944036
 31
0.0
  0
LINE
  5
A449
  8
D002
 10
77.2051220337631
 20
206.0460694944036
 30
0.0
 11
77.2051220337631
 21
205.7362030456032
 31
0.0
  0
LINE
  5
A44A
  8
D002
 10
77.2051220337631
 20
205.7362030456032
 30
0.0
 11
77.4734742502047
 21
205.5812698212031
 31
0.0
  0
LINE
  5
A44B
  8
D002
 10
77.4734742502047
 20
205.5812698212031
 30
0.0
 11
77.7418264666463
 21
205.7362030456032
 31
0.0
  0
LINE
  5
A44C
  8
D002
 10
77.7418264666463
 20
205.7362030456032
 30
0.0
 11
77.7418264666463
 21
206.0460694944036
 31
0.0
  0
LINE
  5
A44D
  8
D002
 10
77.7418264666463
 20
206.0460694944036
 30
0.0
 11
77.4734742502047
 21
206.2010027188037
 31
0.0
  0
LINE
  5
A44E
  8
D002
 10
77.32347425020461
 20
206.4986531053927
 30
0.0
 11
77.02234923753107
 21
206.3247984982657
 31
0.0
  0
LINE
  5
A44F
  8
D002
 10
77.92459926287856
 20
206.3247984982656
 30
0.0
 11
77.6234742502048
 21
206.4986531053927
 31
0.0
  0
LINE
  5
A450
  8
D002
 10
77.02234923753085
 20
205.4574740417411
 30
0.0
 11
77.32347425020461
 21
205.2836194346141
 31
0.0
  0
LINE
  5
A451
  8
D002
 10
77.6234742502048
 20
205.2836194346141
 30
0.0
 11
77.92459926287856
 21
205.4574740417412
 31
0.0
  0
LINE
  5
A452
  8
D002
 10
78.07459926287842
 20
205.7172816628765
 30
0.0
 11
78.07459926287842
 21
206.0649908771303
 31
0.0
  0
LINE
  5
A453
  8
D002
 10
76.87234923753098
 20
206.0649908771304
 30
0.0
 11
76.87234923753098
 21
205.7172816628764
 31
0.0
  0
VIEWPORT
  5
22
 67
     1
  8
0
 10
5.269134197284911
 20
5.545311567251436
 30
0.0
 40
11.13808705479925
 41
12.32365374410561
 68
     1
 69
     1
1001
GENIUS_GENSCREG_15
1000
PF
1040
1.0
1000
DF
1040
1.0
1000
MIN
1011
-0.2999093301147138
1021
-0.6165153048013714
1031
0.0
1021
-0.6165153048013714
1031
0.0
1000
MAX
1011
10.83817772468454
1021
11.70713843930424
1031
0.0
1021
11.70713843930424
1031
0.0
1000
FLAGS
1070
     4
1001
GENIUS_GENODEF_13
1002
{
1000
HIER
1070
     0
1002
}
1002
{
1000
MANEDIT
1070
     0
1002
}
1002
{
1000
NOSEL
1070
     0
1002
}
1002
{
1000
BEHIND
1070
     0
1002
}
1002
{
1000
OTHER
1070
     0
1002
}
1002
{
1000
REACTOR
1002
}
1001
GENIUS_GENOBJ-N-SDF_13
1002
{
1000
OWNER
1000
GEN
1002
}
1001
ACAD
1000
MVIEW
1002
{
1070
    16
1010
0.0
1020
0.0
1030
0.0
1020
0.0
1030
0.0
1010
0.0
1020
0.0
1030
1.0
1020
0.0
1030
1.0
1040
0.0
1040
12.32365374410561
1040
5.269134197284911
1040
5.545311567251436
1040
50.0
1040
0.0
1040
0.0
1070
     0
1070
   100
1070
     0
1070
     1
1070
     0
1070
     0
1070
     0
1070
     0
1040
0.0
1040
0.0
1040
0.0
1040
1.0
1040
1.0
1040
10.0
1040
10.0
1070
     0
1002
{
1002
}
1002
}
  0
ENDSEC
  0
EOF
