  0
SECTION
  2
HEADER
  9
$ACADVER
  1
AC1009
  9
$DWGCODEPAGE
  3
ansi_932
  9
$INSBASE
 10
0.0
 20
0.0
 30
0.0
  9
$EXTMIN
 10
1.5
 20
0.0
 30
0.0
  9
$EXTMAX
 10
279.3333333333333
 20
294.6851311965019
 30
0.0
  9
$LIMMIN
 10
0.0
 20
0.0
  9
$LIMMAX
 10
420.0
 20
420.0
  9
$ORTHOMODE
 70
     0
  9
$REGENMODE
 70
     1
  9
$FILLMODE
 70
     1
  9
$QTEXTMODE
 70
     0
  9
$MIRRTEXT
 70
     0
  9
$DRAGMODE
 70
     2
  9
$LTSCALE
 40
10.0
  9
$OSMODE
 70
   549
  9
$ATTMODE
 70
     1
  9
$TEXTSIZE
 40
1.0
  9
$TRACEWID
 40
1.0
  9
$TEXTSTYLE
  7
STANDARD
  9
$CLAYER
  8
0
  9
$CELTYPE
  6
BYLAYER
  9
$CECOLOR
 62
   256
  9
$DIMSCALE
 40
1.0
  9
$DIMASZ
 40
2.5
  9
$DIMEXO
 40
1.0
  9
$DIMDLI
 40
7.0
  9
$DIMRND
 40
0.0
  9
$DIMDLE
 40
0.0
  9
$DIMEXE
 40
1.0
  9
$DIMTP
 40
0.1
  9
$DIMTM
 40
0.1
  9
$DIMTXT
 40
3.0
  9
$DIMCEN
 40
0.0
  9
$DIMTSZ
 40
0.0
  9
$DIMTOL
 70
     0
  9
$DIMLIM
 70
     0
  9
$DIMTIH
 70
     0
  9
$DIMTOH
 70
     0
  9
$DIMSE1
 70
     0
  9
$DIMSE2
 70
     0
  9
$DIMTAD
 70
     3
  9
$DIMZIN
 70
     8
  9
$DIMBLK
  1
OPEN
  9
$DIMASO
 70
     1
  9
$DIMSHO
 70
     1
  9
$DIMPOST
  1

  9
$DIMAPOST
  1
"
  9
$DIMALT
 70
     0
  9
$DIMALTD
 70
     2
  9
$DIMALTF
 40
0.0393701
  9
$DIMLFAC
 40
1.0
  9
$DIMTOFL
 70
     1
  9
$DIMTVP
 40
0.0
  9
$DIMTIX
 70
     0
  9
$DIMSOXD
 70
     0
  9
$DIMSAH
 70
     0
  9
$DIMBLK1
  1

  9
$DIMBLK2
  1

  9
$DIMSTYLE
  2
AM_JIS
  9
$DIMCLRD
 70
   256
  9
$DIMCLRE
 70
   256
  9
$DIMCLRT
 70
     2
  9
$DIMTFAC
 40
0.71
  9
$DIMGAP
 40
1.0
  9
$LUNITS
 70
     2
  9
$LUPREC
 70
     2
  9
$SKETCHINC
 40
1.0
  9
$FILLETRAD
 40
2.5
  9
$AUNITS
 70
     0
  9
$AUPREC
 70
     0
  9
$MENU
  1
.
  9
$ELEVATION
 40
0.0
  9
$PELEVATION
 40
0.0
  9
$THICKNESS
 40
0.0
  9
$LIMCHECK
 70
     0
  9
$CHAMFERA
 40
2.5
  9
$CHAMFERB
 40
2.5
  9
$SKPOLY
 70
     1
  9
$TDCREATE
 40
2457226.578216493
  9
$TDUPDATE
 40
2460346.650724954
  9
$TDINDWG
 40
0.0464581481
  9
$TDUSRTIMER
 40
0.0464545602
  9
$USRTIMER
 70
     1
  9
$ANGBASE
 50
0.0
  9
$ANGDIR
 70
     0
  9
$PDMODE
 70
     0
  9
$PDSIZE
 40
0.0
  9
$PLINEWID
 40
0.0
  9
$COORDS
 70
     0
  9
$SPLFRAME
 70
     0
  9
$SPLINETYPE
 70
     6
  9
$SPLINESEGS
 70
     8
  9
$ATTDIA
 70
     1
  9
$ATTREQ
 70
     1
  9
$HANDLING
 70
     1
  9
$HANDSEED
  5
C3BD
  9
$SURFTAB1
 70
     6
  9
$SURFTAB2
 70
     6
  9
$SURFTYPE
 70
     6
  9
$SURFU
 70
     6
  9
$SURFV
 70
     6
  9
$UCSNAME
  2

  9
$UCSORG
 10
0.0
 20
0.0
 30
0.0
  9
$UCSXDIR
 10
1.0
 20
0.0
 30
0.0
  9
$UCSYDIR
 10
0.0
 20
1.0
 30
0.0
  9
$PUCSNAME
  2

  9
$PUCSORG
 10
0.0
 20
0.0
 30
0.0
  9
$PUCSXDIR
 10
1.0
 20
0.0
 30
0.0
  9
$PUCSYDIR
 10
0.0
 20
1.0
 30
0.0
  9
$USERI1
 70
     0
  9
$USERI2
 70
     0
  9
$USERI3
 70
     0
  9
$USERI4
 70
     0
  9
$USERI5
 70
     0
  9
$USERR1
 40
0.0
  9
$USERR2
 40
0.0
  9
$USERR3
 40
0.0
  9
$USERR4
 40
0.0
  9
$USERR5
 40
0.0
  9
$WORLDVIEW
 70
     1
  9
$SHADEDGE
 70
     3
  9
$SHADEDIF
 70
    70
  9
$TILEMODE
 70
     1
  9
$MAXACTVP
 70
    48
  9
$PLIMCHECK
 70
     0
  9
$PEXTMIN
 10
1.000000000000000E+20
 20
1.000000000000000E+20
 30
1.000000000000000E+20
  9
$PEXTMAX
 10
-1.000000000000000E+20
 20
-1.000000000000000E+20
 30
-1.000000000000000E+20
  9
$PLIMMIN
 10
-0.2500002402958907
 20
-0.2499999962453767
  9
$PLIMMAX
 10
10.74999951940822
 20
8.249999763458732
  9
$UNITMODE
 70
     0
  9
$VISRETAIN
 70
     1
  9
$PLINEGEN
 70
     0
  9
$PSLTSCALE
 70
     1
  0
ENDSEC
  0
SECTION
  2
TABLES
  0
TABLE
  2
VPORT
 70
     1
  0
VPORT
  2
*ACTIVE
 70
     0
 10
0.0
 20
0.0
 11
1.0
 21
1.0
 12
209.9999999999999
 22
210.0
 13
0.0
 23
0.0
 14
2.5
 24
2.5
 15
10.0
 25
10.0
 16
0.0
 26
0.0
 36
1.0
 17
0.0
 27
0.0
 37
0.0
 40
423.2589718719689
 41
2.05293551491819
 42
50.0
 43
0.0
 44
0.0
 50
0.0
 51
0.0
 71
     0
 72
   100
 73
     1
 74
     3
 75
     0
 76
     0
 77
     0
 78
     0
  0
ENDTAB
  0
TABLE
  2
LTYPE
 70
    22
  0
LTYPE
  2
CONTINUOUS
 70
     0
  3
Solid line
 72
    65
 73
     0
 40
0.0
  0
LTYPE
  2
HIDDEN
 70
     0
  3
__ __ __ __ __ __ __ __ __ __ __ __ __ __ __ __
 72
    65
 73
     2
 40
0.375
 49
0.25
 49
-0.125
  0
LTYPE
  2
PHANTOM2
 70
     0
  3
___ _ _ ___ _ _ ___ _ _ ___ _ _ ___ _ _ ___ _ _
 72
    65
 73
     6
 40
1.25
 49
0.625
 49
-0.125
 49
0.125
 49
-0.125
 49
0.125
 49
-0.125
  0
LTYPE
  2
CENTER
 70
     0
  3
____ _ ____ _ ____ _ ____ _ ____ _ ____ _ ____ 
 72
    65
 73
     4
 40
2.0
 49
1.25
 49
-0.25
 49
0.25
 49
-0.25
  0
LTYPE
  2
ACJISTGB
 70
     0
  3
__ . . __ . .
 72
    65
 73
     6
 40
9.0
 49
4.0
 49
-1.0
 49
1.0
 49
-1.0
 49
1.0
 49
-1.0
  0
LTYPE
  2
ACJISTGL
 70
     0
  3
_ _ _ _ _
 72
    65
 73
     2
 40
3.0
 49
2.0
 49
-1.0
  0
LTYPE
  2
ACISOWELD
 70
     0
  3
_ _ _ _ _
 72
    65
 73
     2
 40
2.0
 49
2.0
 49
-1.0
  0
LTYPE
  2
ACISOTGB
 70
     0
  3
__ . . __ . .
 72
    65
 73
     6
 40
9.0
 49
4.0
 49
-1.0
 49
1.0
 49
-1.0
 49
1.0
 49
-1.0
  0
LTYPE
  2
ACISOTGL
 70
     0
  3
_ _ _ _ _
 72
    65
 73
     2
 40
3.0
 49
2.0
 49
-1.0
  0
LTYPE
  2
AM_ISO02W050
 70
     0
  3
__ __ __ __ __ __ __ __ __ __ __ __ __ __ __
 72
    65
 73
     2
 40
7.5
 49
6.0
 49
-1.5
  0
LTYPE
  2
AM_ISO08W050
 70
     0
  3
____ . ____ . ____ . ____ . ____ . ____ . ____
 72
    65
 73
     4
 40
18.0
 49
12.0
 49
-1.5
 49
3.0
 49
-1.5
  0
LTYPE
  2
AM_ISO09W050
 70
     0
  3
_____ . . _____ . . _____ . . ____ .. ____
 72
    65
 73
     6
 40
22.5
 49
12.0
 49
-1.5
 49
3.0
 49
-1.5
 49
3.0
 49
-1.5
  0
LTYPE
  2
AM_ISO02W050X2
 70
     0
  3
 _ _ _ _ _ _ _ _ _ _ _ _
 72
    65
 73
     2
 40
3.75
 49
3.0
 49
-0.75
  0
LTYPE
  2
AM_ISO08W050X2
 70
     0
  3
__ . __ . __ . __ . __ . __
 72
    65
 73
     4
 40
9.0
 49
6.0
 49
-0.75
 49
1.5
 49
-0.75
  0
LTYPE
  2
AMZIGZAG
 70
     0
  3
/\/-/\/-/\/-/\/-/\/-/\/
 72
    65
 73
     2
 40
11.0001
 49
0.0001
 49
-11.0
  0
LTYPE
  2
AMCONSTR
 70
     0
  3
_______________________
 72
    65
 73
     2
 40
9999.0
 49
9999.0
 49
0.0
  0
LTYPE
  2
CENTER2
 70
     0
  3
Center (.5x) ___ _ ___ _ ___ _ ___ _ ___ _ ___
 72
    65
 73
     4
 40
1.125
 49
0.75
 49
-0.125
 49
0.125
 49
-0.125
  0
LTYPE
  2
HIDDEN2
 70
     0
  3
Hidden (.5x) _ _ _ _ _ _ _ _ _ _ _ _ _ _ _ _ _
 72
    65
 73
     2
 40
0.1875
 49
0.125
 49
-0.0625
  0
LTYPE
  2
ACJISWELD
 70
     0
  3
_ _ _ _ _
 72
    65
 73
     2
 40
2.0
 49
2.0
 49
-1.0
  0
LTYPE
  2
AMZIGZAG2
 70
     0
  3
/\/-/\/-/\/-/\/-/\/-/\/
 72
    65
 73
     2
 40
0.4401
 49
0.0001
 49
-0.44
  0
LTYPE
  2
ACANSTGB
 70
     0
  3
__ . . __ . .
 72
    65
 73
     6
 40
0.35433070866
 49
0.15748031496
 49
-0.03937007874
 49
0.03937007874
 49
-0.03937007874
 49
0.03937007874
 49
-0.03937007874
  0
LTYPE
  2
ACANSTGL
 70
     0
  3
_ _ _ _ _
 72
    65
 73
     2
 40
0.11811023622
 49
0.07874015748
 49
-0.03937007874
  0
ENDTAB
  0
TABLE
  2
LAYER
 70
     9
  0
LAYER
  2
0
 70
     0
 62
     7
  6
CONTINUOUS
  0
LAYER
  2
7
 70
     0
 62
     4
  6
CENTER2
  0
LAYER
  2
10
 70
     0
 62
     2
  6
CONTINUOUS
  0
LAYER
  2
DEFPOINTS
 70
     0
 62
     7
  6
CONTINUOUS
  0
LAYER
  2
AM_7
 70
     0
 62
     4
  6
CENTER2
  0
LAYER
  2
AM_0
 70
     0
 62
     7
  6
CONTINUOUS
  0
LAYER
  2
D002
 70
     0
 62
   152
  6
CONTINUOUS
  0
ENDTAB
  0
TABLE
  2
STYLE
 70
     8
  0
STYLE
  2
STANDARD
 70
     0
 40
0.0
 41
1.0
 50
0.0
 71
     0
 42
1.0
  3
ISOCP.SHX
  4
EXTFONT.SHX
  0
STYLE
  2
ACJISTS
 70
     0
 40
1.0
 41
1.0
 50
0.0
 71
     0
 42
3.5
  3
isocp.shx
  4
extfont.shx
  0
STYLE
  2
ACJISGDT
 70
     0
 40
0.0
 41
1.0
 50
0.0
 71
     0
 42
3.5
  3
amgdt.shx
  4
extfont.shx
  0
STYLE
  2
ACISOTS
 70
     0
 40
1.0
 41
1.0
 50
0.0
 71
     0
 42
1.0
  3
isocp.shx
  4
extfont.shx
  0
STYLE
  2
ACISOGDT
 70
     0
 40
0.0
 41
1.0
 50
0.0
 71
     0
 42
3.5
  3
amgdt.shx
  4
extfont.shx
  0
STYLE
  2

 70
     1
 40
0.0
 41
1.0
 50
0.0
 71
     0
 42
3.5
  3
ltypeshp.shx
  4

  0
STYLE
  2

 70
     1
 40
0.0
 41
1.0
 50
0.0
 71
     0
 42
4.0
  3
genltshp.shx
  4

  0
STYLE
  2
ACANSGDT
 70
     0
 40
0.0
 41
1.0
 50
0.0
 71
     0
 42
4.0
  3
amgdt.shx
  4

  0
ENDTAB
  0
TABLE
  2
VIEW
 70
     3
  0
VIEW
  2
AMDTVIEW1
 70
     0
 40
329.0721649484536
 10
210.0
 20
164.5360824742268
 41
420.0
 11
0.0
 21
0.0
 31
1.0
 12
0.0
 22
0.0
 32
0.0
 42
50.0
 43
0.0
 44
0.0
 50
0.0
 71
     0
  0
VIEW
  2
AMDTVIEW2
 70
     0
 40
329.0721649484536
 10
210.0
 20
164.5360824742268
 41
420.0
 11
0.0
 21
0.0
 31
1.0
 12
0.0
 22
0.0
 32
0.0
 42
50.0
 43
0.0
 44
0.0
 50
0.0
 71
     0
  0
VIEW
  2
AMDTVIEW3
 70
     0
 40
329.0721649484536
 10
210.0
 20
164.5360824742268
 41
420.0
 11
0.0
 21
0.0
 31
1.0
 12
0.0
 22
0.0
 32
0.0
 42
50.0
 43
0.0
 44
0.0
 50
0.0
 71
     0
  0
ENDTAB
  0
TABLE
  2
UCS
 70
     0
  0
ENDTAB
  0
TABLE
  2
APPID
 70
    66
  0
APPID
  2
ACAD
 70
     0
  0
APPID
  2
AD_DRAW
 70
     0
  0
APPID
  2
DESIGNERASSEMBLIES
 70
     0
  0
APPID
  2
MCAD_NO_VIS
 70
     0
  0
APPID
  2
ASURF_PCURVE_APPNAME
 70
     0
  0
APPID
  2
ACAD_TEMP_GRAPHIC
 70
     0
  0
APPID
  2
ACATTRIBSERVICES
 70
     0
  0
APPID
  2
ACADM_DIM_EDIT
 70
     0
  0
APPID
  2
GENIUS_GENDIM_13
 70
     0
  0
APPID
  2
GENIUS_GENDTOL_13
 70
     0
  0
APPID
  2
GENIUS_GE3DTOL_13
 70
     0
  0
APPID
  2
AMG_3D2D_5_0
 70
     0
  0
APPID
  2
AMDT_DM_ADJ
 70
     0
  0
APPID
  2
ACAD_PSEXT
 70
     0
  0
APPID
  2
ACAD_DSTYLE_DIMTEXT_FILL
 70
     0
  0
APPID
  2
ACAECLAYERSTANDARD
 70
     0
  0
APPID
  2
GENIUS_GENREC_14
 70
     0
  0
APPID
  2
GENIUS_GENODEF_13
 70
     0
  0
APPID
  2
GENIUS_GENOBJ-N-REC_13
 70
     0
  0
APPID
  2
DCO15
 70
     0
  0
APPID
  2
ACAD_DSTYLE_DIMJAG
 70
     0
  0
APPID
  2
ACAD_DSTYLE_DIMTALN
 70
     0
  0
APPID
  2
ACAD_MLEADERVER
 70
     0
  0
APPID
  2
GENIUS_GENSCREG_15
 70
     0
  0
APPID
  2
GENIUS_GENOBJ-N-SDF_13
 70
     0
  0
APPID
  2
ACAD_NAV_VCDISPLAY
 70
     0
  0
APPID
  2
ACAD_EXEMPT_FROM_CAD_STAND
 70
     0
  0
APPID
  2
ACCMTRANSPARENCY
 70
     0
  0
APPID
  2
GENIUS_GENOBJ-N-FIL_13
 70
     0
  0
APPID
  2
ACAD_DSTYLE_DIMINSPECT
 70
     0
  0
APPID
  2
GENIUS_GENOBJ-N-CEN_13
 70
     0
  0
APPID
  2
GENIUS_GENCEN_19
 70
     0
  0
APPID
  2
ACAD_DSTYLE_DIMBREAK
 70
     0
  0
APPID
  2
PLOTTRANSPARENCY
 70
     0
  0
APPID
  2
GENIUS_GENOLIS_13
 70
     0
  0
APPID
  2
GENIUS_GENOENT_13
 70
     0
  0
APPID
  2
GENIUS_GENOBJ-N-CRS_13
 70
     0
  0
APPID
  2
GENIUS_GENOREF_13
 70
     0
  0
APPID
  2
HC_SUPERPART
 70
     0
  0
APPID
  2
HC_SP4BLOCK
 70
     0
  0
APPID
  2
HC_XDATA_SPRING
 70
     0
  0
APPID
  2
HCCAD_FRAME
 70
     0
  0
APPID
  2
GENIUS_GENOBJ-N-TIT_13
 70
     0
  0
APPID
  2
GENIUS_GENOBJ-N-ZOO_13
 70
     0
  0
APPID
  2
GENIUS_GENTITLE_13
 70
     0
  0
APPID
  2
GENIUS_GENSYMENT_13
 70
     0
  0
APPID
  2
GENIUS_GENSCSYM_13
 70
     0
  0
APPID
  2
GENIUS_GENOBJ-N-REV_13
 70
     0
  0
APPID
  2
GENIUS_GENOBJ-N-RSSYM_13
 70
     0
  0
APPID
  2
GENIUS_GENREV_15
 70
     0
  0
APPID
  2
HRA
 70
     0
  0
APPID
  2
HTIT
 70
     0
  0
APPID
  2
GENIUS_GENZOO_17
 70
     0
  0
APPID
  2
GENIUS_GENCRS_20
 70
     0
  0
APPID
  2
GENIUS_GENOBJ-N-CRC_13
 70
     0
  0
APPID
  2
GENIUS_GENCRC_14
 70
     0
  0
APPID
  2
GENIUS_GENFIL_13
 70
     0
  0
APPID
  2
GENIUS_GENOBJ-N-CHA_13
 70
     0
  0
APPID
  2
GENIUS_GENHATCH_13
 70
     0
  0
APPID
  2
GENIUS_GENOBJ-N-HTC_13
 70
     0
  0
APPID
  2
GENIUS_GENOBJ-N-DIM_13
 70
     0
  0
APPID
  2
GENIUS_GENOBJ-N-DIMLI_13
 70
     0
  0
APPID
  2
GENIUS_GENOBJ-N-FITL_13
 70
     0
  0
APPID
  2
GENIUS_GENFITL_13
 70
     0
  0
APPID
  2
GENLAYCOLOR
 70
     0
  0
APPID
  2
ACADANNOTATIVE
 70
     0
  0
ENDTAB
  0
TABLE
  2
DIMSTYLE
 70
    23
  0
DIMSTYLE
  2
STANDARD
 70
     0
  3

  4

  5

  6

  7

 40
1.0
 41
2.5
 42
0.625
 43
3.75
 44
1.25
 45
0.0
 46
0.0
 47
0.0
 48
0.0
140
2.5
141
2.5
142
0.0
143
0.0394
144
1.0
145
0.0
146
1.0
147
0.625
 71
     0
 72
     0
 73
     0
 74
     0
 75
     0
 76
     0
 77
     1
 78
     8
170
     0
171
     4
172
     1
173
     0
174
     0
175
     0
176
     0
177
     0
178
     0
  0
DIMSTYLE
  2
AM_JIS
 70
     0
  3

  4
"
  5
OPEN
  6

  7

 40
1.0
 41
2.5
 42
1.0
 43
7.0
 44
1.0
 45
0.0
 46
0.0
 47
0.1
 48
0.1
140
3.0
141
0.0
142
0.0
143
0.0393701
144
1.0
145
0.0
146
0.71
147
1.0
 71
     0
 72
     0
 73
     0
 74
     0
 75
     0
 76
     0
 77
     3
 78
     8
170
     0
171
     2
172
     1
173
     0
174
     0
175
     0
176
   256
177
   256
178
     2
  0
DIMSTYLE
  2
AM_JIS$3
 70
     0
  3

  4
"
  5
OPEN
  6

  7

 40
1.0
 41
2.5
 42
1.0
 43
10.0
 44
1.0
 45
0.0
 46
0.0
 47
0.1
 48
0.1
140
3.0
141
0.0
142
0.0
143
0.0393701
144
1.0
145
0.0
146
0.71
147
1.0
 71
     0
 72
     0
 73
     0
 74
     0
 75
     0
 76
     0
 77
     3
 78
     8
170
     0
171
     2
172
     1
173
     0
174
     0
175
     0
176
   256
177
   256
178
     2
  0
DIMSTYLE
  2
AM_JIS$4
 70
     0
  3

  4
"
  5

  6
OPEN30
  7
OPEN
 40
1.0
 41
2.5
 42
1.0
 43
10.0
 44
1.0
 45
0.0
 46
0.0
 47
0.1
 48
0.1
140
3.0
141
0.0
142
0.0
143
0.0393701
144
1.0
145
0.0
146
0.71
147
1.0
 71
     0
 72
     0
 73
     0
 74
     0
 75
     0
 76
     0
 77
     3
 78
     8
170
     0
171
     2
172
     1
173
     1
174
     0
175
     0
176
   256
177
   256
178
     2
  0
DIMSTYLE
  2
AM_JIS$6
 70
     0
  3

  4
"
  5
OPEN30
  6
OPEN30
  7
OPEN30
 40
1.0
 41
2.5
 42
1.0
 43
10.0
 44
1.0
 45
0.0
 46
0.0
 47
0.1
 48
0.1
140
3.5
141
0.0
142
0.0
143
0.0393701
144
1.0
145
0.0
146
0.71
147
1.5
 71
     0
 72
     0
 73
     0
 74
     0
 75
     0
 76
     0
 77
     0
 78
     8
170
     0
171
     2
172
     1
173
     0
174
     0
175
     0
176
   256
177
   256
178
     2
  0
DIMSTYLE
  2
AM_JIS$7
 70
     0
  3

  4
"
  5
OPEN30
  6

  7

 40
1.0
 41
2.5
 42
1.0
 43
10.0
 44
1.0
 45
0.0
 46
0.0
 47
0.1
 48
0.1
140
3.0
141
0.0
142
0.0
143
0.0393701
144
1.0
145
0.0
146
0.71
147
1.0
 71
     0
 72
     0
 73
     0
 74
     0
 75
     0
 76
     0
 77
     3
 78
     8
170
     0
171
     2
172
     1
173
     0
174
     0
175
     0
176
   256
177
   256
178
     2
  0
DIMSTYLE
  2
AM_JIS$SF
 70
     0
  3

  4
"
  5
OPEN
  6

  7

 40
1.0
 41
2.5
 42
1.0
 43
7.0
 44
1.0
 45
0.0
 46
0.0
 47
0.1
 48
0.1
140
3.5
141
0.0
142
0.0
143
0.0393701
144
1.0
145
0.0
146
0.71
147
1.5
 71
     0
 72
     0
 73
     0
 74
     0
 75
     1
 76
     1
 77
     3
 78
     8
170
     0
171
     2
172
     1
173
     0
174
     0
175
     0
176
   256
177
   256
178
     2
  0
DIMSTYLE
  2
AM_JIS$SH
 70
     0
  3

  4
"
  5

  6
GENAXEH
  7
OPEN
 40
1.0
 41
2.5
 42
1.0
 43
7.0
 44
1.0
 45
0.0
 46
0.0
 47
0.1
 48
0.1
140
3.5
141
0.0
142
0.0
143
0.0393701
144
2.0
145
0.0
146
0.71
147
1.5
 71
     0
 72
     0
 73
     0
 74
     0
 75
     1
 76
     1
 77
     3
 78
     8
170
     0
171
     2
172
     1
173
     1
174
     0
175
     0
176
   256
177
   256
178
     2
  0
DIMSTYLE
  2
AM_ISO
 70
     0
  3

  4
"
  5

  6

  7

 40
1.0
 41
2.5
 42
1.0
 43
10.0
 44
1.0
 45
0.0
 46
0.0
 47
0.1
 48
0.1
140
3.5
141
0.0
142
0.0
143
0.0393701
144
1.0
145
0.0
146
0.71
147
1.5
 71
     0
 72
     0
 73
     0
 74
     0
 75
     0
 76
     0
 77
     1
 78
     8
170
     0
171
     2
172
     1
173
     0
174
     0
175
     0
176
   256
177
   256
178
     2
  0
DIMSTYLE
  2
AM_ISO$3
 70
     0
  3

  4
"
  5

  6

  7

 40
1.0
 41
2.5
 42
1.0
 43
10.0
 44
1.0
 45
0.0
 46
0.0
 47
0.1
 48
0.1
140
3.5
141
0.0
142
0.0
143
0.0393701
144
1.0
145
0.0
146
0.71
147
1.5
 71
     0
 72
     0
 73
     0
 74
     1
 75
     0
 76
     0
 77
     1
 78
     8
170
     0
171
     2
172
     0
173
     0
174
     0
175
     0
176
   256
177
   256
178
     2
  0
DIMSTYLE
  2
AM_ISO$4
 70
     0
  3

  4
"
  5

  6

  7

 40
1.0
 41
2.5
 42
1.0
 43
10.0
 44
1.0
 45
0.0
 46
0.0
 47
0.1
 48
0.1
140
3.5
141
0.0
142
0.0
143
0.0393701
144
1.0
145
0.0
146
0.71
147
1.5
 71
     0
 72
     0
 73
     0
 74
     1
 75
     0
 76
     0
 77
     1
 78
     8
170
     0
171
     2
172
     0
173
     0
174
     0
175
     0
176
   256
177
   256
178
     2
  0
DIMSTYLE
  2
AM_ISO$6
 70
     0
  3

  4
"
  5

  6

  7

 40
1.0
 41
2.5
 42
1.0
 43
10.0
 44
1.0
 45
0.0
 46
0.0
 47
0.1
 48
0.1
140
3.5
141
0.0
142
0.0
143
0.0393701
144
1.0
145
0.0
146
0.71
147
1.5
 71
     0
 72
     0
 73
     0
 74
     0
 75
     0
 76
     0
 77
     0
 78
     8
170
     0
171
     2
172
     1
173
     0
174
     0
175
     0
176
   256
177
   256
178
     2
  0
DIMSTYLE
  2
AM_ISO$7
 70
     0
  3

  4
"
  5

  6

  7

 40
1.0
 41
2.5
 42
1.0
 43
10.0
 44
1.0
 45
0.0
 46
0.0
 47
0.1
 48
0.1
140
5.0
141
0.0
142
0.0
143
0.0393701
144
1.0
145
0.0
146
0.71
147
1.5
 71
     0
 72
     0
 73
     0
 74
     0
 75
     0
 76
     0
 77
     1
 78
     8
170
     0
171
     2
172
     1
173
     0
174
     0
175
     0
176
   256
177
   256
178
     2
  0
DIMSTYLE
  2
AM_ISO$SF
 70
     0
  3

  4
"
  5

  6

  7

 40
1.0
 41
2.5
 42
1.0
 43
10.0
 44
1.0
 45
0.0
 46
0.0
 47
0.1
 48
0.1
140
3.5
141
0.0
142
0.0
143
0.0393701
144
1.0
145
0.0
146
0.71
147
1.5
 71
     0
 72
     0
 73
     0
 74
     0
 75
     1
 76
     1
 77
     1
 78
     8
170
     0
171
     2
172
     1
173
     0
174
     0
175
     0
176
   256
177
   256
178
     2
  0
DIMSTYLE
  2
AM_ISO$SH
 70
     0
  3

  4
"
  5

  6
GENAXEH
  7

 40
1.0
 41
2.5
 42
1.0
 43
10.0
 44
1.0
 45
0.0
 46
0.0
 47
0.1
 48
0.1
140
3.5
141
0.0
142
0.0
143
0.0393701
144
2.0
145
0.0
146
0.71
147
1.5
 71
     0
 72
     0
 73
     0
 74
     0
 75
     1
 76
     1
 77
     1
 78
     8
170
     0
171
     2
172
     1
173
     1
174
     0
175
     0
176
   256
177
   256
178
     2
  0
DIMSTYLE
  2
AM_JIS$2
 70
     0
  3

  4
"
  5
OPEN
  6

  7

 40
1.0
 41
2.5
 42
1.0
 43
7.0
 44
1.0
 45
0.0
 46
0.0
 47
0.1
 48
0.1
140
3.0
141
0.0
142
0.0
143
0.0393701
144
1.0
145
0.0
146
0.71
147
1.0
 71
     0
 72
     0
 73
     0
 74
     0
 75
     0
 76
     0
 77
     3
 78
     8
170
     0
171
     2
172
     1
173
     0
174
     0
175
     0
176
   256
177
   256
178
     2
  0
DIMSTYLE
  2
AM_JIS$0
 70
     0
  3

  4
"
  5
OPEN
  6

  7

 40
1.0
 41
2.5
 42
1.0
 43
7.0
 44
1.0
 45
0.0
 46
0.0
 47
0.1
 48
0.1
140
3.0
141
0.0
142
0.0
143
0.0393701
144
1.0
145
0.0
146
0.71
147
1.0
 71
     0
 72
     0
 73
     0
 74
     0
 75
     0
 76
     0
 77
     3
 78
     8
170
     0
171
     2
172
     1
173
     0
174
     0
175
     0
176
   256
177
   256
178
     2
  0
DIMSTYLE
  2
AM_ANSI
 70
     0
  3

  4
mm
  5

  6

  7

 40
1.0
 41
0.12
 42
0.05
 43
0.5
 44
0.1
 45
0.0
 46
0.0
 47
0.1
 48
0.1
140
0.12
141
0.0
142
0.0
143
25.4
144
1.0
145
0.0
146
0.71
147
0.06
 71
     0
 72
     0
 73
     1
 74
     1
 75
     0
 76
     0
 77
     0
 78
     7
170
     0
171
     2
172
     0
173
     0
174
     0
175
     0
176
   256
177
   256
178
     2
  0
DIMSTYLE
  2
AM_ANSI$3
 70
     0
  3

  4
mm
  5

  6

  7

 40
1.0
 41
0.12
 42
0.05
 43
0.5
 44
0.1
 45
0.0
 46
0.0
 47
0.1
 48
0.1
140
0.12
141
0.0
142
0.0
143
25.4
144
1.0
145
0.0
146
0.71
147
0.06
 71
     0
 72
     0
 73
     1
 74
     1
 75
     0
 76
     0
 77
     0
 78
     7
170
     0
171
     2
172
     0
173
     0
174
     0
175
     0
176
   256
177
   256
178
     2
  0
DIMSTYLE
  2
AM_ANSI$4
 70
     0
  3

  4
mm
  5

  6

  7

 40
1.0
 41
0.12
 42
0.05
 43
0.5
 44
0.1
 45
0.0
 46
0.0
 47
0.1
 48
0.1
140
0.12
141
0.0
142
0.0
143
25.4
144
1.0
145
0.0
146
0.71
147
0.06
 71
     0
 72
     0
 73
     1
 74
     1
 75
     0
 76
     0
 77
     0
 78
     7
170
     0
171
     2
172
     0
173
     0
174
     0
175
     0
176
   256
177
   256
178
     2
  0
DIMSTYLE
  2
AM_ANSI$7
 70
     0
  3

  4
mm
  5

  6

  7

 40
1.0
 41
0.12
 42
0.05
 43
0.5
 44
0.1
 45
0.0
 46
0.0
 47
0.1
 48
0.1
140
0.12
141
0.0
142
0.0
143
25.4
144
1.0
145
0.0
146
0.71
147
0.06
 71
     0
 72
     0
 73
     1
 74
     1
 75
     0
 76
     0
 77
     0
 78
     7
170
     0
171
     2
172
     0
173
     0
174
     0
175
     0
176
   256
177
   256
178
     2
  0
DIMSTYLE
  2
AM_ANSI$SF
 70
     0
  3

  4
mm
  5

  6

  7

 40
1.0
 41
0.12
 42
0.05
 43
0.5
 44
0.1
 45
0.0
 46
0.0
 47
0.1
 48
0.1
140
0.12
141
0.0
142
0.0
143
25.4
144
1.0
145
0.0
146
0.71
147
0.06
 71
     0
 72
     0
 73
     1
 74
     1
 75
     1
 76
     1
 77
     0
 78
     7
170
     0
171
     2
172
     0
173
     0
174
     0
175
     0
176
   256
177
   256
178
     2
  0
DIMSTYLE
  2
AM_ANSI$SH
 70
     0
  3

  4
mm
  5

  6
GENAXEH
  7

 40
1.0
 41
0.12
 42
0.05
 43
0.5
 44
0.1
 45
0.0
 46
0.0
 47
0.1
 48
0.1
140
0.12
141
0.0
142
0.0
143
25.4
144
1.0
145
0.0
146
0.71
147
0.06
 71
     0
 72
     0
 73
     1
 74
     1
 75
     1
 76
     1
 77
     0
 78
     7
170
     0
171
     2
172
     0
173
     1
174
     0
175
     0
176
   256
177
   256
178
     2
  0
ENDTAB
  0
ENDSEC
  0
SECTION
  2
BLOCKS
  0
BLOCK
  8
0
  2
$MODEL_SPACE
 70
     0
 10
0.0
 20
0.0
 30
0.0
  3
$MODEL_SPACE
  1

  0
ENDBLK
  5
1C
  8
0
  0
BLOCK
 67
     1
  8
0
  2
$PAPER_SPACE
 70
     0
 10
0.0
 20
0.0
 30
0.0
  3
$PAPER_SPACE
  1

  0
ENDBLK
  5
19
 67
     1
  8
0
  0
BLOCK
  8
0
  2
_OPEN30
 70
     0
 10
0.0
 20
0.0
 30
0.0
  3
_OPEN30
  1

  0
LINE
  5
2EF
  8
0
  6
BYBLOCK
 62
     0
 10
-1.0
 20
0.26794919
 30
0.0
 11
0.0
 21
0.0
 31
0.0
  0
LINE
  5
2F0
  8
0
  6
BYBLOCK
 62
     0
 10
0.0
 20
0.0
 30
0.0
 11
-1.0
 21
-0.26794919
 31
0.0
  0
LINE
  5
2F1
  8
0
  6
BYBLOCK
 62
     0
 10
0.0
 20
0.0
 30
0.0
 11
-1.0
 21
0.0
 31
0.0
  0
ENDBLK
  5
2F3
  8
0
  0
BLOCK
  8
0
  2
GENAXEH
 70
     0
 10
0.0
 20
0.0
 30
0.0
  3
GENAXEH
  1

  0
LINE
  5
2F5
  8
0
 10
-1.0
 20
0.0
 30
0.0
 11
1.0
 21
0.0
 31
0.0
  0
ENDBLK
  5
2F7
  8
0
  0
BLOCK
  8
0
  2
_OPEN
 70
     0
 10
0.0
 20
0.0
 30
0.0
  3
_OPEN
  1

  0
LINE
  5
597
  8
0
  6
BYBLOCK
 62
     0
 10
-1.0
 20
0.1666666666666667
 30
0.0
 11
0.0
 21
0.0
 31
0.0
  0
LINE
  5
598
  8
0
  6
BYBLOCK
 62
     0
 10
-1.0
 20
-0.1666666666666667
 30
0.0
 11
0.0
 21
0.0
 31
0.0
  0
LINE
  5
599
  8
0
  6
BYBLOCK
 62
     0
 10
0.0
 20
0.0
 30
0.0
 11
-1.0
 21
0.0
 31
0.0
  0
ENDBLK
  5
59B
  8
0
  0
BLOCK
  8
0
  2
_TAGCIRCLE
 70
     2
 10
0.0
 20
0.0
 30
0.0
  3
_TAGCIRCLE
  1

  0
CIRCLE
  5
1151
  8
0
  6
BYBLOCK
 62
     0
 10
0.0
 20
0.0
 30
0.0
 40
4.0
  0
ATTDEF
  5
1152
  8
0
 62
     0
 10
-7.1
 20
-1.5
 30
0.0
 40
3.0
  1
タグ番号
 72
     1
 11
0.0
 21
-1.5
 31
0.0
  3
タグ番号を入力
  2
タグ番号
 70
     0
  0
ENDBLK
  5
1154
  8
0
  0
BLOCK
  8
0
  2
_ACMFILLED15
 70
     0
 10
0.0
 20
0.0
 30
0.0
  3
_ACMFILLED15
  1
Acad:XRef
  0
TRACE
  5
9B6B
  8
AM_0
 62
     0
 10
-1.0
 20
0.1316524975873958
 30
0.0
 11
-1.0
 21
-0.1316524975873958
 31
0.0
 12
0.0
 22
0.0
 32
0.0
 13
0.0
 23
0.0
 33
0.0
  0
ENDBLK
  5
9B69
  8
0
  0
BLOCK
  8
0
  2
_ACMOPEN30
 70
     0
 10
0.0
 20
0.0
 30
0.0
  3
_ACMOPEN30
  1
Acad:XRef
  0
LINE
  5
9B75
  8
AM_0
 62
     0
 10
-1.0
 20
0.0
 30
0.0
 11
0.0
 21
0.0
 31
0.0
  0
LINE
  5
9B76
  8
AM_0
 62
     0
 10
-1.0
 20
-0.2679491924311227
 30
0.0
 11
0.0
 21
0.0
 31
0.0
  0
LINE
  5
9B77
  8
AM_0
 62
     0
 10
-1.0
 20
0.2679491924311227
 30
0.0
 11
0.0
 21
0.0
 31
0.0
  0
ENDBLK
  5
9B74
  8
0
  0
BLOCK
  8
0
  2
_ACMFILLEDHALF
 70
     0
 10
0.0
 20
0.0
 30
0.0
  3
_ACMFILLEDHALF
  1

  0
TRACE
  5
9B80
  8
0
 62
     0
 10
-0.8
 20
0.0
 30
0.0
 11
-1.0
 21
0.166666666
 31
0.0
 12
0.0
 22
0.0
 32
0.0
 13
0.0
 23
0.0
 33
0.0
  0
LINE
  5
9B81
  8
0
 62
     0
 10
-1.0
 20
0.0
 30
0.0
 11
-0.8
 21
0.0
 31
0.0
  0
ENDBLK
  5
9B82
  8
0
  0
BLOCK
  8
0
  2
_ACMOPEN15
 70
     0
 10
0.0
 20
0.0
 30
0.0
  3
_ACMOPEN15
  1
Acad:XRef
  0
LINE
  5
9B8F
  8
AM_0
 62
     0
 10
-1.0
 20
0.0
 30
0.0
 11
0.0
 21
0.0
 31
0.0
  0
LINE
  5
9B90
  8
AM_0
 62
     0
 10
-1.0
 20
-0.1316524975873958
 30
0.0
 11
0.0
 21
0.0
 31
0.0
  0
LINE
  5
9B91
  8
AM_0
 62
     0
 10
-1.0
 20
0.1316524975873958
 30
0.0
 11
0.0
 21
0.0
 31
0.0
  0
ENDBLK
  5
9B8E
  8
0
  0
BLOCK
  8
0
  2
*X14
 70
     1
 10
0.0
 20
0.0
 30
0.0
  3
*X14
  1
Acad:XRef
  0
TEXT
  5
C3B4
  8
0
 10
70.85712513305619
 20
206.6384410295257
 30
0.0
 40
1.9
  1
凍結
  0
TEXT
  5
C3B5
  8
0
 10
70.84302494752744
 20
203.3143222911212
 30
0.0
 40
1.9
  1
予防
  0
ENDBLK
  5
C3BA
  8
0
  0
BLOCK
  8
0
  2
*X15
 70
     1
 10
0.0
 20
0.0
 30
0.0
  3
*X15
  1
Acad:XRef
  0
TEXT
  5
C3B7
  8
0
 10
70.85712513305619
 20
226.638441029526
 30
0.0
 40
1.9
  1
凍結
  0
TEXT
  5
C3B8
  8
0
 10
70.84302494752744
 20
223.3143222911216
 30
0.0
 40
1.9
  1
予防
  0
ENDBLK
  5
C3BC
  8
0
  0
ENDSEC
  0
SECTION
  2
ENTITIES
  0
TEXT
  5
320C
  8
10
 10
0.0
 20
0.0
 30
0.0
 40
10.0
  1
2024.02.01 ER2000SQ-A 2台連動+1台単独 露出型
 11
0.0
 21
0.0
 31
0.0
 73
     1
  0
LINE
  5
5D9F
  8
0
 10
27.02185421979584
 20
289.8911311965019
 30
0.0
 11
127.0218542197958
 21
289.8911311965016
 31
0.0
  0
LINE
  5
5DA0
  8
0
 10
27.02185421979584
 20
169.8911311965018
 30
0.0
 11
127.0218542197958
 21
169.8911311965018
 31
0.0
  0
ARC
  5
5DA1
  8
0
 10
27.02185421979584
 20
281.8911311965019
 30
0.0
 40
8.0
 50
90.0
 51
180.0
  0
LINE
  5
5DA2
  8
0
 10
22.77921353267652
 20
286.133771883621
 30
0.0
 11
31.02185421979584
 21
277.8911311965019
 31
0.0
  0
LINE
  5
5DA3
  8
0
 10
33.02185421979584
 20
181.8911311965017
 30
0.0
 11
121.0218542197958
 21
181.8911311965019
 31
0.0
  0
LINE
  5
5DA4
  8
0
 10
33.02185421979584
 20
277.8911311965019
 30
0.0
 11
121.0218542197958
 21
277.8911311965018
 31
0.0
  0
LINE
  5
5DA7
  8
0
 10
31.02185421979584
 20
275.8911311965019
 30
0.0
 11
31.02185421979584
 21
183.8911311965018
 31
0.0
  0
LINE
  5
5DA9
  8
0
 10
19.02185421979584
 20
281.8911311965019
 30
0.0
 11
19.02185421979584
 21
177.8911311965018
 31
0.0
  0
LINE
  5
5DAA
  8
0
 10
22.77921353267675
 20
173.6484905093824
 30
0.0
 11
31.02185421979584
 21
181.8911311965018
 31
0.0
  0
ARC
  5
5DAB
  8
0
 10
27.02185421979584
 20
177.8911311965018
 30
0.0
 40
8.0
 50
180.0
 51
270.0
  0
LINE
  5
5DAD
  8
0
 10
180.4776219758821
 20
280.4759166207317
 30
0.0
 11
181.7735080301627
 21
287.8252516406691
 31
0.0
  0
LINE
  5
5DAE
  8
0
 10
185.5218545662483
 20
169.891131196502
 30
0.0
 11
185.5218545662483
 21
289.891131196502
 31
0.0
  0
ARC
  5
5DAF
  8
0
 10
127.0218542197958
 20
281.8911311965016
 30
0.0
 40
8.0
 50
0.0
 51
90.0
  0
LINE
  5
5DB0
  8
0
 10
131.2644949069152
 20
286.133771883621
 30
0.0
 11
123.0218542197958
 21
277.8911311965016
 31
0.0
  0
LINE
  5
5DB1
  8
0
 10
180.0218545662483
 20
184.5157911022795
 30
0.0
 11
180.0218545662483
 21
275.2664712907239
 31
0.0
  0
LINE
  5
5DB2
  8
0
 10
123.0218542197958
 20
275.8911311965018
 30
0.0
 11
123.0218542197958
 21
183.8911311965019
 31
0.0
  0
LINE
  5
5DB3
  8
0
 10
135.0218542197958
 20
281.8911311965016
 30
0.0
 11
135.0218542197958
 21
177.8911311965018
 31
0.0
  0
LINE
  5
5DB4
  8
0
 10
123.0218542197958
 20
181.8911311965019
 30
0.0
 11
131.2644949069152
 21
173.6484905093823
 31
0.0
  0
ARC
  5
5DB5
  8
0
 10
127.0218542197958
 20
177.8911311965018
 30
0.0
 40
8.0
 50
270.0
 51
0.0
  0
LINE
  5
5DB6
  8
0
 10
180.4776219758821
 20
179.3063457722717
 30
0.0
 11
181.7735080301626
 21
171.9570107523348
 31
0.0
  0
ARC
  5
5DB7
  8
0
 10
184.2355274126932
 20
172.3911311965021
 30
0.0
 40
2.5
 50
190.0000000000002
 51
270.0
  0
LINE
  5
5DB8
  8
0
 10
185.5218545662483
 20
169.8911311965021
 30
0.0
 11
184.235527412693
 21
169.8911311965021
 31
0.0
  0
ARC
  5
5DB9
  8
0
 10
210.0218545662483
 20
184.5157911022795
 30
0.0
 40
30.0
 50
180.0
 51
190.0000000000002
  0
ARC
  5
5DC3
  8
0
 10
210.0218545662483
 20
275.2664712907239
 30
0.0
 40
30.0
 50
169.9999999999998
 51
180.0
  0
ARC
  5
5DCA
  8
0
 10
184.2355274126933
 20
287.3911311965018
 30
0.0
 40
2.5
 50
90.0
 51
170.0000000000002
  0
LINE
  5
5DCB
  8
0
 10
185.5218545662417
 20
289.891131196502
 30
0.0
 11
184.2355274126865
 21
289.891131196502
 31
0.0
  0
ARC
  5
5DCC
  8
0
 10
177.3218545662478
 20
259.691131196502
 30
0.0
 40
1.0
 50
90.0
 51
180.0
  0
LINE
  5
5DCD
  8
0
 10
177.3218545662478
 20
260.691131196502
 30
0.0
 11
180.0218545662478
 21
260.691131196502
 31
0.0
  0
LINE
  5
5DCE
  8
0
 10
177.3218545662478
 20
253.691131196502
 30
0.0
 11
180.0218545662478
 21
253.691131196502
 31
0.0
  0
LINE
  5
5DCF
  8
0
 10
176.3218545662478
 20
259.691131196502
 30
0.0
 11
176.3218545662478
 21
254.691131196502
 31
0.0
  0
ARC
  5
5DD0
  8
0
 10
177.3218545662478
 20
254.691131196502
 30
0.0
 40
1.0
 50
180.0
 51
270.0
  0
LINE
  5
5DEF
  8
0
 10
127.0218549648539
 20
144.5475003604925
 30
0.0
 11
27.02185347473784
 21
144.5475003604925
 31
0.0
  0
LINE
  5
5DF0
  8
0
 10
127.0218549648539
 20
140.5475005197487
 30
0.0
 11
27.02185347473784
 21
140.5475005197487
 31
0.0
  0
LINE
  5
5DF1
  8
0
 10
19.02185588872595
 20
140.5475005197487
 30
0.0
 11
19.02185588872595
 21
144.5475003604925
 31
0.0
  0
LINE
  5
5DF2
  8
0
 10
27.02185347473784
 20
144.5475003604925
 30
0.0
 11
19.02185588872595
 21
144.5475003604925
 31
0.0
  0
LINE
  5
5DF3
  8
0
 10
27.02185347473784
 20
140.5475005197487
 30
0.0
 11
19.02185588872595
 21
140.5475005197487
 31
0.0
  0
LINE
  5
5DF4
  8
0
 10
135.0218525508658
 20
140.5475005197487
 30
0.0
 11
135.0218525508658
 21
144.5475003604925
 31
0.0
  0
LINE
  5
5DF5
  8
0
 10
135.0218525508658
 20
144.5475003604925
 30
0.0
 11
127.0218549648539
 21
144.5475003604925
 31
0.0
  0
LINE
  5
5DF6
  8
0
 10
135.0218525508658
 20
140.5475005197487
 30
0.0
 11
127.0218549648539
 21
140.5475005197487
 31
0.0
  0
LINE
  5
5DF7
  8
0
 10
20.12185588276549
 20
144.5475003604925
 30
0.0
 11
20.12185588276549
 21
145.0475003604896
 31
0.0
  0
LINE
  5
5DF8
  8
0
 10
133.9218525568263
 20
144.5475003604925
 30
0.0
 11
133.9218525568263
 21
145.0475003604896
 31
0.0
  0
LINE
  5
5DF9
  8
0
 10
40.5218547562377
 20
150.5475002962312
 30
0.0
 11
113.521853683354
 21
150.5475002962312
 31
0.0
  0
LINE
  5
5E21
  8
0
 10
54.46668441794037
 20
153.7471330315954
 30
0.0
 11
53.4666844179406
 21
153.7471330315954
 31
0.0
  0
LINE
  5
5E22
  8
0
 10
55.4666844179406
 20
154.2471330315954
 30
0.0
 11
54.4666844179406
 21
154.2471330315954
 31
0.0
  0
LINE
  5
5E23
  8
0
 10
53.4666844179406
 20
154.2471330315954
 30
0.0
 11
52.4666844179406
 21
154.2471330315954
 31
0.0
  0
LINE
  5
5E24
  8
0
 10
53.4666844179406
 20
154.2471330315954
 30
0.0
 11
53.4666844179406
 21
153.7471330315954
 31
0.0
  0
LINE
  5
5E25
  8
0
 10
56.4666844179406
 20
154.2471330315954
 30
0.0
 11
56.4666844179406
 21
153.7471330315954
 31
0.0
  0
LINE
  5
5E26
  8
0
 10
54.4666844179406
 20
154.2471330315954
 30
0.0
 11
54.46668441794037
 21
153.7471330315954
 31
0.0
  0
LINE
  5
5E27
  8
0
 10
55.4666844179406
 20
154.2471330315954
 30
0.0
 11
55.4666844179406
 21
153.7471330315954
 31
0.0
  0
LINE
  5
5E28
  8
0
 10
56.4666844179406
 20
153.7471330315954
 30
0.0
 11
55.4666844179406
 21
153.7471330315954
 31
0.0
  0
LINE
  5
5E29
  8
0
 10
58.46668441794054
 20
150.5475002962312
 30
0.0
 11
58.46668441794031
 21
153.2471330315954
 31
0.0
  0
ARC
  5
5E2A
  8
0
 10
57.46668441794037
 20
153.2471330315954
 30
0.0
 40
1.0
 50
0.0
 51
90.0
  0
LINE
  5
5E2B
  8
0
 10
57.46668441794037
 20
154.2471330315954
 30
0.0
 11
56.4666844179406
 21
154.2471330315954
 31
0.0
  0
LINE
  5
5E2C
  8
0
 10
51.4666844179406
 20
150.5475002962312
 30
0.0
 11
51.4666844179406
 21
153.2471330315954
 31
0.0
  0
ARC
  5
5E2D
  8
0
 10
52.4666844179406
 20
153.2471330315954
 30
0.0
 40
1.0
 50
90.0
 51
180.0
  0
LINE
  5
84F2
  8
0
 10
135.0218542197956
 20
145.0475003604896
 30
0.0
 11
19.02185421979544
 21
145.0475003604896
 31
0.0
  0
ARC
  5
84F3
  8
0
 10
120.3971943140182
 20
120.5475003604896
 30
0.0
 40
30.0
 50
80.00000000000146
 51
90.0
  0
LINE
  5
84F4
  8
0
 10
120.3971943140182
 20
150.5475003604896
 30
0.0
 11
33.64651412557356
 21
150.5475003604896
 31
0.0
  0
ARC
  5
84F5
  8
0
 10
132.5218542197956
 20
146.3338275140448
 30
0.0
 40
2.5
 50
0.0
 51
80.00000000000146
  0
LINE
  5
84F6
  8
0
 10
135.0218542197956
 20
145.0475003604896
 30
0.0
 11
135.0218542197956
 21
146.3338275140448
 31
0.0
  0
LINE
  5
84F7
  8
0
 10
125.606639644026
 20
150.0917329508558
 30
0.0
 11
132.9559746639629
 21
148.7958468965753
 31
0.0
  0
ARC
  5
84F8
  8
0
 10
33.64651412557356
 20
120.5475003604896
 30
0.0
 40
30.0
 50
90.0
 51
99.99999999999855
  0
ARC
  5
84F9
  8
0
 10
21.52185421979567
 20
146.3338275140447
 30
0.0
 40
2.5
 50
99.99999999999855
 51
180.0
  0
LINE
  5
84FA
  8
0
 10
28.43706879556572
 20
150.0917329508558
 30
0.0
 11
21.08773377562835
 21
148.7958468965753
 31
0.0
  0
LINE
  5
84FB
  8
0
 10
19.02185421979544
 20
145.0475003604962
 30
0.0
 11
19.02185421979544
 21
146.3338275140514
 31
0.0
  0
LINE
  5
84FC
  8
0
 10
190.0218543427304
 20
290.0161291773955
 30
0.0
 11
186.0218545019866
 21
290.0161291773955
 31
0.0
  0
LINE
  5
84FD
  8
0
 10
186.0218545019866
 20
290.0161291773955
 30
0.0
 11
186.0218545019866
 21
282.0161315913836
 31
0.0
  0
LINE
  5
84FE
  8
0
 10
190.0218543427304
 20
290.0161291773955
 30
0.0
 11
190.0218543427304
 21
282.0161315913836
 31
0.0
  0
LINE
  5
84FF
  8
0
 10
186.0218545019866
 20
282.0161315913836
 30
0.0
 11
186.0218545019866
 21
178.0161294456164
 31
0.0
  0
LINE
  5
8500
  8
0
 10
190.0218543427304
 20
282.0161315913836
 30
0.0
 11
190.0218543427304
 21
178.0161294456164
 31
0.0
  0
LINE
  5
8501
  8
0
 10
190.0218543427304
 20
170.0161318596045
 30
0.0
 11
186.0218545019866
 21
170.0161318596045
 31
0.0
  0
LINE
  5
8502
  8
0
 10
186.0218545019866
 20
178.0161294456164
 30
0.0
 11
186.0218545019866
 21
170.0161318596045
 31
0.0
  0
LINE
  5
8503
  8
0
 10
190.0218543427304
 20
178.0161294456164
 30
0.0
 11
190.0218543427304
 21
170.0161318596045
 31
0.0
  0
LINE
  5
8505
  8
0
 10
186.0218545019866
 20
171.116131853644
 30
0.0
 11
185.5218545662483
 21
171.1161318536441
 31
0.0
  0
LINE
  5
8507
  8
0
 10
186.0218545019866
 20
288.916129183356
 30
0.0
 11
185.5218545662483
 21
288.916129183356
 31
0.0
  0
LINE
  5
8738
  8
0
 10
190.0218543427304
 20
290.0161305184999
 30
0.0
 11
190.0218543427304
 21
170.0161305185001
 31
0.0
  0
LINE
  5
8739
  8
0
 10
228.0218543427306
 20
290.6794229857722
 30
0.0
 11
228.0218543427303
 21
169.3528380512277
 31
0.0
  0
LINE
  5
873A
  8
0
 10
190.0218543427304
 20
170.0161305185001
 30
0.0
 11
228.0218543427303
 21
169.3528380512277
 31
0.0
  0
LINE
  5
873B
  8
0
 10
190.0218543427304
 20
290.0161305184999
 30
0.0
 11
228.0218543427306
 21
290.6794229857722
 31
0.0
  0
LINE
  5
87D3
  8
0
 10
27.02185421979584
 20
290.5544311965018
 30
0.0
 11
127.0218542197958
 21
290.5544311965016
 31
0.0
  0
ARC
  5
87D4
  8
0
 10
27.02185421979584
 20
281.8911311965018
 30
0.0
 40
8.6633
 50
90.0
 51
180.0
  0
LINE
  5
87D5
  8
0
 10
18.35855421979591
 20
281.8911311965018
 30
0.0
 11
18.35855421979591
 21
177.8911311965018
 31
0.0
  0
ARC
  5
87D6
  8
0
 10
27.02185421979584
 20
177.8911311965018
 30
0.0
 40
8.6633
 50
180.0
 51
270.0
  0
LINE
  5
87D7
  8
0
 10
27.02185421979584
 20
169.2278311965018
 30
0.0
 11
127.0218542197958
 21
169.2278311965018
 31
0.0
  0
ARC
  5
87D8
  8
0
 10
127.0218542197958
 20
177.8911311965018
 30
0.0
 40
8.6633
 50
270.0
 51
0.0
  0
LINE
  5
87D9
  8
0
 10
135.6851542197958
 20
281.8911311965016
 30
0.0
 11
135.6851542197958
 21
177.8911311965018
 31
0.0
  0
ARC
  5
87DA
  8
0
 10
127.0218542197958
 20
281.8911311965016
 30
0.0
 40
8.6633
 50
0.0
 51
90.0
  0
LINE
  5
87DB
  8
0
 10
135.0218542197961
 20
140.5475005197487
 30
0.0
 11
135.685146687068
 21
102.5475005197487
 31
0.0
  0
LINE
  5
87DC
  8
0
 10
19.02185421979578
 20
140.5475005197487
 30
0.0
 11
18.35856175252337
 21
102.5475005197487
 31
0.0
  0
ARC
  5
87DD
  8
0
 10
71.52185421979561
 20
106.5475005197487
 30
0.0
 40
4.0
 50
0.0
 51
90.0
  0
ARC
  5
87DE
  8
0
 10
71.52185421979561
 20
106.5475005197487
 30
0.0
 40
3.0
 50
0.0
 51
180.0
  0
LINE
  5
87DF
  8
0
 10
18.35856175252337
 20
102.5475005197487
 30
0.0
 11
135.685146687068
 21
102.5475005197487
 31
0.0
  0
LINE
  5
87E0
  8
0
 10
67.52185421979561
 20
102.5475005197487
 30
0.0
 11
67.52185421979561
 21
106.5475005197487
 31
0.0
  0
LINE
  5
87E1
  8
0
 10
68.52185421979561
 20
102.5475005197487
 30
0.0
 11
68.52185421979561
 21
106.5475005197487
 31
0.0
  0
LINE
  5
87E2
  8
0
 10
57.02185421979567
 20
102.5475005197487
 30
0.0
 11
57.02185421979567
 21
106.5475005197487
 31
0.0
  0
LINE
  5
87E3
  8
0
 10
58.02185421979561
 20
102.5475005197487
 30
0.0
 11
58.02185421979561
 21
106.5475005197487
 31
0.0
  0
LINE
  5
87E4
  8
0
 10
65.02185421979561
 20
106.5475005197487
 30
0.0
 11
65.02185421979561
 21
102.5475005197487
 31
0.0
  0
LINE
  5
87E5
  8
0
 10
64.02185421979561
 20
106.5475005197487
 30
0.0
 11
64.02185421979561
 21
102.5475005197487
 31
0.0
  0
ARC
  5
87E6
  8
0
 10
61.02185421979561
 20
106.5475005197487
 30
0.0
 40
4.0
 50
0.0
 51
48.59037789073106
  0
ARC
  5
87E7
  8
0
 10
61.02185421979561
 20
106.5475005197487
 30
0.0
 40
3.0
 50
0.0
 51
180.0
  0
LINE
  5
87E8
  8
0
 10
63.66760553086033
 20
109.5475005197487
 30
0.0
 11
68.87610290873113
 21
109.5475005197487
 31
0.0
  0
ARC
  5
87E9
  8
0
 10
71.52185421979561
 20
106.5475005197487
 30
0.0
 40
4.0
 50
131.409622109269
 51
180.0
  0
ARC
  5
87EA
  8
0
 10
61.02185421979561
 20
106.5475005197487
 30
0.0
 40
4.0
 50
90.0
 51
180.0
  0
LINE
  5
87EB
  8
0
 10
61.02185421979561
 20
110.5475005197487
 30
0.0
 11
71.52185421979561
 21
110.5475005197487
 31
0.0
  0
LINE
  5
87EC
  8
0
 10
96.02185421979561
 20
106.5475005197487
 30
0.0
 11
96.02185421979561
 21
102.5475005197487
 31
0.0
  0
LINE
  5
87ED
  8
0
 10
97.02185421979561
 20
106.5475005197487
 30
0.0
 11
97.02185421979561
 21
102.5475005197487
 31
0.0
  0
LINE
  5
87EE
  8
0
 10
90.02185421979561
 20
102.5475005197487
 30
0.0
 11
90.02185421979561
 21
106.5475005197487
 31
0.0
  0
LINE
  5
87EF
  8
0
 10
89.02185421979561
 20
102.5475005197487
 30
0.0
 11
89.02185421979561
 21
106.5475005197487
 31
0.0
  0
LINE
  5
87F0
  8
0
 10
75.52185421979561
 20
106.5475005197487
 30
0.0
 11
75.52185421979561
 21
102.5475005197487
 31
0.0
  0
LINE
  5
87F1
  8
0
 10
74.52185421979561
 20
106.5475005197487
 30
0.0
 11
74.52185421979561
 21
102.5475005197487
 31
0.0
  0
LINE
  5
87F2
  8
0
 10
78.52185421979561
 20
102.5475005197487
 30
0.0
 11
78.52185421979561
 21
106.5475005197487
 31
0.0
  0
LINE
  5
87F3
  8
0
 10
79.52185421979561
 20
102.5475005197487
 30
0.0
 11
79.52185421979561
 21
106.5475005197487
 31
0.0
  0
LINE
  5
87F4
  8
0
 10
86.52185421979561
 20
106.5475005197487
 30
0.0
 11
86.52185421979561
 21
102.5475005197487
 31
0.0
  0
LINE
  5
87F5
  8
0
 10
85.52185421979561
 20
106.5475005197487
 30
0.0
 11
85.52185421979561
 21
102.5475005197487
 31
0.0
  0
LINE
  5
87F6
  8
0
 10
82.52185421979561
 20
110.5475005197487
 30
0.0
 11
93.02185421979561
 21
110.5475005197487
 31
0.0
  0
ARC
  5
87F7
  8
0
 10
93.02185421979561
 20
106.5475005197487
 30
0.0
 40
4.0
 50
131.409622109269
 51
180.0
  0
LINE
  5
87F8
  8
0
 10
85.1676055308601
 20
109.5475005197487
 30
0.0
 11
90.37610290873113
 21
109.5475005197487
 31
0.0
  0
ARC
  5
87F9
  8
0
 10
82.52185421979561
 20
106.5475005197487
 30
0.0
 40
4.0
 50
0.0
 51
48.59037789073106
  0
ARC
  5
87FA
  8
0
 10
82.52185421979561
 20
106.5475005197487
 30
0.0
 40
3.0
 50
0.0
 51
180.0
  0
ARC
  5
87FB
  8
0
 10
82.52185421979561
 20
106.5475005197487
 30
0.0
 40
4.0
 50
90.0
 51
180.0
  0
ARC
  5
87FC
  8
0
 10
93.02185421979561
 20
106.5475005197487
 30
0.0
 40
3.0
 50
0.0
 51
180.0
  0
ARC
  5
87FD
  8
0
 10
93.02185421979561
 20
106.5475005197487
 30
0.0
 40
4.0
 50
0.0
 51
90.0
  0
LINE
  5
87FE
  8
0
 10
19.02185421979578
 20
140.5475005197487
 30
0.0
 11
135.0218542197961
 21
140.5475005197487
 31
0.0
  0
LINE
  5
9239
  8
7
 10
14.22785421979574
 20
229.8911311965018
 30
0.0
 11
139.8158542197957
 21
229.8911311965015
 31
0.0
1001
GENIUS_GENOBJ-N-CEN_13
1002
{
1000
OWNER
1000
GEN
1002
}
1001
GENIUS_GENODEF_13
1002
{
1000
HIER
1070
     0
1002
}
1002
{
1000
MANEDIT
1070
     0
1002
}
1002
{
1000
NOSEL
1070
     0
1002
}
1002
{
1000
BEHIND
1070
     0
1002
}
1002
{
1000
OTHER
1070
     0
1002
}
1002
{
1000
REACTOR
1002
}
1001
GENIUS_GENCEN_19
1002
{
1040
2.794
1002
}
  0
LINE
  5
923A
  8
7
 10
77.02185421979584
 20
294.6851311965019
 30
0.0
 11
77.02185421979584
 21
165.0971311965017
 31
0.0
1001
GENIUS_GENOBJ-N-CEN_13
1002
{
1000
OWNER
1000
GEN
1002
}
1001
GENIUS_GENODEF_13
1002
{
1000
HIER
1070
     0
1002
}
1002
{
1000
MANEDIT
1070
     0
1002
}
1002
{
1000
NOSEL
1070
     0
1002
}
1002
{
1000
BEHIND
1070
     0
1002
}
1002
{
1000
OTHER
1070
     0
1002
}
1002
{
1000
REACTOR
1002
}
1001
GENIUS_GENCEN_19
1002
{
1040
2.794
1002
}
  0
LINE
  5
9246
  8
AM_7
 10
77.02185421979584
 20
153.3415003604896
 30
0.0
 11
77.02185421979583
 21
99.7535005197487
 31
0.0
1001
GENIUS_GENOBJ-N-CEN_13
1002
{
1000
OWNER
1000
GEN
1002
}
1001
GENIUS_GENODEF_13
1002
{
1000
HIER
1070
     0
1002
}
1002
{
1000
MANEDIT
1070
     0
1002
}
1002
{
1000
NOSEL
1070
     0
1002
}
1002
{
1000
BEHIND
1070
     0
1002
}
1002
{
1000
OTHER
1070
     0
1002
}
1002
{
1000
REACTOR
1002
}
1001
GENIUS_GENCEN_19
1002
{
1040
2.794
1002
}
  0
LINE
  5
9291
  8
AM_7
 10
177.2278545662483
 20
229.8911311965013
 30
0.0
 11
230.8158543427305
 21
229.8911311965012
 31
0.0
1001
GENIUS_GENODEF_13
1002
{
1000
HIER
1070
     0
1002
}
1002
{
1000
MANEDIT
1070
     0
1002
}
1002
{
1000
NOSEL
1070
     0
1002
}
1002
{
1000
BEHIND
1070
     0
1002
}
1002
{
1000
OTHER
1070
     0
1002
}
1002
{
1000
REACTOR
1002
}
1001
GENIUS_GENOBJ-N-CEN_13
1002
{
1000
OWNER
1000
GEN
1002
}
1001
GENIUS_GENCEN_19
1002
{
1040
2.794
1002
}
  0
LINE
  5
AA8E
  8
0
 10
39.77185421979581
 20
264.9911311965017
 30
0.0
 11
114.2718542197958
 21
264.9911311965017
 31
0.0
  0
LINE
  5
AA8F
  8
0
 10
39.77185421979581
 20
194.7911311965017
 30
0.0
 11
114.2718542197958
 21
194.7911311965017
 31
0.0
  0
LINE
  5
AA90
  8
0
 10
39.77185421979581
 20
264.9911311965017
 30
0.0
 11
39.77185421979581
 21
194.7911311965017
 31
0.0
  0
LINE
  5
AA91
  8
0
 10
114.2718542197958
 20
264.9911311965017
 30
0.0
 11
114.2718542197958
 21
194.7911311965017
 31
0.0
  0
LINE
  5
AA92
  8
0
 10
113.521853683354
 20
195.3911320607691
 30
0.0
 11
113.521853683354
 21
264.3911303322344
 31
0.0
  0
LINE
  5
AA93
  8
0
 10
40.52185475623762
 20
195.3911320607691
 30
0.0
 11
113.521853683354
 21
195.3911320607691
 31
0.0
  0
LINE
  5
AA94
  8
0
 10
40.52185475623762
 20
264.3911303322344
 30
0.0
 11
40.52185475623762
 21
195.3911320607691
 31
0.0
  0
LINE
  5
AA95
  8
0
 10
113.521853683354
 20
264.3911303322344
 30
0.0
 11
40.52185475623762
 21
264.3911303322344
 31
0.0
  0
LINE
  5
AA96
  8
0
 10
42.0218540707842
 20
196.8911313753156
 30
0.0
 11
112.0218543688074
 21
196.8911313753156
 31
0.0
  0
LINE
  5
AA97
  8
0
 10
112.0218543688074
 20
196.8911313753156
 30
0.0
 11
112.0218543688074
 21
262.8911310176878
 31
0.0
  0
LINE
  5
AA98
  8
0
 10
112.0218543688074
 20
262.8911310176878
 30
0.0
 11
67.02185444331323
 21
262.8911310176878
 31
0.0
  0
LINE
  5
AA99
  8
0
 10
42.0218540707842
 20
250.8911309133796
 30
0.0
 11
67.02185444331323
 21
250.8911309133796
 31
0.0
  0
LINE
  5
AA9A
  8
0
 10
42.0218540707842
 20
250.8911309133796
 30
0.0
 11
42.0218540707842
 21
196.8911313753156
 31
0.0
  0
LINE
  5
AA9B
  8
0
 10
48.82185369527494
 20
253.1911307315855
 30
0.0
 11
58.82185347175752
 21
253.1911307315855
 31
0.0
  0
LINE
  5
AA9C
  8
0
 10
58.82185347175752
 20
253.1911307315855
 30
0.0
 11
58.82185347175752
 21
261.1911320428877
 31
0.0
  0
LINE
  5
AA9D
  8
0
 10
58.82185347175752
 20
261.1911320428877
 30
0.0
 11
48.82185369527494
 21
261.1911320428877
 31
0.0
  0
LINE
  5
AA9E
  8
0
 10
48.82185369527494
 20
261.1911320428877
 30
0.0
 11
48.82185369527494
 21
253.1911307315855
 31
0.0
  0
LINE
  5
AA9F
  8
0
 10
67.02185444331323
 20
250.8911309133796
 30
0.0
 11
67.02185444331323
 21
262.8911310176878
 31
0.0
  0
LINE
  5
AAA0
  8
0
 10
114.021854696633
 20
194.8911310474901
 30
0.0
 11
114.021854696633
 21
264.8911313455133
 31
0.0
  0
LINE
  5
AAA1
  8
0
 10
40.02185374295865
 20
194.8911310474901
 30
0.0
 11
114.021854696633
 21
194.8911310474901
 31
0.0
  0
LINE
  5
AAA2
  8
0
 10
40.02185374295865
 20
264.8911313455133
 30
0.0
 11
40.02185374295865
 21
194.8911310474901
 31
0.0
  0
LINE
  5
AAA3
  8
0
 10
114.021854696633
 20
264.8911313455133
 30
0.0
 11
40.02185374295865
 21
264.8911313455133
 31
0.0
  0
ARC
  5
AAA4
  8
0
 10
50.22185358351621
 20
259.6911307315855
 30
0.0
 40
1.0
 50
90.0
 51
180.0
  0
ARC
  5
AAA5
  8
0
 10
55.22185358351621
 20
259.6911307315855
 30
0.0
 40
1.0
 50
0.0
 51
90.0
  0
LINE
  5
AAA6
  8
0
 10
50.22185358351621
 20
260.6911307315855
 30
0.0
 11
55.22185358351621
 21
260.6911307315855
 31
0.0
  0
LINE
  5
AAA7
  8
0
 10
55.22185358351621
 20
253.6911307315856
 30
0.0
 11
50.22185358351621
 21
253.6911307315855
 31
0.0
  0
ARC
  5
AAA8
  8
0
 10
50.22185358351621
 20
254.6911307315855
 30
0.0
 40
1.0
 50
180.0
 51
270.0000000000016
  0
ARC
  5
AAA9
  8
0
 10
55.22185358351621
 20
254.6911307315856
 30
0.0
 40
1.0
 50
270.0
 51
0.0
  0
LINE
  5
AAAA
  8
0
 10
54.22185358351621
 20
253.6911307315856
 30
0.0
 11
54.22185358351621
 21
260.6911307315855
 31
0.0
  0
LINE
  5
AAAB
  8
0
 10
53.22185358351621
 20
253.6911307315855
 30
0.0
 11
53.22185358351621
 21
260.6911307315855
 31
0.0
  0
LINE
  5
AAAC
  8
0
 10
52.22185358351621
 20
253.6911307315854
 30
0.0
 11
52.22185358351621
 21
260.6911307315855
 31
0.0
  0
LINE
  5
AAAD
  8
0
 10
51.22185358351621
 20
253.6911307315854
 30
0.0
 11
51.22185358351621
 21
260.6911307315855
 31
0.0
  0
LINE
  5
AAAE
  8
0
 10
49.22185358351621
 20
254.6911307315855
 30
0.0
 11
49.22185358351621
 21
259.6911307315855
 31
0.0
  0
LINE
  5
AAAF
  8
0
 10
56.22185358351621
 20
259.6911307315855
 30
0.0
 11
56.22185358351621
 21
254.6911307315856
 31
0.0
  0
LINE
  5
AAB0
  8
0
 10
67.27185444331323
 20
262.6411311965018
 30
0.0
 11
111.7718542197958
 21
262.6411311965017
 31
0.0
  0
LINE
  5
AAB1
  8
0
 10
111.7718542197958
 20
262.6411311965017
 30
0.0
 11
111.7718542197958
 21
197.1411311965016
 31
0.0
  0
LINE
  5
AAB2
  8
0
 10
42.27185421979581
 20
197.1411311965018
 30
0.0
 11
42.27185421979581
 21
250.6411309133796
 31
0.0
  0
LINE
  5
AAB3
  8
0
 10
111.7718542197958
 20
197.1411311965016
 30
0.0
 11
42.27185421979581
 21
197.1411311965018
 31
0.0
  0
LINE
  5
AAB4
  8
0
  6
CONTINUOUS
 10
67.27185444331323
 20
250.6411309133796
 30
0.0
 11
67.27185444331323
 21
262.6411311965018
 31
0.0
  0
LINE
  5
AAB5
  8
0
  6
CONTINUOUS
 10
42.27185421979581
 20
250.6411309133796
 30
0.0
 11
67.27185444331323
 21
250.6411309133796
 31
0.0
  0
LINE
  5
AAB6
  8
0
 10
55.07185358351622
 20
249.7411311965018
 30
0.0
 11
52.57185358351622
 21
249.7411311965018
 31
0.0
  0
LINE
  5
AC2C
  8
0
 10
57.32185358351623
 20
248.2411311965017
 30
0.0
 11
57.32185358351623
 21
246.2411311965017
 31
0.0
  0
LINE
  5
AC2D
  8
0
 10
50.32185358351623
 20
248.2411311965017
 30
0.0
 11
50.32185358351623
 21
246.2411311965017
 31
0.0
  0
ARC
  5
AC2E
  8
0
 10
51.32185358351623
 20
248.2411311965017
 30
0.0
 40
1.0
 50
90.0
 51
180.0
  0
ARC
  5
AC2F
  8
0
 10
51.32185358351623
 20
246.2411311965017
 30
0.0
 40
1.0
 50
180.0
 51
270.0
  0
ARC
  5
AC30
  8
0
 10
56.32185358351623
 20
246.2411311965017
 30
0.0
 40
1.0
 50
270.0
 51
0.0
  0
ARC
  5
AC31
  8
0
 10
56.32185358351623
 20
248.2411311965017
 30
0.0
 40
1.0
 50
0.0
 51
90.0
  0
LINE
  5
AC32
  8
0
 10
51.32185358351623
 20
249.2411311965017
 30
0.0
 11
56.32185358351623
 21
249.2411311965017
 31
0.0
  0
LINE
  5
AC33
  8
0
 10
51.32185358351623
 20
245.2411311965017
 30
0.0
 11
56.32185358351623
 21
245.2411311965017
 31
0.0
  0
TEXT
  5
AC34
  8
0
 10
43.66044042640336
 20
246.2788553770831
 30
0.0
 40
2.0
  1
OFF
 41
1.5
  0
TEXT
  5
AC35
  8
0
 10
58.70728957609508
 20
246.2788553770831
 30
0.0
 40
2.0
  1
ON
 41
1.5
  0
TEXT
  5
AC36
  8
0
 10
51.25042501208766
 20
246.2980266819687
 30
0.0
 40
2.0
  1
電源
  0
LINE
  5
AC38
  8
0
 10
43.77185421979581
 20
217.1012393038067
 30
0.0
 11
43.77185421979581
 21
219.6387393038073
 31
0.0
  0
LINE
  5
AC39
  8
0
 10
45.87435421979578
 20
217.1012393038067
 30
0.0
 11
45.87435421979578
 21
219.6387393038073
 31
0.0
  0
LINE
  5
AC3A
  8
0
 10
46.09185421979598
 20
217.1012393038067
 30
0.0
 11
46.09185421979598
 21
219.6387393038073
 31
0.0
  0
LINE
  5
AC3B
  8
0
 10
43.77185421979581
 20
217.1012393038067
 30
0.0
 11
44.56935421979594
 21
217.1012393038067
 31
0.0
  0
LINE
  5
AC3C
  8
0
 10
43.77185421979581
 20
219.6387393038073
 30
0.0
 11
44.56935421979594
 21
219.6387393038073
 31
0.0
  0
LINE
  5
AC3D
  8
0
 10
44.56935421979594
 20
219.6387393038073
 30
0.0
 11
44.56935421979594
 21
218.7687393038072
 31
0.0
  0
LINE
  5
AC3E
  8
0
 10
45.07685421979565
 20
219.6387393038073
 30
0.0
 11
45.07685421979565
 21
218.7687393038072
 31
0.0
  0
LINE
  5
AC3F
  8
0
 10
44.56935421979594
 20
217.1012393038067
 30
0.0
 11
44.56935421979594
 21
217.9712393038066
 31
0.0
  0
LINE
  5
AC40
  8
0
 10
45.07685421979565
 20
217.1012393038067
 30
0.0
 11
45.07685421979565
 21
217.9712393038066
 31
0.0
  0
LINE
  5
AC41
  8
0
 10
45.07685421979565
 20
219.6387393038073
 30
0.0
 11
45.87435421979578
 21
219.6387393038073
 31
0.0
  0
LINE
  5
AC42
  8
0
 10
45.07685421979565
 20
217.1012393038067
 30
0.0
 11
45.87435421979578
 21
217.1012393038067
 31
0.0
  0
LINE
  5
AC43
  8
0
 10
44.56935421979594
 20
218.7687393038072
 30
0.0
 11
45.07685421979565
 21
218.7687393038072
 31
0.0
  0
LINE
  5
AC44
  8
0
 10
44.56935421979594
 20
217.9712393038066
 30
0.0
 11
45.07685421979565
 21
217.9712393038066
 31
0.0
  0
LINE
  5
AC45
  8
0
 10
46.88935421979565
 20
217.1012393038067
 30
0.0
 11
46.88935421979565
 21
219.6387393038073
 31
0.0
  0
LINE
  5
AC46
  8
0
 10
47.10685421979585
 20
217.1012393038067
 30
0.0
 11
47.10685421979585
 21
219.6387393038073
 31
0.0
  0
LINE
  5
AC47
  8
0
 10
46.09185421979598
 20
219.6387393038073
 30
0.0
 11
46.88935421979565
 21
219.6387393038073
 31
0.0
  0
LINE
  5
AC48
  8
0
 10
46.09185421979598
 20
217.1012393038067
 30
0.0
 11
46.88935421979565
 21
217.1012393038067
 31
0.0
  0
LINE
  5
AC49
  8
0
 10
49.20935421979581
 20
217.1012393038067
 30
0.0
 11
49.20935421979581
 21
217.6812393038066
 31
0.0
  0
LINE
  5
AC4A
  8
0
 10
49.20935421979581
 20
219.0587393038074
 30
0.0
 11
49.20935421979581
 21
219.6387393038073
 31
0.0
  0
LINE
  5
AC4B
  8
0
 10
47.10685421979585
 20
217.1012393038067
 30
0.0
 11
47.90435421979598
 21
217.1012393038067
 31
0.0
  0
LINE
  5
AC4C
  8
0
 10
47.10685421979585
 20
219.6387393038073
 30
0.0
 11
47.90435421979598
 21
219.6387393038073
 31
0.0
  0
LINE
  5
AC4D
  8
0
 10
47.90435421979598
 20
219.6387393038073
 30
0.0
 11
47.90435421979598
 21
218.7687393038072
 31
0.0
  0
LINE
  5
AC4E
  8
0
 10
48.41185421979569
 20
219.6387393038073
 30
0.0
 11
48.41185421979569
 21
219.0587393038074
 31
0.0
  0
LINE
  5
AC4F
  8
0
 10
47.90435421979598
 20
217.1012393038067
 30
0.0
 11
47.90435421979598
 21
217.9712393038066
 31
0.0
  0
LINE
  5
AC50
  8
0
 10
48.41185421979569
 20
217.1012393038067
 30
0.0
 11
48.41185421979569
 21
217.6812393038066
 31
0.0
  0
ARC
  5
AC51
  8
0
 10
48.12185421979572
 20
217.6812393038066
 30
0.0
 40
0.29
 50
0.0
 51
90.0
  0
ARC
  5
AC52
  8
0
 10
48.12185421979572
 20
217.6812393038066
 30
0.0
 40
1.0875
 50
0.0
 51
39.29648023919341
  0
LINE
  5
AC53
  8
0
 10
48.41185421979569
 20
219.6387393038073
 30
0.0
 11
49.20935421979581
 21
219.6387393038073
 31
0.0
  0
LINE
  5
AC54
  8
0
 10
48.41185421979569
 20
217.1012393038067
 30
0.0
 11
49.20935421979581
 21
217.1012393038067
 31
0.0
  0
LINE
  5
AC55
  8
0
 10
47.90435421979598
 20
218.7687393038072
 30
0.0
 11
48.12185421979572
 21
218.7687393038072
 31
0.0
  0
ARC
  5
AC56
  8
0
 10
48.12185421979572
 20
219.0587393038074
 30
0.0
 40
0.29
 50
270.0
 51
0.0
  0
ARC
  5
AC57
  8
0
 10
48.12185421979572
 20
219.0587393038074
 30
0.0
 40
1.0875
 50
320.7035197608225
 51
0.0
  0
LINE
  5
AC58
  8
0
 10
47.90435421979598
 20
217.9712393038066
 30
0.0
 11
48.12185421979572
 21
217.9712393038066
 31
0.0
  0
LINE
  5
AC59
  8
0
 10
49.42685421979601
 20
217.1012393038067
 30
0.0
 11
49.42685421979601
 21
218.5874893038066
 31
0.0
  0
LINE
  5
AC5A
  8
0
 10
51.52935421979598
 20
217.1012393038067
 30
0.0
 11
51.52935421979598
 21
218.5874893038066
 31
0.0
  0
LINE
  5
AC5B
  8
0
 10
49.42685421979601
 20
217.1012393038067
 30
0.0
 11
50.22435421979569
 21
217.1012393038067
 31
0.0
  0
LINE
  5
AC5C
  8
0
 10
50.22435421979569
 20
217.1012393038067
 30
0.0
 11
50.22435421979569
 21
217.6087393038064
 31
0.0
  0
LINE
  5
AC5D
  8
0
 10
50.73185421979585
 20
217.1012393038067
 30
0.0
 11
50.73185421979585
 21
217.6087393038064
 31
0.0
  0
LINE
  5
AC5E
  8
0
 10
50.73185421979585
 20
217.1012393038067
 30
0.0
 11
51.52935421979598
 21
217.1012393038067
 31
0.0
  0
LINE
  5
AC5F
  8
0
 10
50.22435421979569
 20
217.6087393038064
 30
0.0
 11
50.73185421979585
 21
217.6087393038064
 31
0.0
  0
LINE
  5
AC60
  8
0
 10
50.22435421979569
 20
218.3337393038068
 30
0.0
 11
50.73185421979585
 21
218.3337393038068
 31
0.0
  0
ARC
  5
AC61
  8
0
 10
50.47810421979599
 20
218.5874893038066
 30
0.0
 40
1.05125
 50
0.0
 51
180.0
  0
ARC
  5
AC62
  8
0
 10
50.47810421979599
 20
218.5874893038066
 30
0.0
 40
0.25375
 50
0.0
 51
180.0
  0
LINE
  5
AC63
  8
0
 10
50.22435421979569
 20
218.3337393038068
 30
0.0
 11
50.22435421979569
 21
218.5874893038066
 31
0.0
  0
LINE
  5
AC64
  8
0
 10
50.73185421979585
 20
218.5874893038066
 30
0.0
 11
50.73185421979585
 21
218.3337393038068
 31
0.0
  0
LINE
  5
AC65
  8
0
 10
51.74685421979572
 20
217.1012393038067
 30
0.0
 11
51.74685421979572
 21
219.6387393038073
 31
0.0
  0
LINE
  5
AC66
  8
0
 10
53.84935421979569
 20
217.1012393038067
 30
0.0
 11
53.84935421979569
 21
217.6812393038066
 31
0.0
  0
LINE
  5
AC67
  8
0
 10
51.74685421979572
 20
217.1012393038067
 30
0.0
 11
52.54435421979585
 21
217.1012393038067
 31
0.0
  0
LINE
  5
AC68
  8
0
 10
52.68935421979583
 20
217.8987393038068
 30
0.0
 11
52.83435421979581
 21
217.8987393038068
 31
0.0
  0
LINE
  5
AC69
  8
0
 10
52.68935421979583
 20
218.4787393038072
 30
0.0
 11
52.83435421979581
 21
218.4787393038072
 31
0.0
  0
LINE
  5
AC6A
  8
0
 10
52.54435421979585
 20
217.1012393038067
 30
0.0
 11
52.54435421979585
 21
218.9137393038069
 31
0.0
  0
LINE
  5
AC6B
  8
0
 10
53.05185421979601
 20
217.1012393038067
 30
0.0
 11
53.05185421979601
 21
217.6812393038066
 31
0.0
  0
ARC
  5
AC6C
  8
0
 10
52.83435421979581
 20
217.6812393038066
 30
0.0
 40
0.2175
 50
0.0
 51
90.0
  0
ARC
  5
AC6D
  8
0
 10
52.83435421979581
 20
217.6812393038066
 30
0.0
 40
1.015
 50
0.0
 51
30.66296328368307
  0
LINE
  5
AC6E
  8
0
 10
51.74685421979572
 20
219.6387393038073
 30
0.0
 11
52.90685421979558
 21
219.6387393038073
 31
0.0
  0
LINE
  5
AC6F
  8
0
 10
52.54435421979585
 20
218.9137393038069
 30
0.0
 11
52.83435421979581
 21
218.9137393038069
 31
0.0
  0
LINE
  5
AC70
  8
0
 10
53.05185421979601
 20
217.1012393038067
 30
0.0
 11
53.84935421979569
 21
217.1012393038067
 31
0.0
  0
ARC
  5
AC71
  8
0
 10
52.83435421979581
 20
218.696239303807
 30
0.0
 40
0.2175
 50
270.0
 51
90.0
  0
ARC
  5
AC72
  8
0
 10
52.90685421979558
 20
218.696239303807
 30
0.0
 40
0.9425
 50
328.149389534081
 51
90.0
  0
LINE
  5
AC73
  8
0
 10
52.68935421979583
 20
218.4787393038072
 30
0.0
 11
52.68935421979583
 21
217.8987393038068
 31
0.0
  0
LINE
  5
AC74
  8
0
 10
54.06685421979589
 20
217.1012393038067
 30
0.0
 11
54.06685421979589
 21
219.6387393038073
 31
0.0
  0
LINE
  5
AC75
  8
0
 10
54.86435421979601
 20
217.1012393038067
 30
0.0
 11
54.86435421979601
 21
219.6387393038073
 31
0.0
  0
LINE
  5
AC76
  8
0
 10
57.76435421979565
 20
217.1374893038068
 30
0.0
 11
57.76435421979565
 21
218.5874893038066
 31
0.0
  0
LINE
  5
AC77
  8
0
 10
54.06685421979589
 20
219.6387393038073
 30
0.0
 11
54.86435421979601
 21
219.6387393038073
 31
0.0
  0
LINE
  5
AC78
  8
0
 10
54.06685421979589
 20
217.1012393038067
 30
0.0
 11
54.86435421979601
 21
217.1012393038067
 31
0.0
  0
ARC
  5
AC79
  8
0
 10
57.03935421979574
 20
218.3699893038069
 30
0.0
 40
1.305
 50
84.2751895477764
 51
281.4211862750073
  0
ARC
  5
AC7A
  8
0
 10
57.03935421979574
 20
218.3699893038069
 30
0.0
 40
0.5075000000000001
 50
84.27518954777612
 51
270.0
  0
CIRCLE
  5
AC7B
  8
0
 10
59.28685421979569
 20
218.3699893038069
 30
0.0
 40
1.305
  0
CIRCLE
  5
AC7C
  8
0
 10
59.28685421979569
 20
218.3699893038069
 30
0.0
 40
0.5075000000000001
  0
LINE
  5
AC7D
  8
0
 10
57.03935421979574
 20
217.8624893038072
 30
0.0
 11
57.03935421979574
 21
218.5874893038066
 31
0.0
  0
LINE
  5
AC7E
  8
0
 10
57.03935421979574
 20
218.5874893038066
 30
0.0
 11
57.76435421979565
 21
218.5874893038066
 31
0.0
  0
LINE
  5
AC7F
  8
0
 10
57.29777006138008
 20
217.0908308879656
 30
0.0
 11
57.76435421979565
 21
217.1374893038068
 31
0.0
  0
LINE
  5
AC80
  8
0
 10
57.16952878338677
 20
219.6684805756274
 30
0.0
 11
57.76435421979565
 21
219.6387393038073
 31
0.0
  0
LINE
  5
AC81
  8
0
 10
57.76435421979565
 20
219.6387393038073
 30
0.0
 11
57.76435421979565
 21
218.8412393038067
 31
0.0
  0
LINE
  5
AC82
  8
0
 10
57.76435421979565
 20
218.8412393038067
 30
0.0
 11
57.08997766119225
 21
218.8749581317376
 31
0.0
  0
LINE
  5
AC83
  8
0
 10
60.80935421979572
 20
217.1012393038067
 30
0.0
 11
60.80935421979572
 21
219.6387393038073
 31
0.0
  0
LINE
  5
AC84
  8
0
 10
62.91185421979569
 20
217.1012393038067
 30
0.0
 11
62.91185421979569
 21
217.6812393038066
 31
0.0
  0
LINE
  5
AC85
  8
0
 10
62.91185421979569
 20
219.0587393038074
 30
0.0
 11
62.91185421979569
 21
219.6387393038073
 31
0.0
  0
LINE
  5
AC86
  8
0
 10
60.80935421979572
 20
217.1012393038067
 30
0.0
 11
61.60685421979585
 21
217.1012393038067
 31
0.0
  0
LINE
  5
AC87
  8
0
 10
60.80935421979572
 20
219.6387393038073
 30
0.0
 11
61.60685421979585
 21
219.6387393038073
 31
0.0
  0
LINE
  5
AC88
  8
0
 10
61.60685421979585
 20
219.6387393038073
 30
0.0
 11
61.60685421979585
 21
218.7687393038072
 31
0.0
  0
LINE
  5
AC89
  8
0
 10
62.11435421979601
 20
219.6387393038073
 30
0.0
 11
62.11435421979601
 21
219.0587393038074
 31
0.0
  0
LINE
  5
AC8A
  8
0
 10
61.60685421979585
 20
217.1012393038067
 30
0.0
 11
61.60685421979585
 21
217.9712393038066
 31
0.0
  0
LINE
  5
AC8B
  8
0
 10
62.11435421979601
 20
217.1012393038067
 30
0.0
 11
62.11435421979601
 21
217.6812393038066
 31
0.0
  0
ARC
  5
AC8C
  8
0
 10
61.82435421979559
 20
217.6812393038066
 30
0.0
 40
0.29
 50
0.0
 51
90.0
  0
ARC
  5
AC8D
  8
0
 10
61.82435421979559
 20
217.6812393038066
 30
0.0
 40
1.0875
 50
0.0
 51
39.29648023919341
  0
LINE
  5
AC8E
  8
0
 10
62.11435421979601
 20
219.6387393038073
 30
0.0
 11
62.91185421979569
 21
219.6387393038073
 31
0.0
  0
LINE
  5
AC8F
  8
0
 10
62.11435421979601
 20
217.1012393038067
 30
0.0
 11
62.91185421979569
 21
217.1012393038067
 31
0.0
  0
LINE
  5
AC90
  8
0
 10
61.60685421979585
 20
218.7687393038072
 30
0.0
 11
61.82435421979559
 21
218.7687393038072
 31
0.0
  0
ARC
  5
AC91
  8
0
 10
61.82435421979559
 20
219.0587393038074
 30
0.0
 40
0.29
 50
270.0
 51
0.0
  0
ARC
  5
AC92
  8
0
 10
61.82435421979559
 20
219.0587393038074
 30
0.0
 40
1.0875
 50
320.7035197608225
 51
0.0
  0
LINE
  5
AC93
  8
0
 10
61.60685421979585
 20
217.9712393038066
 30
0.0
 11
61.82435421979559
 21
217.9712393038066
 31
0.0
  0
LINE
  5
AC94
  8
0
 10
63.12935421979589
 20
217.1012393038067
 30
0.0
 11
63.12935421979589
 21
219.6387393038073
 31
0.0
  0
LINE
  5
AC95
  8
0
 10
63.92685421979601
 20
217.1012393038067
 30
0.0
 11
63.92685421979601
 21
219.6387393038073
 31
0.0
  0
LINE
  5
AC96
  8
0
 10
63.12935421979589
 20
219.6387393038073
 30
0.0
 11
63.92685421979601
 21
219.6387393038073
 31
0.0
  0
LINE
  5
AC97
  8
0
 10
63.12935421979589
 20
217.1012393038067
 30
0.0
 11
63.92685421979601
 21
217.1012393038067
 31
0.0
  0
LINE
  5
AC98
  8
0
 10
64.14435421979576
 20
217.1012393038067
 30
0.0
 11
64.14435421979576
 21
218.5874893038066
 31
0.0
  0
LINE
  5
AC99
  8
0
 10
66.24685421979572
 20
217.1012393038067
 30
0.0
 11
66.24685421979572
 21
218.5874893038066
 31
0.0
  0
LINE
  5
AC9A
  8
0
 10
64.14435421979576
 20
217.1012393038067
 30
0.0
 11
64.94185421979589
 21
217.1012393038067
 31
0.0
  0
LINE
  5
AC9B
  8
0
 10
64.94185421979589
 20
217.1012393038067
 30
0.0
 11
64.94185421979589
 21
218.5874893038066
 31
0.0
  0
LINE
  5
AC9C
  8
0
 10
65.4493542197956
 20
217.1012393038067
 30
0.0
 11
65.4493542197956
 21
218.5874893038066
 31
0.0
  0
LINE
  5
AC9D
  8
0
 10
65.4493542197956
 20
217.1012393038067
 30
0.0
 11
66.24685421979572
 21
217.1012393038067
 31
0.0
  0
ARC
  5
AC9E
  8
0
 10
65.19560421979574
 20
218.5874893038066
 30
0.0
 40
1.05125
 50
0.0
 51
180.0
  0
ARC
  5
AC9F
  8
0
 10
65.19560421979574
 20
218.5874893038066
 30
0.0
 40
0.25375
 50
0.0
 51
180.0
  0
LINE
  5
ACA0
  8
0
 10
58.02185421979581
 20
212.8911311965016
 30
0.0
 11
66.02185421979581
 21
212.8911311965016
 31
0.0
  0
ARC
  5
ACA1
  8
0
 10
66.02185421979581
 20
210.8911311965016
 30
0.0
 40
2.0
 50
0.0
 51
90.0
  0
ARC
  5
ACA2
  8
0
 10
58.02185421979581
 20
210.8911311965016
 30
0.0
 40
2.0
 50
90.0
 51
180.0
  0
ARC
  5
ACA3
  8
0
 10
66.02185421979581
 20
203.8911311965011
 30
0.0
 40
2.0
 50
270.0
 51
0.0
  0
LINE
  5
ACA4
  8
0
 10
68.02185421979581
 20
203.8911311965011
 30
0.0
 11
68.02185421979581
 21
210.8911311965016
 31
0.0
  0
LINE
  5
ACA5
  8
0
 10
58.02185421979581
 20
201.8911311965011
 30
0.0
 11
66.02185421979581
 21
201.8911311965011
 31
0.0
  0
ARC
  5
ACA6
  8
0
 10
58.02185421979581
 20
203.8911311965011
 30
0.0
 40
2.0
 50
180.0
 51
270.0
  0
LINE
  5
ACA7
  8
0
 10
56.02185421979581
 20
203.8911311965011
 30
0.0
 11
56.02185421979581
 21
210.8911311965016
 31
0.0
  0
CIRCLE
  5
ACA8
  8
0
 10
97.02185421979581
 20
209.8911311965016
 30
0.0
 40
7.499999999999949
  0
CIRCLE
  5
ACA9
  8
0
 10
97.02185421979581
 20
209.8911311965016
 30
0.0
 40
8.20000000000001
  0
CIRCLE
  5
ACAA
  8
0
 10
97.02185421979581
 20
209.8911311965016
 30
0.0
 40
8.499999999999963
  0
LINE
  5
ACAB
  8
0
 10
69.77185421979581
 20
203.8911311965011
 30
0.0
 11
69.77185421979581
 21
215.8911311965016
 31
0.0
  0
LINE
  5
ACAC
  8
0
 10
70.07185421979577
 20
203.8911311965011
 30
0.0
 11
70.07185421979577
 21
209.8911311965011
 31
0.0
  0
ARC
  5
ACAD
  8
0
 10
71.77185421979581
 20
203.8911311965011
 30
0.0
 40
2.0
 50
180.0
 51
270.0
1001
GENIUS_GENOBJ-N-FIL_13
1002
{
1000
OWNER
1000
GEN
1002
}
1001
GENIUS_GENODEF_13
1002
{
1000
HIER
1070
     0
1002
}
1002
{
1000
MANEDIT
1070
     0
1002
}
1002
{
1000
NOSEL
1070
     0
1002
}
1002
{
1000
BEHIND
1070
     0
1002
}
1002
{
1000
OTHER
1070
     0
1002
}
1002
{
1000
REACTOR
1002
}
  0
ARC
  5
ACAE
  8
0
 10
71.77185421979581
 20
203.8911311965011
 30
0.0
 40
1.7
 50
180.0
 51
270.0
1001
GENIUS_GENOBJ-N-FIL_13
1002
{
1000
OWNER
1000
GEN
1002
}
1001
GENIUS_GENODEF_13
1002
{
1000
HIER
1070
     0
1002
}
1002
{
1000
MANEDIT
1070
     0
1002
}
1002
{
1000
NOSEL
1070
     0
1002
}
1002
{
1000
BEHIND
1070
     0
1002
}
1002
{
1000
OTHER
1070
     0
1002
}
1002
{
1000
REACTOR
1002
}
  0
LINE
  5
ACAF
  8
0
 10
87.7718542197949
 20
203.8911311965011
 30
0.0
 11
87.7718542197949
 21
215.8911311965007
 31
0.0
  0
LINE
  5
ACB0
  8
0
 10
87.47185421979495
 20
203.8911311965011
 30
0.0
 11
87.47185421979495
 21
209.8911311965011
 31
0.0
  0
ARC
  5
ACB1
  8
0
 10
85.7718542197949
 20
215.8911311965007
 30
0.0
 40
2.0
 50
0.0
 51
90.0
1001
GENIUS_GENODEF_13
1002
{
1000
HIER
1070
     0
1002
}
1002
{
1000
MANEDIT
1070
     0
1002
}
1002
{
1000
NOSEL
1070
     0
1002
}
1002
{
1000
BEHIND
1070
     0
1002
}
1002
{
1000
OTHER
1070
     0
1002
}
1002
{
1000
REACTOR
1002
}
1001
GENIUS_GENOBJ-N-FIL_13
1002
{
1000
OWNER
1000
GEN
1002
}
  0
INSERT
  5
ACB2
  8
0
  2
*X14
 10
0.0
 20
0.0
 30
0.0
  0
LINE
  5
ACB3
  8
0
 10
87.7718542197949
 20
209.8911311965011
 30
0.0
 11
69.77185421979581
 21
209.8911311965011
 31
0.0
  0
CIRCLE
  5
ACB4
  8
0
 10
78.97346775921093
 20
213.8911311965016
 30
0.0
 40
2.0
  0
LINE
  5
ACB5
  8
0
 10
85.7718542197949
 20
217.8911311965007
 30
0.0
 11
71.77185421979581
 21
217.8911311965016
 31
0.0
  0
ARC
  5
ACB6
  8
0
 10
71.77185421979581
 20
215.8911311965016
 30
0.0
 40
2.0
 50
90.0
 51
180.0
1001
GENIUS_GENOBJ-N-FIL_13
1002
{
1000
OWNER
1000
GEN
1002
}
1001
GENIUS_GENODEF_13
1002
{
1000
HIER
1070
     0
1002
}
1002
{
1000
MANEDIT
1070
     0
1002
}
1002
{
1000
NOSEL
1070
     0
1002
}
1002
{
1000
BEHIND
1070
     0
1002
}
1002
{
1000
OTHER
1070
     0
1002
}
1002
{
1000
REACTOR
1002
}
  0
LINE
  5
ACB7
  8
0
 10
85.7718542197949
 20
201.8911311965011
 30
0.0
 11
71.77185421979581
 21
201.8911311965011
 31
0.0
  0
LINE
  5
ACB8
  8
0
 10
85.7718542197949
 20
202.1911311965011
 30
0.0
 11
71.77185421979581
 21
202.1911311965011
 31
0.0
  0
ARC
  5
ACB9
  8
0
 10
85.7718542197949
 20
203.8911311965011
 30
0.0
 40
2.0
 50
270.0
 51
0.0
1001
GENIUS_GENODEF_13
1002
{
1000
HIER
1070
     0
1002
}
1002
{
1000
MANEDIT
1070
     0
1002
}
1002
{
1000
NOSEL
1070
     0
1002
}
1002
{
1000
BEHIND
1070
     0
1002
}
1002
{
1000
OTHER
1070
     0
1002
}
1002
{
1000
REACTOR
1002
}
1001
GENIUS_GENOBJ-N-FIL_13
1002
{
1000
OWNER
1000
GEN
1002
}
  0
ARC
  5
ACBA
  8
0
 10
85.7718542197949
 20
203.8911311965011
 30
0.0
 40
1.7
 50
270.0
 51
0.0
1001
GENIUS_GENODEF_13
1002
{
1000
HIER
1070
     0
1002
}
1002
{
1000
MANEDIT
1070
     0
1002
}
1002
{
1000
NOSEL
1070
     0
1002
}
1002
{
1000
BEHIND
1070
     0
1002
}
1002
{
1000
OTHER
1070
     0
1002
}
1002
{
1000
REACTOR
1002
}
1001
GENIUS_GENOBJ-N-FIL_13
1002
{
1000
OWNER
1000
GEN
1002
}
  0
TEXT
  5
ACBB
  8
0
 10
70.84772500937035
 20
212.9769691680538
 30
0.0
 40
1.9
  1
給水
  0
TEXT
  5
ACBC
  8
0
 10
90.84300449808894
 20
207.9715269911831
 30
0.0
 40
4.0
  1
PUSH
 41
1.2
  0
TEXT
  5
ACBD
  8
0
 10
43.65051841274572
 20
220.3458336992696
 30
0.0
 40
1.8
  1
電動水抜操作盤
  0
TEXT
  5
ACBE
  8
0
 10
43.57370950736539
 20
214.4935145898075
 30
0.0
 40
1.8
  1
ER2000SQ-A
  0
TEXT
  5
ACC0
  8
0
 10
45.97302104610605
 20
198.5567139828576
 30
0.0
 40
1.3
  1
冬期以外(凍結の心配がない期間)や長期間使用しないときは電源をOFFにしてください
  0
CIRCLE
  5
ACC3
  8
0
 10
44.33878989620072
 20
198.5903655242977
 30
0.0
 40
0.1
  0
LINE
  5
ACC4
  8
0
 10
44.23878989620081
 20
199.5903655242977
 30
0.0
 11
44.28923237407682
 21
198.8337283561572
 31
0.0
  0
LINE
  5
ACC5
  8
0
 10
44.43878989620109
 20
199.5903655242977
 30
0.0
 11
44.38834741832463
 21
198.8337283561554
 31
0.0
  0
ARC
  5
ACC6
  8
0
 10
44.33878989620072
 20
199.5903655242977
 30
0.0
 40
0.1
 50
0.0
 51
180.0
  0
ARC
  5
ACC7
  8
0
 10
44.33878989620072
 20
198.8403655242977
 30
0.0
 40
0.05
 50
187.6281496672678
 51
352.3718503306294
  0
TEXT
  5
ACCB
  8
0
 10
57.15608849214287
 20
203.1068505901877
 30
0.0
 40
1.9
  1
点検
  0
CIRCLE
  5
ACCC
  8
0
 10
84.02185421979627
 20
205.8911311965015
 30
0.0
 40
2.0
  0
CIRCLE
  5
ACCD
  8
0
 10
84.02185421979627
 20
205.8911311965015
 30
0.0
 40
1.5
  0
CIRCLE
  5
ACCE
  8
0
 10
84.02185421979627
 20
213.8911311965015
 30
0.0
 40
2.0
  0
CIRCLE
  5
ACCF
  8
0
 10
84.02185421979627
 20
213.8911311965015
 30
0.0
 40
1.5
  0
ARC
  5
ACD0
  8
0
 10
65.77349041352397
 20
204.4584469619241
 30
0.0
 40
0.9999999999999992
 50
233.0491207032584
 51
57.32628399712536
  0
LINE
  5
ACD1
  8
0
 10
65.1723602960534
 20
203.6592957985829
 30
0.0
 11
60.4652260844388
 21
207.2000528810659
 31
0.0
  0
LINE
  5
ACD2
  8
0
 10
61.35524593508359
 20
208.4800373105346
 30
0.0
 11
66.31334464058611
 21
205.3002054863975
 31
0.0
  0
ARC
  5
ACD3
  8
0
 10
58.90559484088654
 20
209.2339452032086
 30
0.0
 40
1.99079584716086
 50
1.683229077250197
 51
160.7903378653509
  0
ARC
  5
ACD4
  8
0
 10
61.89510016214615
 20
209.3217958350078
 30
0.0
 40
0.9999999999999992
 50
181.6832290772424
 51
237.3262839971254
1001
GENIUS_GENODEF_13
1002
{
1000
HIER
1070
     0
1002
}
1002
{
1000
MANEDIT
1070
     0
1002
}
1002
{
1000
NOSEL
1070
     0
1002
}
1002
{
1000
BEHIND
1070
     0
1002
}
1002
{
1000
OTHER
1070
     0
1002
}
1002
{
1000
REACTOR
1002
}
1001
GENIUS_GENOBJ-N-FIL_13
1002
{
1000
OWNER
1000
GEN
1002
}
  0
ARC
  5
ACD5
  8
0
 10
58.90559484088654
 20
209.2339452032086
 30
0.0
 40
1.99079584716086
 50
219.5850668351115
 51
288.6921756231421
  0
ARC
  5
ACD6
  8
0
 10
59.86409596696859
 20
206.4009017177244
 30
0.0
 40
0.9999999999999992
 50
53.04912070325843
 51
108.6921756231398
1001
GENIUS_GENOBJ-N-FIL_13
1002
{
1000
OWNER
1000
GEN
1002
}
1001
GENIUS_GENODEF_13
1002
{
1000
HIER
1070
     0
1002
}
1002
{
1000
MANEDIT
1070
     0
1002
}
1002
{
1000
NOSEL
1070
     0
1002
}
1002
{
1000
BEHIND
1070
     0
1002
}
1002
{
1000
OTHER
1070
     0
1002
}
1002
{
1000
REACTOR
1002
}
  0
LINE
  5
ACD7
  8
0
 10
59.46653936611119
 20
209.3347507626851
 30
0.0
 11
59.08408498941816
 21
208.2731578426452
 31
0.0
  0
LINE
  5
ACD8
  8
0
 10
59.08408498941816
 20
208.2731578426452
 30
0.0
 11
57.37132959088828
 21
207.96536400844
 31
0.0
  0
LINE
  5
ACD9
  8
0
 10
59.46653936611108
 20
209.3347507626857
 30
0.0
 11
58.73840011722434
 21
210.1967624287101
 31
0.0
  0
LINE
  5
ACDA
  8
0
 10
58.73840011722434
 20
210.1967624287101
 30
0.0
 11
57.02564471869422
 21
209.8889685945045
 31
0.0
  0
CIRCLE
  5
ACDB
  8
0
 10
65.77349041352397
 20
204.4584469619241
 30
0.0
 40
0.4999999999999996
  0
LINE
  5
ACDC
  8
0
 10
44.03436461426097
 20
212.5722661965011
 30
0.0
 11
46.37114611426099
 21
212.5722661965011
 31
0.0
  0
LINE
  5
ACDD
  8
0
 10
46.37114611426099
 20
212.5722661965011
 30
0.0
 11
46.37114611426099
 21
212.9062500965011
 31
0.0
  0
LINE
  5
ACDE
  8
0
 10
46.37114611426099
 20
212.9062500965011
 30
0.0
 11
44.03436461426097
 21
212.9062500965011
 31
0.0
  0
LINE
  5
ACDF
  8
0
 10
44.03436461426097
 20
212.9062500965011
 30
0.0
 11
44.03436461426097
 21
212.5722661965011
 31
0.0
  0
LINE
  5
ACE0
  8
0
 10
47.03873961426096
 20
212.5722661965011
 30
0.0
 11
48.03995411426096
 21
212.5722661965011
 31
0.0
  0
LINE
  5
ACE1
  8
0
 10
48.03995411426096
 20
212.5722661965011
 30
0.0
 11
48.03995411426096
 21
212.9062500965011
 31
0.0
  0
LINE
  5
ACE2
  8
0
 10
48.03995411426096
 20
212.9062500965011
 30
0.0
 11
47.03873961426096
 21
212.9062500965011
 31
0.0
  0
LINE
  5
ACE3
  8
0
 10
47.03873961426096
 20
212.9062500965011
 30
0.0
 11
47.03873961426096
 21
212.5722661965011
 31
0.0
  0
LINE
  5
ACE4
  8
0
 10
48.70750961426099
 20
212.5722661965011
 30
0.0
 11
49.04149351426098
 21
212.5722661965011
 31
0.0
  0
LINE
  5
ACE5
  8
0
 10
49.04149351426098
 20
212.5722661965011
 30
0.0
 11
49.04149351426098
 21
212.9062500965011
 31
0.0
  0
LINE
  5
ACE6
  8
0
 10
49.04149351426098
 20
212.9062500965011
 30
0.0
 11
48.70750961426099
 21
212.9062500965011
 31
0.0
  0
LINE
  5
ACE7
  8
0
 10
48.70750961426099
 20
212.9062500965011
 30
0.0
 11
48.70750961426099
 21
212.5722661965011
 31
0.0
  0
LINE
  5
ACE8
  8
0
 10
49.37507461426097
 20
212.5722661965011
 30
0.0
 11
49.70905946426097
 21
212.5722661965011
 31
0.0
  0
LINE
  5
ACE9
  8
0
 10
49.70905946426097
 20
212.5722661965011
 30
0.0
 11
49.70905946426097
 21
212.9062500965011
 31
0.0
  0
LINE
  5
ACEA
  8
0
 10
49.70905946426097
 20
212.9062500965011
 30
0.0
 11
49.37507461426097
 21
212.9062500965011
 31
0.0
  0
LINE
  5
ACEB
  8
0
 10
49.37507461426097
 20
212.9062500965011
 30
0.0
 11
49.37507461426097
 21
212.5722661965011
 31
0.0
  0
LINE
  5
ACEC
  8
0
 10
50.04273461426097
 20
212.5722661965011
 30
0.0
 11
50.37671946426097
 21
212.5722661965011
 31
0.0
  0
LINE
  5
ACED
  8
0
 10
50.37671946426097
 20
212.5722661965011
 30
0.0
 11
50.37671946426097
 21
212.9062500965011
 31
0.0
  0
LINE
  5
ACEE
  8
0
 10
50.37671946426097
 20
212.9062500965011
 30
0.0
 11
50.04273461426097
 21
212.9062500965011
 31
0.0
  0
LINE
  5
ACEF
  8
0
 10
50.04273461426097
 20
212.9062500965011
 30
0.0
 11
50.04273461426097
 21
212.5722661965011
 31
0.0
  0
LINE
  5
ACF0
  8
0
 10
51.37748461426096
 20
212.5722661965011
 30
0.0
 11
51.71146851426097
 21
212.5722661965011
 31
0.0
  0
LINE
  5
ACF1
  8
0
 10
51.71146851426097
 20
212.5722661965011
 30
0.0
 11
51.71146851426097
 21
212.9062500965011
 31
0.0
  0
LINE
  5
ACF2
  8
0
 10
51.71146851426097
 20
212.9062500965011
 30
0.0
 11
51.37748461426096
 21
212.9062500965011
 31
0.0
  0
LINE
  5
ACF3
  8
0
 10
51.37748461426096
 20
212.9062500965011
 30
0.0
 11
51.37748461426096
 21
212.5722661965011
 31
0.0
  0
LINE
  5
ACF5
  8
0
 10
53.04707351426097
 20
212.5722661965011
 30
0.0
 11
54.71549961426098
 21
212.5722661965011
 31
0.0
  0
LINE
  5
ACF6
  8
0
 10
55.04987111426097
 20
210.5690961965011
 30
0.0
 11
55.04987111426097
 21
212.9062500965011
 31
0.0
  0
LINE
  5
ACF7
  8
0
 10
55.04987111426097
 20
212.9062500965011
 30
0.0
 11
52.71308961426098
 21
212.9062500965011
 31
0.0
  0
LINE
  5
ACF8
  8
0
 10
52.71308961426098
 20
212.9062500965011
 30
0.0
 11
52.71308961426098
 21
210.5690961965011
 31
0.0
  0
LINE
  5
ACF9
  8
0
 10
44.03436461426097
 20
212.2383411965011
 30
0.0
 11
44.36871996426098
 21
212.2383411965011
 31
0.0
  0
LINE
  5
ACFA
  8
0
 10
44.36871996426098
 20
212.2383411965011
 30
0.0
 11
44.36871996426098
 21
212.5723260465011
 31
0.0
  0
LINE
  5
ACFB
  8
0
 10
44.36871996426098
 20
212.5723260465011
 30
0.0
 11
44.03436461426097
 21
212.5723260465011
 31
0.0
  0
LINE
  5
ACFC
  8
0
 10
44.03436461426097
 20
212.5723260465011
 30
0.0
 11
44.03436461426097
 21
212.2383411965011
 31
0.0
  0
LINE
  5
ACFD
  8
0
 10
46.03743961426096
 20
212.2383411965011
 30
0.0
 11
46.37142351426095
 21
212.2383411965011
 31
0.0
  0
LINE
  5
ACFE
  8
0
 10
46.37142351426095
 20
212.2383411965011
 30
0.0
 11
46.37142351426095
 21
212.5723260465011
 31
0.0
  0
LINE
  5
ACFF
  8
0
 10
46.37142351426095
 20
212.5723260465011
 30
0.0
 11
46.03743961426096
 21
212.5723260465011
 31
0.0
  0
LINE
  5
AD00
  8
0
 10
46.03743961426096
 20
212.5723260465011
 30
0.0
 11
46.03743961426096
 21
212.2383411965011
 31
0.0
  0
LINE
  5
AD01
  8
0
 10
46.70509961426097
 20
212.2383411965011
 30
0.0
 11
47.70668461426096
 21
212.2383411965011
 31
0.0
  0
LINE
  5
AD02
  8
0
 10
47.70668461426096
 20
212.2383411965011
 30
0.0
 11
47.70668461426096
 21
212.5723260465011
 31
0.0
  0
LINE
  5
AD03
  8
0
 10
47.70668461426096
 20
212.5723260465011
 30
0.0
 11
46.70509961426097
 21
212.5723260465011
 31
0.0
  0
LINE
  5
AD04
  8
0
 10
46.70509961426097
 20
212.5723260465011
 30
0.0
 11
46.70509961426097
 21
212.2383411965011
 31
0.0
  0
LINE
  5
AD05
  8
0
 10
48.04032461426098
 20
212.2383411965011
 30
0.0
 11
49.04153911426097
 21
212.2383411965011
 31
0.0
  0
LINE
  5
AD06
  8
0
 10
49.04153911426097
 20
212.2383411965011
 30
0.0
 11
49.04153911426097
 21
212.5723260465011
 31
0.0
  0
LINE
  5
AD07
  8
0
 10
49.04153911426097
 20
212.5723260465011
 30
0.0
 11
48.04032461426098
 21
212.5723260465011
 31
0.0
  0
LINE
  5
AD08
  8
0
 10
48.04032461426098
 20
212.5723260465011
 30
0.0
 11
48.04032461426098
 21
212.2383411965011
 31
0.0
  0
LINE
  5
AD09
  8
0
 10
49.70909461426098
 20
212.2383411965011
 30
0.0
 11
50.04307851426097
 21
212.2383411965011
 31
0.0
  0
LINE
  5
AD0A
  8
0
 10
50.04307851426097
 20
212.2383411965011
 30
0.0
 11
50.04307851426097
 21
212.5723260465011
 31
0.0
  0
LINE
  5
AD0B
  8
0
 10
50.04307851426097
 20
212.5723260465011
 30
0.0
 11
49.70909461426098
 21
212.5723260465011
 31
0.0
  0
LINE
  5
AD0C
  8
0
 10
49.70909461426098
 20
212.5723260465011
 30
0.0
 11
49.70909461426098
 21
212.2383411965011
 31
0.0
  0
LINE
  5
AD0D
  8
0
 10
50.70991961426098
 20
212.2383411965011
 30
0.0
 11
51.04427496426098
 21
212.2383411965011
 31
0.0
  0
LINE
  5
AD0E
  8
0
 10
51.04427496426098
 20
212.2383411965011
 30
0.0
 11
51.04427496426098
 21
212.5723260465011
 31
0.0
  0
LINE
  5
AD0F
  8
0
 10
51.04427496426098
 20
212.5723260465011
 30
0.0
 11
50.70991961426098
 21
212.5723260465011
 31
0.0
  0
LINE
  5
AD10
  8
0
 10
50.70991961426098
 20
212.5723260465011
 30
0.0
 11
50.70991961426098
 21
212.2383411965011
 31
0.0
  0
LINE
  5
AD11
  8
0
 10
51.37748461426096
 20
212.2383411965011
 30
0.0
 11
51.71146851426097
 21
212.2383411965011
 31
0.0
  0
LINE
  5
AD12
  8
0
 10
51.71146851426097
 20
212.2383411965011
 30
0.0
 11
51.71146851426097
 21
212.5723260465011
 31
0.0
  0
LINE
  5
AD13
  8
0
 10
51.71146851426097
 20
212.5723260465011
 30
0.0
 11
51.37748461426096
 21
212.5723260465011
 31
0.0
  0
LINE
  5
AD14
  8
0
 10
51.37748461426096
 20
212.5723260465011
 30
0.0
 11
51.37748461426096
 21
212.2383411965011
 31
0.0
  0
LINE
  5
AD15
  8
0
 10
52.04590461426096
 20
212.2383411965011
 30
0.0
 11
52.37988946426097
 21
212.2383411965011
 31
0.0
  0
LINE
  5
AD17
  8
0
 10
52.37988946426097
 20
212.2382965465011
 30
0.0
 11
52.37988946426097
 21
212.5723260465011
 31
0.0
  0
LINE
  5
AD18
  8
0
 10
52.37988946426097
 20
212.5723260465011
 30
0.0
 11
52.04590461426096
 21
212.5723260465011
 31
0.0
  0
LINE
  5
AD19
  8
0
 10
52.04590461426096
 20
212.5723260465011
 30
0.0
 11
52.04590461426096
 21
212.2382965465011
 31
0.0
  0
LINE
  5
AD1A
  8
0
 10
44.03436461426097
 20
211.9039411965011
 30
0.0
 11
44.36871996426098
 21
211.9039411965011
 31
0.0
  0
LINE
  5
AD1B
  8
0
 10
44.36871996426098
 20
211.9039411965011
 30
0.0
 11
44.36871996426098
 21
212.2382965465011
 31
0.0
  0
LINE
  5
AD1C
  8
0
 10
44.36871996426098
 20
212.2382965465011
 30
0.0
 11
44.03436461426097
 21
212.2382965465011
 31
0.0
  0
LINE
  5
AD1D
  8
0
 10
44.03436461426097
 20
212.2382965465011
 30
0.0
 11
44.03436461426097
 21
211.9039411965011
 31
0.0
  0
LINE
  5
AD1E
  8
0
 10
44.70192961426096
 20
211.9039411965011
 30
0.0
 11
45.70351461426097
 21
211.9039411965011
 31
0.0
  0
LINE
  5
AD1F
  8
0
 10
45.70351461426097
 20
211.9039411965011
 30
0.0
 11
45.70351461426097
 21
212.2382965465011
 31
0.0
  0
LINE
  5
AD20
  8
0
 10
45.70351461426097
 20
212.2382965465011
 30
0.0
 11
44.70192961426096
 21
212.2382965465011
 31
0.0
  0
LINE
  5
AD21
  8
0
 10
44.70192961426096
 20
212.2382965465011
 30
0.0
 11
44.70192961426096
 21
211.9039411965011
 31
0.0
  0
LINE
  5
AD22
  8
0
 10
46.03743961426096
 20
211.9039411965011
 30
0.0
 11
46.37142351426095
 21
211.9039411965011
 31
0.0
  0
LINE
  5
AD23
  8
0
 10
46.37142351426095
 20
211.9039411965011
 30
0.0
 11
46.37142351426095
 21
212.2382965465011
 31
0.0
  0
LINE
  5
AD24
  8
0
 10
46.37142351426095
 20
212.2382965465011
 30
0.0
 11
46.03743961426096
 21
212.2382965465011
 31
0.0
  0
LINE
  5
AD25
  8
0
 10
46.03743961426096
 20
212.2382965465011
 30
0.0
 11
46.03743961426096
 21
211.9039411965011
 31
0.0
  0
LINE
  5
AD26
  8
0
 10
46.70509961426097
 20
211.9039411965011
 30
0.0
 11
47.70668461426096
 21
211.9039411965011
 31
0.0
  0
LINE
  5
AD27
  8
0
 10
47.70668461426096
 20
211.9039411965011
 30
0.0
 11
47.70668461426096
 21
212.2382965465011
 31
0.0
  0
LINE
  5
AD28
  8
0
 10
47.70668461426096
 20
212.2382965465011
 30
0.0
 11
46.70509961426097
 21
212.2382965465011
 31
0.0
  0
LINE
  5
AD29
  8
0
 10
46.70509961426097
 20
212.2382965465011
 30
0.0
 11
46.70509961426097
 21
211.9039411965011
 31
0.0
  0
LINE
  5
AD2A
  8
0
 10
48.04032461426098
 20
211.9039411965011
 30
0.0
 11
48.70755141426096
 21
211.9039411965011
 31
0.0
  0
LINE
  5
AD2B
  8
0
 10
48.70755141426096
 20
211.9039411965011
 30
0.0
 11
48.70755141426096
 21
212.2382965465011
 31
0.0
  0
LINE
  5
AD2C
  8
0
 10
48.70755141426096
 20
212.2382965465011
 30
0.0
 11
48.04032461426098
 21
212.2382965465011
 31
0.0
  0
LINE
  5
AD2D
  8
0
 10
48.04032461426098
 20
212.2382965465011
 30
0.0
 11
48.04032461426098
 21
211.9039411965011
 31
0.0
  0
LINE
  5
AD2E
  8
0
 10
49.04152961426097
 20
211.9039411965011
 30
0.0
 11
49.37588496426098
 21
211.9039411965011
 31
0.0
  0
LINE
  5
AD2F
  8
0
 10
49.37588496426098
 20
211.9039411965011
 30
0.0
 11
49.37588496426098
 21
212.2382965465011
 31
0.0
  0
LINE
  5
AD30
  8
0
 10
49.37588496426098
 20
212.2382965465011
 30
0.0
 11
49.04152961426097
 21
212.2382965465011
 31
0.0
  0
LINE
  5
AD31
  8
0
 10
49.04152961426097
 20
212.2382965465011
 30
0.0
 11
49.04152961426097
 21
211.9039411965011
 31
0.0
  0
LINE
  5
AD32
  8
0
 10
49.70909461426098
 20
211.9039411965011
 30
0.0
 11
50.71067961426098
 21
211.9039411965011
 31
0.0
  0
LINE
  5
AD33
  8
0
 10
50.71067961426098
 20
211.9039411965011
 30
0.0
 11
50.71067961426098
 21
212.2382965465011
 31
0.0
  0
LINE
  5
AD34
  8
0
 10
50.71067961426098
 20
212.2382965465011
 30
0.0
 11
49.70909461426098
 21
212.2382965465011
 31
0.0
  0
LINE
  5
AD35
  8
0
 10
49.70909461426098
 20
212.2382965465011
 30
0.0
 11
49.70909461426098
 21
211.9039411965011
 31
0.0
  0
LINE
  5
AD36
  8
0
 10
51.04431961426097
 20
211.9039411965011
 30
0.0
 11
51.37830446426096
 21
211.9039411965011
 31
0.0
  0
LINE
  5
AD37
  8
0
 10
51.37830446426096
 20
211.9039411965011
 30
0.0
 11
51.37830446426096
 21
212.2382965465011
 31
0.0
  0
LINE
  5
AD38
  8
0
 10
51.37830446426096
 20
212.2382965465011
 30
0.0
 11
51.04431961426097
 21
212.2382965465011
 31
0.0
  0
LINE
  5
AD39
  8
0
 10
51.04431961426097
 20
212.2382965465011
 30
0.0
 11
51.04431961426097
 21
211.9039411965011
 31
0.0
  0
LINE
  5
AD3A
  8
0
 10
52.04590461426096
 20
211.9039411965011
 30
0.0
 11
52.37988946426097
 21
211.9039411965011
 31
0.0
  0
LINE
  5
AD3B
  8
0
 10
52.37988946426097
 20
211.9039411965011
 30
0.0
 11
52.37988946426097
 21
212.2382965465011
 31
0.0
  0
LINE
  5
AD3C
  8
0
 10
52.37988946426097
 20
212.2382965465011
 30
0.0
 11
52.04590461426096
 21
212.2382965465011
 31
0.0
  0
LINE
  5
AD3D
  8
0
 10
52.04590461426096
 20
212.2382965465011
 30
0.0
 11
52.04590461426096
 21
211.9039411965011
 31
0.0
  0
LINE
  5
AD3F
  8
0
 10
54.38223961426097
 20
211.2367561965011
 30
0.0
 11
54.38223961426097
 21
212.2382965465011
 31
0.0
  0
LINE
  5
AD40
  8
0
 10
54.38223961426097
 20
212.2382965465011
 30
0.0
 11
53.38065461426096
 21
212.2382965465011
 31
0.0
  0
LINE
  5
AD41
  8
0
 10
53.38065461426096
 20
212.2382965465011
 30
0.0
 11
53.38065461426096
 21
211.2367561965011
 31
0.0
  0
LINE
  5
AD42
  8
0
 10
44.03436461426097
 20
211.5706811965011
 30
0.0
 11
44.36871996426098
 21
211.5706811965011
 31
0.0
  0
LINE
  5
AD43
  8
0
 10
44.36871996426098
 20
211.5706811965011
 30
0.0
 11
44.36871996426098
 21
211.9046650965011
 31
0.0
  0
LINE
  5
AD44
  8
0
 10
44.36871996426098
 20
211.9046650965011
 30
0.0
 11
44.03436461426097
 21
211.9046650965011
 31
0.0
  0
LINE
  5
AD45
  8
0
 10
44.03436461426097
 20
211.9046650965011
 30
0.0
 11
44.03436461426097
 21
211.5706811965011
 31
0.0
  0
LINE
  5
AD46
  8
0
 10
44.70192961426096
 20
211.5706811965011
 30
0.0
 11
45.70351461426097
 21
211.5706811965011
 31
0.0
  0
LINE
  5
AD47
  8
0
 10
45.70351461426097
 20
211.5706811965011
 30
0.0
 11
45.70351461426097
 21
211.9046650965011
 31
0.0
  0
LINE
  5
AD48
  8
0
 10
45.70351461426097
 20
211.9046650965011
 30
0.0
 11
44.70192961426096
 21
211.9046650965011
 31
0.0
  0
LINE
  5
AD49
  8
0
 10
44.70192961426096
 20
211.9046650965011
 30
0.0
 11
44.70192961426096
 21
211.5706811965011
 31
0.0
  0
LINE
  5
AD4A
  8
0
 10
46.03743961426096
 20
211.5706811965011
 30
0.0
 11
46.37142351426095
 21
211.5706811965011
 31
0.0
  0
LINE
  5
AD4B
  8
0
 10
46.37142351426095
 20
211.5706811965011
 30
0.0
 11
46.37142351426095
 21
211.9046650965011
 31
0.0
  0
LINE
  5
AD4C
  8
0
 10
46.37142351426095
 20
211.9046650965011
 30
0.0
 11
46.03743961426096
 21
211.9046650965011
 31
0.0
  0
LINE
  5
AD4D
  8
0
 10
46.03743961426096
 20
211.9046650965011
 30
0.0
 11
46.03743961426096
 21
211.5706811965011
 31
0.0
  0
LINE
  5
AD4E
  8
0
 10
46.70509961426097
 20
211.5706811965011
 30
0.0
 11
47.03908446426098
 21
211.5706811965011
 31
0.0
  0
LINE
  5
AD4F
  8
0
 10
47.03908446426098
 20
211.5706811965011
 30
0.0
 11
47.03908446426098
 21
211.9046650965011
 31
0.0
  0
LINE
  5
AD50
  8
0
 10
47.03908446426098
 20
211.9046650965011
 30
0.0
 11
46.70509961426097
 21
211.9046650965011
 31
0.0
  0
LINE
  5
AD51
  8
0
 10
46.70509961426097
 20
211.9046650965011
 30
0.0
 11
46.70509961426097
 21
211.5706811965011
 31
0.0
  0
LINE
  5
AD52
  8
0
 10
50.37665961426097
 20
211.5706811965011
 30
0.0
 11
50.71064351426097
 21
211.5706811965011
 31
0.0
  0
LINE
  5
AD53
  8
0
 10
50.71064351426097
 20
211.5706811965011
 30
0.0
 11
50.71064351426097
 21
211.9046650965011
 31
0.0
  0
LINE
  5
AD54
  8
0
 10
50.71064351426097
 20
211.9046650965011
 30
0.0
 11
50.37665961426097
 21
211.9046650965011
 31
0.0
  0
LINE
  5
AD55
  8
0
 10
50.37665961426097
 20
211.9046650965011
 30
0.0
 11
50.37665961426097
 21
211.5706811965011
 31
0.0
  0
LINE
  5
AD56
  8
0
 10
51.04431961426097
 20
211.5706811965011
 30
0.0
 11
52.37914561426096
 21
211.5706811965011
 31
0.0
  0
LINE
  5
AD57
  8
0
 10
52.37914561426096
 20
211.5706811965011
 30
0.0
 11
52.37914561426096
 21
211.9046650965011
 31
0.0
  0
LINE
  5
AD58
  8
0
 10
52.37914561426096
 20
211.9046650965011
 30
0.0
 11
51.04431961426097
 21
211.9046650965011
 31
0.0
  0
LINE
  5
AD59
  8
0
 10
51.04431961426097
 20
211.9046650965011
 30
0.0
 11
51.04431961426097
 21
211.5706811965011
 31
0.0
  0
LINE
  5
AD5A
  8
0
 10
44.03436461426097
 20
211.2367561965011
 30
0.0
 11
44.36871996426098
 21
211.2367561965011
 31
0.0
  0
LINE
  5
AD5B
  8
0
 10
44.36871996426098
 20
211.2367561965011
 30
0.0
 11
44.36871996426098
 21
211.5707410465011
 31
0.0
  0
LINE
  5
AD5C
  8
0
 10
44.36871996426098
 20
211.5707410465011
 30
0.0
 11
44.03436461426097
 21
211.5707410465011
 31
0.0
  0
LINE
  5
AD5D
  8
0
 10
44.03436461426097
 20
211.5707410465011
 30
0.0
 11
44.03436461426097
 21
211.2367561965011
 31
0.0
  0
LINE
  5
AD5E
  8
0
 10
44.70192961426096
 20
211.2367561965011
 30
0.0
 11
45.70351461426097
 21
211.2367561965011
 31
0.0
  0
LINE
  5
AD5F
  8
0
 10
45.70351461426097
 20
211.2367561965011
 30
0.0
 11
45.70351461426097
 21
211.5707410465011
 31
0.0
  0
LINE
  5
AD60
  8
0
 10
45.70351461426097
 20
211.5707410465011
 30
0.0
 11
44.70192961426096
 21
211.5707410465011
 31
0.0
  0
LINE
  5
AD61
  8
0
 10
44.70192961426096
 20
211.5707410465011
 30
0.0
 11
44.70192961426096
 21
211.2367561965011
 31
0.0
  0
LINE
  5
AD62
  8
0
 10
46.03743961426096
 20
211.2367561965011
 30
0.0
 11
46.37142351426095
 21
211.2367561965011
 31
0.0
  0
LINE
  5
AD63
  8
0
 10
46.37142351426095
 20
211.2367561965011
 30
0.0
 11
46.37142351426095
 21
211.5707410465011
 31
0.0
  0
LINE
  5
AD64
  8
0
 10
46.37142351426095
 20
211.5707410465011
 30
0.0
 11
46.03743961426096
 21
211.5707410465011
 31
0.0
  0
LINE
  5
AD65
  8
0
 10
46.03743961426096
 20
211.5707410465011
 30
0.0
 11
46.03743961426096
 21
211.2367561965011
 31
0.0
  0
LINE
  5
AD66
  8
0
 10
47.03873961426096
 20
211.2367561965011
 30
0.0
 11
47.37272446426095
 21
211.2367561965011
 31
0.0
  0
LINE
  5
AD67
  8
0
 10
47.37272446426095
 20
211.2367561965011
 30
0.0
 11
47.37272446426095
 21
211.5707410465011
 31
0.0
  0
LINE
  5
AD68
  8
0
 10
47.37272446426095
 20
211.5707410465011
 30
0.0
 11
47.03873961426096
 21
211.5707410465011
 31
0.0
  0
LINE
  5
AD69
  8
0
 10
47.03873961426096
 20
211.5707410465011
 30
0.0
 11
47.03873961426096
 21
211.2367561965011
 31
0.0
  0
LINE
  5
AD6A
  8
0
 10
47.70592461426097
 20
211.2367561965011
 30
0.0
 11
48.70750961426099
 21
211.2367561965011
 31
0.0
  0
LINE
  5
AD6B
  8
0
 10
48.70750961426099
 20
211.2367561965011
 30
0.0
 11
48.70750961426099
 21
211.5707410465011
 31
0.0
  0
LINE
  5
AD6C
  8
0
 10
48.70750961426099
 20
211.5707410465011
 30
0.0
 11
47.70592461426097
 21
211.5707410465011
 31
0.0
  0
LINE
  5
AD6D
  8
0
 10
47.70592461426097
 20
211.5707410465011
 30
0.0
 11
47.70592461426097
 21
211.2367561965011
 31
0.0
  0
LINE
  5
AD6E
  8
0
 10
49.04152961426097
 20
211.2367561965011
 30
0.0
 11
49.37588496426098
 21
211.2367561965011
 31
0.0
  0
LINE
  5
AD6F
  8
0
 10
49.37588496426098
 20
211.2367561965011
 30
0.0
 11
49.37588496426098
 21
211.5707410465011
 31
0.0
  0
LINE
  5
AD70
  8
0
 10
49.37588496426098
 20
211.5707410465011
 30
0.0
 11
49.04152961426097
 21
211.5707410465011
 31
0.0
  0
LINE
  5
AD71
  8
0
 10
49.04152961426097
 20
211.5707410465011
 30
0.0
 11
49.04152961426097
 21
211.2367561965011
 31
0.0
  0
LINE
  5
AD72
  8
0
 10
49.70909461426098
 20
211.2367561965011
 30
0.0
 11
50.37669191426097
 21
211.2367561965011
 31
0.0
  0
LINE
  5
AD73
  8
0
 10
50.37669191426097
 20
211.2367561965011
 30
0.0
 11
50.37669191426097
 21
211.5707410465011
 31
0.0
  0
LINE
  5
AD74
  8
0
 10
50.37669191426097
 20
211.5707410465011
 30
0.0
 11
49.70909461426098
 21
211.5707410465011
 31
0.0
  0
LINE
  5
AD75
  8
0
 10
49.70909461426098
 20
211.5707410465011
 30
0.0
 11
49.70909461426098
 21
211.2367561965011
 31
0.0
  0
LINE
  5
AD76
  8
0
 10
51.71150461426097
 20
211.2367561965011
 30
0.0
 11
52.04585996426097
 21
211.2367561965011
 31
0.0
  0
LINE
  5
AD77
  8
0
 10
52.04585996426097
 20
211.2367561965011
 30
0.0
 11
52.04585996426097
 21
211.5707410465011
 31
0.0
  0
LINE
  5
AD78
  8
0
 10
52.04585996426097
 20
211.5707410465011
 30
0.0
 11
51.71150461426097
 21
211.5707410465011
 31
0.0
  0
LINE
  5
AD79
  8
0
 10
51.71150461426097
 20
211.5707410465011
 30
0.0
 11
51.71150461426097
 21
211.2367561965011
 31
0.0
  0
LINE
  5
AD7A
  8
0
 10
53.38065461426096
 20
211.2367561965011
 30
0.0
 11
54.38223961426097
 21
211.2367561965011
 31
0.0
  0
LINE
  5
AD7B
  8
0
 10
44.03436461426097
 20
210.9031161965011
 30
0.0
 11
44.36871996426098
 21
210.9031161965011
 31
0.0
  0
LINE
  5
AD7C
  8
0
 10
44.36871996426098
 20
210.9031161965011
 30
0.0
 11
44.36871996426098
 21
211.2371010465011
 31
0.0
  0
LINE
  5
AD7D
  8
0
 10
44.36871996426098
 20
211.2371010465011
 30
0.0
 11
44.03436461426097
 21
211.2371010465011
 31
0.0
  0
LINE
  5
AD7E
  8
0
 10
44.03436461426097
 20
211.2371010465011
 30
0.0
 11
44.03436461426097
 21
210.9031161965011
 31
0.0
  0
LINE
  5
AD7F
  8
0
 10
46.03743961426096
 20
210.9031161965011
 30
0.0
 11
46.37142351426095
 21
210.9031161965011
 31
0.0
  0
LINE
  5
AD80
  8
0
 10
46.37142351426095
 20
210.9031161965011
 30
0.0
 11
46.37142351426095
 21
211.2371010465011
 31
0.0
  0
LINE
  5
AD81
  8
0
 10
46.37142351426095
 20
211.2371010465011
 30
0.0
 11
46.03743961426096
 21
211.2371010465011
 31
0.0
  0
LINE
  5
AD82
  8
0
 10
46.03743961426096
 20
211.2371010465011
 30
0.0
 11
46.03743961426096
 21
210.9031161965011
 31
0.0
  0
LINE
  5
AD83
  8
0
 10
48.37348961426096
 20
210.9031161965011
 30
0.0
 11
49.04108786426099
 21
210.9031161965011
 31
0.0
  0
LINE
  5
AD84
  8
0
 10
49.04108786426099
 20
210.9031161965011
 30
0.0
 11
49.04108786426099
 21
211.2371010465011
 31
0.0
  0
LINE
  5
AD85
  8
0
 10
49.04108786426099
 20
211.2371010465011
 30
0.0
 11
48.37348961426096
 21
211.2371010465011
 31
0.0
  0
LINE
  5
AD86
  8
0
 10
48.37348961426096
 20
211.2371010465011
 30
0.0
 11
48.37348961426096
 21
210.9031161965011
 31
0.0
  0
LINE
  5
AD87
  8
0
 10
49.37507461426097
 20
210.9031161965011
 30
0.0
 11
49.70905946426097
 21
210.9031161965011
 31
0.0
  0
LINE
  5
AD88
  8
0
 10
49.70905946426097
 20
210.9031161965011
 30
0.0
 11
49.70905946426097
 21
211.2371010465011
 31
0.0
  0
LINE
  5
AD89
  8
0
 10
49.70905946426097
 20
211.2371010465011
 30
0.0
 11
49.37507461426097
 21
211.2371010465011
 31
0.0
  0
LINE
  5
AD8A
  8
0
 10
49.37507461426097
 20
211.2371010465011
 30
0.0
 11
49.37507461426097
 21
210.9031161965011
 31
0.0
  0
LINE
  5
AD8B
  8
0
 10
50.04273461426097
 20
210.9031161965011
 30
0.0
 11
50.37671946426097
 21
210.9031161965011
 31
0.0
  0
LINE
  5
AD8C
  8
0
 10
50.37671946426097
 20
210.9031161965011
 30
0.0
 11
50.37671946426097
 21
211.2371010465011
 31
0.0
  0
LINE
  5
AD8D
  8
0
 10
50.37671946426097
 20
211.2371010465011
 30
0.0
 11
50.04273461426097
 21
211.2371010465011
 31
0.0
  0
LINE
  5
AD8E
  8
0
 10
50.04273461426097
 20
211.2371010465011
 30
0.0
 11
50.04273461426097
 21
210.9031161965011
 31
0.0
  0
LINE
  5
AD8F
  8
0
 10
50.70991961426098
 20
210.9031161965011
 30
0.0
 11
51.04427496426098
 21
210.9031161965011
 31
0.0
  0
LINE
  5
AD90
  8
0
 10
51.04427496426098
 20
210.9031161965011
 30
0.0
 11
51.04427496426098
 21
211.2371010465011
 31
0.0
  0
LINE
  5
AD91
  8
0
 10
51.04427496426098
 20
211.2371010465011
 30
0.0
 11
50.70991961426098
 21
211.2371010465011
 31
0.0
  0
LINE
  5
AD92
  8
0
 10
50.70991961426098
 20
211.2371010465011
 30
0.0
 11
50.70991961426098
 21
210.9031161965011
 31
0.0
  0
LINE
  5
AD93
  8
0
 10
53.04707351426097
 20
210.9030800965011
 30
0.0
 11
53.04707351426097
 21
212.5722661965011
 31
0.0
  0
LINE
  5
AD94
  8
0
 10
54.71549961426098
 20
212.5722661965011
 30
0.0
 11
54.71549961426098
 21
210.9030800965011
 31
0.0
  0
LINE
  5
AD95
  8
0
 10
44.03436461426097
 20
210.5690961965011
 30
0.0
 11
46.37114611426099
 21
210.5690961965011
 31
0.0
  0
LINE
  5
AD96
  8
0
 10
46.37114611426099
 20
210.5690961965011
 30
0.0
 11
46.37114611426099
 21
210.9030800965011
 31
0.0
  0
LINE
  5
AD97
  8
0
 10
46.37114611426099
 20
210.9030800965011
 30
0.0
 11
44.03436461426097
 21
210.9030800965011
 31
0.0
  0
LINE
  5
AD98
  8
0
 10
44.03436461426097
 20
210.9030800965011
 30
0.0
 11
44.03436461426097
 21
210.5690961965011
 31
0.0
  0
LINE
  5
AD99
  8
0
 10
46.70509961426097
 20
210.5690961965011
 30
0.0
 11
47.03908446426098
 21
210.5690961965011
 31
0.0
  0
LINE
  5
AD9A
  8
0
 10
47.03908446426098
 20
210.5690961965011
 30
0.0
 11
47.03908446426098
 21
210.9030800965011
 31
0.0
  0
LINE
  5
AD9B
  8
0
 10
47.03908446426098
 20
210.9030800965011
 30
0.0
 11
46.70509961426097
 21
210.9030800965011
 31
0.0
  0
LINE
  5
AD9C
  8
0
 10
46.70509961426097
 20
210.9030800965011
 30
0.0
 11
46.70509961426097
 21
210.5690961965011
 31
0.0
  0
LINE
  5
AD9D
  8
0
 10
47.37266461426097
 20
210.5690961965011
 30
0.0
 11
47.70664851426098
 21
210.5690961965011
 31
0.0
  0
LINE
  5
AD9E
  8
0
 10
47.70664851426098
 20
210.5690961965011
 30
0.0
 11
47.70664851426098
 21
210.9030800965011
 31
0.0
  0
LINE
  5
AD9F
  8
0
 10
47.70664851426098
 20
210.9030800965011
 30
0.0
 11
47.37266461426097
 21
210.9030800965011
 31
0.0
  0
LINE
  5
ADA0
  8
0
 10
47.37266461426097
 20
210.9030800965011
 30
0.0
 11
47.37266461426097
 21
210.5690961965011
 31
0.0
  0
LINE
  5
ADA1
  8
0
 10
48.04032461426098
 20
210.5690961965011
 30
0.0
 11
48.37430851426097
 21
210.5690961965011
 31
0.0
  0
LINE
  5
ADA2
  8
0
 10
48.37430851426097
 20
210.5690961965011
 30
0.0
 11
48.37430851426097
 21
210.9030800965011
 31
0.0
  0
LINE
  5
ADA3
  8
0
 10
48.37430851426097
 20
210.9030800965011
 30
0.0
 11
48.04032461426098
 21
210.9030800965011
 31
0.0
  0
LINE
  5
ADA4
  8
0
 10
48.04032461426098
 20
210.9030800965011
 30
0.0
 11
48.04032461426098
 21
210.5690961965011
 31
0.0
  0
LINE
  5
ADA5
  8
0
 10
48.70750961426099
 20
210.5690961965011
 30
0.0
 11
49.04149351426098
 21
210.5690961965011
 31
0.0
  0
LINE
  5
ADA6
  8
0
 10
49.04149351426098
 20
210.5690961965011
 30
0.0
 11
49.04149351426098
 21
210.9030800965011
 31
0.0
  0
LINE
  5
ADA7
  8
0
 10
49.04149351426098
 20
210.9030800965011
 30
0.0
 11
48.70750961426099
 21
210.9030800965011
 31
0.0
  0
LINE
  5
ADA8
  8
0
 10
48.70750961426099
 20
210.9030800965011
 30
0.0
 11
48.70750961426099
 21
210.5690961965011
 31
0.0
  0
LINE
  5
ADA9
  8
0
 10
49.37507461426097
 20
210.5690961965011
 30
0.0
 11
49.70905946426097
 21
210.5690961965011
 31
0.0
  0
LINE
  5
ADAA
  8
0
 10
49.70905946426097
 20
210.5690961965011
 30
0.0
 11
49.70905946426097
 21
210.9030800965011
 31
0.0
  0
LINE
  5
ADAB
  8
0
 10
49.70905946426097
 20
210.9030800965011
 30
0.0
 11
49.37507461426097
 21
210.9030800965011
 31
0.0
  0
LINE
  5
ADAC
  8
0
 10
49.37507461426097
 20
210.9030800965011
 30
0.0
 11
49.37507461426097
 21
210.5690961965011
 31
0.0
  0
LINE
  5
ADAD
  8
0
 10
50.04273461426097
 20
210.5690961965011
 30
0.0
 11
50.37671946426097
 21
210.5690961965011
 31
0.0
  0
LINE
  5
ADAE
  8
0
 10
50.37671946426097
 20
210.5690961965011
 30
0.0
 11
50.37671946426097
 21
210.9030800965011
 31
0.0
  0
LINE
  5
ADAF
  8
0
 10
50.37671946426097
 20
210.9030800965011
 30
0.0
 11
50.04273461426097
 21
210.9030800965011
 31
0.0
  0
LINE
  5
ADB0
  8
0
 10
50.04273461426097
 20
210.9030800965011
 30
0.0
 11
50.04273461426097
 21
210.5690961965011
 31
0.0
  0
LINE
  5
ADB1
  8
0
 10
50.70991961426098
 20
210.5690961965011
 30
0.0
 11
51.04427496426098
 21
210.5690961965011
 31
0.0
  0
LINE
  5
ADB2
  8
0
 10
51.04427496426098
 20
210.5690961965011
 30
0.0
 11
51.04427496426098
 21
210.9030800965011
 31
0.0
  0
LINE
  5
ADB3
  8
0
 10
51.04427496426098
 20
210.9030800965011
 30
0.0
 11
50.70991961426098
 21
210.9030800965011
 31
0.0
  0
LINE
  5
ADB4
  8
0
 10
50.70991961426098
 20
210.9030800965011
 30
0.0
 11
50.70991961426098
 21
210.5690961965011
 31
0.0
  0
LINE
  5
ADB5
  8
0
 10
51.37748461426096
 20
210.5690961965011
 30
0.0
 11
51.71146851426097
 21
210.5690961965011
 31
0.0
  0
LINE
  5
ADB6
  8
0
 10
51.71146851426097
 20
210.5690961965011
 30
0.0
 11
51.71146851426097
 21
210.9030800965011
 31
0.0
  0
LINE
  5
ADB7
  8
0
 10
51.71146851426097
 20
210.9030800965011
 30
0.0
 11
51.37748461426096
 21
210.9030800965011
 31
0.0
  0
LINE
  5
ADB8
  8
0
 10
51.37748461426096
 20
210.9030800965011
 30
0.0
 11
51.37748461426096
 21
210.5690961965011
 31
0.0
  0
LINE
  5
ADB9
  8
0
 10
52.04590461426096
 20
210.5690961965011
 30
0.0
 11
52.37988946426097
 21
210.5690961965011
 31
0.0
  0
LINE
  5
ADBA
  8
0
 10
52.37988946426097
 20
210.5690961965011
 30
0.0
 11
52.37988946426097
 21
210.9030800965011
 31
0.0
  0
LINE
  5
ADBB
  8
0
 10
52.37988946426097
 20
210.9030800965011
 30
0.0
 11
52.04590461426096
 21
210.9030800965011
 31
0.0
  0
LINE
  5
ADBC
  8
0
 10
52.04590461426096
 20
210.9030800965011
 30
0.0
 11
52.04590461426096
 21
210.5690961965011
 31
0.0
  0
LINE
  5
ADBD
  8
0
 10
52.71308961426098
 20
210.5690961965011
 30
0.0
 11
55.04987111426097
 21
210.5690961965011
 31
0.0
  0
LINE
  5
ADBE
  8
0
 10
54.71549961426098
 20
210.9030800965011
 30
0.0
 11
53.04707351426097
 21
210.9030800965011
 31
0.0
  0
LINE
  5
ADBF
  8
0
 10
46.70509961426097
 20
210.2359311965011
 30
0.0
 11
47.03908446426098
 21
210.2359311965011
 31
0.0
  0
LINE
  5
ADC0
  8
0
 10
47.03908446426098
 20
210.2359311965011
 30
0.0
 11
47.03908446426098
 21
210.5699150965011
 31
0.0
  0
LINE
  5
ADC1
  8
0
 10
47.03908446426098
 20
210.5699150965011
 30
0.0
 11
46.70509961426097
 21
210.5699150965011
 31
0.0
  0
LINE
  5
ADC2
  8
0
 10
46.70509961426097
 20
210.5699150965011
 30
0.0
 11
46.70509961426097
 21
210.2359311965011
 31
0.0
  0
LINE
  5
ADC3
  8
0
 10
48.04032461426098
 20
210.2359311965011
 30
0.0
 11
48.37430851426097
 21
210.2359311965011
 31
0.0
  0
LINE
  5
ADC4
  8
0
 10
48.37430851426097
 20
210.2359311965011
 30
0.0
 11
48.37430851426097
 21
210.5699150965011
 31
0.0
  0
LINE
  5
ADC5
  8
0
 10
48.37430851426097
 20
210.5699150965011
 30
0.0
 11
48.04032461426098
 21
210.5699150965011
 31
0.0
  0
LINE
  5
ADC6
  8
0
 10
48.04032461426098
 20
210.5699150965011
 30
0.0
 11
48.04032461426098
 21
210.2359311965011
 31
0.0
  0
LINE
  5
ADC7
  8
0
 10
48.70750961426099
 20
210.2359311965011
 30
0.0
 11
49.04149351426098
 21
210.2359311965011
 31
0.0
  0
LINE
  5
ADC8
  8
0
 10
49.04149351426098
 20
210.2359311965011
 30
0.0
 11
49.04149351426098
 21
210.5699150965011
 31
0.0
  0
LINE
  5
ADC9
  8
0
 10
49.04149351426098
 20
210.5699150965011
 30
0.0
 11
48.70750961426099
 21
210.5699150965011
 31
0.0
  0
LINE
  5
ADCA
  8
0
 10
48.70750961426099
 20
210.5699150965011
 30
0.0
 11
48.70750961426099
 21
210.2359311965011
 31
0.0
  0
LINE
  5
ADCB
  8
0
 10
51.37748461426096
 20
210.2359311965011
 30
0.0
 11
51.71146851426097
 21
210.2359311965011
 31
0.0
  0
LINE
  5
ADCC
  8
0
 10
51.71146851426097
 20
210.2359311965011
 30
0.0
 11
51.71146851426097
 21
210.5699150965011
 31
0.0
  0
LINE
  5
ADCD
  8
0
 10
51.71146851426097
 20
210.5699150965011
 30
0.0
 11
51.37748461426096
 21
210.5699150965011
 31
0.0
  0
LINE
  5
ADCE
  8
0
 10
51.37748461426096
 20
210.5699150965011
 30
0.0
 11
51.37748461426096
 21
210.2359311965011
 31
0.0
  0
LINE
  5
ADCF
  8
0
 10
52.04590461426096
 20
210.2359311965011
 30
0.0
 11
52.37988946426097
 21
210.2359311965011
 31
0.0
  0
LINE
  5
ADD0
  8
0
 10
52.37988946426097
 20
210.2359311965011
 30
0.0
 11
52.37988946426097
 21
210.5699150965011
 31
0.0
  0
LINE
  5
ADD1
  8
0
 10
52.37988946426097
 20
210.5699150965011
 30
0.0
 11
52.04590461426096
 21
210.5699150965011
 31
0.0
  0
LINE
  5
ADD2
  8
0
 10
52.04590461426096
 20
210.5699150965011
 30
0.0
 11
52.04590461426096
 21
210.2359311965011
 31
0.0
  0
LINE
  5
ADD3
  8
0
 10
44.03436461426097
 20
209.9015311965011
 30
0.0
 11
44.36871996426098
 21
209.9015311965011
 31
0.0
  0
LINE
  5
ADD4
  8
0
 10
44.36871996426098
 20
209.9015311965011
 30
0.0
 11
44.36871996426098
 21
210.2358865465011
 31
0.0
  0
LINE
  5
ADD5
  8
0
 10
44.36871996426098
 20
210.2358865465011
 30
0.0
 11
44.03436461426097
 21
210.2358865465011
 31
0.0
  0
LINE
  5
ADD6
  8
0
 10
44.03436461426097
 20
210.2358865465011
 30
0.0
 11
44.03436461426097
 21
209.9015311965011
 31
0.0
  0
LINE
  5
ADD7
  8
0
 10
46.03743961426096
 20
209.9015311965011
 30
0.0
 11
46.37142351426095
 21
209.9015311965011
 31
0.0
  0
LINE
  5
ADD8
  8
0
 10
46.37142351426095
 20
209.9015311965011
 30
0.0
 11
46.37142351426095
 21
210.2358865465011
 31
0.0
  0
LINE
  5
ADD9
  8
0
 10
46.37142351426095
 20
210.2358865465011
 30
0.0
 11
46.03743961426096
 21
210.2358865465011
 31
0.0
  0
LINE
  5
ADDA
  8
0
 10
46.03743961426096
 20
210.2358865465011
 30
0.0
 11
46.03743961426096
 21
209.9015311965011
 31
0.0
  0
LINE
  5
ADDB
  8
0
 10
46.70509961426097
 20
209.9015311965011
 30
0.0
 11
47.70668461426096
 21
209.9015311965011
 31
0.0
  0
LINE
  5
ADDC
  8
0
 10
47.70668461426096
 20
209.9015311965011
 30
0.0
 11
47.70668461426096
 21
210.2358865465011
 31
0.0
  0
LINE
  5
ADDD
  8
0
 10
47.70668461426096
 20
210.2358865465011
 30
0.0
 11
46.70509961426097
 21
210.2358865465011
 31
0.0
  0
LINE
  5
ADDE
  8
0
 10
46.70509961426097
 20
210.2358865465011
 30
0.0
 11
46.70509961426097
 21
209.9015311965011
 31
0.0
  0
LINE
  5
ADDF
  8
0
 10
48.37348961426096
 20
209.9015311965011
 30
0.0
 11
50.04266811426098
 21
209.9015311965011
 31
0.0
  0
LINE
  5
ADE0
  8
0
 10
50.04266811426098
 20
209.9015311965011
 30
0.0
 11
50.04266811426098
 21
210.2358865465011
 31
0.0
  0
LINE
  5
ADE1
  8
0
 10
50.04266811426098
 20
210.2358865465011
 30
0.0
 11
48.37348961426096
 21
210.2358865465011
 31
0.0
  0
LINE
  5
ADE2
  8
0
 10
48.37348961426096
 20
210.2358865465011
 30
0.0
 11
48.37348961426096
 21
209.9015311965011
 31
0.0
  0
LINE
  5
ADE3
  8
0
 10
51.37748461426096
 20
209.9015311965011
 30
0.0
 11
51.71146851426097
 21
209.9015311965011
 31
0.0
  0
LINE
  5
ADE4
  8
0
 10
51.71146851426097
 20
209.9015311965011
 30
0.0
 11
51.71146851426097
 21
210.2358865465011
 31
0.0
  0
LINE
  5
ADE5
  8
0
 10
51.71146851426097
 20
210.2358865465011
 30
0.0
 11
51.37748461426096
 21
210.2358865465011
 31
0.0
  0
LINE
  5
ADE6
  8
0
 10
51.37748461426096
 20
210.2358865465011
 30
0.0
 11
51.37748461426096
 21
209.9015311965011
 31
0.0
  0
LINE
  5
ADE7
  8
0
 10
52.04590461426096
 20
209.9015311965011
 30
0.0
 11
53.04711911426097
 21
209.9015311965011
 31
0.0
  0
LINE
  5
ADE8
  8
0
 10
53.04711911426097
 20
209.9015311965011
 30
0.0
 11
53.04711911426097
 21
210.2358865465011
 31
0.0
  0
LINE
  5
ADE9
  8
0
 10
53.04711911426097
 20
210.2358865465011
 30
0.0
 11
52.04590461426096
 21
210.2358865465011
 31
0.0
  0
LINE
  5
ADEA
  8
0
 10
52.04590461426096
 20
210.2358865465011
 30
0.0
 11
52.04590461426096
 21
209.9015311965011
 31
0.0
  0
LINE
  5
ADEB
  8
0
 10
53.71391461426097
 20
209.9015311965011
 30
0.0
 11
54.71549961426098
 21
209.9015311965011
 31
0.0
  0
LINE
  5
ADEC
  8
0
 10
54.71549961426098
 20
209.9015311965011
 30
0.0
 11
54.71549961426098
 21
210.2358865465011
 31
0.0
  0
LINE
  5
ADED
  8
0
 10
54.71549961426098
 20
210.2358865465011
 30
0.0
 11
53.71391461426097
 21
210.2358865465011
 31
0.0
  0
LINE
  5
ADEE
  8
0
 10
53.71391461426097
 20
210.2358865465011
 30
0.0
 11
53.71391461426097
 21
209.9015311965011
 31
0.0
  0
LINE
  5
ADEF
  8
0
 10
44.03436461426097
 20
209.5682711965011
 30
0.0
 11
44.36871996426098
 21
209.5682711965011
 31
0.0
  0
LINE
  5
ADF0
  8
0
 10
44.36871996426098
 20
209.5682711965011
 30
0.0
 11
44.36871996426098
 21
209.9022560465011
 31
0.0
  0
LINE
  5
ADF1
  8
0
 10
44.36871996426098
 20
209.9022560465011
 30
0.0
 11
44.03436461426097
 21
209.9022560465011
 31
0.0
  0
LINE
  5
ADF2
  8
0
 10
44.03436461426097
 20
209.9022560465011
 30
0.0
 11
44.03436461426097
 21
209.5682711965011
 31
0.0
  0
LINE
  5
ADF3
  8
0
 10
45.70351461426097
 20
209.5682711965011
 30
0.0
 11
46.03749946426097
 21
209.5682711965011
 31
0.0
  0
LINE
  5
ADF4
  8
0
 10
46.03749946426097
 20
209.5682711965011
 30
0.0
 11
46.03749946426097
 21
209.9022560465011
 31
0.0
  0
LINE
  5
ADF5
  8
0
 10
46.03749946426097
 20
209.9022560465011
 30
0.0
 11
45.70351461426097
 21
209.9022560465011
 31
0.0
  0
LINE
  5
ADF6
  8
0
 10
45.70351461426097
 20
209.9022560465011
 30
0.0
 11
45.70351461426097
 21
209.5682711965011
 31
0.0
  0
LINE
  5
ADF7
  8
0
 10
46.70509961426097
 20
209.5682711965011
 30
0.0
 11
47.03908446426098
 21
209.5682711965011
 31
0.0
  0
LINE
  5
ADF8
  8
0
 10
47.03908446426098
 20
209.5682711965011
 30
0.0
 11
47.03908446426098
 21
209.9022560465011
 31
0.0
  0
LINE
  5
ADF9
  8
0
 10
47.03908446426098
 20
209.9022560465011
 30
0.0
 11
46.70509961426097
 21
209.9022560465011
 31
0.0
  0
LINE
  5
ADFA
  8
0
 10
46.70509961426097
 20
209.9022560465011
 30
0.0
 11
46.70509961426097
 21
209.5682711965011
 31
0.0
  0
LINE
  5
ADFB
  8
0
 10
47.37266461426097
 20
209.5682711965011
 30
0.0
 11
48.37387911426097
 21
209.5682711965011
 31
0.0
  0
LINE
  5
ADFC
  8
0
 10
48.37387911426097
 20
209.5682711965011
 30
0.0
 11
48.37387911426097
 21
209.9022560465011
 31
0.0
  0
LINE
  5
ADFD
  8
0
 10
48.37387911426097
 20
209.9022560465011
 30
0.0
 11
47.37266461426097
 21
209.9022560465011
 31
0.0
  0
LINE
  5
ADFE
  8
0
 10
47.37266461426097
 20
209.9022560465011
 30
0.0
 11
47.37266461426097
 21
209.5682711965011
 31
0.0
  0
LINE
  5
ADFF
  8
0
 10
49.04152961426097
 20
209.5682711965011
 30
0.0
 11
49.37588496426098
 21
209.5682711965011
 31
0.0
  0
LINE
  5
AE00
  8
0
 10
49.37588496426098
 20
209.5682711965011
 30
0.0
 11
49.37588496426098
 21
209.9022560465011
 31
0.0
  0
LINE
  5
AE01
  8
0
 10
49.37588496426098
 20
209.9022560465011
 30
0.0
 11
49.04152961426097
 21
209.9022560465011
 31
0.0
  0
LINE
  5
AE02
  8
0
 10
49.04152961426097
 20
209.9022560465011
 30
0.0
 11
49.04152961426097
 21
209.5682711965011
 31
0.0
  0
LINE
  5
AE03
  8
0
 10
50.04273461426097
 20
209.5682711965011
 30
0.0
 11
50.70996141426099
 21
209.5682711965011
 31
0.0
  0
LINE
  5
AE04
  8
0
 10
50.70996141426099
 20
209.5682711965011
 30
0.0
 11
50.70996141426099
 21
209.9022560465011
 31
0.0
  0
LINE
  5
AE05
  8
0
 10
50.70996141426099
 20
209.9022560465011
 30
0.0
 11
50.04273461426097
 21
209.9022560465011
 31
0.0
  0
LINE
  5
AE06
  8
0
 10
50.04273461426097
 20
209.9022560465011
 30
0.0
 11
50.04273461426097
 21
209.5682711965011
 31
0.0
  0
LINE
  5
AE07
  8
0
 10
51.04431961426097
 20
209.5682711965011
 30
0.0
 11
52.04590461426096
 21
209.5682711965011
 31
0.0
  0
LINE
  5
AE08
  8
0
 10
52.04590461426096
 20
209.5682711965011
 30
0.0
 11
52.04590461426096
 21
209.9022560465011
 31
0.0
  0
LINE
  5
AE09
  8
0
 10
52.04590461426096
 20
209.9022560465011
 30
0.0
 11
51.04431961426097
 21
209.9022560465011
 31
0.0
  0
LINE
  5
AE0A
  8
0
 10
51.04431961426097
 20
209.9022560465011
 30
0.0
 11
51.04431961426097
 21
209.5682711965011
 31
0.0
  0
LINE
  5
AE0B
  8
0
 10
53.38065461426096
 20
209.5682711965011
 30
0.0
 11
54.38223961426097
 21
209.5682711965011
 31
0.0
  0
LINE
  5
AE0C
  8
0
 10
54.38223961426097
 20
209.5682711965011
 30
0.0
 11
54.38223961426097
 21
209.9022560465011
 31
0.0
  0
LINE
  5
AE0D
  8
0
 10
54.38223961426097
 20
209.9022560465011
 30
0.0
 11
53.38065461426096
 21
209.9022560465011
 31
0.0
  0
LINE
  5
AE0E
  8
0
 10
53.38065461426096
 20
209.9022560465011
 30
0.0
 11
53.38065461426096
 21
209.5682711965011
 31
0.0
  0
LINE
  5
AE0F
  8
0
 10
44.70192961426096
 20
209.2343461965011
 30
0.0
 11
45.03628591426096
 21
209.2343461965011
 31
0.0
  0
LINE
  5
AE10
  8
0
 10
45.03628591426096
 20
209.2343461965011
 30
0.0
 11
45.03628591426096
 21
209.5683300965011
 31
0.0
  0
LINE
  5
AE11
  8
0
 10
45.03628591426096
 20
209.5683300965011
 30
0.0
 11
44.70192961426096
 21
209.5683300965011
 31
0.0
  0
LINE
  5
AE12
  8
0
 10
44.70192961426096
 20
209.5683300965011
 30
0.0
 11
44.70192961426096
 21
209.2343461965011
 31
0.0
  0
LINE
  5
AE13
  8
0
 10
45.36949461426099
 20
209.2343461965011
 30
0.0
 11
46.70469111426095
 21
209.2343461965011
 31
0.0
  0
LINE
  5
AE14
  8
0
 10
46.70469111426095
 20
209.2343461965011
 30
0.0
 11
46.70469111426095
 21
209.5683300965011
 31
0.0
  0
LINE
  5
AE15
  8
0
 10
46.70469111426095
 20
209.5683300965011
 30
0.0
 11
45.36949461426099
 21
209.5683300965011
 31
0.0
  0
LINE
  5
AE16
  8
0
 10
45.36949461426099
 20
209.5683300965011
 30
0.0
 11
45.36949461426099
 21
209.2343461965011
 31
0.0
  0
LINE
  5
AE17
  8
0
 10
47.03873961426096
 20
209.2343461965011
 30
0.0
 11
47.70596641426097
 21
209.2343461965011
 31
0.0
  0
LINE
  5
AE18
  8
0
 10
47.70596641426097
 20
209.2343461965011
 30
0.0
 11
47.70596641426097
 21
209.5683300965011
 31
0.0
  0
LINE
  5
AE19
  8
0
 10
47.70596641426097
 20
209.5683300965011
 30
0.0
 11
47.03873961426096
 21
209.5683300965011
 31
0.0
  0
LINE
  5
AE1A
  8
0
 10
47.03873961426096
 20
209.5683300965011
 30
0.0
 11
47.03873961426096
 21
209.2343461965011
 31
0.0
  0
LINE
  5
AE1B
  8
0
 10
48.04032461426098
 20
209.2343461965011
 30
0.0
 11
48.37430851426097
 21
209.2343461965011
 31
0.0
  0
LINE
  5
AE1C
  8
0
 10
48.37430851426097
 20
209.2343461965011
 30
0.0
 11
48.37430851426097
 21
209.5683300965011
 31
0.0
  0
LINE
  5
AE1D
  8
0
 10
48.37430851426097
 20
209.5683300965011
 30
0.0
 11
48.04032461426098
 21
209.5683300965011
 31
0.0
  0
LINE
  5
AE1E
  8
0
 10
48.04032461426098
 20
209.5683300965011
 30
0.0
 11
48.04032461426098
 21
209.2343461965011
 31
0.0
  0
LINE
  5
AE1F
  8
0
 10
49.04152961426097
 20
209.2343461965011
 30
0.0
 11
49.37588496426098
 21
209.2343461965011
 31
0.0
  0
LINE
  5
AE20
  8
0
 10
49.37588496426098
 20
209.2343461965011
 30
0.0
 11
49.37588496426098
 21
209.5683300965011
 31
0.0
  0
LINE
  5
AE21
  8
0
 10
49.37588496426098
 20
209.5683300965011
 30
0.0
 11
49.04152961426097
 21
209.5683300965011
 31
0.0
  0
LINE
  5
AE22
  8
0
 10
49.04152961426097
 20
209.5683300965011
 30
0.0
 11
49.04152961426097
 21
209.2343461965011
 31
0.0
  0
LINE
  5
AE23
  8
0
 10
50.04273461426097
 20
209.2343461965011
 30
0.0
 11
50.37671946426097
 21
209.2343461965011
 31
0.0
  0
LINE
  5
AE24
  8
0
 10
50.37671946426097
 20
209.2343461965011
 30
0.0
 11
50.37671946426097
 21
209.5683300965011
 31
0.0
  0
LINE
  5
AE25
  8
0
 10
50.37671946426097
 20
209.5683300965011
 30
0.0
 11
50.04273461426097
 21
209.5683300965011
 31
0.0
  0
LINE
  5
AE26
  8
0
 10
50.04273461426097
 20
209.5683300965011
 30
0.0
 11
50.04273461426097
 21
209.2343461965011
 31
0.0
  0
LINE
  5
AE27
  8
0
 10
50.70991961426098
 20
209.2343461965011
 30
0.0
 11
51.04427496426098
 21
209.2343461965011
 31
0.0
  0
LINE
  5
AE28
  8
0
 10
51.04427496426098
 20
209.2343461965011
 30
0.0
 11
51.04427496426098
 21
209.5683300965011
 31
0.0
  0
LINE
  5
AE29
  8
0
 10
51.04427496426098
 20
209.5683300965011
 30
0.0
 11
50.70991961426098
 21
209.5683300965011
 31
0.0
  0
LINE
  5
AE2A
  8
0
 10
50.70991961426098
 20
209.5683300965011
 30
0.0
 11
50.70991961426098
 21
209.2343461965011
 31
0.0
  0
LINE
  5
AE2B
  8
0
 10
51.37748461426096
 20
209.2343461965011
 30
0.0
 11
51.71146851426097
 21
209.2343461965011
 31
0.0
  0
LINE
  5
AE2C
  8
0
 10
51.71146851426097
 20
209.2343461965011
 30
0.0
 11
51.71146851426097
 21
209.5683300965011
 31
0.0
  0
LINE
  5
AE2D
  8
0
 10
51.71146851426097
 20
209.5683300965011
 30
0.0
 11
51.37748461426096
 21
209.5683300965011
 31
0.0
  0
LINE
  5
AE2E
  8
0
 10
51.37748461426096
 20
209.5683300965011
 30
0.0
 11
51.37748461426096
 21
209.2343461965011
 31
0.0
  0
LINE
  5
AE2F
  8
0
 10
52.04590461426096
 20
209.2343461965011
 30
0.0
 11
53.04711911426097
 21
209.2343461965011
 31
0.0
  0
LINE
  5
AE30
  8
0
 10
53.04711911426097
 20
209.2343461965011
 30
0.0
 11
53.04711911426097
 21
209.5683300965011
 31
0.0
  0
LINE
  5
AE31
  8
0
 10
53.04711911426097
 20
209.5683300965011
 30
0.0
 11
52.04590461426096
 21
209.5683300965011
 31
0.0
  0
LINE
  5
AE32
  8
0
 10
52.04590461426096
 20
209.5683300965011
 30
0.0
 11
52.04590461426096
 21
209.2343461965011
 31
0.0
  0
LINE
  5
AE33
  8
0
 10
53.38065461426096
 20
209.2343461965011
 30
0.0
 11
53.71463946426097
 21
209.2343461965011
 31
0.0
  0
LINE
  5
AE34
  8
0
 10
53.71463946426097
 20
209.2343461965011
 30
0.0
 11
53.71463946426097
 21
209.5683300965011
 31
0.0
  0
LINE
  5
AE35
  8
0
 10
53.71463946426097
 20
209.5683300965011
 30
0.0
 11
53.38065461426096
 21
209.5683300965011
 31
0.0
  0
LINE
  5
AE36
  8
0
 10
53.38065461426096
 20
209.5683300965011
 30
0.0
 11
53.38065461426096
 21
209.2343461965011
 31
0.0
  0
LINE
  5
AE37
  8
0
 10
54.04831461426096
 20
209.2343461965011
 30
0.0
 11
54.71554046426098
 21
209.2343461965011
 31
0.0
  0
LINE
  5
AE38
  8
0
 10
54.71554046426098
 20
209.2343461965011
 30
0.0
 11
54.71554046426098
 21
209.5683300965011
 31
0.0
  0
LINE
  5
AE39
  8
0
 10
54.71554046426098
 20
209.5683300965011
 30
0.0
 11
54.04831461426096
 21
209.5683300965011
 31
0.0
  0
LINE
  5
AE3A
  8
0
 10
54.04831461426096
 20
209.5683300965011
 30
0.0
 11
54.04831461426096
 21
209.2343461965011
 31
0.0
  0
LINE
  5
AE3B
  8
0
 10
44.03436461426097
 20
208.8999461965011
 30
0.0
 11
44.70196191426096
 21
208.8999461965011
 31
0.0
  0
LINE
  5
AE3C
  8
0
 10
44.70196191426096
 20
208.8999461965011
 30
0.0
 11
44.70196191426096
 21
209.2343015465011
 31
0.0
  0
LINE
  5
AE3D
  8
0
 10
44.70196191426096
 20
209.2343015465011
 30
0.0
 11
44.03436461426097
 21
209.2343015465011
 31
0.0
  0
LINE
  5
AE3E
  8
0
 10
44.03436461426097
 20
209.2343015465011
 30
0.0
 11
44.03436461426097
 21
208.8999461965011
 31
0.0
  0
LINE
  5
AE3F
  8
0
 10
45.03585461426098
 20
208.8999461965011
 30
0.0
 11
45.70345191426097
 21
208.8999461965011
 31
0.0
  0
LINE
  5
AE40
  8
0
 10
45.70345191426097
 20
208.8999461965011
 30
0.0
 11
45.70345191426097
 21
209.2343015465011
 31
0.0
  0
LINE
  5
AE41
  8
0
 10
45.70345191426097
 20
209.2343015465011
 30
0.0
 11
45.03585461426098
 21
209.2343015465011
 31
0.0
  0
LINE
  5
AE42
  8
0
 10
45.03585461426098
 20
209.2343015465011
 30
0.0
 11
45.03585461426098
 21
208.8999461965011
 31
0.0
  0
LINE
  5
AE43
  8
0
 10
46.37107961426096
 20
208.8999461965011
 30
0.0
 11
46.70506351426096
 21
208.8999461965011
 31
0.0
  0
LINE
  5
AE44
  8
0
 10
46.70506351426096
 20
208.8999461965011
 30
0.0
 11
46.70506351426096
 21
209.2343015465011
 31
0.0
  0
LINE
  5
AE45
  8
0
 10
46.70506351426096
 20
209.2343015465011
 30
0.0
 11
46.37107961426096
 21
209.2343015465011
 31
0.0
  0
LINE
  5
AE46
  8
0
 10
46.37107961426096
 20
209.2343015465011
 30
0.0
 11
46.37107961426096
 21
208.8999461965011
 31
0.0
  0
LINE
  5
AE47
  8
0
 10
47.37266461426097
 20
208.8999461965011
 30
0.0
 11
48.03989046426096
 21
208.8999461965011
 31
0.0
  0
LINE
  5
AE48
  8
0
 10
48.03989046426096
 20
208.8999461965011
 30
0.0
 11
48.03989046426096
 21
209.2343015465011
 31
0.0
  0
LINE
  5
AE49
  8
0
 10
48.03989046426096
 20
209.2343015465011
 30
0.0
 11
47.37266461426097
 21
209.2343015465011
 31
0.0
  0
LINE
  5
AE4A
  8
0
 10
47.37266461426097
 20
209.2343015465011
 30
0.0
 11
47.37266461426097
 21
208.8999461965011
 31
0.0
  0
LINE
  5
AE4B
  8
0
 10
48.70750961426099
 20
208.8999461965011
 30
0.0
 11
49.37510691426097
 21
208.8999461965011
 31
0.0
  0
LINE
  5
AE4C
  8
0
 10
49.37510691426097
 20
208.8999461965011
 30
0.0
 11
49.37510691426097
 21
209.2343015465011
 31
0.0
  0
LINE
  5
AE4D
  8
0
 10
49.37510691426097
 20
209.2343015465011
 30
0.0
 11
48.70750961426099
 21
209.2343015465011
 31
0.0
  0
LINE
  5
AE4E
  8
0
 10
48.70750961426099
 20
209.2343015465011
 30
0.0
 11
48.70750961426099
 21
208.8999461965011
 31
0.0
  0
LINE
  5
AE4F
  8
0
 10
50.37665961426097
 20
208.8999461965011
 30
0.0
 11
51.04425691426096
 21
208.8999461965011
 31
0.0
  0
LINE
  5
AE50
  8
0
 10
51.04425691426096
 20
208.8999461965011
 30
0.0
 11
51.04425691426096
 21
209.2343015465011
 31
0.0
  0
LINE
  5
AE51
  8
0
 10
51.04425691426096
 20
209.2343015465011
 30
0.0
 11
50.37665961426097
 21
209.2343015465011
 31
0.0
  0
LINE
  5
AE52
  8
0
 10
50.37665961426097
 20
209.2343015465011
 30
0.0
 11
50.37665961426097
 21
208.8999461965011
 31
0.0
  0
LINE
  5
AE53
  8
0
 10
51.37748461426096
 20
208.8999461965011
 30
0.0
 11
52.04508191426098
 21
208.8999461965011
 31
0.0
  0
LINE
  5
AE54
  8
0
 10
52.04508191426098
 20
208.8999461965011
 30
0.0
 11
52.04508191426098
 21
209.2343015465011
 31
0.0
  0
LINE
  5
AE55
  8
0
 10
52.04508191426098
 20
209.2343015465011
 30
0.0
 11
51.37748461426096
 21
209.2343015465011
 31
0.0
  0
LINE
  5
AE56
  8
0
 10
51.37748461426096
 20
209.2343015465011
 30
0.0
 11
51.37748461426096
 21
208.8999461965011
 31
0.0
  0
LINE
  5
AE57
  8
0
 10
52.37906961426097
 20
208.8999461965011
 30
0.0
 11
52.71305446426098
 21
208.8999461965011
 31
0.0
  0
LINE
  5
AE58
  8
0
 10
52.71305446426098
 20
208.8999461965011
 30
0.0
 11
52.71305446426098
 21
209.2343015465011
 31
0.0
  0
LINE
  5
AE59
  8
0
 10
52.71305446426098
 20
209.2343015465011
 30
0.0
 11
52.37906961426097
 21
209.2343015465011
 31
0.0
  0
LINE
  5
AE5A
  8
0
 10
52.37906961426097
 20
209.2343015465011
 30
0.0
 11
52.37906961426097
 21
208.8999461965011
 31
0.0
  0
LINE
  5
AE5B
  8
0
 10
53.04672961426097
 20
208.8999461965011
 30
0.0
 11
55.04914911426098
 21
208.8999461965011
 31
0.0
  0
LINE
  5
AE5C
  8
0
 10
55.04914911426098
 20
208.8999461965011
 30
0.0
 11
55.04914911426098
 21
209.2343015465011
 31
0.0
  0
LINE
  5
AE5D
  8
0
 10
55.04914911426098
 20
209.2343015465011
 30
0.0
 11
53.04672961426097
 21
209.2343015465011
 31
0.0
  0
LINE
  5
AE5E
  8
0
 10
53.04672961426097
 20
209.2343015465011
 30
0.0
 11
53.04672961426097
 21
208.8999461965011
 31
0.0
  0
LINE
  5
AE5F
  8
0
 10
44.36866961426097
 20
208.5666861965011
 30
0.0
 11
44.70265446426097
 21
208.5666861965011
 31
0.0
  0
LINE
  5
AE60
  8
0
 10
44.70265446426097
 20
208.5666861965011
 30
0.0
 11
44.70265446426097
 21
208.9006710465011
 31
0.0
  0
LINE
  5
AE61
  8
0
 10
44.70265446426097
 20
208.9006710465011
 30
0.0
 11
44.36866961426097
 21
208.9006710465011
 31
0.0
  0
LINE
  5
AE62
  8
0
 10
44.36866961426097
 20
208.9006710465011
 30
0.0
 11
44.36866961426097
 21
208.5666861965011
 31
0.0
  0
LINE
  5
AE63
  8
0
 10
45.03585461426098
 20
208.5666861965011
 30
0.0
 11
45.36983851426098
 21
208.5666861965011
 31
0.0
  0
LINE
  5
AE64
  8
0
 10
45.36983851426098
 20
208.5666861965011
 30
0.0
 11
45.36983851426098
 21
208.9006710465011
 31
0.0
  0
LINE
  5
AE65
  8
0
 10
45.36983851426098
 20
208.9006710465011
 30
0.0
 11
45.03585461426098
 21
208.9006710465011
 31
0.0
  0
LINE
  5
AE66
  8
0
 10
45.03585461426098
 20
208.9006710465011
 30
0.0
 11
45.03585461426098
 21
208.5666861965011
 31
0.0
  0
LINE
  5
AE67
  8
0
 10
46.03743961426096
 20
208.5666861965011
 30
0.0
 11
47.03902461426097
 21
208.5666861965011
 31
0.0
  0
LINE
  5
AE68
  8
0
 10
47.03902461426097
 20
208.5666861965011
 30
0.0
 11
47.03902461426097
 21
208.9006710465011
 31
0.0
  0
LINE
  5
AE69
  8
0
 10
47.03902461426097
 20
208.9006710465011
 30
0.0
 11
46.03743961426096
 21
208.9006710465011
 31
0.0
  0
LINE
  5
AE6A
  8
0
 10
46.03743961426096
 20
208.9006710465011
 30
0.0
 11
46.03743961426096
 21
208.5666861965011
 31
0.0
  0
LINE
  5
AE6B
  8
0
 10
48.37348961426096
 20
208.5666861965011
 30
0.0
 11
49.04108786426099
 21
208.5666861965011
 31
0.0
  0
LINE
  5
AE6C
  8
0
 10
49.04108786426099
 20
208.5666861965011
 30
0.0
 11
49.04108786426099
 21
208.9006710465011
 31
0.0
  0
LINE
  5
AE6D
  8
0
 10
49.04108786426099
 20
208.9006710465011
 30
0.0
 11
48.37348961426096
 21
208.9006710465011
 31
0.0
  0
LINE
  5
AE6E
  8
0
 10
48.37348961426096
 20
208.9006710465011
 30
0.0
 11
48.37348961426096
 21
208.5666861965011
 31
0.0
  0
LINE
  5
AE6F
  8
0
 10
49.37507461426097
 20
208.5666861965011
 30
0.0
 11
50.37665961426097
 21
208.5666861965011
 31
0.0
  0
LINE
  5
AE70
  8
0
 10
50.37665961426097
 20
208.5666861965011
 30
0.0
 11
50.37665961426097
 21
208.9006710465011
 31
0.0
  0
LINE
  5
AE71
  8
0
 10
50.37665961426097
 20
208.9006710465011
 30
0.0
 11
49.37507461426097
 21
208.9006710465011
 31
0.0
  0
LINE
  5
AE72
  8
0
 10
49.37507461426097
 20
208.9006710465011
 30
0.0
 11
49.37507461426097
 21
208.5666861965011
 31
0.0
  0
LINE
  5
AE73
  8
0
 10
50.70991961426098
 20
208.5666861965011
 30
0.0
 11
51.71150461426097
 21
208.5666861965011
 31
0.0
  0
LINE
  5
AE74
  8
0
 10
51.71150461426097
 20
208.5666861965011
 30
0.0
 11
51.71150461426097
 21
208.9006710465011
 31
0.0
  0
LINE
  5
AE75
  8
0
 10
51.71150461426097
 20
208.9006710465011
 30
0.0
 11
50.70991961426098
 21
208.9006710465011
 31
0.0
  0
LINE
  5
AE76
  8
0
 10
50.70991961426098
 20
208.9006710465011
 30
0.0
 11
50.70991961426098
 21
208.5666861965011
 31
0.0
  0
LINE
  5
AE77
  8
0
 10
52.04590461426096
 20
208.5666861965011
 30
0.0
 11
52.37988946426097
 21
208.5666861965011
 31
0.0
  0
LINE
  5
AE78
  8
0
 10
52.37988946426097
 20
208.5666861965011
 30
0.0
 11
52.37988946426097
 21
208.9006710465011
 31
0.0
  0
LINE
  5
AE79
  8
0
 10
52.37988946426097
 20
208.9006710465011
 30
0.0
 11
52.04590461426096
 21
208.9006710465011
 31
0.0
  0
LINE
  5
AE7A
  8
0
 10
52.04590461426096
 20
208.9006710465011
 30
0.0
 11
52.04590461426096
 21
208.5666861965011
 31
0.0
  0
LINE
  5
AE7B
  8
0
 10
52.71308961426098
 20
208.5666861965011
 30
0.0
 11
53.38068691426096
 21
208.5666861965011
 31
0.0
  0
LINE
  5
AE7C
  8
0
 10
53.38068691426096
 20
208.5666861965011
 30
0.0
 11
53.38068691426096
 21
208.9006710465011
 31
0.0
  0
LINE
  5
AE7D
  8
0
 10
53.38068691426096
 20
208.9006710465011
 30
0.0
 11
52.71308961426098
 21
208.9006710465011
 31
0.0
  0
LINE
  5
AE7E
  8
0
 10
52.71308961426098
 20
208.9006710465011
 30
0.0
 11
52.71308961426098
 21
208.5666861965011
 31
0.0
  0
LINE
  5
AE7F
  8
0
 10
44.03436461426097
 20
208.2327611965011
 30
0.0
 11
44.70196191426096
 21
208.2327611965011
 31
0.0
  0
LINE
  5
AE80
  8
0
 10
44.70196191426096
 20
208.2327611965011
 30
0.0
 11
44.70196191426096
 21
208.5667450965011
 31
0.0
  0
LINE
  5
AE81
  8
0
 10
44.70196191426096
 20
208.5667450965011
 30
0.0
 11
44.03436461426097
 21
208.5667450965011
 31
0.0
  0
LINE
  5
AE82
  8
0
 10
44.03436461426097
 20
208.5667450965011
 30
0.0
 11
44.03436461426097
 21
208.2327611965011
 31
0.0
  0
LINE
  5
AE83
  8
0
 10
45.03585461426098
 20
208.2327611965011
 30
0.0
 11
45.70345191426097
 21
208.2327611965011
 31
0.0
  0
LINE
  5
AE84
  8
0
 10
45.70345191426097
 20
208.2327611965011
 30
0.0
 11
45.70345191426097
 21
208.5667450965011
 31
0.0
  0
LINE
  5
AE85
  8
0
 10
45.70345191426097
 20
208.5667450965011
 30
0.0
 11
45.03585461426098
 21
208.5667450965011
 31
0.0
  0
LINE
  5
AE86
  8
0
 10
45.03585461426098
 20
208.5667450965011
 30
0.0
 11
45.03585461426098
 21
208.2327611965011
 31
0.0
  0
LINE
  5
AE87
  8
0
 10
46.37107961426096
 20
208.2327611965011
 30
0.0
 11
47.03867691426096
 21
208.2327611965011
 31
0.0
  0
LINE
  5
AE88
  8
0
 10
47.03867691426096
 20
208.2327611965011
 30
0.0
 11
47.03867691426096
 21
208.5667450965011
 31
0.0
  0
LINE
  5
AE89
  8
0
 10
47.03867691426096
 20
208.5667450965011
 30
0.0
 11
46.37107961426096
 21
208.5667450965011
 31
0.0
  0
LINE
  5
AE8A
  8
0
 10
46.37107961426096
 20
208.5667450965011
 30
0.0
 11
46.37107961426096
 21
208.2327611965011
 31
0.0
  0
LINE
  5
AE8B
  8
0
 10
47.70592461426097
 20
208.2327611965011
 30
0.0
 11
48.37352191426098
 21
208.2327611965011
 31
0.0
  0
LINE
  5
AE8C
  8
0
 10
48.37352191426098
 20
208.2327611965011
 30
0.0
 11
48.37352191426098
 21
208.5667450965011
 31
0.0
  0
LINE
  5
AE8D
  8
0
 10
48.37352191426098
 20
208.5667450965011
 30
0.0
 11
47.70592461426097
 21
208.5667450965011
 31
0.0
  0
LINE
  5
AE8E
  8
0
 10
47.70592461426097
 20
208.5667450965011
 30
0.0
 11
47.70592461426097
 21
208.2327611965011
 31
0.0
  0
LINE
  5
AE8F
  8
0
 10
48.70750961426099
 20
208.2327611965011
 30
0.0
 11
49.04149351426098
 21
208.2327611965011
 31
0.0
  0
LINE
  5
AE90
  8
0
 10
49.04149351426098
 20
208.2327611965011
 30
0.0
 11
49.04149351426098
 21
208.5667450965011
 31
0.0
  0
LINE
  5
AE91
  8
0
 10
49.04149351426098
 20
208.5667450965011
 30
0.0
 11
48.70750961426099
 21
208.5667450965011
 31
0.0
  0
LINE
  5
AE92
  8
0
 10
48.70750961426099
 20
208.5667450965011
 30
0.0
 11
48.70750961426099
 21
208.2327611965011
 31
0.0
  0
LINE
  5
AE93
  8
0
 10
49.37507461426097
 20
208.2327611965011
 30
0.0
 11
50.04267191426096
 21
208.2327611965011
 31
0.0
  0
LINE
  5
AE94
  8
0
 10
50.04267191426096
 20
208.2327611965011
 30
0.0
 11
50.04267191426096
 21
208.5667450965011
 31
0.0
  0
LINE
  5
AE95
  8
0
 10
50.04267191426096
 20
208.5667450965011
 30
0.0
 11
49.37507461426097
 21
208.5667450965011
 31
0.0
  0
LINE
  5
AE96
  8
0
 10
49.37507461426097
 20
208.5667450965011
 30
0.0
 11
49.37507461426097
 21
208.2327611965011
 31
0.0
  0
LINE
  5
AE97
  8
0
 10
50.70991961426098
 20
208.2327611965011
 30
0.0
 11
51.37751786426097
 21
208.2327611965011
 31
0.0
  0
LINE
  5
AE98
  8
0
 10
51.37751786426097
 20
208.2327611965011
 30
0.0
 11
51.37751786426097
 21
208.5667450965011
 31
0.0
  0
LINE
  5
AE99
  8
0
 10
51.37751786426097
 20
208.5667450965011
 30
0.0
 11
50.70991961426098
 21
208.5667450965011
 31
0.0
  0
LINE
  5
AE9A
  8
0
 10
50.70991961426098
 20
208.5667450965011
 30
0.0
 11
50.70991961426098
 21
208.2327611965011
 31
0.0
  0
LINE
  5
AE9B
  8
0
 10
51.71150461426097
 20
208.2327611965011
 30
0.0
 11
52.04585996426097
 21
208.2327611965011
 31
0.0
  0
LINE
  5
AE9C
  8
0
 10
52.04585996426097
 20
208.2327611965011
 30
0.0
 11
52.04585996426097
 21
208.5667450965011
 31
0.0
  0
LINE
  5
AE9D
  8
0
 10
52.04585996426097
 20
208.5667450965011
 30
0.0
 11
51.71150461426097
 21
208.5667450965011
 31
0.0
  0
LINE
  5
AE9E
  8
0
 10
51.71150461426097
 20
208.5667450965011
 30
0.0
 11
51.71150461426097
 21
208.2327611965011
 31
0.0
  0
LINE
  5
AE9F
  8
0
 10
52.71308961426098
 20
208.2327611965011
 30
0.0
 11
53.04707351426097
 21
208.2327611965011
 31
0.0
  0
LINE
  5
AEA0
  8
0
 10
53.04707351426097
 20
208.2327611965011
 30
0.0
 11
53.04707351426097
 21
208.5667450965011
 31
0.0
  0
LINE
  5
AEA1
  8
0
 10
53.04707351426097
 20
208.5667450965011
 30
0.0
 11
52.71308961426098
 21
208.5667450965011
 31
0.0
  0
LINE
  5
AEA2
  8
0
 10
52.71308961426098
 20
208.5667450965011
 30
0.0
 11
52.71308961426098
 21
208.2327611965011
 31
0.0
  0
LINE
  5
AEA3
  8
0
 10
53.71391461426097
 20
208.2327611965011
 30
0.0
 11
55.04911111426097
 21
208.2327611965011
 31
0.0
  0
LINE
  5
AEA4
  8
0
 10
55.04911111426097
 20
208.2327611965011
 30
0.0
 11
55.04911111426097
 21
208.5667450965011
 31
0.0
  0
LINE
  5
AEA5
  8
0
 10
55.04911111426097
 20
208.5667450965011
 30
0.0
 11
53.71391461426097
 21
208.5667450965011
 31
0.0
  0
LINE
  5
AEA6
  8
0
 10
53.71391461426097
 20
208.5667450965011
 30
0.0
 11
53.71391461426097
 21
208.2327611965011
 31
0.0
  0
LINE
  5
AEA7
  8
0
 10
44.36866961426097
 20
207.8991211965011
 30
0.0
 11
47.70665611426097
 21
207.8991211965011
 31
0.0
  0
LINE
  5
AEA8
  8
0
 10
47.70665611426097
 20
207.8991211965011
 30
0.0
 11
47.70665611426097
 21
208.2331060465011
 31
0.0
  0
LINE
  5
AEA9
  8
0
 10
47.70665611426097
 20
208.2331060465011
 30
0.0
 11
44.36866961426097
 21
208.2331060465011
 31
0.0
  0
LINE
  5
AEAA
  8
0
 10
44.36866961426097
 20
208.2331060465011
 30
0.0
 11
44.36866961426097
 21
207.8991211965011
 31
0.0
  0
LINE
  5
AEAB
  8
0
 10
48.37348961426096
 20
207.8991211965011
 30
0.0
 11
48.70747446426097
 21
207.8991211965011
 31
0.0
  0
LINE
  5
AEAC
  8
0
 10
48.70747446426097
 20
207.8991211965011
 30
0.0
 11
48.70747446426097
 21
208.2331060465011
 31
0.0
  0
LINE
  5
AEAD
  8
0
 10
48.70747446426097
 20
208.2331060465011
 30
0.0
 11
48.37348961426096
 21
208.2331060465011
 31
0.0
  0
LINE
  5
AEAE
  8
0
 10
48.37348961426096
 20
208.2331060465011
 30
0.0
 11
48.37348961426096
 21
207.8991211965011
 31
0.0
  0
LINE
  5
AEAF
  8
0
 10
49.70909461426098
 20
207.8991211965011
 30
0.0
 11
50.04307851426097
 21
207.8991211965011
 31
0.0
  0
LINE
  5
AEB0
  8
0
 10
50.04307851426097
 20
207.8991211965011
 30
0.0
 11
50.04307851426097
 21
208.2331060465011
 31
0.0
  0
LINE
  5
AEB1
  8
0
 10
50.04307851426097
 20
208.2331060465011
 30
0.0
 11
49.70909461426098
 21
208.2331060465011
 31
0.0
  0
LINE
  5
AEB2
  8
0
 10
49.70909461426098
 20
208.2331060465011
 30
0.0
 11
49.70909461426098
 21
207.8991211965011
 31
0.0
  0
LINE
  5
AEB3
  8
0
 10
50.37665961426097
 20
207.8991211965011
 30
0.0
 11
50.71064351426097
 21
207.8991211965011
 31
0.0
  0
LINE
  5
AEB4
  8
0
 10
50.71064351426097
 20
207.8991211965011
 30
0.0
 11
50.71064351426097
 21
208.2331060465011
 31
0.0
  0
LINE
  5
AEB5
  8
0
 10
50.71064351426097
 20
208.2331060465011
 30
0.0
 11
50.37665961426097
 21
208.2331060465011
 31
0.0
  0
LINE
  5
AEB6
  8
0
 10
50.37665961426097
 20
208.2331060465011
 30
0.0
 11
50.37665961426097
 21
207.8991211965011
 31
0.0
  0
LINE
  5
AEB7
  8
0
 10
52.37906961426097
 20
207.8991211965011
 30
0.0
 11
53.04666786426097
 21
207.8991211965011
 31
0.0
  0
LINE
  5
AEB8
  8
0
 10
53.04666786426097
 20
207.8991211965011
 30
0.0
 11
53.04666786426097
 21
208.2331060465011
 31
0.0
  0
LINE
  5
AEB9
  8
0
 10
53.04666786426097
 20
208.2331060465011
 30
0.0
 11
52.37906961426097
 21
208.2331060465011
 31
0.0
  0
LINE
  5
AEBA
  8
0
 10
52.37906961426097
 20
208.2331060465011
 30
0.0
 11
52.37906961426097
 21
207.8991211965011
 31
0.0
  0
LINE
  5
AEBB
  8
0
 10
53.38065461426096
 20
207.8991211965011
 30
0.0
 11
53.71463946426097
 21
207.8991211965011
 31
0.0
  0
LINE
  5
AEBC
  8
0
 10
53.71463946426097
 20
207.8991211965011
 30
0.0
 11
53.71463946426097
 21
208.2331060465011
 31
0.0
  0
LINE
  5
AEBD
  8
0
 10
53.71463946426097
 20
208.2331060465011
 30
0.0
 11
53.38065461426096
 21
208.2331060465011
 31
0.0
  0
LINE
  5
AEBE
  8
0
 10
53.38065461426096
 20
208.2331060465011
 30
0.0
 11
53.38065461426096
 21
207.8991211965011
 31
0.0
  0
LINE
  5
AEBF
  8
0
 10
54.04831461426096
 20
207.8991211965011
 30
0.0
 11
54.71554046426098
 21
207.8991211965011
 31
0.0
  0
LINE
  5
AEC0
  8
0
 10
54.71554046426098
 20
207.8991211965011
 30
0.0
 11
54.71554046426098
 21
208.2331060465011
 31
0.0
  0
LINE
  5
AEC1
  8
0
 10
54.71554046426098
 20
208.2331060465011
 30
0.0
 11
54.04831461426096
 21
208.2331060465011
 31
0.0
  0
LINE
  5
AEC2
  8
0
 10
54.04831461426096
 20
208.2331060465011
 30
0.0
 11
54.04831461426096
 21
207.8991211965011
 31
0.0
  0
LINE
  5
AEC3
  8
0
 10
44.03436461426097
 20
207.5651011965011
 30
0.0
 11
44.70196191426096
 21
207.5651011965011
 31
0.0
  0
LINE
  5
AEC4
  8
0
 10
44.70196191426096
 20
207.5651011965011
 30
0.0
 11
44.70196191426096
 21
207.8991211965011
 31
0.0
  0
LINE
  5
AEC5
  8
0
 10
44.70196191426096
 20
207.8991211965011
 30
0.0
 11
44.03436461426097
 21
207.8991211965011
 31
0.0
  0
LINE
  5
AEC6
  8
0
 10
44.03436461426097
 20
207.8991211965011
 30
0.0
 11
44.03436461426097
 21
207.5651011965011
 31
0.0
  0
LINE
  5
AEC7
  8
0
 10
45.03585461426098
 20
207.5651011965011
 30
0.0
 11
45.70345191426097
 21
207.5651011965011
 31
0.0
  0
LINE
  5
AEC8
  8
0
 10
45.70345191426097
 20
207.5651011965011
 30
0.0
 11
45.70345191426097
 21
207.8991211965011
 31
0.0
  0
LINE
  5
AEC9
  8
0
 10
45.70345191426097
 20
207.8991211965011
 30
0.0
 11
45.03585461426098
 21
207.8991211965011
 31
0.0
  0
LINE
  5
AECA
  8
0
 10
45.03585461426098
 20
207.8991211965011
 30
0.0
 11
45.03585461426098
 21
207.5651011965011
 31
0.0
  0
LINE
  5
AECB
  8
0
 10
47.03873961426096
 20
207.5651011965011
 30
0.0
 11
47.37272446426095
 21
207.5651011965011
 31
0.0
  0
LINE
  5
AECC
  8
0
 10
47.37272446426095
 20
207.5651011965011
 30
0.0
 11
47.37272446426095
 21
207.8991211965011
 31
0.0
  0
LINE
  5
AECD
  8
0
 10
47.37272446426095
 20
207.8991211965011
 30
0.0
 11
47.03873961426096
 21
207.8991211965011
 31
0.0
  0
LINE
  5
AECE
  8
0
 10
47.03873961426096
 20
207.8991211965011
 30
0.0
 11
47.03873961426096
 21
207.5651011965011
 31
0.0
  0
LINE
  5
AECF
  8
0
 10
48.04032461426098
 20
207.5651011965011
 30
0.0
 11
48.37430851426097
 21
207.5651011965011
 31
0.0
  0
LINE
  5
AED0
  8
0
 10
48.37430851426097
 20
207.5651011965011
 30
0.0
 11
48.37430851426097
 21
207.8991211965011
 31
0.0
  0
LINE
  5
AED1
  8
0
 10
48.37430851426097
 20
207.8991211965011
 30
0.0
 11
48.04032461426098
 21
207.8991211965011
 31
0.0
  0
LINE
  5
AED2
  8
0
 10
48.04032461426098
 20
207.8991211965011
 30
0.0
 11
48.04032461426098
 21
207.5651011965011
 31
0.0
  0
LINE
  5
AED3
  8
0
 10
48.70750961426099
 20
207.5651011965011
 30
0.0
 11
49.37510691426097
 21
207.5651011965011
 31
0.0
  0
LINE
  5
AED4
  8
0
 10
49.37510691426097
 20
207.5651011965011
 30
0.0
 11
49.37510691426097
 21
207.8991211965011
 31
0.0
  0
LINE
  5
AED5
  8
0
 10
49.37510691426097
 20
207.8991211965011
 30
0.0
 11
48.70750961426099
 21
207.8991211965011
 31
0.0
  0
LINE
  5
AED6
  8
0
 10
48.70750961426099
 20
207.8991211965011
 30
0.0
 11
48.70750961426099
 21
207.5651011965011
 31
0.0
  0
LINE
  5
AED7
  8
0
 10
50.04273461426097
 20
207.5651011965011
 30
0.0
 11
50.70996141426099
 21
207.5651011965011
 31
0.0
  0
LINE
  5
AED8
  8
0
 10
50.70996141426099
 20
207.5651011965011
 30
0.0
 11
50.70996141426099
 21
207.8991211965011
 31
0.0
  0
LINE
  5
AED9
  8
0
 10
50.70996141426099
 20
207.8991211965011
 30
0.0
 11
50.04273461426097
 21
207.8991211965011
 31
0.0
  0
LINE
  5
AEDA
  8
0
 10
50.04273461426097
 20
207.8991211965011
 30
0.0
 11
50.04273461426097
 21
207.5651011965011
 31
0.0
  0
LINE
  5
AEDB
  8
0
 10
52.37906961426097
 20
207.5651011965011
 30
0.0
 11
52.71308961426098
 21
207.5651011965011
 31
0.0
  0
LINE
  5
AEDC
  8
0
 10
52.71308961426098
 20
207.5651011965011
 30
0.0
 11
52.71308961426098
 21
207.8991211965011
 31
0.0
  0
LINE
  5
AEDD
  8
0
 10
52.71308961426098
 20
207.8991211965011
 30
0.0
 11
52.37910476426097
 21
207.8991211965011
 31
0.0
  0
LINE
  5
AEDE
  8
0
 10
52.37910476426097
 20
207.8991211965011
 30
0.0
 11
52.37906961426097
 21
207.5651011965011
 31
0.0
  0
LINE
  5
AEDF
  8
0
 10
53.38065461426096
 20
207.5651011965011
 30
0.0
 11
54.38223961426097
 21
207.5651011965011
 31
0.0
  0
LINE
  5
AEE0
  8
0
 10
54.38223961426097
 20
207.5651011965011
 30
0.0
 11
54.38223961426097
 21
207.8991211965011
 31
0.0
  0
LINE
  5
AEE1
  8
0
 10
54.38223961426097
 20
207.8991211965011
 30
0.0
 11
53.38065461426096
 21
207.8991211965011
 31
0.0
  0
LINE
  5
AEE2
  8
0
 10
53.38065461426096
 20
207.8991211965011
 30
0.0
 11
53.38065461426096
 21
207.5651011965011
 31
0.0
  0
LINE
  5
AEE3
  8
0
 10
54.71549961426098
 20
207.5651011965011
 30
0.0
 11
55.04985591426097
 21
207.5651011965011
 31
0.0
  0
LINE
  5
AEE4
  8
0
 10
55.04985591426097
 20
207.5651011965011
 30
0.0
 11
55.04985591426097
 21
207.8991211965011
 31
0.0
  0
LINE
  5
AEE5
  8
0
 10
55.04985591426097
 20
207.8991211965011
 30
0.0
 11
54.71549961426098
 21
207.8991211965011
 31
0.0
  0
LINE
  5
AEE6
  8
0
 10
54.71549961426098
 20
207.8991211965011
 30
0.0
 11
54.71549961426098
 21
207.5651011965011
 31
0.0
  0
LINE
  5
AEE7
  8
0
 10
44.36866961426097
 20
207.2315561965011
 30
0.0
 11
44.70265446426097
 21
207.2315561965011
 31
0.0
  0
LINE
  5
AEE8
  8
0
 10
44.70265446426097
 20
207.2315561965011
 30
0.0
 11
44.70265446426097
 21
207.5659115465011
 31
0.0
  0
LINE
  5
AEE9
  8
0
 10
44.70265446426097
 20
207.5659115465011
 30
0.0
 11
44.36866961426097
 21
207.5659115465011
 31
0.0
  0
LINE
  5
AEEA
  8
0
 10
44.36866961426097
 20
207.5659115465011
 30
0.0
 11
44.36866961426097
 21
207.2315561965011
 31
0.0
  0
LINE
  5
AEEB
  8
0
 10
46.03743961426096
 20
207.2315561965011
 30
0.0
 11
46.37142351426095
 21
207.2315561965011
 31
0.0
  0
LINE
  5
AEEC
  8
0
 10
46.37142351426095
 20
207.2315561965011
 30
0.0
 11
46.37142351426095
 21
207.5659115465011
 31
0.0
  0
LINE
  5
AEED
  8
0
 10
46.37142351426095
 20
207.5659115465011
 30
0.0
 11
46.03743961426096
 21
207.5659115465011
 31
0.0
  0
LINE
  5
AEEE
  8
0
 10
46.03743961426096
 20
207.5659115465011
 30
0.0
 11
46.03743961426096
 21
207.2315561965011
 31
0.0
  0
LINE
  5
AEEF
  8
0
 10
47.03873961426096
 20
207.2315561965011
 30
0.0
 11
47.70596641426097
 21
207.2315561965011
 31
0.0
  0
LINE
  5
AEF0
  8
0
 10
47.70596641426097
 20
207.2315561965011
 30
0.0
 11
47.70596641426097
 21
207.5659115465011
 31
0.0
  0
LINE
  5
AEF1
  8
0
 10
47.70596641426097
 20
207.5659115465011
 30
0.0
 11
47.03873961426096
 21
207.5659115465011
 31
0.0
  0
LINE
  5
AEF2
  8
0
 10
47.03873961426096
 20
207.5659115465011
 30
0.0
 11
47.03873961426096
 21
207.2315561965011
 31
0.0
  0
LINE
  5
AEF3
  8
0
 10
48.04032461426098
 20
207.2315561965011
 30
0.0
 11
48.70755141426096
 21
207.2315561965011
 31
0.0
  0
LINE
  5
AEF4
  8
0
 10
48.70755141426096
 20
207.2315561965011
 30
0.0
 11
48.70755141426096
 21
207.5659115465011
 31
0.0
  0
LINE
  5
AEF5
  8
0
 10
48.70755141426096
 20
207.5659115465011
 30
0.0
 11
48.04032461426098
 21
207.5659115465011
 31
0.0
  0
LINE
  5
AEF6
  8
0
 10
48.04032461426098
 20
207.5659115465011
 30
0.0
 11
48.04032461426098
 21
207.2315561965011
 31
0.0
  0
LINE
  5
AEF7
  8
0
 10
49.70909461426098
 20
207.2315561965011
 30
0.0
 11
50.71067961426098
 21
207.2315561965011
 31
0.0
  0
LINE
  5
AEF8
  8
0
 10
50.71067961426098
 20
207.2315561965011
 30
0.0
 11
50.71067961426098
 21
207.5659115465011
 31
0.0
  0
LINE
  5
AEF9
  8
0
 10
50.71067961426098
 20
207.5659115465011
 30
0.0
 11
49.70909461426098
 21
207.5659115465011
 31
0.0
  0
LINE
  5
AEFA
  8
0
 10
49.70909461426098
 20
207.5659115465011
 30
0.0
 11
49.70909461426098
 21
207.2315561965011
 31
0.0
  0
LINE
  5
AEFB
  8
0
 10
51.37748461426096
 20
207.2315561965011
 30
0.0
 11
51.71146851426097
 21
207.2315561965011
 31
0.0
  0
LINE
  5
AEFC
  8
0
 10
51.71146851426097
 20
207.2315561965011
 30
0.0
 11
51.71146851426097
 21
207.5659115465011
 31
0.0
  0
LINE
  5
AEFD
  8
0
 10
51.71146851426097
 20
207.5659115465011
 30
0.0
 11
51.37748461426096
 21
207.5659115465011
 31
0.0
  0
LINE
  5
AEFE
  8
0
 10
51.37748461426096
 20
207.5659115465011
 30
0.0
 11
51.37748461426096
 21
207.2315561965011
 31
0.0
  0
LINE
  5
AEFF
  8
0
 10
52.04590461426096
 20
207.2315561965011
 30
0.0
 11
52.71313141426097
 21
207.2315561965011
 31
0.0
  0
LINE
  5
AF00
  8
0
 10
52.71313141426097
 20
207.2315561965011
 30
0.0
 11
52.71313141426097
 21
207.5659115465011
 31
0.0
  0
LINE
  5
AF01
  8
0
 10
52.71313141426097
 20
207.5659115465011
 30
0.0
 11
52.04590461426096
 21
207.5659115465011
 31
0.0
  0
LINE
  5
AF02
  8
0
 10
52.04590461426096
 20
207.5659115465011
 30
0.0
 11
52.04590461426096
 21
207.2315561965011
 31
0.0
  0
LINE
  5
AF03
  8
0
 10
53.04672961426097
 20
207.2315561965011
 30
0.0
 11
54.04831461426096
 21
207.2315561965011
 31
0.0
  0
LINE
  5
AF04
  8
0
 10
54.04831461426096
 20
207.2315561965011
 30
0.0
 11
54.04831461426096
 21
207.5659115465011
 31
0.0
  0
LINE
  5
AF05
  8
0
 10
54.04831461426096
 20
207.5659115465011
 30
0.0
 11
53.04672961426097
 21
207.5659115465011
 31
0.0
  0
LINE
  5
AF06
  8
0
 10
53.04672961426097
 20
207.5659115465011
 30
0.0
 11
53.04672961426097
 21
207.2315561965011
 31
0.0
  0
LINE
  5
AF07
  8
0
 10
54.71549961426098
 20
207.2315561965011
 30
0.0
 11
55.04985591426097
 21
207.2315561965011
 31
0.0
  0
LINE
  5
AF08
  8
0
 10
55.04985591426097
 20
207.2315561965011
 30
0.0
 11
55.04985591426097
 21
207.5659115465011
 31
0.0
  0
LINE
  5
AF09
  8
0
 10
55.04985591426097
 20
207.5659115465011
 30
0.0
 11
54.71549961426098
 21
207.5659115465011
 31
0.0
  0
LINE
  5
AF0A
  8
0
 10
54.71549961426098
 20
207.5659115465011
 30
0.0
 11
54.71549961426098
 21
207.2315561965011
 31
0.0
  0
LINE
  5
AF0B
  8
0
 10
44.36866961426097
 20
206.8975361965011
 30
0.0
 11
45.03589641426098
 21
206.8975361965011
 31
0.0
  0
LINE
  5
AF0C
  8
0
 10
45.03589641426098
 20
206.8975361965011
 30
0.0
 11
45.03589641426098
 21
207.2315210465011
 31
0.0
  0
LINE
  5
AF0D
  8
0
 10
45.03589641426098
 20
207.2315210465011
 30
0.0
 11
44.36866961426097
 21
207.2315210465011
 31
0.0
  0
LINE
  5
AF0E
  8
0
 10
44.36866961426097
 20
207.2315210465011
 30
0.0
 11
44.36866961426097
 21
206.8975361965011
 31
0.0
  0
LINE
  5
AF0F
  8
0
 10
45.36949461426099
 20
206.8975361965011
 30
0.0
 11
45.70347851426098
 21
206.8975361965011
 31
0.0
  0
LINE
  5
AF10
  8
0
 10
45.70347851426098
 20
206.8975361965011
 30
0.0
 11
45.70347851426098
 21
207.2315210465011
 31
0.0
  0
LINE
  5
AF11
  8
0
 10
45.70347851426098
 20
207.2315210465011
 30
0.0
 11
45.36949461426099
 21
207.2315210465011
 31
0.0
  0
LINE
  5
AF12
  8
0
 10
45.36949461426099
 20
207.2315210465011
 30
0.0
 11
45.36949461426099
 21
206.8975361965011
 31
0.0
  0
LINE
  5
AF13
  8
0
 10
47.70592461426097
 20
206.8975361965011
 30
0.0
 11
48.03990851426097
 21
206.8975361965011
 31
0.0
  0
LINE
  5
AF14
  8
0
 10
48.03990851426097
 20
206.8975361965011
 30
0.0
 11
48.03990851426097
 21
207.2315210465011
 31
0.0
  0
LINE
  5
AF15
  8
0
 10
48.03990851426097
 20
207.2315210465011
 30
0.0
 11
47.70592461426097
 21
207.2315210465011
 31
0.0
  0
LINE
  5
AF16
  8
0
 10
47.70592461426097
 20
207.2315210465011
 30
0.0
 11
47.70592461426097
 21
206.8975361965011
 31
0.0
  0
LINE
  5
AF17
  8
0
 10
48.37348961426096
 20
206.8975361965011
 30
0.0
 11
51.37749411426097
 21
206.8975361965011
 31
0.0
  0
LINE
  5
AF18
  8
0
 10
51.37749411426097
 20
206.8975361965011
 30
0.0
 11
51.37749411426097
 21
207.2315210465011
 31
0.0
  0
LINE
  5
AF19
  8
0
 10
51.37749411426097
 20
207.2315210465011
 30
0.0
 11
48.37348961426096
 21
207.2315210465011
 31
0.0
  0
LINE
  5
AF1A
  8
0
 10
48.37348961426096
 20
207.2315210465011
 30
0.0
 11
48.37348961426096
 21
206.8975361965011
 31
0.0
  0
LINE
  5
AF1B
  8
0
 10
51.71150461426097
 20
206.8975361965011
 30
0.0
 11
53.04670111426097
 21
206.8975361965011
 31
0.0
  0
LINE
  5
AF1C
  8
0
 10
53.04670111426097
 20
206.8975361965011
 30
0.0
 11
53.04670111426097
 21
207.2315210465011
 31
0.0
  0
LINE
  5
AF1D
  8
0
 10
53.04670111426097
 20
207.2315210465011
 30
0.0
 11
51.71150461426097
 21
207.2315210465011
 31
0.0
  0
LINE
  5
AF1E
  8
0
 10
51.71150461426097
 20
207.2315210465011
 30
0.0
 11
51.71150461426097
 21
206.8975361965011
 31
0.0
  0
LINE
  5
AF1F
  8
0
 10
53.71391461426097
 20
206.8975361965011
 30
0.0
 11
54.38151191426097
 21
206.8975361965011
 31
0.0
  0
LINE
  5
AF20
  8
0
 10
54.38151191426097
 20
206.8975361965011
 30
0.0
 11
54.38151191426097
 21
207.2315210465011
 31
0.0
  0
LINE
  5
AF21
  8
0
 10
54.38151191426097
 20
207.2315210465011
 30
0.0
 11
53.71391461426097
 21
207.2315210465011
 31
0.0
  0
LINE
  5
AF22
  8
0
 10
53.71391461426097
 20
207.2315210465011
 30
0.0
 11
53.71391461426097
 21
206.8975361965011
 31
0.0
  0
LINE
  5
AF23
  8
0
 10
54.71549961426098
 20
206.8975361965011
 30
0.0
 11
55.04985591426097
 21
206.8975361965011
 31
0.0
  0
LINE
  5
AF24
  8
0
 10
55.04985591426097
 20
206.8975361965011
 30
0.0
 11
55.04985591426097
 21
207.2315210465011
 31
0.0
  0
LINE
  5
AF25
  8
0
 10
55.04985591426097
 20
207.2315210465011
 30
0.0
 11
54.71549961426098
 21
207.2315210465011
 31
0.0
  0
LINE
  5
AF26
  8
0
 10
54.71549961426098
 20
207.2315210465011
 30
0.0
 11
54.71549961426098
 21
206.8975361965011
 31
0.0
  0
LINE
  5
AF27
  8
0
 10
44.70192961426096
 20
206.5642761965011
 30
0.0
 11
45.03628591426096
 21
206.5642761965011
 31
0.0
  0
LINE
  5
AF28
  8
0
 10
45.03628591426096
 20
206.5642761965011
 30
0.0
 11
45.03628591426096
 21
206.8982600965011
 31
0.0
  0
LINE
  5
AF29
  8
0
 10
45.03628591426096
 20
206.8982600965011
 30
0.0
 11
44.70192961426096
 21
206.8982600965011
 31
0.0
  0
LINE
  5
AF2A
  8
0
 10
44.70192961426096
 20
206.8982600965011
 30
0.0
 11
44.70192961426096
 21
206.5642761965011
 31
0.0
  0
LINE
  5
AF2B
  8
0
 10
45.36949461426099
 20
206.5642761965011
 30
0.0
 11
45.70347851426098
 21
206.5642761965011
 31
0.0
  0
LINE
  5
AF2C
  8
0
 10
45.70347851426098
 20
206.5642761965011
 30
0.0
 11
45.70347851426098
 21
206.8982600965011
 31
0.0
  0
LINE
  5
AF2D
  8
0
 10
45.70347851426098
 20
206.8982600965011
 30
0.0
 11
45.36949461426099
 21
206.8982600965011
 31
0.0
  0
LINE
  5
AF2E
  8
0
 10
45.36949461426099
 20
206.8982600965011
 30
0.0
 11
45.36949461426099
 21
206.5642761965011
 31
0.0
  0
LINE
  5
AF2F
  8
0
 10
46.03743961426096
 20
206.5642761965011
 30
0.0
 11
48.04022961426097
 21
206.5642761965011
 31
0.0
  0
LINE
  5
AF30
  8
0
 10
48.04022961426097
 20
206.5642761965011
 30
0.0
 11
48.04022961426097
 21
206.8982600965011
 31
0.0
  0
LINE
  5
AF31
  8
0
 10
48.04022961426097
 20
206.8982600965011
 30
0.0
 11
46.03743961426096
 21
206.8982600965011
 31
0.0
  0
LINE
  5
AF32
  8
0
 10
46.03743961426096
 20
206.8982600965011
 30
0.0
 11
46.03743961426096
 21
206.5642761965011
 31
0.0
  0
LINE
  5
AF33
  8
0
 10
48.37348961426096
 20
206.5642761965011
 30
0.0
 11
48.70747446426097
 21
206.5642761965011
 31
0.0
  0
LINE
  5
AF34
  8
0
 10
48.70747446426097
 20
206.5642761965011
 30
0.0
 11
48.70747446426097
 21
206.8982600965011
 31
0.0
  0
LINE
  5
AF35
  8
0
 10
48.70747446426097
 20
206.8982600965011
 30
0.0
 11
48.37348961426096
 21
206.8982600965011
 31
0.0
  0
LINE
  5
AF36
  8
0
 10
48.37348961426096
 20
206.8982600965011
 30
0.0
 11
48.37348961426096
 21
206.5642761965011
 31
0.0
  0
LINE
  5
AF37
  8
0
 10
49.04152961426097
 20
206.5642761965011
 30
0.0
 11
49.70912786426096
 21
206.5642761965011
 31
0.0
  0
LINE
  5
AF38
  8
0
 10
49.70912786426096
 20
206.5642761965011
 30
0.0
 11
49.70912786426096
 21
206.8982600965011
 31
0.0
  0
LINE
  5
AF39
  8
0
 10
49.70912786426096
 20
206.8982600965011
 30
0.0
 11
49.04152961426097
 21
206.8982600965011
 31
0.0
  0
LINE
  5
AF3A
  8
0
 10
49.04152961426097
 20
206.8982600965011
 30
0.0
 11
49.04152961426097
 21
206.5642761965011
 31
0.0
  0
LINE
  5
AF3B
  8
0
 10
50.37665961426097
 20
206.5642761965011
 30
0.0
 11
50.71064351426097
 21
206.5642761965011
 31
0.0
  0
LINE
  5
AF3C
  8
0
 10
50.71064351426097
 20
206.5642761965011
 30
0.0
 11
50.71064351426097
 21
206.8982600965011
 31
0.0
  0
LINE
  5
AF3D
  8
0
 10
50.71064351426097
 20
206.8982600965011
 30
0.0
 11
50.37665961426097
 21
206.8982600965011
 31
0.0
  0
LINE
  5
AF3E
  8
0
 10
50.37665961426097
 20
206.8982600965011
 30
0.0
 11
50.37665961426097
 21
206.5642761965011
 31
0.0
  0
LINE
  5
AF3F
  8
0
 10
51.71150461426097
 20
206.5642761965011
 30
0.0
 11
52.04585996426097
 21
206.5642761965011
 31
0.0
  0
LINE
  5
AF40
  8
0
 10
52.04585996426097
 20
206.5642761965011
 30
0.0
 11
52.04585996426097
 21
206.8982600965011
 31
0.0
  0
LINE
  5
AF41
  8
0
 10
52.04585996426097
 20
206.8982600965011
 30
0.0
 11
51.71150461426097
 21
206.8982600965011
 31
0.0
  0
LINE
  5
AF42
  8
0
 10
51.71150461426097
 20
206.8982600965011
 30
0.0
 11
51.71150461426097
 21
206.5642761965011
 31
0.0
  0
LINE
  5
AF43
  8
0
 10
53.04672961426097
 20
206.5642761965011
 30
0.0
 11
53.38071351426098
 21
206.5642761965011
 31
0.0
  0
LINE
  5
AF44
  8
0
 10
53.38071351426098
 20
206.5642761965011
 30
0.0
 11
53.38071351426098
 21
206.8982600965011
 31
0.0
  0
LINE
  5
AF45
  8
0
 10
53.38071351426098
 20
206.8982600965011
 30
0.0
 11
53.04672961426097
 21
206.8982600965011
 31
0.0
  0
LINE
  5
AF46
  8
0
 10
53.04672961426097
 20
206.8982600965011
 30
0.0
 11
53.04672961426097
 21
206.5642761965011
 31
0.0
  0
LINE
  5
AF47
  8
0
 10
53.71391461426097
 20
206.5642761965011
 30
0.0
 11
54.38151191426097
 21
206.5642761965011
 31
0.0
  0
LINE
  5
AF48
  8
0
 10
54.38151191426097
 20
206.5642761965011
 30
0.0
 11
54.38151191426097
 21
206.8982600965011
 31
0.0
  0
LINE
  5
AF49
  8
0
 10
54.38151191426097
 20
206.8982600965011
 30
0.0
 11
53.71391461426097
 21
206.8982600965011
 31
0.0
  0
LINE
  5
AF4A
  8
0
 10
53.71391461426097
 20
206.8982600965011
 30
0.0
 11
53.71391461426097
 21
206.5642761965011
 31
0.0
  0
LINE
  5
AF4B
  8
0
 10
54.71549961426098
 20
206.5642761965011
 30
0.0
 11
55.04985591426097
 21
206.5642761965011
 31
0.0
  0
LINE
  5
AF4C
  8
0
 10
55.04985591426097
 20
206.5642761965011
 30
0.0
 11
55.04985591426097
 21
206.8982600965011
 31
0.0
  0
LINE
  5
AF4D
  8
0
 10
55.04985591426097
 20
206.8982600965011
 30
0.0
 11
54.71549961426098
 21
206.8982600965011
 31
0.0
  0
LINE
  5
AF4E
  8
0
 10
54.71549961426098
 20
206.8982600965011
 30
0.0
 11
54.71549961426098
 21
206.5642761965011
 31
0.0
  0
LINE
  5
AF4F
  8
0
 10
44.36866961426097
 20
206.2303511965011
 30
0.0
 11
44.70265446426097
 21
206.2303511965011
 31
0.0
  0
LINE
  5
AF50
  8
0
 10
44.70265446426097
 20
206.2303511965011
 30
0.0
 11
44.70265446426097
 21
206.5643360465011
 31
0.0
  0
LINE
  5
AF51
  8
0
 10
44.70265446426097
 20
206.5643360465011
 30
0.0
 11
44.36866961426097
 21
206.5643360465011
 31
0.0
  0
LINE
  5
AF52
  8
0
 10
44.36866961426097
 20
206.5643360465011
 30
0.0
 11
44.36866961426097
 21
206.2303511965011
 31
0.0
  0
LINE
  5
AF53
  8
0
 10
45.03585461426098
 20
206.2303511965011
 30
0.0
 11
46.03743961426096
 21
206.2303511965011
 31
0.0
  0
LINE
  5
AF54
  8
0
 10
46.03743961426096
 20
206.2303511965011
 30
0.0
 11
46.03743961426096
 21
206.5643360465011
 31
0.0
  0
LINE
  5
AF55
  8
0
 10
46.03743961426096
 20
206.5643360465011
 30
0.0
 11
45.03585461426098
 21
206.5643360465011
 31
0.0
  0
LINE
  5
AF56
  8
0
 10
45.03585461426098
 20
206.5643360465011
 30
0.0
 11
45.03585461426098
 21
206.2303511965011
 31
0.0
  0
LINE
  5
AF57
  8
0
 10
46.37107961426096
 20
206.2303511965011
 30
0.0
 11
47.03867691426096
 21
206.2303511965011
 31
0.0
  0
LINE
  5
AF58
  8
0
 10
47.03867691426096
 20
206.2303511965011
 30
0.0
 11
47.03867691426096
 21
206.5643360465011
 31
0.0
  0
LINE
  5
AF59
  8
0
 10
47.03867691426096
 20
206.5643360465011
 30
0.0
 11
46.37107961426096
 21
206.5643360465011
 31
0.0
  0
LINE
  5
AF5A
  8
0
 10
46.37107961426096
 20
206.5643360465011
 30
0.0
 11
46.37107961426096
 21
206.2303511965011
 31
0.0
  0
LINE
  5
AF5B
  8
0
 10
47.37266461426097
 20
206.2303511965011
 30
0.0
 11
47.70664851426098
 21
206.2303511965011
 31
0.0
  0
LINE
  5
AF5C
  8
0
 10
47.70664851426098
 20
206.2303511965011
 30
0.0
 11
47.70664851426098
 21
206.5643360465011
 31
0.0
  0
LINE
  5
AF5D
  8
0
 10
47.70664851426098
 20
206.5643360465011
 30
0.0
 11
47.37266461426097
 21
206.5643360465011
 31
0.0
  0
LINE
  5
AF5E
  8
0
 10
47.37266461426097
 20
206.5643360465011
 30
0.0
 11
47.37266461426097
 21
206.2303511965011
 31
0.0
  0
LINE
  5
AF5F
  8
0
 10
49.04152961426097
 20
206.2303511965011
 30
0.0
 11
51.37831111426098
 21
206.2303511965011
 31
0.0
  0
LINE
  5
AF60
  8
0
 10
51.37831111426098
 20
206.2303511965011
 30
0.0
 11
51.37831111426098
 21
206.5643360465011
 31
0.0
  0
LINE
  5
AF61
  8
0
 10
51.37831111426098
 20
206.5643360465011
 30
0.0
 11
49.04152961426097
 21
206.5643360465011
 31
0.0
  0
LINE
  5
AF62
  8
0
 10
49.04152961426097
 20
206.5643360465011
 30
0.0
 11
49.04152961426097
 21
206.2303511965011
 31
0.0
  0
LINE
  5
AF63
  8
0
 10
51.71150461426097
 20
206.2303511965011
 30
0.0
 11
52.04585996426097
 21
206.2303511965011
 31
0.0
  0
LINE
  5
AF64
  8
0
 10
52.04585996426097
 20
206.2303511965011
 30
0.0
 11
52.04585996426097
 21
206.5643360465011
 31
0.0
  0
LINE
  5
AF65
  8
0
 10
52.04585996426097
 20
206.5643360465011
 30
0.0
 11
51.71150461426097
 21
206.5643360465011
 31
0.0
  0
LINE
  5
AF66
  8
0
 10
51.71150461426097
 20
206.5643360465011
 30
0.0
 11
51.71150461426097
 21
206.2303511965011
 31
0.0
  0
LINE
  5
AF67
  8
0
 10
52.37906961426097
 20
206.2303511965011
 30
0.0
 11
52.71305446426098
 21
206.2303511965011
 31
0.0
  0
LINE
  5
AF68
  8
0
 10
52.71305446426098
 20
206.2303511965011
 30
0.0
 11
52.71305446426098
 21
206.5643360465011
 31
0.0
  0
LINE
  5
AF69
  8
0
 10
52.71305446426098
 20
206.5643360465011
 30
0.0
 11
52.37906961426097
 21
206.5643360465011
 31
0.0
  0
LINE
  5
AF6A
  8
0
 10
52.37906961426097
 20
206.5643360465011
 30
0.0
 11
52.37906961426097
 21
206.2303511965011
 31
0.0
  0
LINE
  5
AF6B
  8
0
 10
53.38065461426096
 20
206.2303511965011
 30
0.0
 11
54.38223961426097
 21
206.2303511965011
 31
0.0
  0
LINE
  5
AF6C
  8
0
 10
54.38223961426097
 20
206.2303511965011
 30
0.0
 11
54.38223961426097
 21
206.5643360465011
 31
0.0
  0
LINE
  5
AF6D
  8
0
 10
54.38223961426097
 20
206.5643360465011
 30
0.0
 11
53.38065461426096
 21
206.5643360465011
 31
0.0
  0
LINE
  5
AF6E
  8
0
 10
53.38065461426096
 20
206.5643360465011
 30
0.0
 11
53.38065461426096
 21
206.2303511965011
 31
0.0
  0
LINE
  5
AF6F
  8
0
 10
54.71549961426098
 20
206.2303511965011
 30
0.0
 11
55.04985591426097
 21
206.2303511965011
 31
0.0
  0
LINE
  5
AF70
  8
0
 10
55.04985591426097
 20
206.2303511965011
 30
0.0
 11
55.04985591426097
 21
206.5643360465011
 31
0.0
  0
LINE
  5
AF71
  8
0
 10
55.04985591426097
 20
206.5643360465011
 30
0.0
 11
54.71549961426098
 21
206.5643360465011
 31
0.0
  0
LINE
  5
AF72
  8
0
 10
54.71549961426098
 20
206.5643360465011
 30
0.0
 11
54.71549961426098
 21
206.2303511965011
 31
0.0
  0
LINE
  5
AF73
  8
0
 10
44.03436461426097
 20
205.8959511965011
 30
0.0
 11
45.36956111426097
 21
205.8959511965011
 31
0.0
  0
LINE
  5
AF74
  8
0
 10
45.36956111426097
 20
205.8959511965011
 30
0.0
 11
45.36956111426097
 21
206.2303065465011
 31
0.0
  0
LINE
  5
AF75
  8
0
 10
45.36956111426097
 20
206.2303065465011
 30
0.0
 11
44.03436461426097
 21
206.2303065465011
 31
0.0
  0
LINE
  5
AF76
  8
0
 10
44.03436461426097
 20
206.2303065465011
 30
0.0
 11
44.03436461426097
 21
205.8959511965011
 31
0.0
  0
LINE
  5
AF77
  8
0
 10
46.03743961426096
 20
205.8959511965011
 30
0.0
 11
46.37142351426095
 21
205.8959511965011
 31
0.0
  0
LINE
  5
AF78
  8
0
 10
46.37142351426095
 20
205.8959511965011
 30
0.0
 11
46.37142351426095
 21
206.2303065465011
 31
0.0
  0
LINE
  5
AF79
  8
0
 10
46.37142351426095
 20
206.2303065465011
 30
0.0
 11
46.03743961426096
 21
206.2303065465011
 31
0.0
  0
LINE
  5
AF7A
  8
0
 10
46.03743961426096
 20
206.2303065465011
 30
0.0
 11
46.03743961426096
 21
205.8959511965011
 31
0.0
  0
LINE
  5
AF7B
  8
0
 10
46.70509961426097
 20
205.8959511965011
 30
0.0
 11
47.03908446426098
 21
205.8959511965011
 31
0.0
  0
LINE
  5
AF7C
  8
0
 10
47.03908446426098
 20
205.8959511965011
 30
0.0
 11
47.03908446426098
 21
206.2303065465011
 31
0.0
  0
LINE
  5
AF7D
  8
0
 10
47.03908446426098
 20
206.2303065465011
 30
0.0
 11
46.70509961426097
 21
206.2303065465011
 31
0.0
  0
LINE
  5
AF7E
  8
0
 10
46.70509961426097
 20
206.2303065465011
 30
0.0
 11
46.70509961426097
 21
205.8959511965011
 31
0.0
  0
LINE
  5
AF7F
  8
0
 10
47.37266461426097
 20
205.8959511965011
 30
0.0
 11
47.70664851426098
 21
205.8959511965011
 31
0.0
  0
LINE
  5
AF80
  8
0
 10
47.70664851426098
 20
205.8959511965011
 30
0.0
 11
47.70664851426098
 21
206.2303065465011
 31
0.0
  0
LINE
  5
AF81
  8
0
 10
47.70664851426098
 20
206.2303065465011
 30
0.0
 11
47.37266461426097
 21
206.2303065465011
 31
0.0
  0
LINE
  5
AF82
  8
0
 10
47.37266461426097
 20
206.2303065465011
 30
0.0
 11
47.37266461426097
 21
205.8959511965011
 31
0.0
  0
LINE
  5
AF83
  8
0
 10
48.04032461426098
 20
205.8959511965011
 30
0.0
 11
49.04153911426097
 21
205.8959511965011
 31
0.0
  0
LINE
  5
AF84
  8
0
 10
49.04153911426097
 20
205.8959511965011
 30
0.0
 11
49.04153911426097
 21
206.2303065465011
 31
0.0
  0
LINE
  5
AF85
  8
0
 10
49.04153911426097
 20
206.2303065465011
 30
0.0
 11
48.04032461426098
 21
206.2303065465011
 31
0.0
  0
LINE
  5
AF86
  8
0
 10
48.04032461426098
 20
206.2303065465011
 30
0.0
 11
48.04032461426098
 21
205.8959511965011
 31
0.0
  0
LINE
  5
AF87
  8
0
 10
49.37507461426097
 20
205.8959511965011
 30
0.0
 11
49.70905946426097
 21
205.8959511965011
 31
0.0
  0
LINE
  5
AF88
  8
0
 10
49.70905946426097
 20
205.8959511965011
 30
0.0
 11
49.70905946426097
 21
206.2303065465011
 31
0.0
  0
LINE
  5
AF89
  8
0
 10
49.70905946426097
 20
206.2303065465011
 30
0.0
 11
49.37507461426097
 21
206.2303065465011
 31
0.0
  0
LINE
  5
AF8A
  8
0
 10
49.37507461426097
 20
206.2303065465011
 30
0.0
 11
49.37507461426097
 21
205.8959511965011
 31
0.0
  0
LINE
  5
AF8B
  8
0
 10
50.70991961426098
 20
205.8959511965011
 30
0.0
 11
51.71150461426097
 21
205.8959511965011
 31
0.0
  0
LINE
  5
AF8C
  8
0
 10
51.71150461426097
 20
205.8959511965011
 30
0.0
 11
51.71150461426097
 21
206.2303065465011
 31
0.0
  0
LINE
  5
AF8D
  8
0
 10
51.71150461426097
 20
206.2303065465011
 30
0.0
 11
50.70991961426098
 21
206.2303065465011
 31
0.0
  0
LINE
  5
AF8E
  8
0
 10
50.70991961426098
 20
206.2303065465011
 30
0.0
 11
50.70991961426098
 21
205.8959511965011
 31
0.0
  0
LINE
  5
AF8F
  8
0
 10
52.37906961426097
 20
205.8959511965011
 30
0.0
 11
52.71305446426098
 21
205.8959511965011
 31
0.0
  0
LINE
  5
AF90
  8
0
 10
52.71305446426098
 20
205.8959511965011
 30
0.0
 11
52.71305446426098
 21
206.2303065465011
 31
0.0
  0
LINE
  5
AF91
  8
0
 10
52.71305446426098
 20
206.2303065465011
 30
0.0
 11
52.37906961426097
 21
206.2303065465011
 31
0.0
  0
LINE
  5
AF92
  8
0
 10
52.37906961426097
 20
206.2303065465011
 30
0.0
 11
52.37906961426097
 21
205.8959511965011
 31
0.0
  0
LINE
  5
AF93
  8
0
 10
53.38065461426096
 20
205.8959511965011
 30
0.0
 11
54.04788141426098
 21
205.8959511965011
 31
0.0
  0
LINE
  5
AF94
  8
0
 10
54.04788141426098
 20
205.8959511965011
 30
0.0
 11
54.04788141426098
 21
206.2303065465011
 31
0.0
  0
LINE
  5
AF95
  8
0
 10
54.04788141426098
 20
206.2303065465011
 30
0.0
 11
53.38065461426096
 21
206.2303065465011
 31
0.0
  0
LINE
  5
AF96
  8
0
 10
53.38065461426096
 20
206.2303065465011
 30
0.0
 11
53.38065461426096
 21
205.8959511965011
 31
0.0
  0
LINE
  5
AF97
  8
0
 10
44.03436461426097
 20
205.5626911965011
 30
0.0
 11
44.70196191426096
 21
205.5626911965011
 31
0.0
  0
LINE
  5
AF98
  8
0
 10
44.70196191426096
 20
205.5626911965011
 30
0.0
 11
44.70196191426096
 21
205.8966760465011
 31
0.0
  0
LINE
  5
AF99
  8
0
 10
44.70196191426096
 20
205.8966760465011
 30
0.0
 11
44.03436461426097
 21
205.8966760465011
 31
0.0
  0
LINE
  5
AF9A
  8
0
 10
44.03436461426097
 20
205.8966760465011
 30
0.0
 11
44.03436461426097
 21
205.5626911965011
 31
0.0
  0
LINE
  5
AF9B
  8
0
 10
45.03585461426098
 20
205.5626911965011
 30
0.0
 11
45.36983851426098
 21
205.5626911965011
 31
0.0
  0
LINE
  5
AF9C
  8
0
 10
45.36983851426098
 20
205.5626911965011
 30
0.0
 11
45.36983851426098
 21
205.8966760465011
 31
0.0
  0
LINE
  5
AF9D
  8
0
 10
45.36983851426098
 20
205.8966760465011
 30
0.0
 11
45.03585461426098
 21
205.8966760465011
 31
0.0
  0
LINE
  5
AF9E
  8
0
 10
45.03585461426098
 20
205.8966760465011
 30
0.0
 11
45.03585461426098
 21
205.5626911965011
 31
0.0
  0
LINE
  5
AF9F
  8
0
 10
45.70351461426097
 20
205.5626911965011
 30
0.0
 11
46.03749946426097
 21
205.5626911965011
 31
0.0
  0
LINE
  5
AFA0
  8
0
 10
46.03749946426097
 20
205.5626911965011
 30
0.0
 11
46.03749946426097
 21
205.8966760465011
 31
0.0
  0
LINE
  5
AFA1
  8
0
 10
46.03749946426097
 20
205.8966760465011
 30
0.0
 11
45.70351461426097
 21
205.8966760465011
 31
0.0
  0
LINE
  5
AFA2
  8
0
 10
45.70351461426097
 20
205.8966760465011
 30
0.0
 11
45.70351461426097
 21
205.5626911965011
 31
0.0
  0
LINE
  5
AFA3
  8
0
 10
46.70509961426097
 20
205.5626911965011
 30
0.0
 11
47.03908446426098
 21
205.5626911965011
 31
0.0
  0
LINE
  5
AFA4
  8
0
 10
47.03908446426098
 20
205.5626911965011
 30
0.0
 11
47.03908446426098
 21
205.8966760465011
 31
0.0
  0
LINE
  5
AFA5
  8
0
 10
47.03908446426098
 20
205.8966760465011
 30
0.0
 11
46.70509961426097
 21
205.8966760465011
 31
0.0
  0
LINE
  5
AFA6
  8
0
 10
46.70509961426097
 20
205.8966760465011
 30
0.0
 11
46.70509961426097
 21
205.5626911965011
 31
0.0
  0
LINE
  5
AFA7
  8
0
 10
47.37266461426097
 20
205.5626911965011
 30
0.0
 11
48.37387911426097
 21
205.5626911965011
 31
0.0
  0
LINE
  5
AFA8
  8
0
 10
48.37387911426097
 20
205.5626911965011
 30
0.0
 11
48.37387911426097
 21
205.8966760465011
 31
0.0
  0
LINE
  5
AFA9
  8
0
 10
48.37387911426097
 20
205.8966760465011
 30
0.0
 11
47.37266461426097
 21
205.8966760465011
 31
0.0
  0
LINE
  5
AFAA
  8
0
 10
47.37266461426097
 20
205.8966760465011
 30
0.0
 11
47.37266461426097
 21
205.5626911965011
 31
0.0
  0
LINE
  5
AFAB
  8
0
 10
48.70750961426099
 20
205.5626911965011
 30
0.0
 11
49.04149351426098
 21
205.5626911965011
 31
0.0
  0
LINE
  5
AFAC
  8
0
 10
49.04149351426098
 20
205.5626911965011
 30
0.0
 11
49.04149351426098
 21
205.8966760465011
 31
0.0
  0
LINE
  5
AFAD
  8
0
 10
49.04149351426098
 20
205.8966760465011
 30
0.0
 11
48.70750961426099
 21
205.8966760465011
 31
0.0
  0
LINE
  5
AFAE
  8
0
 10
48.70750961426099
 20
205.8966760465011
 30
0.0
 11
48.70750961426099
 21
205.5626911965011
 31
0.0
  0
LINE
  5
AFAF
  8
0
 10
49.37507461426097
 20
205.5626911965011
 30
0.0
 11
50.37665961426097
 21
205.5626911965011
 31
0.0
  0
LINE
  5
AFB0
  8
0
 10
50.37665961426097
 20
205.5626911965011
 30
0.0
 11
50.37665961426097
 21
205.8966760465011
 31
0.0
  0
LINE
  5
AFB1
  8
0
 10
50.37665961426097
 20
205.8966760465011
 30
0.0
 11
49.37507461426097
 21
205.8966760465011
 31
0.0
  0
LINE
  5
AFB2
  8
0
 10
49.37507461426097
 20
205.8966760465011
 30
0.0
 11
49.37507461426097
 21
205.5626911965011
 31
0.0
  0
LINE
  5
AFB3
  8
0
 10
50.70991961426098
 20
205.5626911965011
 30
0.0
 11
51.04427496426098
 21
205.5626911965011
 31
0.0
  0
LINE
  5
AFB4
  8
0
 10
51.04427496426098
 20
205.5626911965011
 30
0.0
 11
51.04427496426098
 21
205.8966760465011
 31
0.0
  0
LINE
  5
AFB5
  8
0
 10
51.04427496426098
 20
205.8966760465011
 30
0.0
 11
50.70991961426098
 21
205.8966760465011
 31
0.0
  0
LINE
  5
AFB6
  8
0
 10
50.70991961426098
 20
205.8966760465011
 30
0.0
 11
50.70991961426098
 21
205.5626911965011
 31
0.0
  0
LINE
  5
AFB7
  8
0
 10
51.37748461426096
 20
205.5626911965011
 30
0.0
 11
52.04508191426098
 21
205.5626911965011
 31
0.0
  0
LINE
  5
AFB8
  8
0
 10
52.04508191426098
 20
205.5626911965011
 30
0.0
 11
52.04508191426098
 21
205.8966760465011
 31
0.0
  0
LINE
  5
AFB9
  8
0
 10
52.04508191426098
 20
205.8966760465011
 30
0.0
 11
51.37748461426096
 21
205.8966760465011
 31
0.0
  0
LINE
  5
AFBA
  8
0
 10
51.37748461426096
 20
205.8966760465011
 30
0.0
 11
51.37748461426096
 21
205.5626911965011
 31
0.0
  0
LINE
  5
AFBB
  8
0
 10
53.04672961426097
 20
205.5626911965011
 30
0.0
 11
54.38155561426096
 21
205.5626911965011
 31
0.0
  0
LINE
  5
AFBC
  8
0
 10
54.38155561426096
 20
205.5626911965011
 30
0.0
 11
54.38155561426096
 21
205.8966760465011
 31
0.0
  0
LINE
  5
AFBD
  8
0
 10
54.38155561426096
 20
205.8966760465011
 30
0.0
 11
53.04672961426097
 21
205.8966760465011
 31
0.0
  0
LINE
  5
AFBE
  8
0
 10
53.04672961426097
 20
205.8966760465011
 30
0.0
 11
53.04672961426097
 21
205.5626911965011
 31
0.0
  0
LINE
  5
AFBF
  8
0
 10
44.03436461426097
 20
205.2287661965011
 30
0.0
 11
44.36871996426098
 21
205.2287661965011
 31
0.0
  0
LINE
  5
AFC0
  8
0
 10
44.36871996426098
 20
205.2287661965011
 30
0.0
 11
44.36871996426098
 21
205.5627500965011
 31
0.0
  0
LINE
  5
AFC1
  8
0
 10
44.36871996426098
 20
205.5627500965011
 30
0.0
 11
44.03436461426097
 21
205.5627500965011
 31
0.0
  0
LINE
  5
AFC2
  8
0
 10
44.03436461426097
 20
205.5627500965011
 30
0.0
 11
44.03436461426097
 21
205.2287661965011
 31
0.0
  0
LINE
  5
AFC3
  8
0
 10
44.70192961426096
 20
205.2287661965011
 30
0.0
 11
45.03628591426096
 21
205.2287661965011
 31
0.0
  0
LINE
  5
AFC4
  8
0
 10
45.03628591426096
 20
205.2287661965011
 30
0.0
 11
45.03628591426096
 21
205.5627500965011
 31
0.0
  0
LINE
  5
AFC5
  8
0
 10
45.03628591426096
 20
205.5627500965011
 30
0.0
 11
44.70192961426096
 21
205.5627500965011
 31
0.0
  0
LINE
  5
AFC6
  8
0
 10
44.70192961426096
 20
205.5627500965011
 30
0.0
 11
44.70192961426096
 21
205.2287661965011
 31
0.0
  0
LINE
  5
AFC7
  8
0
 10
45.36949461426099
 20
205.2287661965011
 30
0.0
 11
46.37107961426096
 21
205.2287661965011
 31
0.0
  0
LINE
  5
AFC8
  8
0
 10
46.37107961426096
 20
205.2287661965011
 30
0.0
 11
46.37107961426096
 21
205.5627500965011
 31
0.0
  0
LINE
  5
AFC9
  8
0
 10
46.37107961426096
 20
205.5627500965011
 30
0.0
 11
45.36949461426099
 21
205.5627500965011
 31
0.0
  0
LINE
  5
AFCA
  8
0
 10
45.36949461426099
 20
205.5627500965011
 30
0.0
 11
45.36949461426099
 21
205.2287661965011
 31
0.0
  0
LINE
  5
AFCB
  8
0
 10
47.03873961426096
 20
205.2287661965011
 30
0.0
 11
47.37272446426095
 21
205.2287661965011
 31
0.0
  0
LINE
  5
AFCC
  8
0
 10
47.37272446426095
 20
205.2287661965011
 30
0.0
 11
47.37272446426095
 21
205.5627500965011
 31
0.0
  0
LINE
  5
AFCD
  8
0
 10
47.37272446426095
 20
205.5627500965011
 30
0.0
 11
47.03873961426096
 21
205.5627500965011
 31
0.0
  0
LINE
  5
AFCE
  8
0
 10
47.03873961426096
 20
205.5627500965011
 30
0.0
 11
47.03873961426096
 21
205.2287661965011
 31
0.0
  0
LINE
  5
AFCF
  8
0
 10
47.70592461426097
 20
205.2287661965011
 30
0.0
 11
48.03990851426097
 21
205.2287661965011
 31
0.0
  0
LINE
  5
AFD0
  8
0
 10
48.03990851426097
 20
205.2287661965011
 30
0.0
 11
48.03990851426097
 21
205.5627500965011
 31
0.0
  0
LINE
  5
AFD1
  8
0
 10
48.03990851426097
 20
205.5627500965011
 30
0.0
 11
47.70592461426097
 21
205.5627500965011
 31
0.0
  0
LINE
  5
AFD2
  8
0
 10
47.70592461426097
 20
205.5627500965011
 30
0.0
 11
47.70592461426097
 21
205.2287661965011
 31
0.0
  0
LINE
  5
AFD3
  8
0
 10
49.04152961426097
 20
205.2287661965011
 30
0.0
 11
50.04311461426097
 21
205.2287661965011
 31
0.0
  0
LINE
  5
AFD4
  8
0
 10
50.04311461426097
 20
205.2287661965011
 30
0.0
 11
50.04311461426097
 21
205.5627500965011
 31
0.0
  0
LINE
  5
AFD5
  8
0
 10
50.04311461426097
 20
205.5627500965011
 30
0.0
 11
49.04152961426097
 21
205.5627500965011
 31
0.0
  0
LINE
  5
AFD6
  8
0
 10
49.04152961426097
 20
205.5627500965011
 30
0.0
 11
49.04152961426097
 21
205.2287661965011
 31
0.0
  0
LINE
  5
AFD7
  8
0
 10
50.70991961426098
 20
205.2287661965011
 30
0.0
 11
51.37751786426097
 21
205.2287661965011
 31
0.0
  0
LINE
  5
AFD8
  8
0
 10
51.37751786426097
 20
205.2287661965011
 30
0.0
 11
51.37751786426097
 21
205.5627500965011
 31
0.0
  0
LINE
  5
AFD9
  8
0
 10
51.37751786426097
 20
205.5627500965011
 30
0.0
 11
50.70991961426098
 21
205.5627500965011
 31
0.0
  0
LINE
  5
AFDA
  8
0
 10
50.70991961426098
 20
205.5627500965011
 30
0.0
 11
50.70991961426098
 21
205.2287661965011
 31
0.0
  0
LINE
  5
AFDB
  8
0
 10
52.04590461426096
 20
205.2287661965011
 30
0.0
 11
52.71313141426097
 21
205.2287661965011
 31
0.0
  0
LINE
  5
AFDC
  8
0
 10
52.71313141426097
 20
205.2287661965011
 30
0.0
 11
52.71313141426097
 21
205.5627500965011
 31
0.0
  0
LINE
  5
AFDD
  8
0
 10
52.71313141426097
 20
205.5627500965011
 30
0.0
 11
52.04590461426096
 21
205.5627500965011
 31
0.0
  0
LINE
  5
AFDE
  8
0
 10
52.04590461426096
 20
205.5627500965011
 30
0.0
 11
52.04590461426096
 21
205.2287661965011
 31
0.0
  0
LINE
  5
AFDF
  8
0
 10
53.04672961426097
 20
205.2287661965011
 30
0.0
 11
53.38071351426098
 21
205.2287661965011
 31
0.0
  0
LINE
  5
AFE0
  8
0
 10
53.38071351426098
 20
205.2287661965011
 30
0.0
 11
53.38071351426098
 21
205.5627500965011
 31
0.0
  0
LINE
  5
AFE1
  8
0
 10
53.38071351426098
 20
205.5627500965011
 30
0.0
 11
53.04672961426097
 21
205.5627500965011
 31
0.0
  0
LINE
  5
AFE2
  8
0
 10
53.04672961426097
 20
205.5627500965011
 30
0.0
 11
53.04672961426097
 21
205.2287661965011
 31
0.0
  0
LINE
  5
AFE3
  8
0
 10
53.71391461426097
 20
205.2287661965011
 30
0.0
 11
54.71549961426098
 21
205.2287661965011
 31
0.0
  0
LINE
  5
AFE4
  8
0
 10
54.71549961426098
 20
205.2287661965011
 30
0.0
 11
54.71549961426098
 21
205.5627500965011
 31
0.0
  0
LINE
  5
AFE5
  8
0
 10
54.71549961426098
 20
205.5627500965011
 30
0.0
 11
53.71391461426097
 21
205.5627500965011
 31
0.0
  0
LINE
  5
AFE6
  8
0
 10
53.71391461426097
 20
205.5627500965011
 30
0.0
 11
53.71391461426097
 21
205.2287661965011
 31
0.0
  0
LINE
  5
AFE7
  8
0
 10
44.03436461426097
 20
204.8951261965011
 30
0.0
 11
44.36871996426098
 21
204.8951261965011
 31
0.0
  0
LINE
  5
AFE8
  8
0
 10
44.36871996426098
 20
204.8951261965011
 30
0.0
 11
44.36871996426098
 21
205.2291100965011
 31
0.0
  0
LINE
  5
AFE9
  8
0
 10
44.36871996426098
 20
205.2291100965011
 30
0.0
 11
44.03436461426097
 21
205.2291100965011
 31
0.0
  0
LINE
  5
AFEA
  8
0
 10
44.03436461426097
 20
205.2291100965011
 30
0.0
 11
44.03436461426097
 21
204.8951261965011
 31
0.0
  0
LINE
  5
AFEB
  8
0
 10
45.36949461426099
 20
204.8951261965011
 30
0.0
 11
46.03709191426097
 21
204.8951261965011
 31
0.0
  0
LINE
  5
AFEC
  8
0
 10
46.03709191426097
 20
204.8951261965011
 30
0.0
 11
46.03709191426097
 21
205.2291100965011
 31
0.0
  0
LINE
  5
AFED
  8
0
 10
46.03709191426097
 20
205.2291100965011
 30
0.0
 11
45.36949461426099
 21
205.2291100965011
 31
0.0
  0
LINE
  5
AFEE
  8
0
 10
45.36949461426099
 20
205.2291100965011
 30
0.0
 11
45.36949461426099
 21
204.8951261965011
 31
0.0
  0
LINE
  5
AFEF
  8
0
 10
46.37107961426096
 20
204.8951261965011
 30
0.0
 11
48.37349911426098
 21
204.8951261965011
 31
0.0
  0
LINE
  5
AFF0
  8
0
 10
48.37349911426098
 20
204.8951261965011
 30
0.0
 11
48.37349911426098
 21
205.2291100965011
 31
0.0
  0
LINE
  5
AFF1
  8
0
 10
48.37349911426098
 20
205.2291100965011
 30
0.0
 11
46.37107961426096
 21
205.2291100965011
 31
0.0
  0
LINE
  5
AFF2
  8
0
 10
46.37107961426096
 20
205.2291100965011
 30
0.0
 11
46.37107961426096
 21
204.8951261965011
 31
0.0
  0
LINE
  5
AFF3
  8
0
 10
50.04273461426097
 20
204.8951261965011
 30
0.0
 11
50.37671946426097
 21
204.8951261965011
 31
0.0
  0
LINE
  5
AFF4
  8
0
 10
50.37671946426097
 20
204.8951261965011
 30
0.0
 11
50.37671946426097
 21
205.2291100965011
 31
0.0
  0
LINE
  5
AFF5
  8
0
 10
50.37671946426097
 20
205.2291100965011
 30
0.0
 11
50.04273461426097
 21
205.2291100965011
 31
0.0
  0
LINE
  5
AFF6
  8
0
 10
50.04273461426097
 20
205.2291100965011
 30
0.0
 11
50.04273461426097
 21
204.8951261965011
 31
0.0
  0
LINE
  5
AFF7
  8
0
 10
51.37748461426096
 20
204.8951261965011
 30
0.0
 11
52.04508191426098
 21
204.8951261965011
 31
0.0
  0
LINE
  5
AFF8
  8
0
 10
52.04508191426098
 20
204.8951261965011
 30
0.0
 11
52.04508191426098
 21
205.2291100965011
 31
0.0
  0
LINE
  5
AFF9
  8
0
 10
52.04508191426098
 20
205.2291100965011
 30
0.0
 11
51.37748461426096
 21
205.2291100965011
 31
0.0
  0
LINE
  5
AFFA
  8
0
 10
51.37748461426096
 20
205.2291100965011
 30
0.0
 11
51.37748461426096
 21
204.8951261965011
 31
0.0
  0
LINE
  5
AFFB
  8
0
 10
52.37906961426097
 20
204.8951261965011
 30
0.0
 11
53.38065461426096
 21
204.8951261965011
 31
0.0
  0
LINE
  5
AFFC
  8
0
 10
53.38065461426096
 20
204.8951261965011
 30
0.0
 11
53.38065461426096
 21
205.2291100965011
 31
0.0
  0
LINE
  5
AFFD
  8
0
 10
53.38065461426096
 20
205.2291100965011
 30
0.0
 11
52.37906961426097
 21
205.2291100965011
 31
0.0
  0
LINE
  5
AFFE
  8
0
 10
52.37906961426097
 20
205.2291100965011
 30
0.0
 11
52.37906961426097
 21
204.8951261965011
 31
0.0
  0
LINE
  5
AFFF
  8
0
 10
53.71391461426097
 20
204.8951261965011
 30
0.0
 11
54.38151191426097
 21
204.8951261965011
 31
0.0
  0
LINE
  5
B000
  8
0
 10
54.38151191426097
 20
204.8951261965011
 30
0.0
 11
54.38151191426097
 21
205.2291100965011
 31
0.0
  0
LINE
  5
B001
  8
0
 10
54.38151191426097
 20
205.2291100965011
 30
0.0
 11
53.71391461426097
 21
205.2291100965011
 31
0.0
  0
LINE
  5
B002
  8
0
 10
53.71391461426097
 20
205.2291100965011
 30
0.0
 11
53.71391461426097
 21
204.8951261965011
 31
0.0
  0
LINE
  5
B003
  8
0
 10
54.71549961426098
 20
204.8951261965011
 30
0.0
 11
55.04985591426097
 21
204.8951261965011
 31
0.0
  0
LINE
  5
B004
  8
0
 10
55.04985591426097
 20
204.8951261965011
 30
0.0
 11
55.04985591426097
 21
205.2291100965011
 31
0.0
  0
LINE
  5
B005
  8
0
 10
55.04985591426097
 20
205.2291100965011
 30
0.0
 11
54.71549961426098
 21
205.2291100965011
 31
0.0
  0
LINE
  5
B006
  8
0
 10
54.71549961426098
 20
205.2291100965011
 30
0.0
 11
54.71549961426098
 21
204.8951261965011
 31
0.0
  0
LINE
  5
B007
  8
0
 10
44.03436461426097
 20
204.5611061965011
 30
0.0
 11
44.70196191426096
 21
204.5611061965011
 31
0.0
  0
LINE
  5
B008
  8
0
 10
44.70196191426096
 20
204.5611061965011
 30
0.0
 11
44.70196191426096
 21
204.8950910465011
 31
0.0
  0
LINE
  5
B009
  8
0
 10
44.70196191426096
 20
204.8950910465011
 30
0.0
 11
44.03436461426097
 21
204.8950910465011
 31
0.0
  0
LINE
  5
B00A
  8
0
 10
44.03436461426097
 20
204.8950910465011
 30
0.0
 11
44.03436461426097
 21
204.5611061965011
 31
0.0
  0
LINE
  5
B00B
  8
0
 10
45.03585461426098
 20
204.5611061965011
 30
0.0
 11
45.36983851426098
 21
204.5611061965011
 31
0.0
  0
LINE
  5
B00C
  8
0
 10
45.36983851426098
 20
204.5611061965011
 30
0.0
 11
45.36983851426098
 21
204.8950910465011
 31
0.0
  0
LINE
  5
B00D
  8
0
 10
45.36983851426098
 20
204.8950910465011
 30
0.0
 11
45.03585461426098
 21
204.8950910465011
 31
0.0
  0
LINE
  5
B00E
  8
0
 10
45.03585461426098
 20
204.8950910465011
 30
0.0
 11
45.03585461426098
 21
204.5611061965011
 31
0.0
  0
LINE
  5
B00F
  8
0
 10
45.70351461426097
 20
204.5611061965011
 30
0.0
 11
47.70593411426097
 21
204.5611061965011
 31
0.0
  0
LINE
  5
B010
  8
0
 10
47.70593411426097
 20
204.5611061965011
 30
0.0
 11
47.70593411426097
 21
204.8950910465011
 31
0.0
  0
LINE
  5
B011
  8
0
 10
47.70593411426097
 20
204.8950910465011
 30
0.0
 11
45.70351461426097
 21
204.8950910465011
 31
0.0
  0
LINE
  5
B012
  8
0
 10
45.70351461426097
 20
204.8950910465011
 30
0.0
 11
45.70351461426097
 21
204.5611061965011
 31
0.0
  0
LINE
  5
B013
  8
0
 10
49.04152961426097
 20
204.5611061965011
 30
0.0
 11
49.70912786426096
 21
204.5611061965011
 31
0.0
  0
LINE
  5
B014
  8
0
 10
49.70912786426096
 20
204.5611061965011
 30
0.0
 11
49.70912786426096
 21
204.8950910465011
 31
0.0
  0
LINE
  5
B015
  8
0
 10
49.70912786426096
 20
204.8950910465011
 30
0.0
 11
49.04152961426097
 21
204.8950910465011
 31
0.0
  0
LINE
  5
B016
  8
0
 10
49.04152961426097
 20
204.8950910465011
 30
0.0
 11
49.04152961426097
 21
204.5611061965011
 31
0.0
  0
LINE
  5
B017
  8
0
 10
50.37665961426097
 20
204.5611061965011
 30
0.0
 11
51.04425691426096
 21
204.5611061965011
 31
0.0
  0
LINE
  5
B018
  8
0
 10
51.04425691426096
 20
204.5611061965011
 30
0.0
 11
51.04425691426096
 21
204.8950910465011
 31
0.0
  0
LINE
  5
B019
  8
0
 10
51.04425691426096
 20
204.8950910465011
 30
0.0
 11
50.37665961426097
 21
204.8950910465011
 31
0.0
  0
LINE
  5
B01A
  8
0
 10
50.37665961426097
 20
204.8950910465011
 30
0.0
 11
50.37665961426097
 21
204.5611061965011
 31
0.0
  0
LINE
  5
B01B
  8
0
 10
52.04590461426096
 20
204.5611061965011
 30
0.0
 11
54.04832411426096
 21
204.5611061965011
 31
0.0
  0
LINE
  5
B01C
  8
0
 10
54.04832411426096
 20
204.5611061965011
 30
0.0
 11
54.04832411426096
 21
204.8950910465011
 31
0.0
  0
LINE
  5
B01D
  8
0
 10
54.04832411426096
 20
204.8950910465011
 30
0.0
 11
52.04590461426096
 21
204.8950910465011
 31
0.0
  0
LINE
  5
B01E
  8
0
 10
52.04590461426096
 20
204.8950910465011
 30
0.0
 11
52.04590461426096
 21
204.5611061965011
 31
0.0
  0
LINE
  5
B01F
  8
0
 10
46.70509961426097
 20
204.2275611965011
 30
0.0
 11
47.03908446426098
 21
204.2275611965011
 31
0.0
  0
LINE
  5
B020
  8
0
 10
47.03908446426098
 20
204.2275611965011
 30
0.0
 11
47.03908446426098
 21
204.5615460465011
 31
0.0
  0
LINE
  5
B021
  8
0
 10
47.03908446426098
 20
204.5615460465011
 30
0.0
 11
46.70509961426097
 21
204.5615460465011
 31
0.0
  0
LINE
  5
B022
  8
0
 10
46.70509961426097
 20
204.5615460465011
 30
0.0
 11
46.70509961426097
 21
204.2275611965011
 31
0.0
  0
LINE
  5
B023
  8
0
 10
47.70592461426097
 20
204.2275611965011
 30
0.0
 11
48.03990851426097
 21
204.2275611965011
 31
0.0
  0
LINE
  5
B024
  8
0
 10
48.03990851426097
 20
204.2275611965011
 30
0.0
 11
48.03990851426097
 21
204.5615460465011
 31
0.0
  0
LINE
  5
B025
  8
0
 10
48.03990851426097
 20
204.5615460465011
 30
0.0
 11
47.70592461426097
 21
204.5615460465011
 31
0.0
  0
LINE
  5
B026
  8
0
 10
47.70592461426097
 20
204.5615460465011
 30
0.0
 11
47.70592461426097
 21
204.2275611965011
 31
0.0
  0
LINE
  5
B027
  8
0
 10
48.37348961426096
 20
204.2275611965011
 30
0.0
 11
48.70747446426097
 21
204.2275611965011
 31
0.0
  0
LINE
  5
B028
  8
0
 10
48.70747446426097
 20
204.2275611965011
 30
0.0
 11
48.70747446426097
 21
204.5615460465011
 31
0.0
  0
LINE
  5
B029
  8
0
 10
48.70747446426097
 20
204.5615460465011
 30
0.0
 11
48.37348961426096
 21
204.5615460465011
 31
0.0
  0
LINE
  5
B02A
  8
0
 10
48.37348961426096
 20
204.5615460465011
 30
0.0
 11
48.37348961426096
 21
204.2275611965011
 31
0.0
  0
LINE
  5
B02B
  8
0
 10
49.04152961426097
 20
204.2275611965011
 30
0.0
 11
49.37588496426098
 21
204.2275611965011
 31
0.0
  0
LINE
  5
B02C
  8
0
 10
49.37588496426098
 20
204.2275611965011
 30
0.0
 11
49.37588496426098
 21
204.5615460465011
 31
0.0
  0
LINE
  5
B02D
  8
0
 10
49.37588496426098
 20
204.5615460465011
 30
0.0
 11
49.04152961426097
 21
204.5615460465011
 31
0.0
  0
LINE
  5
B02E
  8
0
 10
49.04152961426097
 20
204.5615460465011
 30
0.0
 11
49.04152961426097
 21
204.2275611965011
 31
0.0
  0
LINE
  5
B02F
  8
0
 10
50.04273461426097
 20
204.2275611965011
 30
0.0
 11
51.04394911426097
 21
204.2275611965011
 31
0.0
  0
LINE
  5
B030
  8
0
 10
51.04394911426097
 20
204.2275611965011
 30
0.0
 11
51.04394911426097
 21
204.5615460465011
 31
0.0
  0
LINE
  5
B031
  8
0
 10
51.04394911426097
 20
204.5615460465011
 30
0.0
 11
50.04273461426097
 21
204.5615460465011
 31
0.0
  0
LINE
  5
B032
  8
0
 10
50.04273461426097
 20
204.5615460465011
 30
0.0
 11
50.04273461426097
 21
204.2275611965011
 31
0.0
  0
LINE
  5
B033
  8
0
 10
51.37748461426096
 20
204.2275611965011
 30
0.0
 11
52.37906961426097
 21
204.2275611965011
 31
0.0
  0
LINE
  5
B034
  8
0
 10
52.37906961426097
 20
204.2275611965011
 30
0.0
 11
52.37906961426097
 21
204.5615460465011
 31
0.0
  0
LINE
  5
B035
  8
0
 10
52.37906961426097
 20
204.5615460465011
 30
0.0
 11
51.37748461426096
 21
204.5615460465011
 31
0.0
  0
LINE
  5
B036
  8
0
 10
51.37748461426096
 20
204.5615460465011
 30
0.0
 11
51.37748461426096
 21
204.2275611965011
 31
0.0
  0
LINE
  5
B037
  8
0
 10
53.38065461426096
 20
204.2275611965011
 30
0.0
 11
53.71463946426097
 21
204.2275611965011
 31
0.0
  0
LINE
  5
B038
  8
0
 10
53.71463946426097
 20
204.2275611965011
 30
0.0
 11
53.71463946426097
 21
204.5615460465011
 31
0.0
  0
LINE
  5
B039
  8
0
 10
53.71463946426097
 20
204.5615460465011
 30
0.0
 11
53.38065461426096
 21
204.5615460465011
 31
0.0
  0
LINE
  5
B03A
  8
0
 10
53.38065461426096
 20
204.5615460465011
 30
0.0
 11
53.38065461426096
 21
204.2275611965011
 31
0.0
  0
LINE
  5
B03B
  8
0
 10
54.04831461426096
 20
204.2275611965011
 30
0.0
 11
55.04989961426098
 21
204.2275611965011
 31
0.0
  0
LINE
  5
B03C
  8
0
 10
55.04989961426098
 20
204.2275611965011
 30
0.0
 11
55.04989961426098
 21
204.5615460465011
 31
0.0
  0
LINE
  5
B03D
  8
0
 10
55.04989961426098
 20
204.5615460465011
 30
0.0
 11
54.04831461426096
 21
204.5615460465011
 31
0.0
  0
LINE
  5
B03E
  8
0
 10
54.04831461426096
 20
204.5615460465011
 30
0.0
 11
54.04831461426096
 21
204.2275611965011
 31
0.0
  0
LINE
  5
B03F
  8
0
 10
44.03436461426097
 20
203.8935411965011
 30
0.0
 11
46.37114611426099
 21
203.8935411965011
 31
0.0
  0
LINE
  5
B040
  8
0
 10
46.37114611426099
 20
203.8935411965011
 30
0.0
 11
46.37114611426099
 21
204.2275250965011
 31
0.0
  0
LINE
  5
B041
  8
0
 10
46.37114611426099
 20
204.2275250965011
 30
0.0
 11
44.03436461426097
 21
204.2275250965011
 31
0.0
  0
LINE
  5
B042
  8
0
 10
44.03436461426097
 20
204.2275250965011
 30
0.0
 11
44.03436461426097
 21
203.8935411965011
 31
0.0
  0
LINE
  5
B043
  8
0
 10
47.70592461426097
 20
203.8935411965011
 30
0.0
 11
48.70750961426099
 21
203.8935411965011
 31
0.0
  0
LINE
  5
B044
  8
0
 10
48.70750961426099
 20
203.8935411965011
 30
0.0
 11
48.70750961426099
 21
204.2275250965011
 31
0.0
  0
LINE
  5
B045
  8
0
 10
48.70750961426099
 20
204.2275250965011
 30
0.0
 11
47.70592461426097
 21
204.2275250965011
 31
0.0
  0
LINE
  5
B046
  8
0
 10
47.70592461426097
 20
204.2275250965011
 30
0.0
 11
47.70592461426097
 21
203.8935411965011
 31
0.0
  0
LINE
  5
B047
  8
0
 10
49.04152961426097
 20
203.8935411965011
 30
0.0
 11
49.70912786426096
 21
203.8935411965011
 31
0.0
  0
LINE
  5
B048
  8
0
 10
49.70912786426096
 20
203.8935411965011
 30
0.0
 11
49.70912786426096
 21
204.2275250965011
 31
0.0
  0
LINE
  5
B049
  8
0
 10
49.70912786426096
 20
204.2275250965011
 30
0.0
 11
49.04152961426097
 21
204.2275250965011
 31
0.0
  0
LINE
  5
B04A
  8
0
 10
49.04152961426097
 20
204.2275250965011
 30
0.0
 11
49.04152961426097
 21
203.8935411965011
 31
0.0
  0
LINE
  5
B04B
  8
0
 10
50.04273461426097
 20
203.8935411965011
 30
0.0
 11
50.37671946426097
 21
203.8935411965011
 31
0.0
  0
LINE
  5
B04C
  8
0
 10
50.37671946426097
 20
203.8935411965011
 30
0.0
 11
50.37671946426097
 21
204.2275250965011
 31
0.0
  0
LINE
  5
B04D
  8
0
 10
50.37671946426097
 20
204.2275250965011
 30
0.0
 11
50.04273461426097
 21
204.2275250965011
 31
0.0
  0
LINE
  5
B04E
  8
0
 10
50.04273461426097
 20
204.2275250965011
 30
0.0
 11
50.04273461426097
 21
203.8935411965011
 31
0.0
  0
LINE
  5
B04F
  8
0
 10
50.70991961426098
 20
203.8935411965011
 30
0.0
 11
51.37751786426097
 21
203.8935411965011
 31
0.0
  0
LINE
  5
B050
  8
0
 10
51.37751786426097
 20
203.8935411965011
 30
0.0
 11
51.37751786426097
 21
204.2275250965011
 31
0.0
  0
LINE
  5
B051
  8
0
 10
51.37751786426097
 20
204.2275250965011
 30
0.0
 11
50.70991961426098
 21
204.2275250965011
 31
0.0
  0
LINE
  5
B052
  8
0
 10
50.70991961426098
 20
204.2275250965011
 30
0.0
 11
50.70991961426098
 21
203.8935411965011
 31
0.0
  0
LINE
  5
B053
  8
0
 10
51.71150461426097
 20
203.8935411965011
 30
0.0
 11
52.37910191426097
 21
203.8935411965011
 31
0.0
  0
LINE
  5
B054
  8
0
 10
52.37910191426097
 20
203.8935411965011
 30
0.0
 11
52.37910191426097
 21
204.2275250965011
 31
0.0
  0
LINE
  5
B055
  8
0
 10
52.37910191426097
 20
204.2275250965011
 30
0.0
 11
51.71150461426097
 21
204.2275250965011
 31
0.0
  0
LINE
  5
B056
  8
0
 10
51.71150461426097
 20
204.2275250965011
 30
0.0
 11
51.71150461426097
 21
203.8935411965011
 31
0.0
  0
LINE
  5
B057
  8
0
 10
52.71308961426098
 20
203.8935411965011
 30
0.0
 11
53.04707351426097
 21
203.8935411965011
 31
0.0
  0
LINE
  5
B058
  8
0
 10
53.04707351426097
 20
203.8935411965011
 30
0.0
 11
53.04707351426097
 21
204.2275250965011
 31
0.0
  0
LINE
  5
B059
  8
0
 10
53.04707351426097
 20
204.2275250965011
 30
0.0
 11
52.71308961426098
 21
204.2275250965011
 31
0.0
  0
LINE
  5
B05A
  8
0
 10
52.71308961426098
 20
204.2275250965011
 30
0.0
 11
52.71308961426098
 21
203.8935411965011
 31
0.0
  0
LINE
  5
B05B
  8
0
 10
53.38065461426096
 20
203.8935411965011
 30
0.0
 11
53.71463946426097
 21
203.8935411965011
 31
0.0
  0
LINE
  5
B05C
  8
0
 10
53.71463946426097
 20
203.8935411965011
 30
0.0
 11
53.71463946426097
 21
204.2275250965011
 31
0.0
  0
LINE
  5
B05D
  8
0
 10
53.71463946426097
 20
204.2275250965011
 30
0.0
 11
53.38065461426096
 21
204.2275250965011
 31
0.0
  0
LINE
  5
B05E
  8
0
 10
53.38065461426096
 20
204.2275250965011
 30
0.0
 11
53.38065461426096
 21
203.8935411965011
 31
0.0
  0
LINE
  5
B05F
  8
0
 10
54.04831461426096
 20
203.8935411965011
 30
0.0
 11
54.71554046426098
 21
203.8935411965011
 31
0.0
  0
LINE
  5
B060
  8
0
 10
54.71554046426098
 20
203.8935411965011
 30
0.0
 11
54.71554046426098
 21
204.2275250965011
 31
0.0
  0
LINE
  5
B061
  8
0
 10
54.71554046426098
 20
204.2275250965011
 30
0.0
 11
54.04831461426096
 21
204.2275250965011
 31
0.0
  0
LINE
  5
B062
  8
0
 10
54.04831461426096
 20
204.2275250965011
 30
0.0
 11
54.04831461426096
 21
203.8935411965011
 31
0.0
  0
LINE
  5
B063
  8
0
 10
44.03436461426097
 20
203.5602811965011
 30
0.0
 11
44.36871996426098
 21
203.5602811965011
 31
0.0
  0
LINE
  5
B064
  8
0
 10
44.36871996426098
 20
203.5602811965011
 30
0.0
 11
44.36871996426098
 21
203.8942650965011
 31
0.0
  0
LINE
  5
B065
  8
0
 10
44.36871996426098
 20
203.8942650965011
 30
0.0
 11
44.03436461426097
 21
203.8942650965011
 31
0.0
  0
LINE
  5
B066
  8
0
 10
44.03436461426097
 20
203.8942650965011
 30
0.0
 11
44.03436461426097
 21
203.5602811965011
 31
0.0
  0
LINE
  5
B067
  8
0
 10
46.03743961426096
 20
203.5602811965011
 30
0.0
 11
46.37142351426095
 21
203.5602811965011
 31
0.0
  0
LINE
  5
B068
  8
0
 10
46.37142351426095
 20
203.5602811965011
 30
0.0
 11
46.37142351426095
 21
203.8942650965011
 31
0.0
  0
LINE
  5
B069
  8
0
 10
46.37142351426095
 20
203.8942650965011
 30
0.0
 11
46.03743961426096
 21
203.8942650965011
 31
0.0
  0
LINE
  5
B06A
  8
0
 10
46.03743961426096
 20
203.8942650965011
 30
0.0
 11
46.03743961426096
 21
203.5602811965011
 31
0.0
  0
LINE
  5
B06B
  8
0
 10
47.03873961426096
 20
203.5602811965011
 30
0.0
 11
48.03995411426096
 21
203.5602811965011
 31
0.0
  0
LINE
  5
B06C
  8
0
 10
48.03995411426096
 20
203.5602811965011
 30
0.0
 11
48.03995411426096
 21
203.8942650965011
 31
0.0
  0
LINE
  5
B06D
  8
0
 10
48.03995411426096
 20
203.8942650965011
 30
0.0
 11
47.03873961426096
 21
203.8942650965011
 31
0.0
  0
LINE
  5
B06E
  8
0
 10
47.03873961426096
 20
203.8942650965011
 30
0.0
 11
47.03873961426096
 21
203.5602811965011
 31
0.0
  0
LINE
  5
B06F
  8
0
 10
49.04152961426097
 20
203.5602811965011
 30
0.0
 11
49.37588496426098
 21
203.5602811965011
 31
0.0
  0
LINE
  5
B070
  8
0
 10
49.37588496426098
 20
203.5602811965011
 30
0.0
 11
49.37588496426098
 21
203.8942650965011
 31
0.0
  0
LINE
  5
B071
  8
0
 10
49.37588496426098
 20
203.8942650965011
 30
0.0
 11
49.04152961426097
 21
203.8942650965011
 31
0.0
  0
LINE
  5
B072
  8
0
 10
49.04152961426097
 20
203.8942650965011
 30
0.0
 11
49.04152961426097
 21
203.5602811965011
 31
0.0
  0
LINE
  5
B073
  8
0
 10
50.70991961426098
 20
203.5602811965011
 30
0.0
 11
51.04427496426098
 21
203.5602811965011
 31
0.0
  0
LINE
  5
B074
  8
0
 10
51.04427496426098
 20
203.5602811965011
 30
0.0
 11
51.04427496426098
 21
203.8942650965011
 31
0.0
  0
LINE
  5
B075
  8
0
 10
51.04427496426098
 20
203.8942650965011
 30
0.0
 11
50.70991961426098
 21
203.8942650965011
 31
0.0
  0
LINE
  5
B076
  8
0
 10
50.70991961426098
 20
203.8942650965011
 30
0.0
 11
50.70991961426098
 21
203.5602811965011
 31
0.0
  0
LINE
  5
B077
  8
0
 10
51.71150461426097
 20
203.5602811965011
 30
0.0
 11
52.37910191426097
 21
203.5602811965011
 31
0.0
  0
LINE
  5
B078
  8
0
 10
52.37910191426097
 20
203.5602811965011
 30
0.0
 11
52.37910191426097
 21
203.8942650965011
 31
0.0
  0
LINE
  5
B079
  8
0
 10
52.37910191426097
 20
203.8942650965011
 30
0.0
 11
51.71150461426097
 21
203.8942650965011
 31
0.0
  0
LINE
  5
B07A
  8
0
 10
51.71150461426097
 20
203.8942650965011
 30
0.0
 11
51.71150461426097
 21
203.5602811965011
 31
0.0
  0
LINE
  5
B07B
  8
0
 10
53.38065461426096
 20
203.5602811965011
 30
0.0
 11
54.38223961426097
 21
203.5602811965011
 31
0.0
  0
LINE
  5
B07C
  8
0
 10
54.38223961426097
 20
203.5602811965011
 30
0.0
 11
54.38223961426097
 21
203.8942650965011
 31
0.0
  0
LINE
  5
B07D
  8
0
 10
54.38223961426097
 20
203.8942650965011
 30
0.0
 11
53.38065461426096
 21
203.8942650965011
 31
0.0
  0
LINE
  5
B07E
  8
0
 10
53.38065461426096
 20
203.8942650965011
 30
0.0
 11
53.38065461426096
 21
203.5602811965011
 31
0.0
  0
LINE
  5
B07F
  8
0
 10
54.71549961426098
 20
203.5602811965011
 30
0.0
 11
55.04985591426097
 21
203.5602811965011
 31
0.0
  0
LINE
  5
B080
  8
0
 10
55.04985591426097
 20
203.5602811965011
 30
0.0
 11
55.04985591426097
 21
203.8942650965011
 31
0.0
  0
LINE
  5
B081
  8
0
 10
55.04985591426097
 20
203.8942650965011
 30
0.0
 11
54.71549961426098
 21
203.8942650965011
 31
0.0
  0
LINE
  5
B082
  8
0
 10
54.71549961426098
 20
203.8942650965011
 30
0.0
 11
54.71549961426098
 21
203.5602811965011
 31
0.0
  0
LINE
  5
B083
  8
0
 10
44.03436461426097
 20
203.2262611965011
 30
0.0
 11
44.36871996426098
 21
203.2262611965011
 31
0.0
  0
LINE
  5
B084
  8
0
 10
44.36871996426098
 20
203.2262611965011
 30
0.0
 11
44.36871996426098
 21
203.5602460465011
 31
0.0
  0
LINE
  5
B085
  8
0
 10
44.36871996426098
 20
203.5602460465011
 30
0.0
 11
44.03436461426097
 21
203.5602460465011
 31
0.0
  0
LINE
  5
B086
  8
0
 10
44.03436461426097
 20
203.5602460465011
 30
0.0
 11
44.03436461426097
 21
203.2262611965011
 31
0.0
  0
LINE
  5
B087
  8
0
 10
44.70192961426096
 20
203.2262611965011
 30
0.0
 11
45.70351461426097
 21
203.2262611965011
 31
0.0
  0
LINE
  5
B088
  8
0
 10
45.70351461426097
 20
203.2262611965011
 30
0.0
 11
45.70351461426097
 21
203.5602460465011
 31
0.0
  0
LINE
  5
B089
  8
0
 10
45.70351461426097
 20
203.5602460465011
 30
0.0
 11
44.70192961426096
 21
203.5602460465011
 31
0.0
  0
LINE
  5
B08A
  8
0
 10
44.70192961426096
 20
203.5602460465011
 30
0.0
 11
44.70192961426096
 21
203.2262611965011
 31
0.0
  0
LINE
  5
B08B
  8
0
 10
46.03743961426096
 20
203.2262611965011
 30
0.0
 11
46.37142351426095
 21
203.2262611965011
 31
0.0
  0
LINE
  5
B08C
  8
0
 10
46.37142351426095
 20
203.2262611965011
 30
0.0
 11
46.37142351426095
 21
203.5602460465011
 31
0.0
  0
LINE
  5
B08D
  8
0
 10
46.37142351426095
 20
203.5602460465011
 30
0.0
 11
46.03743961426096
 21
203.5602460465011
 31
0.0
  0
LINE
  5
B08E
  8
0
 10
46.03743961426096
 20
203.5602460465011
 30
0.0
 11
46.03743961426096
 21
203.2262611965011
 31
0.0
  0
LINE
  5
B08F
  8
0
 10
47.37266461426097
 20
203.2262611965011
 30
0.0
 11
48.03989046426096
 21
203.2262611965011
 31
0.0
  0
LINE
  5
B090
  8
0
 10
48.03989046426096
 20
203.2262611965011
 30
0.0
 11
48.03989046426096
 21
203.5602460465011
 31
0.0
  0
LINE
  5
B091
  8
0
 10
48.03989046426096
 20
203.5602460465011
 30
0.0
 11
47.37266461426097
 21
203.5602460465011
 31
0.0
  0
LINE
  5
B092
  8
0
 10
47.37266461426097
 20
203.5602460465011
 30
0.0
 11
47.37266461426097
 21
203.2262611965011
 31
0.0
  0
LINE
  5
B093
  8
0
 10
48.37348961426096
 20
203.2262611965011
 30
0.0
 11
49.04108786426099
 21
203.2262611965011
 31
0.0
  0
LINE
  5
B094
  8
0
 10
49.04108786426099
 20
203.2262611965011
 30
0.0
 11
49.04108786426099
 21
203.5602460465011
 31
0.0
  0
LINE
  5
B095
  8
0
 10
49.04108786426099
 20
203.5602460465011
 30
0.0
 11
48.37348961426096
 21
203.5602460465011
 31
0.0
  0
LINE
  5
B096
  8
0
 10
48.37348961426096
 20
203.5602460465011
 30
0.0
 11
48.37348961426096
 21
203.2262611965011
 31
0.0
  0
LINE
  5
B097
  8
0
 10
50.04273461426097
 20
203.2262611965011
 30
0.0
 11
50.70996141426099
 21
203.2262611965011
 31
0.0
  0
LINE
  5
B098
  8
0
 10
50.70996141426099
 20
203.2262611965011
 30
0.0
 11
50.70996141426099
 21
203.5602460465011
 31
0.0
  0
LINE
  5
B099
  8
0
 10
50.70996141426099
 20
203.5602460465011
 30
0.0
 11
50.04273461426097
 21
203.5602460465011
 31
0.0
  0
LINE
  5
B09A
  8
0
 10
50.04273461426097
 20
203.5602460465011
 30
0.0
 11
50.04273461426097
 21
203.2262611965011
 31
0.0
  0
LINE
  5
B09B
  8
0
 10
51.04431961426097
 20
203.2262611965011
 30
0.0
 11
51.37830446426096
 21
203.2262611965011
 31
0.0
  0
LINE
  5
B09C
  8
0
 10
51.37830446426096
 20
203.2262611965011
 30
0.0
 11
51.37830446426096
 21
203.5602460465011
 31
0.0
  0
LINE
  5
B09D
  8
0
 10
51.37830446426096
 20
203.5602460465011
 30
0.0
 11
51.04431961426097
 21
203.5602460465011
 31
0.0
  0
LINE
  5
B09E
  8
0
 10
51.04431961426097
 20
203.5602460465011
 30
0.0
 11
51.04431961426097
 21
203.2262611965011
 31
0.0
  0
LINE
  5
B09F
  8
0
 10
52.04590461426096
 20
203.2262611965011
 30
0.0
 11
54.04832411426096
 21
203.2262611965011
 31
0.0
  0
LINE
  5
B0A0
  8
0
 10
54.04832411426096
 20
203.2262611965011
 30
0.0
 11
54.04832411426096
 21
203.5602460465011
 31
0.0
  0
LINE
  5
B0A1
  8
0
 10
54.04832411426096
 20
203.5602460465011
 30
0.0
 11
52.04590461426096
 21
203.5602460465011
 31
0.0
  0
LINE
  5
B0A2
  8
0
 10
52.04590461426096
 20
203.5602460465011
 30
0.0
 11
52.04590461426096
 21
203.2262611965011
 31
0.0
  0
LINE
  5
B0A3
  8
0
 10
44.03436461426097
 20
202.8919561965011
 30
0.0
 11
44.36871996426098
 21
202.8919561965011
 31
0.0
  0
LINE
  5
B0A4
  8
0
 10
44.36871996426098
 20
202.8919561965011
 30
0.0
 11
44.36871996426098
 21
203.2263115465011
 31
0.0
  0
LINE
  5
B0A5
  8
0
 10
44.36871996426098
 20
203.2263115465011
 30
0.0
 11
44.03436461426097
 21
203.2263115465011
 31
0.0
  0
LINE
  5
B0A6
  8
0
 10
44.03436461426097
 20
203.2263115465011
 30
0.0
 11
44.03436461426097
 21
202.8919561965011
 31
0.0
  0
LINE
  5
B0A7
  8
0
 10
44.70192961426096
 20
202.8919561965011
 30
0.0
 11
45.70351461426097
 21
202.8919561965011
 31
0.0
  0
LINE
  5
B0A8
  8
0
 10
45.70351461426097
 20
202.8919561965011
 30
0.0
 11
45.70351461426097
 21
203.2263115465011
 31
0.0
  0
LINE
  5
B0A9
  8
0
 10
45.70351461426097
 20
203.2263115465011
 30
0.0
 11
44.70192961426096
 21
203.2263115465011
 31
0.0
  0
LINE
  5
B0AA
  8
0
 10
44.70192961426096
 20
203.2263115465011
 30
0.0
 11
44.70192961426096
 21
202.8919561965011
 31
0.0
  0
LINE
  5
B0AB
  8
0
 10
46.03743961426096
 20
202.8919561965011
 30
0.0
 11
46.37142351426095
 21
202.8919561965011
 31
0.0
  0
LINE
  5
B0AC
  8
0
 10
46.37142351426095
 20
202.8919561965011
 30
0.0
 11
46.37142351426095
 21
203.2263115465011
 31
0.0
  0
LINE
  5
B0AD
  8
0
 10
46.37142351426095
 20
203.2263115465011
 30
0.0
 11
46.03743961426096
 21
203.2263115465011
 31
0.0
  0
LINE
  5
B0AE
  8
0
 10
46.03743961426096
 20
203.2263115465011
 30
0.0
 11
46.03743961426096
 21
202.8919561965011
 31
0.0
  0
LINE
  5
B0AF
  8
0
 10
47.03873961426096
 20
202.8919561965011
 30
0.0
 11
48.37356561426097
 21
202.8919561965011
 31
0.0
  0
LINE
  5
B0B0
  8
0
 10
48.37356561426097
 20
202.8919561965011
 30
0.0
 11
48.37356561426097
 21
203.2263115465011
 31
0.0
  0
LINE
  5
B0B1
  8
0
 10
48.37356561426097
 20
203.2263115465011
 30
0.0
 11
47.03873961426096
 21
203.2263115465011
 31
0.0
  0
LINE
  5
B0B2
  8
0
 10
47.03873961426096
 20
203.2263115465011
 30
0.0
 11
47.03873961426096
 21
202.8919561965011
 31
0.0
  0
LINE
  5
B0B3
  8
0
 10
48.70750961426099
 20
202.8919561965011
 30
0.0
 11
49.04149351426098
 21
202.8919561965011
 31
0.0
  0
LINE
  5
B0B4
  8
0
 10
49.04149351426098
 20
202.8919561965011
 30
0.0
 11
49.04149351426098
 21
203.2263115465011
 31
0.0
  0
LINE
  5
B0B5
  8
0
 10
49.04149351426098
 20
203.2263115465011
 30
0.0
 11
48.70750961426099
 21
203.2263115465011
 31
0.0
  0
LINE
  5
B0B6
  8
0
 10
48.70750961426099
 20
203.2263115465011
 30
0.0
 11
48.70750961426099
 21
202.8919561965011
 31
0.0
  0
LINE
  5
B0B7
  8
0
 10
49.37507461426097
 20
202.8919561965011
 30
0.0
 11
49.70905946426097
 21
202.8919561965011
 31
0.0
  0
LINE
  5
B0B8
  8
0
 10
49.70905946426097
 20
202.8919561965011
 30
0.0
 11
49.70905946426097
 21
203.2263115465011
 31
0.0
  0
LINE
  5
B0B9
  8
0
 10
49.70905946426097
 20
203.2263115465011
 30
0.0
 11
49.37507461426097
 21
203.2263115465011
 31
0.0
  0
LINE
  5
B0BA
  8
0
 10
49.37507461426097
 20
203.2263115465011
 30
0.0
 11
49.37507461426097
 21
202.8919561965011
 31
0.0
  0
LINE
  5
B0BB
  8
0
 10
50.70991961426098
 20
202.8919561965011
 30
0.0
 11
51.04427496426098
 21
202.8919561965011
 31
0.0
  0
LINE
  5
B0BC
  8
0
 10
51.04427496426098
 20
202.8919561965011
 30
0.0
 11
51.04427496426098
 21
203.2263115465011
 31
0.0
  0
LINE
  5
B0BD
  8
0
 10
51.04427496426098
 20
203.2263115465011
 30
0.0
 11
50.70991961426098
 21
203.2263115465011
 31
0.0
  0
LINE
  5
B0BE
  8
0
 10
50.70991961426098
 20
203.2263115465011
 30
0.0
 11
50.70991961426098
 21
202.8919561965011
 31
0.0
  0
LINE
  5
B0BF
  8
0
 10
51.37748461426096
 20
202.8919561965011
 30
0.0
 11
52.04508191426098
 21
202.8919561965011
 31
0.0
  0
LINE
  5
B0C0
  8
0
 10
52.04508191426098
 20
202.8919561965011
 30
0.0
 11
52.04508191426098
 21
203.2263115465011
 31
0.0
  0
LINE
  5
B0C1
  8
0
 10
52.04508191426098
 20
203.2263115465011
 30
0.0
 11
51.37748461426096
 21
203.2263115465011
 31
0.0
  0
LINE
  5
B0C2
  8
0
 10
51.37748461426096
 20
203.2263115465011
 30
0.0
 11
51.37748461426096
 21
202.8919561965011
 31
0.0
  0
LINE
  5
B0C3
  8
0
 10
52.37906961426097
 20
202.8919561965011
 30
0.0
 11
52.71305446426098
 21
202.8919561965011
 31
0.0
  0
LINE
  5
B0C4
  8
0
 10
52.71305446426098
 20
202.8919561965011
 30
0.0
 11
52.71305446426098
 21
203.2263115465011
 31
0.0
  0
LINE
  5
B0C5
  8
0
 10
52.71305446426098
 20
203.2263115465011
 30
0.0
 11
52.37906961426097
 21
203.2263115465011
 31
0.0
  0
LINE
  5
B0C6
  8
0
 10
52.37906961426097
 20
203.2263115465011
 30
0.0
 11
52.37906961426097
 21
202.8919561965011
 31
0.0
  0
LINE
  5
B0C7
  8
0
 10
53.04672961426097
 20
202.8919561965011
 30
0.0
 11
53.71395641426098
 21
202.8919561965011
 31
0.0
  0
LINE
  5
B0C8
  8
0
 10
53.71395641426098
 20
202.8919561965011
 30
0.0
 11
53.71395641426098
 21
203.2263115465011
 31
0.0
  0
LINE
  5
B0C9
  8
0
 10
53.71395641426098
 20
203.2263115465011
 30
0.0
 11
53.04672961426097
 21
203.2263115465011
 31
0.0
  0
LINE
  5
B0CA
  8
0
 10
53.04672961426097
 20
203.2263115465011
 30
0.0
 11
53.04672961426097
 21
202.8919561965011
 31
0.0
  0
LINE
  5
B0CB
  8
0
 10
54.04831461426096
 20
202.8919561965011
 30
0.0
 11
54.38229851426097
 21
202.8919561965011
 31
0.0
  0
LINE
  5
B0CC
  8
0
 10
54.38229851426097
 20
202.8919561965011
 30
0.0
 11
54.38229851426097
 21
203.2263115465011
 31
0.0
  0
LINE
  5
B0CD
  8
0
 10
54.38229851426097
 20
203.2263115465011
 30
0.0
 11
54.04831461426096
 21
203.2263115465011
 31
0.0
  0
LINE
  5
B0CE
  8
0
 10
54.04831461426096
 20
203.2263115465011
 30
0.0
 11
54.04831461426096
 21
202.8919561965011
 31
0.0
  0
LINE
  5
B0CF
  8
0
 10
54.71549961426098
 20
202.8919561965011
 30
0.0
 11
55.04985591426097
 21
202.8919561965011
 31
0.0
  0
LINE
  5
B0D0
  8
0
 10
55.04985591426097
 20
202.8919561965011
 30
0.0
 11
55.04985591426097
 21
203.2263115465011
 31
0.0
  0
LINE
  5
B0D1
  8
0
 10
55.04985591426097
 20
203.2263115465011
 30
0.0
 11
54.71549961426098
 21
203.2263115465011
 31
0.0
  0
LINE
  5
B0D2
  8
0
 10
54.71549961426098
 20
203.2263115465011
 30
0.0
 11
54.71549961426098
 21
202.8919561965011
 31
0.0
  0
LINE
  5
B0D3
  8
0
 10
44.03436461426097
 20
202.5586961965011
 30
0.0
 11
44.36871996426098
 21
202.5586961965011
 31
0.0
  0
LINE
  5
B0D4
  8
0
 10
44.36871996426098
 20
202.5586961965011
 30
0.0
 11
44.36871996426098
 21
202.8926800965011
 31
0.0
  0
LINE
  5
B0D5
  8
0
 10
44.36871996426098
 20
202.8926800965011
 30
0.0
 11
44.03436461426097
 21
202.8926800965011
 31
0.0
  0
LINE
  5
B0D6
  8
0
 10
44.03436461426097
 20
202.8926800965011
 30
0.0
 11
44.03436461426097
 21
202.5586961965011
 31
0.0
  0
LINE
  5
B0D7
  8
0
 10
44.70192961426096
 20
202.5586961965011
 30
0.0
 11
45.70351461426097
 21
202.5586961965011
 31
0.0
  0
LINE
  5
B0D8
  8
0
 10
45.70351461426097
 20
202.5586961965011
 30
0.0
 11
45.70351461426097
 21
202.8926800965011
 31
0.0
  0
LINE
  5
B0D9
  8
0
 10
45.70351461426097
 20
202.8926800965011
 30
0.0
 11
44.70192961426096
 21
202.8926800965011
 31
0.0
  0
LINE
  5
B0DA
  8
0
 10
44.70192961426096
 20
202.8926800965011
 30
0.0
 11
44.70192961426096
 21
202.5586961965011
 31
0.0
  0
LINE
  5
B0DB
  8
0
 10
46.03743961426096
 20
202.5586961965011
 30
0.0
 11
46.37142351426095
 21
202.5586961965011
 31
0.0
  0
LINE
  5
B0DC
  8
0
 10
46.37142351426095
 20
202.5586961965011
 30
0.0
 11
46.37142351426095
 21
202.8926800965011
 31
0.0
  0
LINE
  5
B0DD
  8
0
 10
46.37142351426095
 20
202.8926800965011
 30
0.0
 11
46.03743961426096
 21
202.8926800965011
 31
0.0
  0
LINE
  5
B0DE
  8
0
 10
46.03743961426096
 20
202.8926800965011
 30
0.0
 11
46.03743961426096
 21
202.5586961965011
 31
0.0
  0
LINE
  5
B0DF
  8
0
 10
47.37266461426097
 20
202.5586961965011
 30
0.0
 11
48.70749061426098
 21
202.5586961965011
 31
0.0
  0
LINE
  5
B0E0
  8
0
 10
48.70749061426098
 20
202.5586961965011
 30
0.0
 11
48.70749061426098
 21
202.8926800965011
 31
0.0
  0
LINE
  5
B0E1
  8
0
 10
48.70749061426098
 20
202.8926800965011
 30
0.0
 11
47.37266461426097
 21
202.8926800965011
 31
0.0
  0
LINE
  5
B0E2
  8
0
 10
47.37266461426097
 20
202.8926800965011
 30
0.0
 11
47.37266461426097
 21
202.5586961965011
 31
0.0
  0
LINE
  5
B0E3
  8
0
 10
49.37507461426097
 20
202.5586961965011
 30
0.0
 11
49.70905946426097
 21
202.5586961965011
 31
0.0
  0
LINE
  5
B0E4
  8
0
 10
49.70905946426097
 20
202.5586961965011
 30
0.0
 11
49.70905946426097
 21
202.8926800965011
 31
0.0
  0
LINE
  5
B0E5
  8
0
 10
49.70905946426097
 20
202.8926800965011
 30
0.0
 11
49.37507461426097
 21
202.8926800965011
 31
0.0
  0
LINE
  5
B0E6
  8
0
 10
49.37507461426097
 20
202.8926800965011
 30
0.0
 11
49.37507461426097
 21
202.5586961965011
 31
0.0
  0
LINE
  5
B0E7
  8
0
 10
50.04273461426097
 20
202.5586961965011
 30
0.0
 11
50.37671946426097
 21
202.5586961965011
 31
0.0
  0
LINE
  5
B0E8
  8
0
 10
50.37671946426097
 20
202.5586961965011
 30
0.0
 11
50.37671946426097
 21
202.8926800965011
 31
0.0
  0
LINE
  5
B0E9
  8
0
 10
50.37671946426097
 20
202.8926800965011
 30
0.0
 11
50.04273461426097
 21
202.8926800965011
 31
0.0
  0
LINE
  5
B0EA
  8
0
 10
50.04273461426097
 20
202.8926800965011
 30
0.0
 11
50.04273461426097
 21
202.5586961965011
 31
0.0
  0
LINE
  5
B0EB
  8
0
 10
50.70991961426098
 20
202.5586961965011
 30
0.0
 11
51.04427496426098
 21
202.5586961965011
 31
0.0
  0
LINE
  5
B0EC
  8
0
 10
51.04427496426098
 20
202.5586961965011
 30
0.0
 11
51.04427496426098
 21
202.8926800965011
 31
0.0
  0
LINE
  5
B0ED
  8
0
 10
51.04427496426098
 20
202.8926800965011
 30
0.0
 11
50.70991961426098
 21
202.8926800965011
 31
0.0
  0
LINE
  5
B0EE
  8
0
 10
50.70991961426098
 20
202.8926800965011
 30
0.0
 11
50.70991961426098
 21
202.5586961965011
 31
0.0
  0
LINE
  5
B0EF
  8
0
 10
51.37748461426096
 20
202.5586961965011
 30
0.0
 11
51.71146851426097
 21
202.5586961965011
 31
0.0
  0
LINE
  5
B0F0
  8
0
 10
51.71146851426097
 20
202.5586961965011
 30
0.0
 11
51.71146851426097
 21
202.8926800965011
 31
0.0
  0
LINE
  5
B0F1
  8
0
 10
51.71146851426097
 20
202.8926800965011
 30
0.0
 11
51.37748461426096
 21
202.8926800965011
 31
0.0
  0
LINE
  5
B0F2
  8
0
 10
51.37748461426096
 20
202.8926800965011
 30
0.0
 11
51.37748461426096
 21
202.5586961965011
 31
0.0
  0
LINE
  5
B0F3
  8
0
 10
52.04590461426096
 20
202.5586961965011
 30
0.0
 11
52.37988946426097
 21
202.5586961965011
 31
0.0
  0
LINE
  5
B0F4
  8
0
 10
52.37988946426097
 20
202.5586961965011
 30
0.0
 11
52.37988946426097
 21
202.8926800965011
 31
0.0
  0
LINE
  5
B0F5
  8
0
 10
52.37988946426097
 20
202.8926800965011
 30
0.0
 11
52.04590461426096
 21
202.8926800965011
 31
0.0
  0
LINE
  5
B0F6
  8
0
 10
52.04590461426096
 20
202.8926800965011
 30
0.0
 11
52.04590461426096
 21
202.5586961965011
 31
0.0
  0
LINE
  5
B0F7
  8
0
 10
53.04672961426097
 20
202.5586961965011
 30
0.0
 11
53.71395641426098
 21
202.5586961965011
 31
0.0
  0
LINE
  5
B0F8
  8
0
 10
53.71395641426098
 20
202.5586961965011
 30
0.0
 11
53.71395641426098
 21
202.8926800965011
 31
0.0
  0
LINE
  5
B0F9
  8
0
 10
53.71395641426098
 20
202.8926800965011
 30
0.0
 11
53.04672961426097
 21
202.8926800965011
 31
0.0
  0
LINE
  5
B0FA
  8
0
 10
53.04672961426097
 20
202.8926800965011
 30
0.0
 11
53.04672961426097
 21
202.5586961965011
 31
0.0
  0
LINE
  5
B0FB
  8
0
 10
54.38157461426097
 20
202.5586961965011
 30
0.0
 11
55.04917191426098
 21
202.5586961965011
 31
0.0
  0
LINE
  5
B0FC
  8
0
 10
55.04917191426098
 20
202.5586961965011
 30
0.0
 11
55.04917191426098
 21
202.8926800965011
 31
0.0
  0
LINE
  5
B0FD
  8
0
 10
55.04917191426098
 20
202.8926800965011
 30
0.0
 11
54.38157461426097
 21
202.8926800965011
 31
0.0
  0
LINE
  5
B0FE
  8
0
 10
54.38157461426097
 20
202.8926800965011
 30
0.0
 11
54.38157461426097
 21
202.5586961965011
 31
0.0
  0
LINE
  5
B0FF
  8
0
 10
44.03436461426097
 20
202.2247711965011
 30
0.0
 11
44.36871996426098
 21
202.2247711965011
 31
0.0
  0
LINE
  5
B100
  8
0
 10
44.36871996426098
 20
202.2247711965011
 30
0.0
 11
44.36871996426098
 21
202.5587560465011
 31
0.0
  0
LINE
  5
B101
  8
0
 10
44.36871996426098
 20
202.5587560465011
 30
0.0
 11
44.03436461426097
 21
202.5587560465011
 31
0.0
  0
LINE
  5
B102
  8
0
 10
44.03436461426097
 20
202.5587560465011
 30
0.0
 11
44.03436461426097
 21
202.2247711965011
 31
0.0
  0
LINE
  5
B103
  8
0
 10
46.03743961426096
 20
202.2247711965011
 30
0.0
 11
46.37142351426095
 21
202.2247711965011
 31
0.0
  0
LINE
  5
B104
  8
0
 10
46.37142351426095
 20
202.2247711965011
 30
0.0
 11
46.37142351426095
 21
202.5587560465011
 31
0.0
  0
LINE
  5
B105
  8
0
 10
46.37142351426095
 20
202.5587560465011
 30
0.0
 11
46.03743961426096
 21
202.5587560465011
 31
0.0
  0
LINE
  5
B106
  8
0
 10
46.03743961426096
 20
202.5587560465011
 30
0.0
 11
46.03743961426096
 21
202.2247711965011
 31
0.0
  0
LINE
  5
B107
  8
0
 10
47.37266461426097
 20
202.2247711965011
 30
0.0
 11
48.03989046426096
 21
202.2247711965011
 31
0.0
  0
LINE
  5
B108
  8
0
 10
48.03989046426096
 20
202.2247711965011
 30
0.0
 11
48.03989046426096
 21
202.5587560465011
 31
0.0
  0
LINE
  5
B109
  8
0
 10
48.03989046426096
 20
202.5587560465011
 30
0.0
 11
47.37266461426097
 21
202.5587560465011
 31
0.0
  0
LINE
  5
B10A
  8
0
 10
47.37266461426097
 20
202.5587560465011
 30
0.0
 11
47.37266461426097
 21
202.2247711965011
 31
0.0
  0
LINE
  5
B10B
  8
0
 10
48.70750961426099
 20
202.2247711965011
 30
0.0
 11
49.70909461426098
 21
202.2247711965011
 31
0.0
  0
LINE
  5
B10C
  8
0
 10
49.70909461426098
 20
202.2247711965011
 30
0.0
 11
49.70909461426098
 21
202.5587560465011
 31
0.0
  0
LINE
  5
B10D
  8
0
 10
49.70909461426098
 20
202.5587560465011
 30
0.0
 11
48.70750961426099
 21
202.5587560465011
 31
0.0
  0
LINE
  5
B10E
  8
0
 10
48.70750961426099
 20
202.5587560465011
 30
0.0
 11
48.70750961426099
 21
202.2247711965011
 31
0.0
  0
LINE
  5
B10F
  8
0
 10
50.37665961426097
 20
202.2247711965011
 30
0.0
 11
51.04425691426096
 21
202.2247711965011
 31
0.0
  0
LINE
  5
B110
  8
0
 10
51.04425691426096
 20
202.2247711965011
 30
0.0
 11
51.04425691426096
 21
202.5587560465011
 31
0.0
  0
LINE
  5
B111
  8
0
 10
51.04425691426096
 20
202.5587560465011
 30
0.0
 11
50.37665961426097
 21
202.5587560465011
 31
0.0
  0
LINE
  5
B112
  8
0
 10
50.37665961426097
 20
202.5587560465011
 30
0.0
 11
50.37665961426097
 21
202.2247711965011
 31
0.0
  0
LINE
  5
B113
  8
0
 10
53.04672961426097
 20
202.2247711965011
 30
0.0
 11
54.38155561426096
 21
202.2247711965011
 31
0.0
  0
LINE
  5
B114
  8
0
 10
54.38155561426096
 20
202.2247711965011
 30
0.0
 11
54.38155561426096
 21
202.5587560465011
 31
0.0
  0
LINE
  5
B115
  8
0
 10
54.38155561426096
 20
202.5587560465011
 30
0.0
 11
53.04672961426097
 21
202.5587560465011
 31
0.0
  0
LINE
  5
B116
  8
0
 10
53.04672961426097
 20
202.5587560465011
 30
0.0
 11
53.04672961426097
 21
202.2247711965011
 31
0.0
  0
LINE
  5
B117
  8
0
 10
44.03436461426097
 20
201.8911311965011
 30
0.0
 11
46.37114611426099
 21
201.8911311965011
 31
0.0
  0
LINE
  5
B118
  8
0
 10
46.37114611426099
 20
201.8911311965011
 30
0.0
 11
46.37114611426099
 21
202.2251160465011
 31
0.0
  0
LINE
  5
B119
  8
0
 10
46.37114611426099
 20
202.2251160465011
 30
0.0
 11
44.03436461426097
 21
202.2251160465011
 31
0.0
  0
LINE
  5
B11A
  8
0
 10
44.03436461426097
 20
202.2251160465011
 30
0.0
 11
44.03436461426097
 21
201.8911311965011
 31
0.0
  0
LINE
  5
B11B
  8
0
 10
46.70509961426097
 20
201.8911311965011
 30
0.0
 11
47.03908446426098
 21
201.8911311965011
 31
0.0
  0
LINE
  5
B11C
  8
0
 10
47.03908446426098
 20
201.8911311965011
 30
0.0
 11
47.03908446426098
 21
202.2251160465011
 31
0.0
  0
LINE
  5
B11D
  8
0
 10
47.03908446426098
 20
202.2251160465011
 30
0.0
 11
46.70509961426097
 21
202.2251160465011
 31
0.0
  0
LINE
  5
B11E
  8
0
 10
46.70509961426097
 20
202.2251160465011
 30
0.0
 11
46.70509961426097
 21
201.8911311965011
 31
0.0
  0
LINE
  5
B11F
  8
0
 10
47.70592461426097
 20
201.8911311965011
 30
0.0
 11
48.03990851426097
 21
201.8911311965011
 31
0.0
  0
LINE
  5
B120
  8
0
 10
48.03990851426097
 20
201.8911311965011
 30
0.0
 11
48.03990851426097
 21
202.2251160465011
 31
0.0
  0
LINE
  5
B121
  8
0
 10
48.03990851426097
 20
202.2251160465011
 30
0.0
 11
47.70592461426097
 21
202.2251160465011
 31
0.0
  0
LINE
  5
B122
  8
0
 10
47.70592461426097
 20
202.2251160465011
 30
0.0
 11
47.70592461426097
 21
201.8911311965011
 31
0.0
  0
LINE
  5
B123
  8
0
 10
48.70750961426099
 20
201.8911311965011
 30
0.0
 11
49.04149351426098
 21
201.8911311965011
 31
0.0
  0
LINE
  5
B124
  8
0
 10
49.04149351426098
 20
201.8911311965011
 30
0.0
 11
49.04149351426098
 21
202.2251160465011
 31
0.0
  0
LINE
  5
B125
  8
0
 10
49.04149351426098
 20
202.2251160465011
 30
0.0
 11
48.70750961426099
 21
202.2251160465011
 31
0.0
  0
LINE
  5
B126
  8
0
 10
48.70750961426099
 20
202.2251160465011
 30
0.0
 11
48.70750961426099
 21
201.8911311965011
 31
0.0
  0
LINE
  5
B127
  8
0
 10
49.70909461426098
 20
201.8911311965011
 30
0.0
 11
50.04307851426097
 21
201.8911311965011
 31
0.0
  0
LINE
  5
B128
  8
0
 10
50.04307851426097
 20
201.8911311965011
 30
0.0
 11
50.04307851426097
 21
202.2251160465011
 31
0.0
  0
LINE
  5
B129
  8
0
 10
50.04307851426097
 20
202.2251160465011
 30
0.0
 11
49.70909461426098
 21
202.2251160465011
 31
0.0
  0
LINE
  5
B12A
  8
0
 10
49.70909461426098
 20
202.2251160465011
 30
0.0
 11
49.70909461426098
 21
201.8911311965011
 31
0.0
  0
LINE
  5
B12B
  8
0
 10
50.37665961426097
 20
201.8911311965011
 30
0.0
 11
50.71064351426097
 21
201.8911311965011
 31
0.0
  0
LINE
  5
B12C
  8
0
 10
50.71064351426097
 20
201.8911311965011
 30
0.0
 11
50.71064351426097
 21
202.2251160465011
 31
0.0
  0
LINE
  5
B12D
  8
0
 10
50.71064351426097
 20
202.2251160465011
 30
0.0
 11
50.37665961426097
 21
202.2251160465011
 31
0.0
  0
LINE
  5
B12E
  8
0
 10
50.37665961426097
 20
202.2251160465011
 30
0.0
 11
50.37665961426097
 21
201.8911311965011
 31
0.0
  0
LINE
  5
B12F
  8
0
 10
51.37748461426096
 20
201.8911311965011
 30
0.0
 11
52.71231061426097
 21
201.8911311965011
 31
0.0
  0
LINE
  5
B130
  8
0
 10
52.71231061426097
 20
201.8911311965011
 30
0.0
 11
52.71231061426097
 21
202.2251160465011
 31
0.0
  0
LINE
  5
B131
  8
0
 10
52.71231061426097
 20
202.2251160465011
 30
0.0
 11
51.37748461426096
 21
202.2251160465011
 31
0.0
  0
LINE
  5
B132
  8
0
 10
51.37748461426096
 20
202.2251160465011
 30
0.0
 11
51.37748461426096
 21
201.8911311965011
 31
0.0
  0
LINE
  5
B133
  8
0
 10
53.04672961426097
 20
201.8911311965011
 30
0.0
 11
53.38071351426098
 21
201.8911311965011
 31
0.0
  0
LINE
  5
B134
  8
0
 10
53.38071351426098
 20
201.8911311965011
 30
0.0
 11
53.38071351426098
 21
202.2251160465011
 31
0.0
  0
LINE
  5
B135
  8
0
 10
53.38071351426098
 20
202.2251160465011
 30
0.0
 11
53.04672961426097
 21
202.2251160465011
 31
0.0
  0
LINE
  5
B136
  8
0
 10
53.04672961426097
 20
202.2251160465011
 30
0.0
 11
53.04672961426097
 21
201.8911311965011
 31
0.0
  0
LINE
  5
B137
  8
0
 10
53.71391461426097
 20
201.8911311965011
 30
0.0
 11
54.04826996426097
 21
201.8911311965011
 31
0.0
  0
LINE
  5
B138
  8
0
 10
54.04826996426097
 20
201.8911311965011
 30
0.0
 11
54.04826996426097
 21
202.2251160465011
 31
0.0
  0
LINE
  5
B139
  8
0
 10
54.04826996426097
 20
202.2251160465011
 30
0.0
 11
53.71391461426097
 21
202.2251160465011
 31
0.0
  0
LINE
  5
B13A
  8
0
 10
53.71391461426097
 20
202.2251160465011
 30
0.0
 11
53.71391461426097
 21
201.8911311965011
 31
0.0
  0
LINE
  5
B13B
  8
0
 10
54.38157461426097
 20
201.8911311965011
 30
0.0
 11
54.71555851426098
 21
201.8911311965011
 31
0.0
  0
LINE
  5
B13C
  8
0
 10
54.71555851426098
 20
201.8911311965011
 30
0.0
 11
54.71555851426098
 21
202.2251160465011
 31
0.0
  0
LINE
  5
B13D
  8
0
 10
54.71555851426098
 20
202.2251160465011
 30
0.0
 11
54.38157461426097
 21
202.2251160465011
 31
0.0
  0
LINE
  5
B13E
  8
0
 10
54.38157461426097
 20
202.2251160465011
 30
0.0
 11
54.38157461426097
 21
201.8911311965011
 31
0.0
  0
CIRCLE
  5
B314
  8
0
 10
65.02185421979581
 20
209.8911311965014
 30
0.0
 40
1.5
  0
CIRCLE
  5
B315
  8
0
 10
97.02185421979581
 20
229.8911311965019
 30
0.0
 40
7.499999999999949
  0
CIRCLE
  5
B316
  8
0
 10
97.02185421979581
 20
229.8911311965019
 30
0.0
 40
8.20000000000001
  0
CIRCLE
  5
B317
  8
0
 10
97.02185421979581
 20
229.8911311965019
 30
0.0
 40
8.499999999999963
  0
LINE
  5
B318
  8
0
 10
69.77185421979581
 20
223.8911311965015
 30
0.0
 11
69.77185421979581
 21
235.8911311965019
 31
0.0
  0
LINE
  5
B319
  8
0
 10
70.07185421979577
 20
223.8911311965015
 30
0.0
 11
70.07185421979577
 21
229.8911311965015
 31
0.0
  0
ARC
  5
B31A
  8
0
 10
71.77185421979581
 20
223.8911311965015
 30
0.0
 40
2.0
 50
180.0
 51
270.0
1001
GENIUS_GENOBJ-N-FIL_13
1002
{
1000
OWNER
1000
GEN
1002
}
1001
GENIUS_GENODEF_13
1002
{
1000
HIER
1070
     0
1002
}
1002
{
1000
MANEDIT
1070
     0
1002
}
1002
{
1000
NOSEL
1070
     0
1002
}
1002
{
1000
BEHIND
1070
     0
1002
}
1002
{
1000
OTHER
1070
     0
1002
}
1002
{
1000
REACTOR
1002
}
  0
ARC
  5
B31B
  8
0
 10
71.77185421979581
 20
223.8911311965015
 30
0.0
 40
1.7
 50
180.0
 51
270.0
1001
GENIUS_GENOBJ-N-FIL_13
1002
{
1000
OWNER
1000
GEN
1002
}
1001
GENIUS_GENODEF_13
1002
{
1000
HIER
1070
     0
1002
}
1002
{
1000
MANEDIT
1070
     0
1002
}
1002
{
1000
NOSEL
1070
     0
1002
}
1002
{
1000
BEHIND
1070
     0
1002
}
1002
{
1000
OTHER
1070
     0
1002
}
1002
{
1000
REACTOR
1002
}
  0
LINE
  5
B31C
  8
0
 10
87.7718542197949
 20
223.8911311965015
 30
0.0
 11
87.7718542197949
 21
235.891131196501
 31
0.0
  0
LINE
  5
B31D
  8
0
 10
87.47185421979495
 20
223.8911311965015
 30
0.0
 11
87.47185421979495
 21
229.8911311965015
 31
0.0
  0
ARC
  5
B31E
  8
0
 10
85.7718542197949
 20
235.891131196501
 30
0.0
 40
2.0
 50
0.0
 51
89.99999999999919
1001
GENIUS_GENODEF_13
1002
{
1000
HIER
1070
     0
1002
}
1002
{
1000
MANEDIT
1070
     0
1002
}
1002
{
1000
NOSEL
1070
     0
1002
}
1002
{
1000
BEHIND
1070
     0
1002
}
1002
{
1000
OTHER
1070
     0
1002
}
1002
{
1000
REACTOR
1002
}
1001
GENIUS_GENOBJ-N-FIL_13
1002
{
1000
OWNER
1000
GEN
1002
}
  0
INSERT
  5
B31F
  8
0
  2
*X15
 10
0.0
 20
0.0
 30
0.0
  0
LINE
  5
B320
  8
0
 10
87.7718542197949
 20
229.8911311965015
 30
0.0
 11
69.77185421979581
 21
229.8911311965015
 31
0.0
  0
CIRCLE
  5
B321
  8
0
 10
78.97346775921093
 20
233.8911311965019
 30
0.0
 40
2.0
  0
LINE
  5
B322
  8
0
 10
85.7718542197949
 20
237.891131196501
 30
0.0
 11
71.77185421979581
 21
237.8911311965019
 31
0.0
  0
ARC
  5
B323
  8
0
 10
71.77185421979581
 20
235.8911311965019
 30
0.0
 40
2.0
 50
90.0
 51
180.0
1001
GENIUS_GENOBJ-N-FIL_13
1002
{
1000
OWNER
1000
GEN
1002
}
1001
GENIUS_GENODEF_13
1002
{
1000
HIER
1070
     0
1002
}
1002
{
1000
MANEDIT
1070
     0
1002
}
1002
{
1000
NOSEL
1070
     0
1002
}
1002
{
1000
BEHIND
1070
     0
1002
}
1002
{
1000
OTHER
1070
     0
1002
}
1002
{
1000
REACTOR
1002
}
  0
LINE
  5
B324
  8
0
 10
85.7718542197949
 20
221.8911311965015
 30
0.0
 11
71.77185421979581
 21
221.8911311965015
 31
0.0
  0
LINE
  5
B325
  8
0
 10
85.7718542197949
 20
222.1911311965014
 30
0.0
 11
71.77185421979581
 21
222.1911311965014
 31
0.0
  0
ARC
  5
B326
  8
0
 10
85.7718542197949
 20
223.8911311965015
 30
0.0
 40
2.0
 50
270.0
 51
0.0
1001
GENIUS_GENODEF_13
1002
{
1000
HIER
1070
     0
1002
}
1002
{
1000
MANEDIT
1070
     0
1002
}
1002
{
1000
NOSEL
1070
     0
1002
}
1002
{
1000
BEHIND
1070
     0
1002
}
1002
{
1000
OTHER
1070
     0
1002
}
1002
{
1000
REACTOR
1002
}
1001
GENIUS_GENOBJ-N-FIL_13
1002
{
1000
OWNER
1000
GEN
1002
}
  0
ARC
  5
B327
  8
0
 10
85.7718542197949
 20
223.8911311965015
 30
0.0
 40
1.7
 50
270.0
 51
0.0
1001
GENIUS_GENODEF_13
1002
{
1000
HIER
1070
     0
1002
}
1002
{
1000
MANEDIT
1070
     0
1002
}
1002
{
1000
NOSEL
1070
     0
1002
}
1002
{
1000
BEHIND
1070
     0
1002
}
1002
{
1000
OTHER
1070
     0
1002
}
1002
{
1000
REACTOR
1002
}
1001
GENIUS_GENOBJ-N-FIL_13
1002
{
1000
OWNER
1000
GEN
1002
}
  0
TEXT
  5
B328
  8
0
 10
70.84772500937035
 20
232.9769691680542
 30
0.0
 40
1.9
  1
給水
  0
TEXT
  5
B329
  8
0
 10
90.84300449808894
 20
227.9715269911835
 30
0.0
 40
4.0
  1
PUSH
 41
1.2
  0
CIRCLE
  5
B32B
  8
0
 10
84.02185421979627
 20
225.8911311965018
 30
0.0
 40
2.0
  0
CIRCLE
  5
B32C
  8
0
 10
84.02185421979627
 20
225.8911311965018
 30
0.0
 40
1.5
  0
CIRCLE
  5
B32D
  8
0
 10
84.02185421979627
 20
233.8911311965018
 30
0.0
 40
2.0
  0
CIRCLE
  5
B32E
  8
0
 10
84.02185421979627
 20
233.8911311965018
 30
0.0
 40
1.5
  0
LINE
  5
BB61
  8
0
 10
52.48248862586294
 20
232.0632821438273
 30
0.0
 11
53.62611166586291
 21
232.0632821438273
 31
0.0
  0
LINE
  5
BB62
  8
0
 10
53.62611166586291
 20
232.0632821438273
 30
0.0
 11
53.62611166586291
 21
226.1082623038271
 31
0.0
  0
LINE
  5
BB63
  8
0
 10
53.62611166586291
 20
226.1082623038271
 30
0.0
 11
52.48248862586294
 21
226.1082623038271
 31
0.0
  0
LINE
  5
BB64
  8
0
 10
52.48248862586294
 20
226.1082623038271
 30
0.0
 11
52.48248862586294
 21
232.0632821438273
 31
0.0
  0
LINE
  5
BB65
  8
0
 10
61.40706638586332
 20
230.425300063827
 30
0.0
 11
62.55049230586289
 21
230.425300063827
 31
0.0
  0
LINE
  5
BB66
  8
0
 10
62.55049230586289
 20
230.425300063827
 30
0.0
 11
62.55049230586289
 21
226.1082623038271
 31
0.0
  0
LINE
  5
BB67
  8
0
 10
62.55049230586289
 20
226.1082623038271
 30
0.0
 11
61.40706638586332
 21
226.1082623038271
 31
0.0
  0
LINE
  5
BB68
  8
0
 10
61.40706638586332
 20
226.1082623038271
 30
0.0
 11
61.40706638586332
 21
230.425300063827
 31
0.0
  0
LINE
  5
BB69
  8
0
 10
61.63496878696512
 20
230.9231329653236
 30
0.0
 11
61.54351486586299
 21
230.8550552638273
 31
0.0
  0
LINE
  5
BB6A
  8
0
 10
61.54351486586299
 20
230.8550552638273
 30
0.0
 11
61.5682136880973
 21
230.9527495545296
 31
0.0
  0
LINE
  5
BB6B
  8
0
 10
61.37501536711076
 20
231.9529111672288
 30
0.0
 11
61.30712542586295
 21
232.0440517438271
 31
0.0
  0
LINE
  5
BB6C
  8
0
 10
61.30712542586295
 20
232.0440517438271
 30
0.0
 11
61.40487776193592
 21
232.0193757030522
 31
0.0
  0
LINE
  5
BB6D
  8
0
 10
62.40498661321269
 20
232.2126245672745
 30
0.0
 11
62.49605582586307
 21
232.2804423038276
 31
0.0
  0
LINE
  5
BB6E
  8
0
 10
62.49605582586307
 20
232.2804423038276
 30
0.0
 11
62.47139064346763
 21
232.1825620507258
 31
0.0
  0
LINE
  5
BB6F
  8
0
 10
62.66515689633749
 20
231.1824824093734
 30
0.0
 11
62.7327711858629
 21
231.0916407038273
 31
0.0
  0
LINE
  5
BB70
  8
0
 10
62.7327711858629
 20
231.0916407038273
 30
0.0
 11
62.63501826528406
 21
231.1162908446392
 31
0.0
  0
LINE
  5
BB71
  8
0
 10
62.20366752278002
 20
230.8393290571236
 30
0.0
 11
62.18723374586304
 21
230.7270168638276
 31
0.0
  0
LINE
  5
BB72
  8
0
 10
62.18723374586304
 20
230.7270168638276
 30
0.0
 11
62.13558417898727
 21
230.8135832918221
 31
0.0
  0
LINE
  5
BB73
  8
0
 10
61.29193494484068
 20
231.3841917392871
 30
0.0
 11
61.1792135858627
 21
231.4006587838273
 31
0.0
  0
LINE
  5
BB74
  8
0
 10
61.1792135858627
 20
231.4006587838273
 30
0.0
 11
61.26559069105676
 21
231.4521984317732
 31
0.0
  0
LINE
  5
BB75
  8
0
 10
61.83618117350304
 20
232.2960494094274
 30
0.0
 11
61.85266286586281
 21
232.4084829438277
 31
0.0
  0
LINE
  5
BB76
  8
0
 10
61.85266286586281
 20
232.4084829438277
 30
0.0
 11
61.9044038470424
 21
232.3218441324822
 31
0.0
  0
LINE
  5
BB77
  8
0
 10
62.74846746517866
 20
231.7516307223538
 30
0.0
 11
62.86067966586322
 21
231.7351669438273
 31
0.0
  0
LINE
  5
BB78
  8
0
 10
62.86067966586322
 20
231.7351669438273
 30
0.0
 11
62.77398549399501
 21
231.6834110423931
 31
0.0
  0
LINE
  5
BB79
  8
0
 10
61.91086559746006
 20
230.8244841939965
 30
0.0
 11
61.85266286586281
 21
230.7270168638276
 31
0.0
  0
LINE
  5
BB7A
  8
0
 10
61.85266286586281
 20
230.7270168638276
 30
0.0
 11
61.83809536598662
 21
230.8264189656435
 31
0.0
  0
LINE
  5
BB7B
  8
0
 10
61.27699089330142
 20
231.6767476372312
 30
0.0
 11
61.17908366586286
 21
231.7351669438273
 31
0.0
  0
LINE
  5
BB7C
  8
0
 10
61.17908366586286
 20
231.7351669438273
 30
0.0
 11
61.27880932916011
 21
231.7497336344601
 31
0.0
  0
LINE
  5
BB7D
  8
0
 10
62.12890941088969
 20
232.3108977524186
 30
0.0
 11
62.18716990586333
 21
232.4084829438277
 31
0.0
  0
LINE
  5
BB7E
  8
0
 10
62.18716990586333
 20
232.4084829438277
 30
0.0
 11
62.2017681045381
 21
232.3088053064154
 31
0.0
  0
LINE
  5
BB7F
  8
0
 10
62.76303345536596
 20
231.4587396302629
 30
0.0
 11
62.86067966586322
 21
231.4003967038277
 31
0.0
  0
LINE
  5
BB80
  8
0
 10
62.46846868544478
 20
230.9651898264316
 30
0.0
 11
62.49625182586303
 21
230.8550552638273
 31
0.0
  0
LINE
  5
BB81
  8
0
 10
62.49625182586303
 20
230.8550552638273
 30
0.0
 11
62.41543261038893
 21
230.9152636671685
 31
0.0
  0
LINE
  5
BB82
  8
0
 10
61.41748859580773
 20
231.1195124594912
 30
0.0
 11
61.30712542586295
 21
231.0916407038273
 31
0.0
  0
LINE
  5
BB83
  8
0
 10
61.30712542586295
 20
231.0916407038273
 30
0.0
 11
61.36718277616907
 21
231.1722935954601
 31
0.0
  0
LINE
  5
BB84
  8
0
 10
61.57130628911725
 20
232.1704392167791
 30
0.0
 11
61.54351486586299
 21
232.2804423038276
 31
0.0
  0
LINE
  5
BB85
  8
0
 10
61.54351486586299
 20
232.2804423038276
 30
0.0
 11
61.62453812389637
 21
232.2201831804202
 31
0.0
  0
LINE
  5
BB86
  8
0
 10
62.62278123319217
 20
232.0163243812974
 30
0.0
 11
62.7327711858629
 21
232.0440517438271
 31
0.0
  0
LINE
  5
BB87
  8
0
 10
62.7327711858629
 20
232.0440517438271
 30
0.0
 11
62.67248085207572
 21
231.9631226239023
 31
0.0
  0
LINE
  5
BB88
  8
0
 10
61.70211838952716
 20
230.8870372895778
 30
0.0
 11
61.61842158586293
 21
230.8103975038272
 31
0.0
  0
LINE
  5
BB89
  8
0
 10
61.61842158586293
 20
230.8103975038272
 30
0.0
 11
61.63496878696512
 21
230.9231329653236
 31
0.0
  0
LINE
  5
BB8A
  8
0
 10
61.33936505362132
 20
231.8856345604578
 30
0.0
 11
61.26266030586291
 21
231.9694037438273
 31
0.0
  0
LINE
  5
BB8B
  8
0
 10
61.26266030586291
 20
231.9694037438273
 30
0.0
 11
61.37501536711076
 21
231.9529111672288
 31
0.0
  0
LINE
  5
BB8C
  8
0
 10
62.33787390368613
 20
232.2484597791064
 30
0.0
 11
62.42147390586294
 21
232.3250362238275
 31
0.0
  0
LINE
  5
BB8D
  8
0
 10
62.42147390586294
 20
232.3250362238275
 30
0.0
 11
62.40498661321269
 21
232.2126245672745
 31
0.0
  0
LINE
  5
BB8E
  8
0
 10
62.70051329615714
 20
231.2499238227708
 30
0.0
 11
62.7773651058628
 21
231.1659627838268
 31
0.0
  0
LINE
  5
BB8F
  8
0
 10
62.27642476203343
 20
230.8618878864433
 30
0.0
 11
62.27139166586309
 21
230.7482039038275
 31
0.0
  0
LINE
  5
BB90
  8
0
 10
62.27139166586309
 20
230.7482039038275
 30
0.0
 11
62.20366752278002
 21
230.8393290571236
 31
0.0
  0
LINE
  5
BB91
  8
0
 10
61.31395740649575
 20
231.3112442297931
 30
0.0
 11
61.20052718586291
 21
231.3161592638273
 31
0.0
  0
LINE
  5
BB92
  8
0
 10
61.20052718586291
 20
231.3161592638273
 30
0.0
 11
61.29193494484068
 21
231.3841917392871
 31
0.0
  0
LINE
  5
BB93
  8
0
 10
61.76338059485758
 20
232.2738023383314
 30
0.0
 11
61.76837166586253
 21
232.3871536638273
 31
0.0
  0
LINE
  5
BB94
  8
0
 10
61.76837166586253
 20
232.3871536638273
 30
0.0
 11
61.83618117350304
 21
232.2960494094274
 31
0.0
  0
LINE
  5
BB95
  8
0
 10
62.72604679436151
 20
231.8243826489585
 30
0.0
 11
62.83949486586286
 21
231.8193763838273
 31
0.0
  0
LINE
  5
BB96
  8
0
 10
62.83949486586286
 20
231.8193763838273
 30
0.0
 11
62.74846746517866
 21
231.7516307223538
 31
0.0
  0
LINE
  5
BB97
  8
0
 10
61.98671403715204
 20
230.8175319015615
 30
0.0
 11
61.93852206586277
 21
230.7144336638273
 31
0.0
  0
LINE
  5
BB98
  8
0
 10
61.93852206586277
 20
230.7144336638273
 30
0.0
 11
61.91086559746006
 21
230.8244841939965
 31
0.0
  0
LINE
  5
BB99
  8
0
 10
61.26944896353595
 20
231.6010065168036
 30
0.0
 11
61.16663262586323
 21
231.648915743827
 31
0.0
  0
LINE
  5
BB9A
  8
0
 10
61.16663262586323
 20
231.648915743827
 30
0.0
 11
61.27699089330142
 21
231.6767476372312
 31
0.0
  0
LINE
  5
BB9B
  8
0
 10
62.05303862998241
 20
232.3182445184918
 30
0.0
 11
62.10104862586329
 21
232.4211299838273
 31
0.0
  0
LINE
  5
BB9C
  8
0
 10
62.10104862586329
 20
232.4211299838273
 30
0.0
 11
62.12890941088969
 21
232.3108977524186
 31
0.0
  0
LINE
  5
BB9D
  8
0
 10
62.77050343468315
 20
231.5345241490083
 30
0.0
 11
62.87333006586275
 21
231.4865179838277
 31
0.0
  0
LINE
  5
BB9E
  8
0
 10
62.87333006586275
 20
231.4865179838277
 30
0.0
 11
62.76303345536596
 21
231.4587396302629
 31
0.0
  0
LINE
  5
BB9F
  8
0
 10
62.52713737992187
 20
231.0136051925116
 30
0.0
 11
62.56587662586296
 21
230.9069504638271
 31
0.0
  0
LINE
  5
BBA0
  8
0
 10
61.46569393266824
 20
231.0605831347518
 30
0.0
 11
61.3590833458629
 21
231.0217661438271
 31
0.0
  0
LINE
  5
BBA1
  8
0
 10
61.3590833458629
 20
231.0217661438271
 30
0.0
 11
61.41748859580773
 21
231.1195124594912
 31
0.0
  0
LINE
  5
BBA2
  8
0
 10
61.51287639916015
 20
232.1216532014684
 30
0.0
 11
61.47406702586292
 21
232.2284955838274
 31
0.0
  0
LINE
  5
BBA3
  8
0
 10
61.47406702586292
 20
232.2284955838274
 30
0.0
 11
61.57130628911725
 21
232.1704392167791
 31
0.0
  0
LINE
  5
BBA4
  8
0
 10
62.57385025856999
 20
232.0746431391441
 30
0.0
 11
62.68092638586265
 21
232.1134906238273
 31
0.0
  0
LINE
  5
BBA5
  8
0
 10
62.68092638586265
 20
232.1134906238273
 30
0.0
 11
62.62278123319217
 21
232.0163243812974
 31
0.0
  0
LINE
  5
BBA6
  8
0
 10
61.77269285557483
 20
230.8585814833711
 30
0.0
 11
61.69704558586315
 21
230.7737600638272
 31
0.0
  0
LINE
  5
BBA7
  8
0
 10
61.69704558586315
 20
230.7737600638272
 30
0.0
 11
61.70211838952716
 21
230.8870372895778
 31
0.0
  0
LINE
  5
BBA8
  8
0
 10
61.31083442220185
 20
231.8150839633069
 30
0.0
 11
61.22602286586286
 21
231.8906509438272
 31
0.0
  0
LINE
  5
BBA9
  8
0
 10
61.22602286586286
 20
231.8906509438272
 30
0.0
 11
61.33936505362132
 21
231.8856345604578
 31
0.0
  0
LINE
  5
BBAA
  8
0
 10
62.26719119571723
 20
232.2767066454282
 30
0.0
 11
62.34291710586282
 21
232.3616647038272
 31
0.0
  0
LINE
  5
BBAB
  8
0
 10
62.34291710586282
 20
232.3616647038272
 30
0.0
 11
62.33787390368613
 21
232.2484597791064
 31
0.0
  0
LINE
  5
BBAC
  8
0
 10
62.72922890143079
 20
231.3204972019554
 30
0.0
 11
62.8141291058632
 21
231.2448365438274
 31
0.0
  0
LINE
  5
BBAD
  8
0
 10
62.34663625231539
 20
230.8913207168495
 30
0.0
 11
62.35315166586267
 21
230.7779992638272
 31
0.0
  0
LINE
  5
BBAE
  8
0
 10
62.35315166586267
 20
230.7779992638272
 30
0.0
 11
62.27642476203343
 21
230.8618878864433
 31
0.0
  0
LINE
  5
BBAF
  8
0
 10
61.34366997018057
 20
231.2411539547049
 30
0.0
 11
61.23019486586324
 21
231.2345549438275
 31
0.0
  0
LINE
  5
BBB0
  8
0
 10
61.23019486586324
 20
231.2345549438275
 30
0.0
 11
61.31395740649575
 21
231.3112442297931
 31
0.0
  0
LINE
  5
BBB1
  8
0
 10
61.69332493816316
 20
232.2441053081658
 30
0.0
 11
61.68680766586291
 21
232.3574445438273
 31
0.0
  0
LINE
  5
BBB2
  8
0
 10
61.68680766586291
 20
232.3574445438273
 30
0.0
 11
61.76338059485758
 21
232.2738023383314
 31
0.0
  0
LINE
  5
BBB3
  8
0
 10
62.69673689419412
 20
231.8945250455769
 30
0.0
 11
62.80982718586299
 21
231.9010277438271
 31
0.0
  0
LINE
  5
BBB4
  8
0
 10
62.80982718586299
 20
231.9010277438271
 30
0.0
 11
62.72604679436151
 21
231.8243826489585
 31
0.0
  0
LINE
  5
BBB5
  8
0
 10
62.06287509659839
 20
230.8177158690493
 30
0.0
 11
62.02555390586301
 21
230.7104565438273
 31
0.0
  0
LINE
  5
BBB6
  8
0
 10
62.02555390586301
 20
230.7104565438273
 30
0.0
 11
61.98671403715204
 21
230.8175319015615
 31
0.0
  0
LINE
  5
BBB7
  8
0
 10
61.27008379373862
 20
231.5249196232659
 30
0.0
 11
61.162719345863
 21
231.5622725438276
 31
0.0
  0
LINE
  5
BBB8
  8
0
 10
61.162719345863
 20
231.5622725438276
 30
0.0
 11
61.26944896353595
 21
231.6010065168036
 31
0.0
  0
LINE
  5
BBB9
  8
0
 10
61.97702170336331
 20
232.3177970614349
 30
0.0
 11
62.0142755058632
 21
232.4248472638271
 31
0.0
  0
LINE
  5
BBBA
  8
0
 10
62.0142755058632
 20
232.4248472638271
 30
0.0
 11
62.05303862998241
 21
232.3182445184918
 31
0.0
  0
LINE
  5
BBBB
  8
0
 10
62.76976610635253
 20
231.6106180081658
 30
0.0
 11
62.87711006586275
 21
231.573161183827
 31
0.0
  0
LINE
  5
BBBC
  8
0
 10
62.58068887770375
 20
231.0677957815785
 30
0.0
 11
62.63009294586297
 21
230.9654928638271
 31
0.0
  0
LINE
  5
BBBD
  8
0
 10
62.63009294586297
 20
230.9654928638271
 30
0.0
 11
62.52713737992187
 21
231.0136051925116
 31
0.0
  0
LINE
  5
BBBE
  8
0
 10
61.5198691266273
 20
231.0071588025855
 30
0.0
 11
61.41762686586296
 21
230.9577402238271
 31
0.0
  0
LINE
  5
BBBF
  8
0
 10
61.41762686586296
 20
230.9577402238271
 30
0.0
 11
61.46569393266824
 21
231.0605831347518
 31
0.0
  0
LINE
  5
BBC0
  8
0
 10
61.45915015370426
 20
232.0676961646583
 30
0.0
 11
61.40986974586301
 21
232.169681023827
 31
0.0
  0
LINE
  5
BBC1
  8
0
 10
61.40986974586301
 20
232.169681023827
 30
0.0
 11
61.51287639916015
 21
232.1216532014684
 31
0.0
  0
LINE
  5
BBC2
  8
0
 10
62.52013967837544
 20
232.1287762849849
 30
0.0
 11
62.62220590586273
 21
232.1780888638274
 31
0.0
  0
LINE
  5
BBC3
  8
0
 10
62.62220590586273
 20
232.1780888638274
 30
0.0
 11
62.57385025856999
 21
232.0746431391441
 31
0.0
  0
LINE
  5
BBC4
  8
0
 10
61.83809536598662
 20
230.8264189656435
 30
0.0
 11
61.77918750586329
 21
230.7450746238271
 31
0.0
  0
LINE
  5
BBC5
  8
0
 10
61.77918750586329
 20
230.7450746238271
 30
0.0
 11
61.77269285557483
 21
230.8585814833711
 31
0.0
  0
LINE
  5
BBC6
  8
0
 10
61.2788093291592
 20
231.7497336344601
 30
0.0
 11
61.19739790586252
 21
231.8086378238274
 31
0.0
  0
LINE
  5
BBC7
  8
0
 10
61.19739790586252
 20
231.8086378238274
 30
0.0
 11
61.31083442220185
 21
231.8150839633069
 31
0.0
  0
LINE
  5
BBC8
  8
0
 10
62.2017681045381
 20
232.3088053064154
 30
0.0
 11
62.26070238586314
 21
232.3903053438268
 31
0.0
  0
LINE
  5
BBC9
  8
0
 10
62.26070238586314
 20
232.3903053438268
 30
0.0
 11
62.26719119571723
 21
232.2767066454282
 31
0.0
  0
LINE
  5
BBCA
  8
0
 10
62.76133951964673
 20
231.3859154715389
 30
0.0
 11
62.84282014586276
 21
231.3269381438274
 31
0.0
  0
LINE
  5
BBCB
  8
0
 10
62.84282014586276
 20
231.3269381438274
 30
0.0
 11
62.72922890143079
 21
231.3204972019554
 31
0.0
  0
LINE
  5
BBCC
  8
0
 10
62.41543261038893
 20
230.9152636671685
 30
0.0
 11
62.43138366586297
 21
230.8156794238272
 31
0.0
  0
LINE
  5
BBCD
  8
0
 10
62.43138366586297
 20
230.8156794238272
 30
0.0
 11
62.34663625231539
 21
230.8913207168495
 31
0.0
  0
LINE
  5
BBCE
  8
0
 10
61.36718277616907
 20
231.1722935954601
 30
0.0
 11
61.26807214586276
 21
231.1563789438275
 31
0.0
  0
LINE
  5
BBCF
  8
0
 10
61.26807214586276
 20
231.1563789438275
 30
0.0
 11
61.34366997018057
 21
231.2411539547049
 31
0.0
  0
LINE
  5
BBD0
  8
0
 10
61.62453812389637
 20
232.2201831804202
 30
0.0
 11
61.60864174586274
 21
232.3196243838271
 31
0.0
  0
LINE
  5
BBD1
  8
0
 10
61.60864174586274
 20
232.3196243838271
 30
0.0
 11
61.69332493816316
 21
232.2441053081658
 31
0.0
  0
LINE
  5
BBD2
  8
0
 10
62.67248085207572
 20
231.9631226239023
 30
0.0
 11
62.77221310586262
 21
231.9790547838272
 31
0.0
  0
LINE
  5
BBD3
  8
0
 10
62.77221310586262
 20
231.9790547838272
 30
0.0
 11
62.69673689419412
 21
231.8945250455769
 31
0.0
  0
LINE
  5
BBD4
  8
0
 10
62.13558417898727
 20
230.8135832918221
 30
0.0
 11
62.1121971058628
 21
230.7154136638271
 31
0.0
  0
LINE
  5
BBD5
  8
0
 10
61.26559069105676
 20
231.4521984317732
 30
0.0
 11
61.16760926586309
 21
231.4754994238271
 31
0.0
  0
LINE
  5
BBD6
  8
0
 10
61.16760926586309
 20
231.4754994238271
 30
0.0
 11
61.27008379373862
 21
231.5249196232659
 31
0.0
  0
LINE
  5
BBD7
  8
0
 10
61.9044038470424
 20
232.3218441324822
 30
0.0
 11
61.92776558586272
 21
232.4198274238276
 31
0.0
  0
LINE
  5
BBD8
  8
0
 10
61.92776558586272
 20
232.4198274238276
 30
0.0
 11
61.97702170336331
 21
232.3177970614349
 31
0.0
  0
LINE
  5
BBD9
  8
0
 10
62.77398549399501
 20
231.6834110423931
 30
0.0
 11
62.87215742586292
 21
231.6599970238273
 31
0.0
  0
LINE
  5
BBDA
  8
0
 10
62.87215742586292
 20
231.6599970238273
 30
0.0
 11
62.76976610635253
 21
231.6106180081658
 31
0.0
  0
LINE
  5
BBDB
  8
0
 10
62.63501826528406
 20
231.1162908446392
 30
0.0
 11
62.68785470586315
 21
231.0303610238277
 31
0.0
  0
LINE
  5
BBDC
  8
0
 10
61.5682136880973
 20
230.9527495545296
 30
0.0
 11
61.48242782586337
 21
230.899973983827
 31
0.0
  0
LINE
  5
BBDD
  8
0
 10
61.48242782586337
 20
230.899973983827
 30
0.0
 11
61.5198691266273
 21
231.0071588025855
 31
0.0
  0
LINE
  5
BBDE
  8
0
 10
61.40487776193592
 20
232.0193757030522
 30
0.0
 11
61.35223678586269
 21
232.1049427838272
 31
0.0
  0
LINE
  5
BBDF
  8
0
 10
61.35223678586269
 20
232.1049427838272
 30
0.0
 11
61.45915015370426
 21
232.0676961646583
 31
0.0
  0
LINE
  5
BBE0
  8
0
 10
62.47139064346763
 20
232.1825620507258
 30
0.0
 11
62.55740158586283
 21
232.2354597438272
 31
0.0
  0
LINE
  5
BBE1
  8
0
 10
56.76073630586276
 20
228.1705911038272
 30
0.0
 11
56.76073630586276
 21
227.9443029438273
 31
0.0
  0
LINE
  5
BBE2
  8
0
 10
54.19115838586319
 20
229.2818741438275
 30
0.0
 11
55.29990014586244
 21
229.2818741438275
 31
0.0
  0
LINE
  5
BBE3
  8
0
 10
56.99192670586305
 20
226.1082623038271
 30
0.0
 11
58.1225107058626
 21
226.1082623038271
 31
0.0
  0
LINE
  5
BBE4
  8
0
 10
59.59508334586278
 20
229.8122871038274
 30
0.0
 11
59.59508334586278
 21
230.425300063827
 31
0.0
  0
LINE
  5
BBE5
  8
0
 10
59.59508334586278
 20
230.425300063827
 30
0.0
 11
58.53530014586292
 21
230.425300063827
 31
0.0
  0
LINE
  5
BBE6
  8
0
 10
58.53530014586292
 20
230.425300063827
 30
0.0
 11
58.53530014586292
 21
226.1082623038271
 31
0.0
  0
LINE
  5
BBE7
  8
0
 10
58.53530014586292
 20
226.1082623038271
 30
0.0
 11
59.67865998586282
 21
226.1082623038271
 31
0.0
  0
LINE
  5
BBE8
  8
0
 10
59.67865998586282
 20
226.1082623038271
 30
0.0
 11
59.67865998586282
 21
227.4397082238272
 31
0.0
  0
LINE
  5
BBE9
  8
0
 10
60.97959374586296
 20
229.3071704638275
 30
0.0
 11
60.97959374586296
 21
230.4555501438269
 31
0.0
  0
LINE
  5
BBEA
  8
0
 10
65.617445425863
 20
229.3719087038268
 30
0.0
 11
66.77749550586302
 21
229.3719087038268
 31
0.0
  0
LINE
  5
BBEB
  8
0
 10
64.09589854586281
 20
227.3287487038276
 30
0.0
 11
62.89725438586308
 21
227.3287487038276
 31
0.0
  0
LINE
  5
BBEC
  8
0
 10
46.37126798586311
 20
233.6954648638272
 30
0.0
 11
46.89835566586268
 21
233.6954648638272
 31
0.0
  0
LINE
  5
BBED
  8
0
 10
46.93636174586297
 20
229.3110803838269
 30
0.0
 11
46.43450430586333
 21
229.3110803838269
 31
0.0
  0
LINE
  5
BBEE
  8
0
 10
46.17164478586298
 20
229.6024954238271
 30
0.0
 11
46.17164478586298
 21
233.224052383827
 31
0.0
  0
LINE
  5
BBEF
  8
0
 10
46.22243118586309
 20
228.8267599038269
 30
0.0
 11
46.75786286586296
 21
228.8267599038269
 31
0.0
  0
LINE
  5
BBF0
  8
0
 10
47.20398126586312
 20
234.1801773438271
 30
0.0
 11
43.53313982586266
 21
234.1801773438271
 31
0.0
  0
LINE
  5
BBF1
  8
0
 10
43.53313982586266
 20
234.1801773438271
 30
0.0
 11
43.53313982586266
 21
233.7337968638273
 31
0.0
  0
LINE
  5
BBF2
  8
0
 10
43.53313982586266
 20
233.7337968638273
 30
0.0
 11
43.84776238586298
 21
233.7337968638273
 31
0.0
  0
LINE
  5
BBF3
  8
0
 10
44.6165886258627
 20
232.8588371838275
 30
0.0
 11
44.6165886258627
 21
227.2732683838273
 31
0.0
  0
LINE
  5
BBF4
  8
0
 10
43.58418494586292
 20
226.3541739838271
 30
0.0
 11
43.58418494586292
 21
225.9081843838273
 31
0.0
  0
LINE
  5
BBF5
  8
0
 10
43.58418494586292
 20
225.9081843838273
 30
0.0
 11
47.52916430586262
 21
225.9081843838273
 31
0.0
  0
LINE
  5
BBF6
  8
0
 10
47.52916430586262
 20
225.9081843838273
 30
0.0
 11
47.52916430586262
 21
226.3543027838274
 31
0.0
  0
LINE
  5
BBF7
  8
0
 10
46.17164478586298
 20
227.3208583038274
 30
0.0
 11
46.17164478586298
 21
228.6230979838271
 31
0.0
  0
LINE
  5
BBF8
  8
0
  6
CONTINUOUS
 10
62.06287509659839
 20
230.8177158690493
 30
0.0
 11
62.1121971058628
 21
230.7154136638271
 31
0.0
  0
LINE
  5
BBF9
  8
0
  6
CONTINUOUS
 10
62.46846868544478
 20
230.9651898264316
 30
0.0
 11
62.56587662586296
 21
230.9069504638271
 31
0.0
  0
LINE
  5
BBFA
  8
0
  6
CONTINUOUS
 10
62.58068887770375
 20
231.0677957815785
 30
0.0
 11
62.68785470586315
 21
231.0303610238277
 31
0.0
  0
LINE
  5
BBFB
  8
0
  6
CONTINUOUS
 10
62.66515689633749
 20
231.1824824093734
 30
0.0
 11
62.7773651058628
 21
231.1659627838268
 31
0.0
  0
LINE
  5
BBFC
  8
0
  6
CONTINUOUS
 10
62.70051329615714
 20
231.2499238227708
 30
0.0
 11
62.8141291058632
 21
231.2448365438274
 31
0.0
  0
LINE
  5
BBFD
  8
0
  6
CONTINUOUS
 10
62.76133951964673
 20
231.3859154715389
 30
0.0
 11
62.86067966586322
 21
231.4003967038277
 31
0.0
  0
LINE
  5
BBFE
  8
0
  6
CONTINUOUS
 10
62.77050343468315
 20
231.5345241490083
 30
0.0
 11
62.87711006586275
 21
231.573161183827
 31
0.0
  0
LINE
  5
BBFF
  8
0
  6
CONTINUOUS
 10
62.55740158586283
 20
232.2354597438272
 30
0.0
 11
62.52013967837544
 21
232.1287762849849
 31
0.0
  0
LINE
  5
BC00
  8
0
 10
56.10329605697413
 20
238.2779621616052
 30
0.0
 11
58.3875154489742
 21
238.7501684976048
 31
0.0
  0
LINE
  5
BC01
  8
0
 10
58.3875154489742
 20
238.7501684976048
 30
0.0
 11
56.1033753529741
 21
239.2221436656052
 31
0.0
  0
LINE
  5
BC02
  8
0
 10
56.1033753529741
 20
239.2221436656052
 30
0.0
 11
57.38872856897476
 21
241.0060684656061
 31
0.0
  0
LINE
  5
BC03
  8
0
 10
57.38872856897476
 20
241.0060684656061
 30
0.0
 11
55.60464786497411
 21
239.720794545605
 31
0.0
  0
LINE
  5
BC04
  8
0
 10
55.60464786497411
 20
239.720794545605
 30
0.0
 11
55.32589334944893
 21
241.0698810849014
 31
0.0
  0
LINE
  5
BC05
  8
0
 10
54.914214865817
 20
240.9476323659543
 30
0.0
 11
54.66077816897356
 21
239.7209504496047
 31
0.0
  0
LINE
  5
BC06
  8
0
 10
54.66077816897356
 20
239.7209504496047
 30
0.0
 11
53.81629629412689
 21
240.3291987428435
 31
0.0
  0
LINE
  5
BC07
  8
0
 10
53.54113845335448
 20
240.0836802981882
 30
0.0
 11
54.16189074497376
 21
239.2221436656052
 31
0.0
  0
LINE
  5
BC08
  8
0
 10
54.16189074497376
 20
239.2221436656052
 30
0.0
 11
53.10072571144835
 21
239.0027209954093
 31
0.0
  0
LINE
  5
BC09
  8
0
 10
53.12144878161595
 20
238.4931165226996
 30
0.0
 11
54.16212594497435
 21
238.2782726256052
 31
0.0
  0
LINE
  5
BC0A
  8
0
 10
54.16212594497435
 20
238.2782726256052
 30
0.0
 11
53.54906556529019
 21
237.4273159481915
 31
0.0
  0
LINE
  5
BC0B
  8
0
 10
53.7887129060309
 20
237.1510234012355
 30
0.0
 11
54.66077816897356
 21
237.7792306416047
 31
0.0
  0
LINE
  5
BC0C
  8
0
 10
54.66077816897356
 20
237.7792306416047
 30
0.0
 11
54.96670061267693
 21
236.2986079060208
 31
0.0
  0
LINE
  5
BC0D
  8
0
 10
55.27137153113878
 20
236.1665635349279
 30
0.0
 11
55.60464786497411
 21
237.7794658416048
 31
0.0
  0
LINE
  5
BC0E
  8
0
 10
55.60464786497411
 20
237.7794658416048
 30
0.0
 11
57.38888447297356
 21
236.4940373616052
 31
0.0
  0
LINE
  5
BC0F
  8
0
 10
57.38888447297356
 20
236.4940373616052
 30
0.0
 11
56.10329605697413
 21
238.2779621616052
 31
0.0
  0
LINE
  5
BC10
  8
0
 10
59.86151827919591
 20
224.9475044303205
 30
0.0
 11
59.86151827919591
 21
225.4104066060497
 31
0.0
  0
LINE
  5
BC11
  8
0
 10
59.08388545320801
 20
224.7931965445029
 30
0.0
 11
59.08388545320801
 21
224.9475044303205
 31
0.0
  0
LINE
  5
BC12
  8
0
 10
59.86151827919591
 20
224.9475044303205
 30
0.0
 11
59.08388545320801
 21
224.9475044303205
 31
0.0
  0
LINE
  5
BC13
  8
0
 10
59.85781716845028
 20
224.7931965445029
 30
0.0
 11
59.08388545320801
 21
224.7931965445029
 31
0.0
  0
LINE
  5
BC14
  8
0
 10
60.25008257454007
 20
225.4104066060497
 30
0.0
 11
59.86151827919591
 21
225.4104066060497
 31
0.0
  0
LINE
  5
BC15
  8
0
 10
60.25008257454007
 20
225.4104066060497
 30
0.0
 11
60.25008257454007
 21
224.9401343924007
 31
0.0
  0
LINE
  5
BC16
  8
0
 10
60.99780100472296
 20
224.9401343924007
 30
0.0
 11
60.25008257454007
 21
224.9401343924007
 31
0.0
  0
LINE
  5
BC17
  8
0
 10
60.99780100472296
 20
224.7907505930536
 30
0.0
 11
60.99780100472296
 21
224.9401343924007
 31
0.0
  0
LINE
  5
BC18
  8
0
 10
60.24498147842493
 20
224.7907505930536
 30
0.0
 11
60.99780100472296
 21
224.7907505930536
 31
0.0
  0
ARC
  5
BC19
  8
0
 10
58.01468082348535
 20
225.6007295748092
 30
0.0
 40
1.78373366193507
 50
310.0456923729903
 51
327.1738262384467
  0
ARC
  5
BC1A
  8
0
 10
57.75651142653302
 20
224.9441319561817
 30
0.0
 40
1.92069235163314
 50
325.4885178757464
 51
349.9185299046333
  0
LINE
  5
BC1B
  8
0
 10
59.5135862060956
 20
224.633781576879
 30
0.0
 11
59.64754798759665
 21
224.6079179851128
 31
0.0
  0
LINE
  5
BC1C
  8
0
 10
58.95980294100306
 20
224.0921760086755
 30
0.0
 11
59.33918624748409
 21
223.8559226377371
 31
0.0
  0
ARC
  5
BC1D
  8
0
 10
57.72874848155377
 20
226.0499995803045
 30
0.0
 40
2.312697174244312
 50
302.1611570594345
 51
308.3070197817706
  0
LINE
  5
BC1E
  8
0
 10
59.85781716845028
 20
224.7931965445029
 30
0.0
 11
59.85781716845028
 21
223.9044439740343
 31
0.0
  0
LINE
  5
BC1F
  8
0
 10
59.52107318923888
 20
223.9118322636138
 30
0.0
 11
59.52107318923888
 21
223.7651288767144
 31
0.0
  0
LINE
  5
BC20
  8
0
 10
59.52107318923888
 20
223.9118322636138
 30
0.0
 11
59.75987764208773
 21
223.8334969155136
 31
0.0
  0
ARC
  5
BC21
  8
0
 10
59.78315050178341
 20
223.9044439740343
 30
0.0
 40
0.0746666666666667
 50
251.8388875732299
 51
0.0
  0
LINE
  5
BC22
  8
0
 10
60.24498147842493
 20
223.8773303484074
 30
0.0
 11
60.24498147842493
 21
224.7907505930536
 31
0.0
  0
LINE
  5
BC23
  8
0
 10
59.86788381850553
 20
223.6237967735912
 30
0.0
 11
59.52107318923888
 21
223.7651288767144
 31
0.0
  0
ARC
  5
BC24
  8
0
 10
59.97120370064701
 20
223.8773303484074
 30
0.0
 40
0.2737777777777778
 50
247.8281449539039
 51
0.0
  0
LINE
  5
BC25
  8
0
 10
60.55426491322575
 20
224.6443675254138
 30
0.0
 11
60.66637266576615
 21
224.5391071649771
 31
0.0
  0
LINE
  5
BC26
  8
0
 10
60.43140210232147
 20
224.602849909854
 30
0.0
 11
60.55426491322575
 21
224.6443675254138
 31
0.0
  0
LINE
  5
BC27
  8
0
 10
61.06811719748291
 20
224.0461882921997
 30
0.0
 11
60.63667643340338
 21
223.8598182998277
 31
0.0
  0
ARC
  5
BC28
  8
0
 10
58.04296965193268
 20
223.5431363994023
 30
0.0
 40
2.61296810051403
 50
6.961145816582685
 51
23.92618042379387
  0
ARC
  5
BC29
  8
0
 10
58.99391191701986
 20
222.7841855396393
 30
0.0
 40
2.4279576794027
 50
31.31746538013244
 51
50.00949102187557
  0
LINE
  5
BC2A
  8
0
 10
62.84510265503056
 20
225.2716698668725
 30
0.0
 11
62.84510265503056
 21
225.1173619810544
 31
0.0
  0
LINE
  5
BC2B
  8
0
 10
62.84510265503056
 20
225.2716698668725
 30
0.0
 11
61.3534365064306
 21
225.2716698668725
 31
0.0
  0
LINE
  5
BC2C
  8
0
 10
61.3534365064306
 20
225.1173619810544
 30
0.0
 11
61.3534365064306
 21
225.2716698668725
 31
0.0
  0
LINE
  5
BC2D
  8
0
 10
62.84510265503056
 20
225.1173619810544
 30
0.0
 11
61.3534365064306
 21
225.1173619810544
 31
0.0
  0
LINE
  5
BC2E
  8
0
 10
62.98552879762835
 20
224.7953687014994
 30
0.0
 11
61.19599072237176
 21
224.7953687014994
 31
0.0
  0
LINE
  5
BC2F
  8
0
 10
61.19599072237176
 20
224.6342433664501
 30
0.0
 11
61.19599072237176
 21
224.7953687014994
 31
0.0
  0
LINE
  5
BC30
  8
0
 10
62.49629534341599
 20
224.6342433664501
 30
0.0
 11
61.19599072237176
 21
224.6342433664501
 31
0.0
  0
LINE
  5
BC31
  8
0
 10
62.98552879762835
 20
224.6564134856851
 30
0.0
 11
62.98552879762835
 21
224.7953687014994
 31
0.0
  0
LINE
  5
BC32
  8
0
 10
61.35513421873836
 20
223.7357038863631
 30
0.0
 11
61.40345140973565
 21
223.610944441925
 31
0.0
  0
ARC
  5
BC33
  8
0
 10
60.88488582798752
 20
225.7243526570716
 30
0.0
 40
2.043491493068839
 50
283.3041404476273
 51
312.187984758957
  0
ARC
  5
BC34
  8
0
 10
61.22959638678819
 20
225.0690563710611
 30
0.0
 40
1.33924926570833
 50
320.1134675612495
 51
341.0544644537724
  0
ARC
  5
BC35
  8
0
 10
61.78014599888408
 20
224.9681538124566
 30
0.0
 40
1.245042056656759
 50
284.1440925346391
 51
345.4996819276624
  0
ARC
  5
BC36
  8
0
 10
61.36880301941298
 20
225.3897655223379
 30
0.0
 40
1.77915849408482
 50
271.1158826182763
 51
293.7159784209443
  0
LINE
  5
BC37
  8
0
 10
63.64128907601204
 20
224.2933852800003
 30
0.0
 11
63.64128907601204
 21
225.3337190908366
 31
0.0
  0
LINE
  5
BC38
  8
0
 10
63.64128907601204
 20
225.3337190908366
 30
0.0
 11
63.23249225000697
 21
225.3337190908366
 31
0.0
  0
LINE
  5
BC39
  8
0
 10
63.23249225000697
 20
224.2933852800003
 30
0.0
 11
63.23249225000697
 21
225.3337190908366
 31
0.0
  0
LINE
  5
BC3A
  8
0
 10
63.64128907601204
 20
224.2933852800003
 30
0.0
 11
63.23249225000697
 21
224.2933852800003
 31
0.0
  0
LINE
  5
BC3B
  8
0
 10
64.57891542210015
 20
224.5884785152827
 30
0.0
 11
64.57891542210015
 21
225.3337190908366
 31
0.0
  0
LINE
  5
BC3C
  8
0
 10
64.18049232999917
 20
224.6430890814469
 30
0.0
 11
64.18049232999917
 21
225.3337190908366
 31
0.0
  0
LINE
  5
BC3D
  8
0
 10
64.18049232999917
 20
225.3337190908366
 30
0.0
 11
64.57891542210015
 21
225.3337190908366
 31
0.0
  0
LINE
  5
BC3E
  8
0
 10
63.34758476582826
 20
223.6730427101517
 30
0.0
 11
63.43138228113546
 21
223.5654764510434
 31
0.0
  0
ARC
  5
BC3F
  8
0
 10
63.23525447689732
 20
224.6120939356903
 30
0.0
 40
0.9457458950466363
 50
276.8213681552839
 51
1.878103949386534
  0
ARC
  5
BC40
  8
0
 10
63.37425878307974
 20
224.9016214808141
 30
0.0
 40
1.337365557583815
 50
272.4480452339944
 51
323.9127955890404
  0
ARC
  5
BC41
  8
0
 10
63.53128917327237
 20
224.6085205797769
 30
0.0
 40
1.047817942956835
 50
331.8321656005633
 51
358.9040121443402
  0
LINE
  5
BC42
  8
0
 10
66.21641455334426
 20
225.0632346033837
 30
0.0
 11
66.21641455334426
 21
225.1826669016061
 31
0.0
  0
LINE
  5
BC43
  8
0
 10
64.86816001396389
 20
225.0438606394397
 30
0.0
 11
64.86816001396389
 21
225.1826669016061
 31
0.0
  0
LINE
  5
BC44
  8
0
 10
66.21641455334426
 20
225.1826669016061
 30
0.0
 11
64.86816001396389
 21
225.1826669016061
 31
0.0
  0
LINE
  5
BC45
  8
0
 10
65.73954520660251
 20
225.0438606394397
 30
0.0
 11
64.86816001396389
 21
225.0438606394397
 31
0.0
  0
LINE
  5
BC46
  8
0
 10
64.48337255989097
 20
223.7254337597012
 30
0.0
 11
64.5603907762779
 21
223.6054666281713
 31
0.0
  0
ARC
  5
BC47
  8
0
 10
63.87739650773707
 20
225.5604389133729
 30
0.0
 40
1.932472739726369
 50
288.2748377643807
 51
344.4954648401276
  0
ARC
  5
BC48
  8
0
 10
63.89067723167861
 20
226.1655424473567
 30
0.0
 40
2.646224561861322
 50
284.6600032593546
 51
312.5396667739578
  0
LINE
  5
BC49
  8
0
 10
66.3169091595905
 20
223.5841539459477
 30
0.0
 11
66.62239672301845
 21
223.9279826654899
 31
0.0
  0
ARC
  5
BC4A
  8
0
 10
64.28855499869357
 20
222.1753021773372
 30
0.0
 40
2.469632342666266
 50
34.78302390875149
 51
55.71309290050228
  0
ARC
  5
BC4B
  8
0
 10
64.46247836110794
 20
225.6001371992158
 30
0.0
 40
1.834272761572525
 50
316.4306178633717
 51
342.9799715932805
  0
ARC
  5
BC4C
  8
0
 10
64.2136251443089
 20
220.0715938546134
 30
0.0
 40
4.546857725842939
 50
58.0103401497656
 51
69.6947510335346
  0
ARC
  5
C157
  8
0
 10
55.12969990597986
 20
238.7350798204349
 30
0.0
 40
5.33214218313847
 50
74.3144994222587
 51
104.1724498576074
  0
ARC
  5
C158
  8
0
 10
55.13718661771969
 20
238.7456091500734
 30
0.0
 40
5.323775476131433
 50
104.2783165563116
 51
166.1870765708273
  0
ARC
  5
C159
  8
0
 10
55.14132542271213
 20
238.7525348134658
 30
0.0
 40
5.326146654840227
 50
166.270054507626
 51
215.0482339935348
  0
ARC
  5
C15A
  8
0
 10
55.12939363856626
 20
238.7439035517586
 30
0.0
 40
5.311421839969246
 50
215.0459241187441
 51
273.2408824576858
  0
ARC
  5
C15B
  8
0
 10
55.13142969921327
 20
238.7515025726223
 30
0.0
 40
5.318894171081752
 50
273.2143571100679
 51
346.1779060677009
  0
ARC
  5
C15C
  8
0
 10
55.14153558641414
 20
238.744021377155
 30
0.0
 40
5.307295827239366
 50
346.2302669880834
 51
43.78488871851552
  0
ARC
  5
C15D
  8
0
 10
57.20429139332643
 20
238.3225568265488
 30
0.0
 40
4.459640505811445
 50
66.63259795322786
 51
109.905871685035
  0
ARC
  5
C15E
  8
0
 10
56.98613905050968
 20
238.8427886716472
 30
0.0
 40
3.896315762598357
 50
109.4942419685547
 51
167.6530237580676
  0
ARC
  5
C15F
  8
0
 10
56.24743930547834
 20
237.3224397735772
 30
0.0
 40
3.866330758866939
 50
121.49327701854
 51
142.503166897339
  0
ARC
  5
C160
  8
0
 10
56.19575331210683
 20
237.3858909977928
 30
0.0
 40
3.78524088928143
 50
91.77940320266768
 51
121.3278955587065
  0
ARC
  5
C161
  8
0
 10
56.18347996427008
 20
237.2682257579982
 30
0.0
 40
3.90250076108918
 50
65.20023754136542
 51
91.54565188015083
  0
ARC
  5
C162
  8
0
 10
56.00974892364604
 20
236.9088370884248
 30
0.0
 40
4.301623157105358
 50
30.14973546883468
 51
65.10747394303505
  0
ARC
  5
C163
  8
0
 10
55.79351213466799
 20
236.7694583569998
 30
0.0
 40
4.558626665475829
 50
8.9769926527231
 51
30.2994981683211
  0
ARC
  5
C164
  8
0
 10
56.90716443276634
 20
240.2892956147679
 30
0.0
 40
4.401593171265135
 50
288.3388974970104
 51
320.3520397443187
  0
ARC
  5
C165
  8
0
 10
56.85628984151214
 20
240.3478049741874
 30
0.0
 40
4.473237795108389
 50
252.8403059470309
 51
288.7216405446108
  0
ARC
  5
C166
  8
0
 10
56.70805242053171
 20
239.9192597990277
 30
0.0
 40
4.020062191481092
 50
209.1938724537275
 51
253.0569803949627
  0
ARC
  5
C167
  8
0
 10
56.5200016769472
 20
239.7659902643271
 30
0.0
 40
3.781373116886767
 50
175.5970978715927
 51
208.5563260925432
  0
ARC
  5
C168
  8
0
 10
56.74426638029109
 20
239.7234406115733
 30
0.0
 40
4.008321764107
 50
141.0080554268093
 51
175.2367758980932
  0
ARC
  5
C169
  8
0
 10
57.0890458021787
 20
239.4514675890806
 30
0.0
 40
4.447428119007347
 50
96.68547469604036
 51
141.0795845301959
  0
ARC
  5
C16A
  8
0
 10
56.88953587444303
 20
238.9015694042785
 30
0.0
 40
3.790160167539093
 50
178.4707117364453
 51
186.1865889351898
  0
ARC
  5
C16B
  8
0
 10
43.85595094319621
 20
231.6312848875281
 30
0.0
 40
2.102527922038834
 50
84.95619996680482
 51
90.22314612645769
  0
ARC
  5
C16C
  8
0
 10
43.98801723806986
 20
232.8785592189739
 30
0.0
 40
0.848754935304436
 50
65.19337763183492
 51
86.43460068621052
  0
ARC
  5
C16D
  8
0
 10
44.14724098906575
 20
233.2638790663028
 30
0.0
 40
0.432524910680116
 50
13.9863879207907
 51
62.92338893732329
  0
ARC
  5
C16E
  8
0
 10
43.47678561752576
 20
233.0598723668749
 30
0.0
 40
1.132979464242894
 50
3.904131892889081
 51
15.80295944671843
  0
ARC
  5
C16F
  8
0
 10
41.41716923166916
 20
232.8893660731991
 30
0.0
 40
3.199565044350259
 50
359.4532997353156
 51
4.439158366316591
  0
ARC
  5
C170
  8
0
 10
43.59847483387517
 20
228.3160023472766
 30
0.0
 40
1.961880406277173
 50
269.5826669607686
 51
281.2467372863051
  0
ARC
  5
C171
  8
0
 10
43.82567930760283
 20
227.2422108579688
 30
0.0
 40
0.8645009778283242
 50
280.3576091429006
 51
308.9726038906425
  0
ARC
  5
C172
  8
0
 10
43.89730303114891
 20
227.0954505660899
 30
0.0
 40
0.7063050293075379
 50
311.9446536813427
 51
353.5803040312001
  0
ARC
  5
C173
  8
0
 10
42.95874516879041
 20
227.2566787949455
 30
0.0
 40
1.657926458748007
 50
351.6696629683137
 51
0.5733241568768106
  0
ARC
  5
C174
  8
0
 10
48.24032752353253
 20
232.2628576857055
 30
0.0
 40
5.95119938757511
 50
257.5813101393114
 51
263.136802496719
  0
ARC
  5
C175
  8
0
 10
47.25062495363466
 20
227.8189302792092
 30
0.0
 40
1.398452974297173
 50
235.2289453505774
 51
258.0263291625699
  0
ARC
  5
C176
  8
0
 10
46.9057168967027
 20
227.2440322492549
 30
0.0
 40
0.7308682337771808
 50
181.3642075179843
 51
231.7348554842791
  0
ARC
  5
C177
  8
0
 10
47.45041294978111
 20
227.3199754012543
 30
0.0
 40
1.278768468710234
 50
179.9604411616191
 51
184.1860155147163
  0
ARC
  5
C178
  8
0
 10
34.72874686614048
 20
228.4535393689576
 30
0.0
 40
11.44415409390602
 50
0.848935483152986
 51
1.690006264274332
  0
ARC
  5
C179
  8
0
 10
46.20341898642403
 20
228.7937713565487
 30
0.0
 40
0.0356002396173115
 50
132.0995794755948
 51
184.3854082312399
  0
ARC
  5
C17A
  8
0
 10
46.21173116861195
 20
228.7534212777281
 30
0.0
 40
0.0741150757083008
 50
81.69918243476886
 51
115.7331729843349
  0
ARC
  5
C17B
  8
0
 10
46.41830379966473
 20
229.5833978368011
 30
0.0
 40
0.2727989215437704
 50
229.3422064805707
 51
273.4045849244121
  0
ARC
  5
C17C
  8
0
 10
46.4446419934882
 20
229.5524805093685
 30
0.0
 40
0.2695085644996453
 50
184.8442539947764
 51
220.7801867736532
  0
ARC
  5
C17D
  8
0
 10
46.73607673664748
 20
229.6004965041171
 30
0.0
 40
0.5644354903320787
 50
179.7970894737595
 51
187.2033550483905
  0
ARC
  5
C17E
  8
0
 10
46.74422358903519
 20
234.4519776050313
 30
0.0
 40
5.625234236528772
 50
270.1389228840426
 51
282.5749638804127
  0
ARC
  5
C17F
  8
0
 10
47.20356654935591
 20
232.7862904771655
 30
0.0
 40
3.900438044695806
 50
281.31631568977
 51
306.6736079669237
  0
ARC
  5
C180
  8
0
 10
47.56753062562422
 20
232.0841834602456
 30
0.0
 40
3.122533740917625
 50
309.0122993056879
 51
333.1868714432047
  0
ARC
  5
C181
  8
0
 10
48.28213972216597
 20
231.6418351324532
 30
0.0
 40
2.286370135056757
 50
335.0025208531055
 51
3.132350940942409
  0
ARC
  5
C182
  8
0
 10
48.17398252552323
 20
231.5562941132464
 30
0.0
 40
2.400356917899017
 50
5.030415615660186
 51
45.8801555680425
  0
ARC
  5
C183
  8
0
 10
47.52388806480616
 20
230.6135323700591
 30
0.0
 40
3.534812041936091
 50
48.95520224166617
 51
77.68716474380085
  0
ARC
  5
C184
  8
0
 10
47.24607666458525
 20
229.4284070110884
 30
0.0
 40
4.751956788280896
 50
77.46176455392263
 51
90.50756358638267
  0
ARC
  5
C185
  8
0
 10
46.36913696718813
 20
233.5626245507945
 30
0.0
 40
0.1328574047888303
 50
89.08094236461791
 51
124.4007292599872
  0
ARC
  5
C186
  8
0
 10
46.42147720001896
 20
233.5016264546918
 30
0.0
 40
0.2129371461418388
 50
126.7487054586328
 51
162.0338218173676
  0
ARC
  5
C187
  8
0
 10
46.92921173094186
 20
233.3135062240934
 30
0.0
 40
0.7542713589800576
 50
160.3370642577249
 51
177.7002884087945
  0
ARC
  5
C188
  8
0
 10
47.86589495024697
 20
233.2287408268534
 30
0.0
 40
1.69425665145904
 50
176.1068976128699
 51
180.1585523306186
  0
ARC
  5
C189
  8
0
 10
46.87355625937937
 20
231.5294998432018
 30
0.0
 40
2.219308321722258
 50
271.6216628224755
 51
290.5180238120268
  0
ARC
  5
C18A
  8
0
 10
47.05354021376371
 20
230.9596545097593
 30
0.0
 40
1.622827402472289
 50
291.6184361004774
 51
329.2928533987833
  0
ARC
  5
C18B
  8
0
 10
46.12443193157912
 20
231.471298453394
 30
0.0
 40
2.683157532333741
 50
330.0305147082963
 51
359.7069691972517
  0
ARC
  5
C18C
  8
0
 10
45.99651026709608
 20
231.5819233149684
 30
0.0
 40
2.813793035039953
 50
357.4671544818835
 51
18.09389103936943
  0
ARC
  5
C18D
  8
0
 10
46.84875183722241
 20
231.8783527101413
 30
0.0
 40
1.911708557628758
 50
17.58181129013311
 51
44.10613559949745
  0
ARC
  5
C18E
  8
0
 10
47.10837313588118
 20
232.0888191202676
 30
0.0
 40
1.579081423259486
 50
45.17904980442386
 51
71.36379322642686
  0
ARC
  5
C18F
  8
0
 10
46.93168959800568
 20
231.5424046965159
 30
0.0
 40
2.153318191790253
 50
71.55515292962627
 51
90.8869891698155
  0
ARC
  5
C190
  8
0
 10
49.9591830386118
 20
228.633383105092
 30
0.0
 40
0.9504697930117868
 50
45.647846390803
 51
90.95907175324457
  0
ARC
  5
C191
  8
0
 10
49.69056774029588
 20
228.4027586657776
 30
0.0
 40
1.303524477208397
 50
356.286618042267
 51
44.29157541670886
  0
ARC
  5
C192
  8
0
 10
49.24044093582577
 20
228.2344252973487
 30
0.0
 40
1.752924040513615
 50
332.8282653512692
 51
2.743720271344923
  0
ARC
  5
C193
  8
0
 10
49.93246513630555
 20
227.9488129831535
 30
0.0
 40
1.008745565207887
 50
281.1029522262585
 51
329.3086861457625
  0
ARC
  5
C194
  8
0
 10
49.94502824873052
 20
228.0210936814213
 30
0.0
 40
1.077573765673208
 50
254.373585711482
 51
279.7072195183877
  0
ARC
  5
C195
  8
0
 10
49.95864974614196
 20
227.9612157145245
 30
0.0
 40
1.023995873514749
 50
198.078198350464
 51
252.7369026576817
  0
ARC
  5
C196
  8
0
 10
51.00470348984879
 20
228.2674973497244
 30
0.0
 40
2.113718303506307
 50
164.6942276189751
 51
197.1716014617761
  0
ARC
  5
C197
  8
0
 10
50.00064419968692
 20
228.5323178536184
 30
0.0
 40
1.07541041250608
 50
123.3084104466157
 51
164.1819940011187
  0
ARC
  5
C198
  8
0
 10
49.92974802728298
 20
228.6234774148732
 30
0.0
 40
0.9603375863241239
 50
89.19299068101529
 51
122.7601092117228
  0
ARC
  5
C199
  8
0
 10
50.2459906954802
 20
228.2713783449503
 30
0.0
 40
2.529168051565525
 50
164.9665044400625
 51
190.6145490228779
  0
ARC
  5
C19A
  8
0
 10
49.87942604013475
 20
228.0951945268258
 30
0.0
 40
2.13903317801624
 50
187.7835408718215
 51
220.8538282758054
  0
ARC
  5
C19B
  8
0
 10
49.86290216227806
 20
228.2577177708531
 30
0.0
 40
2.23684800464541
 50
224.28151327257
 51
262.3352180838968
  0
ARC
  5
C19C
  8
0
 10
49.94409646646409
 20
228.425881982734
 30
0.0
 40
2.415036709056927
 50
260.9581187463501
 51
295.9617934482585
  0
ARC
  5
C19D
  8
0
 10
49.9688079399422
 20
228.1923702331347
 30
0.0
 40
2.195729658493223
 50
298.0499757225368
 51
338.9010076102918
  0
ARC
  5
C19E
  8
0
 10
49.57925143681641
 20
228.2778059918471
 30
0.0
 40
2.590632549888452
 50
340.2397223934027
 51
12.59603457387198
  0
ARC
  5
C19F
  8
0
 10
50.05389002020485
 20
228.3963450149704
 30
0.0
 40
2.101602444292964
 50
12.26400142418705
 51
42.00204460106953
  0
ARC
  5
C1A0
  8
0
 10
50.05339891556193
 20
228.4238308633613
 30
0.0
 40
2.083678402800012
 50
41.43135548057312
 51
84.31090183999093
  0
ARC
  5
C1A1
  8
0
 10
55.94238181536826
 20
228.9527674935645
 30
0.0
 40
0.7218683279506627
 50
130.1010359850342
 51
152.8765297157266
  0
ARC
  5
C1A2
  8
0
 10
55.8844178632875
 20
228.9390516586485
 30
0.0
 40
0.6970539232955045
 50
93.6216075869979
 51
125.7261982466873
  0
ARC
  5
C1A3
  8
0
 10
55.99549832982729
 20
227.9945756970254
 30
0.0
 40
1.647456117640462
 50
86.1442592668663
 51
95.40251107253543
  0
ARC
  5
C1A4
  8
0
 10
56.04423072777644
 20
228.1663704308272
 30
0.0
 40
1.473239699002557
 50
75.78444603343868
 51
87.58609443775997
  0
ARC
  5
C1A5
  8
0
 10
56.30891414014377
 20
229.1636004307631
 30
0.0
 40
0.4417023764257507
 50
38.65642909797035
 51
77.30076056537806
  0
ARC
  5
C1A6
  8
0
 10
56.13722232574776
 20
229.0930925349544
 30
0.0
 40
0.622013293909289
 50
359.8735965182385
 51
33.84363804094146
  0
ARC
  5
C1A7
  8
0
 10
53.17911162171268
 20
228.972826383827
 30
0.0
 40
3.582096140528945
 50
359.0859929973961
 51
1.902062204167362
  0
ARC
  5
C1A8
  8
0
 10
55.82177066838156
 20
231.242609069365
 30
0.0
 40
2.509234634269819
 50
284.9657500733399
 51
291.97550982172
  0
ARC
  5
C1A9
  8
0
 10
54.142447367881
 20
237.3904465830582
 30
0.0
 40
8.882278806531481
 50
280.2043110183695
 51
285.1898042810342
  0
ARC
  5
C1AA
  8
0
 10
56.60755296042831
 20
223.4910499932062
 30
0.0
 40
5.234101951295329
 50
99.80708673503382
 51
108.9029002183753
  0
ARC
  5
C1AB
  8
0
 10
55.30234205799539
 20
227.2414464779236
 30
0.0
 40
1.263280702218469
 50
108.0038789458568
 51
139.5346921255566
  0
ARC
  5
C1AC
  8
0
 10
55.24244114933185
 20
227.3252832676049
 30
0.0
 40
1.163565746446632
 50
140.7612947780745
 51
168.9659435881561
  0
ARC
  5
C1AD
  8
0
 10
55.47680874729633
 20
227.2835823289561
 30
0.0
 40
1.401587473098195
 50
169.1264415873884
 51
196.8129880402175
  0
ARC
  5
C1AE
  8
0
 10
55.27682858649354
 20
227.2500632655081
 30
0.0
 40
1.200736629503124
 50
198.0421705376476
 51
235.7348582477584
  0
ARC
  5
C1AF
  8
0
 10
55.43368823144223
 20
227.5481094840415
 30
0.0
 40
1.535844315416191
 50
237.1590292494215
 51
270.7198132743666
  0
ARC
  5
C1B0
  8
0
 10
55.51362461435957
 20
227.8221217695777
 30
0.0
 40
1.810751131158588
 50
268.0808101764746
 51
292.8635926074776
  0
ARC
  5
C1B1
  8
0
 10
55.38281534476369
 20
228.0491278892247
 30
0.0
 40
2.070998767971581
 50
293.7580989581123
 51
314.7899657835182
  0
ARC
  5
C1B2
  8
0
 10
60.36199823900714
 20
227.2175708423146
 30
0.0
 40
2.499173832420186
 50
192.2727471956715
 51
206.3510707099188
  0
ARC
  5
C1B3
  8
0
 10
62.32762421979194
 20
227.3923899454441
 30
0.0
 40
4.463878389973498
 50
178.3054146575074
 51
189.1007693226514
  0
ARC
  5
C1B4
  8
0
 10
-120.8404844030924
 20
230.445254597878
 30
0.0
 40
178.7300508439498
 50
359.0636135939208
 51
359.5331222948618
  0
ARC
  5
C1B5
  8
0
 10
54.8045190053553
 20
228.988436754045
 30
0.0
 40
3.07911375910394
 50
0.0082366020401114
 51
13.70501902078777
  0
ARC
  5
C1B6
  8
0
 10
56.94387730897552
 20
229.4575678923923
 30
0.0
 40
0.8909843556742496
 50
16.99219239725965
 51
58.15468777164725
  0
ARC
  5
C1B7
  8
0
 10
56.47607874519232
 20
228.797998954593
 30
0.0
 40
1.698813368729804
 50
56.4891308086457
 51
88.52476597508146
  0
ARC
  5
C1B8
  8
0
 10
56.11315990030184
 20
226.2210000215304
 30
0.0
 40
4.294545824498953
 50
84.56646884241289
 51
99.63736677787178
  0
ARC
  5
C1B9
  8
0
 10
55.63967103831868
 20
229.0002985101606
 30
0.0
 40
1.475204576717583
 50
99.5783577095598
 51
133.4108128523484
  0
ARC
  5
C1BA
  8
0
 10
55.89335362938198
 20
228.8599298008251
 30
0.0
 40
1.753711970549818
 50
136.2812462218209
 51
166.0780026216429
  0
ARC
  5
C1BB
  8
0
 10
54.77120567503246
 20
234.6295015262281
 30
0.0
 40
6.758384124597473
 50
280.6962555586759
 51
287.1203411217375
  0
ARC
  5
C1BC
  8
0
 10
56.73843762669711
 20
224.5367716289725
 30
0.0
 40
3.524614443440088
 50
101.6686696910115
 51
109.1101391117779
  0
ARC
  5
C1BD
  8
0
 10
55.74779465477809
 20
227.3431126394718
 30
0.0
 40
0.5488788980844314
 50
107.304431562489
 51
142.6785974978667
  0
ARC
  5
C1BE
  8
0
 10
55.66061097857173
 20
227.4055046979703
 30
0.0
 40
0.4417308257590526
 50
142.258199201179
 51
180.7216068092584
  0
ARC
  5
C1BF
  8
0
 10
55.76475022949677
 20
227.3946857158853
 30
0.0
 40
0.5458603467606972
 50
179.4483220443287
 51
220.6412737198986
  0
ARC
  5
C1C0
  8
0
 10
55.81852630253559
 20
227.4229265788654
 30
0.0
 40
0.6052123636331186
 50
219.3540008203597
 51
262.049369939488
  0
ARC
  5
C1C1
  8
0
 10
55.85794359011476
 20
227.7219469840318
 30
0.0
 40
0.9068136346841665
 50
262.1960849641753
 51
288.4736708280099
  0
ARC
  5
C1C2
  8
0
 10
55.8101777103565
 20
227.8652761500903
 30
0.0
 40
1.057892482791887
 50
288.4676009339713
 51
313.9760865401699
  0
ARC
  5
C1C3
  8
0
 10
56.06843038996942
 20
227.5823888905165
 30
0.0
 40
0.6750814753682137
 50
314.873968361606
 51
353.3371743964237
  0
ARC
  5
C1C4
  8
0
 10
53.30431644524987
 20
227.8946725762817
 30
0.0
 40
3.456776160850171
 50
353.5117984853132
 51
0.8226475095749395
  0
ARC
  5
C1C5
  8
0
 10
63.91483866152271
 20
228.5730996615067
 30
0.0
 40
7.34861436909221
 50
195.7421928264704
 51
199.597791318071
  0
ARC
  5
C1C6
  8
0
 10
76.68630568933956
 20
227.4760616633344
 30
0.0
 40
17.00768455573995
 50
177.5431527159519
 51
180.1224681839423
  0
ARC
  5
C1C7
  8
0
 10
63.6730828670064
 20
228.081455894596
 30
0.0
 40
3.98074969577439
 50
168.3575610519279
 51
178.2196605600729
  0
ARC
  5
C1C8
  8
0
 10
60.76394151998306
 20
228.6605465262963
 30
0.0
 40
1.014793522696064
 50
138.3863021467757
 51
167.2340218536034
  0
ARC
  5
C1C9
  8
0
 10
60.40833988084407
 20
228.8937659287955
 30
0.0
 40
0.5972547683434593
 50
96.77586538956423
 51
132.447773558299
  0
ARC
  5
C1CA
  8
0
 10
60.43913322438044
 20
228.7418661396819
 30
0.0
 40
0.7518332906437697
 50
71.72267914677889
 51
97.74042030460187
  0
ARC
  5
C1CB
  8
0
 10
60.26568151654624
 20
228.2300670705387
 30
0.0
 40
1.29221607752043
 50
56.46328333653608
 51
71.5367949068469
  0
ARC
  5
C1CC
  8
0
 10
62.19934640474966
 20
228.2080392921933
 30
0.0
 40
3.058724754046294
 50
139.5470247594357
 51
148.3665835328131
  0
ARC
  5
C1CD
  8
0
 10
60.54755694506738
 20
229.6400044729864
 30
0.0
 40
0.8729050829687197
 50
109.5979517564685
 51
140.7231812093455
  0
ARC
  5
C1CE
  8
0
 10
60.57794456837311
 20
229.5124911551358
 30
0.0
 40
1.003323721815536
 50
86.36469047660621
 51
108.7902753767986
  0
ARC
  5
C1CF
  8
0
 10
60.57697903834139
 20
229.137312970319
 30
0.0
 40
1.377997254265745
 50
78.84643697971657
 51
87.31376656527279
  0
ARC
  5
C1D0
  8
0
 10
60.56326070758863
 20
229.0675835983816
 30
0.0
 40
1.449063259500479
 50
73.30291166206497
 51
78.8475905402678
  0
ARC
  5
C1D1
  8
0
 10
65.16424078999538
 20
228.9259223272143
 30
0.0
 40
1.673766598535952
 50
15.45353000298215
 51
35.65921843237705
  0
ARC
  5
C1D2
  8
0
 10
65.44936005453505
 20
229.1156301126642
 30
0.0
 40
1.331569712949468
 50
36.17886961743995
 51
65.18032133965768
  0
ARC
  5
C1D3
  8
0
 10
65.06607726880193
 20
228.0470222306439
 30
0.0
 40
2.464419661937123
 50
67.52176510600205
 51
89.95176516883794
  0
ARC
  5
C1D4
  8
0
 10
64.88650670218661
 20
226.7854996546903
 30
0.0
 40
3.730366476747655
 50
87.208954205559
 51
101.0994306540248
  0
ARC
  5
C1D5
  8
0
 10
64.44850002461851
 20
228.9845512412556
 30
0.0
 40
1.488141506149253
 50
100.8503522773502
 51
133.1120733601343
  0
ARC
  5
C1D6
  8
0
 10
64.26145058645383
 20
229.1943255988526
 30
0.0
 40
1.207186880999289
 50
133.4355814373259
 51
160.54030576771
  0
ARC
  5
C1D7
  8
0
 10
64.35912688187794
 20
229.1871476853557
 30
0.0
 40
1.30192991328094
 50
161.6745785399147
 51
192.4880693726293
  0
ARC
  5
C1D8
  8
0
 10
64.12543264019513
 20
229.1332120041264
 30
0.0
 40
1.06210390647494
 50
192.3733574320921
 51
226.495337067095
  0
ARC
  5
C1D9
  8
0
 10
64.28676181155323
 20
229.2884785556245
 30
0.0
 40
1.285822665205259
 50
226.0440591685035
 51
249.5155775654867
  0
ARC
  5
C1DA
  8
0
 10
66.23357256674352
 20
234.1892346868182
 30
0.0
 40
6.558883186265355
 50
248.5661847695235
 51
256.3648823317471
  0
ARC
  5
C1DB
  8
0
 10
74.98599152132704
 20
269.2980404205108
 30
0.0
 40
42.74209767946007
 50
256.0575388595495
 51
257.0500330678841
  0
ARC
  5
C1DC
  8
0
 10
65.26553827088802
 20
226.9182210678958
 30
0.0
 40
0.738586693301286
 50
53.94494987543574
 51
78.91973275289719
  0
ARC
  5
C1DD
  8
0
 10
65.47533115078471
 20
227.3050309253895
 30
0.0
 40
0.3079156393342173
 50
351.7054337157874
 51
43.07738885190663
  0
ARC
  5
C1DE
  8
0
 10
65.42300859196774
 20
227.2876826738971
 30
0.0
 40
0.3580422081846633
 50
305.5545895016557
 51
355.6635972446031
  0
ARC
  5
C1DF
  8
0
 10
65.10151715499835
 20
227.8083900790273
 30
0.0
 40
0.9694871848616392
 50
270.6346537603566
 51
303.1173831021151
  0
ARC
  5
C1E0
  8
0
 10
64.97388417075427
 20
228.3682923972975
 30
0.0
 40
1.535577099296554
 50
255.0528385911238
 51
275.1699625266891
  0
ARC
  5
C1E1
  8
0
 10
64.77464884734893
 20
227.5786283010754
 30
0.0
 40
0.72133028502093
 50
220.3482025964629
 51
254.1645624218334
  0
ARC
  5
C1E2
  8
0
 10
64.85127272302898
 20
227.6306576228852
 30
0.0
 40
0.8134735047535518
 50
201.7856653156537
 51
219.6469566048348
  0
ARC
  5
C1E3
  8
0
 10
64.52557718037721
 20
227.741098949792
 30
0.0
 40
1.679722551042641
 50
194.210622631723
 51
218.9435761559328
  0
ARC
  5
C1E4
  8
0
 10
64.53590557340144
 20
227.7783788600906
 30
0.0
 40
1.711336039747307
 50
219.6970036238809
 51
248.5406571485441
  0
ARC
  5
C1E5
  8
0
 10
64.83652424908126
 20
228.6338608720101
 30
0.0
 40
2.617702860846573
 50
249.2671616286075
 51
267.747025064058
  0
ARC
  5
C1E6
  8
0
 10
64.96980524931095
 20
229.1618126156992
 30
0.0
 40
3.152491240768179
 50
265.7033250605309
 51
289.3905439589275
  0
ARC
  5
C1E7
  8
0
 10
65.4442608186105
 20
227.6043221191673
 30
0.0
 40
1.527408099999837
 50
292.0004687572242
 51
331.7243378576277
  0
ARC
  5
C1E8
  8
0
 10
65.63359606502183
 20
227.4613604349688
 30
0.0
 40
1.293448633509429
 50
333.3286501185843
 51
10.01278361973784
  0
ARC
  5
C1E9
  8
0
 10
65.93044862297943
 20
227.548968103068
 30
0.0
 40
0.9864943557164728
 50
7.999299177210378
 51
56.09544702440729
  0
ARC
  5
C1EA
  8
0
 10
64.91324187650038
 20
225.8489950281564
 30
0.0
 40
2.966650730685512
 50
58.10472620690843
 51
77.57165611660318
  0
ARC
  5
C1EB
  8
0
 10
71.14393855182615
 20
253.1738833621815
 30
0.0
 40
25.05969444260865
 50
254.9920383624129
 51
257.1055378385227
  0
ARC
  5
C1EC
  8
0
 10
65.0711606724314
 20
230.7082746023463
 30
0.0
 40
1.788471967299355
 50
241.9968666432906
 51
256.5329008491028
  0
ARC
  5
C1ED
  8
0
 10
64.3746332053046
 20
229.3424942509669
 30
0.0
 40
0.2569089219111538
 50
181.4229295114256
 51
236.1252737546306
  0
ARC
  5
C1EE
  8
0
 10
64.38985384296484
 20
229.3369878649002
 30
0.0
 40
0.272051738584831
 50
114.9382961617164
 51
180.1839102890763
  0
ARC
  5
C1EF
  8
0
 10
64.79184112136704
 20
228.4278835804867
 30
0.0
 40
1.266027764923893
 50
87.40586972974698
 51
114.0870118917362
  0
ARC
  5
C1F0
  8
0
 10
64.89234937772662
 20
228.1086638111709
 30
0.0
 40
1.584539315298479
 50
81.26152734193053
 51
91.56252783870202
  0
ARC
  5
C1F1
  8
0
 10
65.02584615015508
 20
228.9144508534068
 30
0.0
 40
0.767883455285971
 50
58.63150134670305
 51
81.97250411125933
  0
ARC
  5
C1F2
  8
0
 10
65.08577912851328
 20
229.0491403324123
 30
0.0
 40
0.6219714409278794
 50
31.26144626097709
 51
56.88664282448827
  0
ARC
  5
C1F3
  8
0
 10
60.73256347258456
 20
225.2464501485865
 30
0.0
 40
0.1450093835969383
 50
152.3324835633369
 51
201.6883497501618
  0
ARC
  5
C1F4
  8
0
 10
60.78284343914765
 20
225.2134659262812
 30
0.0
 40
0.2049400430791757
 50
94.26849177823954
 51
150.6923636878295
  0
ARC
  5
C1F5
  8
0
 10
60.79528348183356
 20
225.1758560225092
 30
0.0
 40
0.2435610534233947
 50
65.67526895000145
 51
96.52886377923876
  0
ARC
  5
C1F6
  8
0
 10
60.826190171197
 20
225.2323530057749
 30
0.0
 40
0.1794155440342952
 50
15.00501194484213
 51
67.2375225199484
  0
ARC
  5
C1F7
  8
0
 10
60.85879321929536
 20
225.2461981802956
 30
0.0
 40
0.1444238304842776
 50
334.5475718261126
 51
13.047988576613
  0
ARC
  5
C1F8
  8
0
 10
60.81704327658258
 20
225.2690695173961
 30
0.0
 40
0.1919699607925253
 50
283.3392084596457
 51
333.7390166514077
  0
ARC
  5
C1F9
  8
0
 10
60.79549184813089
 20
225.3182104827764
 30
0.0
 40
0.2449468824808138
 50
249.2475068279205
 51
285.5929160340207
  0
ARC
  5
C1FA
  8
0
 10
60.772162564263
 20
225.268137593145
 30
0.0
 40
0.1899001165681578
 50
203.3534454850997
 51
250.4765665943434
  0
ARC
  5
C1FB
  8
0
 10
60.73344968350898
 20
225.2463884674625
 30
0.0
 40
0.220563220518459
 50
149.5924277991477
 51
208.5026443066654
  0
ARC
  5
C1FC
  8
0
 10
60.78312824085879
 20
225.2113946762807
 30
0.0
 40
0.2811654578303905
 50
99.15226556107618
 51
148.5662219609118
  0
ARC
  5
C1FD
  8
0
 10
60.79524403138075
 20
225.1742795770644
 30
0.0
 40
0.3197925578412533
 50
69.2643536209876
 51
100.2377265552896
  0
ARC
  5
C1FE
  8
0
 10
60.81446887903127
 20
225.2179421143156
 30
0.0
 40
0.2721632922277281
 50
34.33047436698183
 51
69.79498100628884
  0
ARC
  5
C1FF
  8
0
 10
60.85673916602616
 20
225.2465093084327
 30
0.0
 40
0.2211457863352724
 50
330.8904082426641
 51
34.39478799471744
  0
ARC
  5
C200
  8
0
 10
60.81253772096926
 20
225.2747255858998
 30
0.0
 40
0.2735090128067355
 50
281.5278040705555
 51
330.2307053142214
  0
ARC
  5
C201
  8
0
 10
60.79550983832681
 20
225.3182154004255
 30
0.0
 40
0.3196244185618837
 50
249.2057013607624
 51
282.9608191978189
  0
ARC
  5
C202
  8
0
 10
60.77495872787276
 20
225.2723060120081
 30
0.0
 40
0.2694253491506349
 50
209.133855782525
 51
249.8253936421853
  0
LINE
  5
C290
  8
D002
 10
78.82346775921084
 20
222.7911311965019
 30
0.0
 11
78.82346775921084
 21
223.3375778059087
 31
0.0
1001
GENIUS_GENODEF_13
1002
{
1000
HIER
1070
     0
1002
}
1002
{
1000
MANEDIT
1070
     0
1002
}
1002
{
1000
NOSEL
1070
     0
1002
}
1002
{
1000
BEHIND
1070
     0
1002
}
1002
{
1000
OTHER
1070
     0
1002
}
1002
{
1000
REACTOR
1002
}
1001
GENIUS_GENOBJ-N-CEN_13
1002
{
1000
OWNER
1000
GEN
1002
}
1001
GENIUS_GENCEN_19
1002
{
1040
3.0
1002
}
  0
LINE
  5
C291
  8
D002
 10
79.12346775921102
 20
222.7911311965019
 30
0.0
 11
79.12346775921102
 21
223.3375778059087
 31
0.0
1001
GENIUS_GENODEF_13
1002
{
1000
HIER
1070
     0
1002
}
1002
{
1000
MANEDIT
1070
     0
1002
}
1002
{
1000
NOSEL
1070
     0
1002
}
1002
{
1000
BEHIND
1070
     0
1002
}
1002
{
1000
OTHER
1070
     0
1002
}
1002
{
1000
REACTOR
1002
}
1001
GENIUS_GENOBJ-N-CEN_13
1002
{
1000
OWNER
1000
GEN
1002
}
1001
GENIUS_GENCEN_19
1002
{
1040
3.0
1002
}
  0
LINE
  5
C292
  8
D002
 10
79.12346775921102
 20
226.891131196502
 30
0.0
 11
79.76929456415789
 21
227.536958001449
 31
0.0
  0
LINE
  5
C293
  8
D002
 10
79.12346775921102
 20
227.391131196502
 30
0.0
 11
79.51929456415789
 21
227.786958001449
 31
0.0
  0
ARC
  5
C294
  8
D002
 10
78.97346775921093
 20
228.991131196502
 30
0.0
 40
0.1499999999999773
 50
0.0
 51
180.0
  0
ARC
  5
C295
  8
D002
 10
79.64429456415789
 20
227.661958001449
 30
0.0
 40
0.1767766952966168
 50
315.0000000000228
 51
134.9999999999967
  0
LINE
  5
C296
  8
D002
 10
78.82346775921084
 20
226.891131196502
 30
0.0
 11
78.17764095426398
 21
227.536958001449
 31
0.0
  0
LINE
  5
C297
  8
D002
 10
78.82346775921084
 20
227.391131196502
 30
0.0
 11
78.42764095426398
 21
227.786958001449
 31
0.0
  0
ARC
  5
C298
  8
D002
 10
78.30264095426398
 20
227.661958001449
 30
0.0
 40
0.1767766952966168
 50
45.00000000000327
 51
224.9999999999772
  0
LINE
  5
C299
  8
D002
 10
79.12346775921102
 20
228.091131196502
 30
0.0
 11
79.52225365643241
 21
228.4899170937234
 31
0.0
  0
LINE
  5
C29A
  8
D002
 10
79.12346775921102
 20
228.4446845870952
 30
0.0
 11
79.34547696113574
 21
228.6666937890199
 31
0.0
  0
ARC
  5
C29B
  8
D002
 10
79.43386530878385
 20
228.5783054413718
 30
0.0
 40
0.1249999999999206
 50
314.9999999998848
 51
134.9999999999217
  0
LINE
  5
C29C
  8
D002
 10
80.80372364753677
 20
224.6612273859344
 30
0.0
 11
80.94968941659064
 21
224.116475719659
 31
0.0
  0
LINE
  5
C29D
  8
D002
 10
81.10990986538465
 20
224.4844506906377
 30
0.0
 11
81.19117087316292
 21
224.1811804809348
 31
0.0
  0
ARC
  5
C29E
  8
D002
 10
81.53082769444993
 20
224.9462600478375
 30
0.0
 40
0.1249999999999206
 50
285.0000000000046
 51
105.0000000000046
  0
LINE
  5
C29F
  8
D002
 10
79.12346775921102
 20
224.891131196502
 30
0.0
 11
79.12346775921102
 21
225.2836143611127
 31
0.0
1001
GENIUS_GENODEF_13
1002
{
1000
HIER
1070
     0
1002
}
1002
{
1000
MANEDIT
1070
     0
1002
}
1002
{
1000
NOSEL
1070
     0
1002
}
1002
{
1000
BEHIND
1070
     0
1002
}
1002
{
1000
OTHER
1070
     0
1002
}
1002
{
1000
REACTOR
1002
}
1001
GENIUS_GENOBJ-N-CEN_13
1002
{
1000
OWNER
1000
GEN
1002
}
1001
GENIUS_GENCEN_19
1002
{
1040
3.0
1002
}
  0
LINE
  5
C2A0
  8
D002
 10
81.25990986538451
 20
224.7442583117731
 30
0.0
 11
81.56318007508773
 21
224.8255193195515
 31
0.0
  0
ARC
  5
C2A1
  8
D002
 10
81.07043014487701
 20
224.1488281002968
 30
0.0
 40
0.1249999999999206
 50
194.9999999999509
 51
15.00000000000457
  0
LINE
  5
C2A2
  8
D002
 10
80.95372364753663
 20
224.9210350070697
 30
0.0
 11
81.49847531381212
 21
225.0670007761237
 31
0.0
  0
LINE
  5
C2A3
  8
D002
 10
79.12346775921102
 20
223.691131196502
 30
0.0
 11
79.12346775921102
 21
224.391131196502
 31
0.0
1001
GENIUS_GENODEF_13
1002
{
1000
HIER
1070
     0
1002
}
1002
{
1000
MANEDIT
1070
     0
1002
}
1002
{
1000
NOSEL
1070
     0
1002
}
1002
{
1000
BEHIND
1070
     0
1002
}
1002
{
1000
OTHER
1070
     0
1002
}
1002
{
1000
REACTOR
1002
}
1001
GENIUS_GENOBJ-N-CEN_13
1002
{
1000
OWNER
1000
GEN
1002
}
1001
GENIUS_GENCEN_19
1002
{
1040
3.0
1002
}
  0
LINE
  5
C2A4
  8
D002
 10
78.82346775921084
 20
223.691131196502
 30
0.0
 11
78.82346775921084
 21
224.391131196502
 31
0.0
1001
GENIUS_GENODEF_13
1002
{
1000
HIER
1070
     0
1002
}
1002
{
1000
MANEDIT
1070
     0
1002
}
1002
{
1000
NOSEL
1070
     0
1002
}
1002
{
1000
BEHIND
1070
     0
1002
}
1002
{
1000
OTHER
1070
     0
1002
}
1002
{
1000
REACTOR
1002
}
1001
GENIUS_GENOBJ-N-CEN_13
1002
{
1000
OWNER
1000
GEN
1002
}
1001
GENIUS_GENCEN_19
1002
{
1040
3.0
1002
}
  0
LINE
  5
C2A5
  8
D002
 10
78.82346775921084
 20
228.4446845870952
 30
0.0
 11
78.82346775921084
 21
228.991131196502
 31
0.0
1001
GENIUS_GENODEF_13
1002
{
1000
HIER
1070
     0
1002
}
1002
{
1000
MANEDIT
1070
     0
1002
}
1002
{
1000
NOSEL
1070
     0
1002
}
1002
{
1000
BEHIND
1070
     0
1002
}
1002
{
1000
OTHER
1070
     0
1002
}
1002
{
1000
REACTOR
1002
}
1001
GENIUS_GENOBJ-N-CEN_13
1002
{
1000
OWNER
1000
GEN
1002
}
1001
GENIUS_GENCEN_19
1002
{
1040
3.0
1002
}
  0
LINE
  5
C2A6
  8
D002
 10
79.12346775921102
 20
228.4446845870952
 30
0.0
 11
79.12346775921102
 21
228.991131196502
 31
0.0
1001
GENIUS_GENODEF_13
1002
{
1000
HIER
1070
     0
1002
}
1002
{
1000
MANEDIT
1070
     0
1002
}
1002
{
1000
NOSEL
1070
     0
1002
}
1002
{
1000
BEHIND
1070
     0
1002
}
1002
{
1000
OTHER
1070
     0
1002
}
1002
{
1000
REACTOR
1002
}
1001
GENIUS_GENOBJ-N-CEN_13
1002
{
1000
OWNER
1000
GEN
1002
}
1001
GENIUS_GENCEN_19
1002
{
1040
3.0
1002
}
  0
ARC
  5
C2A7
  8
D002
 10
78.51307020963802
 20
228.5783054413718
 30
0.0
 40
0.1249999999999206
 50
45.00000000007829
 51
224.9999999999677
  0
LINE
  5
C2A8
  8
D002
 10
78.82346775921084
 20
228.4446845870952
 30
0.0
 11
78.60145855728612
 21
228.6666937890199
 31
0.0
  0
LINE
  5
C2A9
  8
D002
 10
78.82346775921084
 20
228.091131196502
 30
0.0
 11
78.42468186198946
 21
228.4899170937234
 31
0.0
  0
LINE
  5
C2AA
  8
D002
 10
79.12346775921102
 20
227.391131196502
 30
0.0
 11
79.12346775921102
 21
228.091131196502
 31
0.0
1001
GENIUS_GENODEF_13
1002
{
1000
HIER
1070
     0
1002
}
1002
{
1000
MANEDIT
1070
     0
1002
}
1002
{
1000
NOSEL
1070
     0
1002
}
1002
{
1000
BEHIND
1070
     0
1002
}
1002
{
1000
OTHER
1070
     0
1002
}
1002
{
1000
REACTOR
1002
}
1001
GENIUS_GENOBJ-N-CEN_13
1002
{
1000
OWNER
1000
GEN
1002
}
1001
GENIUS_GENCEN_19
1002
{
1040
3.0
1002
}
  0
LINE
  5
C2AB
  8
D002
 10
78.82346775921084
 20
227.391131196502
 30
0.0
 11
78.82346775921084
 21
228.091131196502
 31
0.0
1001
GENIUS_GENODEF_13
1002
{
1000
HIER
1070
     0
1002
}
1002
{
1000
MANEDIT
1070
     0
1002
}
1002
{
1000
NOSEL
1070
     0
1002
}
1002
{
1000
BEHIND
1070
     0
1002
}
1002
{
1000
OTHER
1070
     0
1002
}
1002
{
1000
REACTOR
1002
}
1001
GENIUS_GENOBJ-N-CEN_13
1002
{
1000
OWNER
1000
GEN
1002
}
1001
GENIUS_GENCEN_19
1002
{
1040
3.0
1002
}
  0
LINE
  5
C2AC
  8
D002
 10
79.12346775921102
 20
223.3375778059087
 30
0.0
 11
79.34547696113574
 21
223.1155686039839
 31
0.0
  0
LINE
  5
C2AD
  8
D002
 10
78.82346775921084
 20
224.391131196502
 30
0.0
 11
78.42764095426398
 21
223.995304391555
 31
0.0
  0
ARC
  5
C2AE
  8
D002
 10
78.97346775921093
 20
222.7911311965019
 30
0.0
 40
0.1499999999999773
 50
180.0
 51
0.0
  0
ARC
  5
C2AF
  8
D002
 10
79.64429456415789
 20
224.120304391555
 30
0.0
 40
0.1767766952966168
 50
225.0000000000032
 51
45.00000000000327
  0
ARC
  5
C2B0
  8
D002
 10
78.30264095426398
 20
224.120304391555
 30
0.0
 40
0.1767766952966168
 50
134.9999999999967
 51
314.9999999999968
  0
LINE
  5
C2B1
  8
D002
 10
79.12346775921102
 20
224.391131196502
 30
0.0
 11
79.51929456415789
 21
223.995304391555
 31
0.0
  0
LINE
  5
C2B2
  8
D002
 10
78.82346775921084
 20
224.891131196502
 30
0.0
 11
78.17764095426398
 21
224.245304391555
 31
0.0
  0
ARC
  5
C2B3
  8
D002
 10
79.43386530878385
 20
223.2039569516322
 30
0.0
 40
0.1249999999999206
 50
225.0000000000783
 51
44.99999999996776
  0
LINE
  5
C2B4
  8
D002
 10
78.82346775921084
 20
223.691131196502
 30
0.0
 11
78.42468186198946
 21
223.2923452992806
 31
0.0
  0
LINE
  5
C2B5
  8
D002
 10
79.12346775921102
 20
223.691131196502
 30
0.0
 11
79.52225365643241
 21
223.2923452992806
 31
0.0
  0
LINE
  5
C2B6
  8
D002
 10
79.12346775921102
 20
224.891131196502
 30
0.0
 11
79.76929456415789
 21
224.245304391555
 31
0.0
  0
ARC
  5
C2B7
  8
D002
 10
78.51307020963802
 20
223.2039569516322
 30
0.0
 40
0.1249999999999206
 50
134.9999999998849
 51
314.9999999998848
  0
LINE
  5
C2B8
  8
D002
 10
78.82346775921084
 20
223.3375778059087
 30
0.0
 11
78.60145855728612
 21
223.1155686039839
 31
0.0
  0
LINE
  5
C2B9
  8
D002
 10
80.19750586488769
 20
226.7710350070697
 30
0.0
 11
80.34238853099711
 21
227.3117444781261
 31
0.0
  0
ARC
  5
C2BA
  8
D002
 10
80.1716353555241
 20
227.3574976535992
 30
0.0
 40
0.1767766952966168
 50
344.9999999999747
 51
164.9999999999747
  0
LINE
  5
C2BB
  8
D002
 10
76.83702565303722
 20
224.4844506906377
 30
0.0
 11
76.3637890074792
 21
224.2112273859344
 31
0.0
1001
GENIUS_GENODEF_13
1002
{
1000
HIER
1070
     0
1002
}
1002
{
1000
MANEDIT
1070
     0
1002
}
1002
{
1000
NOSEL
1070
     0
1002
}
1002
{
1000
BEHIND
1070
     0
1002
}
1002
{
1000
OTHER
1070
     0
1002
}
1002
{
1000
REACTOR
1002
}
1001
GENIUS_GENOBJ-N-CEN_13
1002
{
1000
OWNER
1000
GEN
1002
}
1001
GENIUS_GENCEN_19
1002
{
1040
3.0
1002
}
  0
LINE
  5
C2BC
  8
D002
 10
79.91449316299529
 20
226.2612273859343
 30
0.0
 11
80.79670898499805
 21
226.0248383688788
 31
0.0
  0
LINE
  5
C2BD
  8
D002
 10
80.95372364753663
 20
226.8612273859343
 30
0.0
 11
81.49847531381212
 21
226.7152616168804
 31
0.0
  0
LINE
  5
C2BE
  8
D002
 10
81.25990986538451
 20
227.038004081231
 30
0.0
 11
81.56318007508773
 21
226.9567430734526
 31
0.0
  0
ARC
  5
C2BF
  8
D002
 10
81.53082769444993
 20
226.8360023451666
 30
0.0
 40
0.1249999999999206
 50
254.9999999999954
 51
74.99999999999544
  0
LINE
  5
C2C0
  8
D002
 10
80.80372364753677
 20
227.1210350070697
 30
0.0
 11
80.94968941659064
 21
227.6657866733451
 31
0.0
  0
LINE
  5
C2C1
  8
D002
 10
77.59942965353432
 20
225.2710350070697
 30
0.0
 11
76.99321187088523
 21
224.9210350070696
 31
0.0
1001
GENIUS_GENODEF_13
1002
{
1000
HIER
1070
     0
1002
}
1002
{
1000
MANEDIT
1070
     0
1002
}
1002
{
1000
NOSEL
1070
     0
1002
}
1002
{
1000
BEHIND
1070
     0
1002
}
1002
{
1000
OTHER
1070
     0
1002
}
1002
{
1000
REACTOR
1002
}
1001
GENIUS_GENOBJ-N-CEN_13
1002
{
1000
OWNER
1000
GEN
1002
}
1001
GENIUS_GENCEN_19
1002
{
1040
3.0
1002
}
  0
ARC
  5
C2C2
  8
D002
 10
77.77530016289776
 20
224.4247647394048
 30
0.0
 40
0.1767766952966168
 50
164.9999999999747
 51
345.0000000000139
  0
LINE
  5
C2C3
  8
D002
 10
77.59942965353432
 20
225.2710350070697
 30
0.0
 11
77.0587201824778
 21
225.4159176731791
 31
0.0
  0
ARC
  5
C2C4
  8
D002
 10
81.65814651094271
 20
227.441131196502
 30
0.0
 40
0.1499999999999773
 50
300.0000000000254
 51
120.0000000000254
  0
LINE
  5
C2C5
  8
D002
 10
79.91449316299529
 20
226.2612273859343
 30
0.0
 11
79.57459277188465
 21
226.0649858036289
 31
0.0
1001
GENIUS_GENODEF_13
1002
{
1000
HIER
1070
     0
1002
}
1002
{
1000
MANEDIT
1070
     0
1002
}
1002
{
1000
NOSEL
1070
     0
1002
}
1002
{
1000
BEHIND
1070
     0
1002
}
1002
{
1000
OTHER
1070
     0
1002
}
1002
{
1000
REACTOR
1002
}
1001
GENIUS_GENOBJ-N-CEN_13
1002
{
1000
OWNER
1000
GEN
1002
}
1001
GENIUS_GENCEN_19
1002
{
1040
3.0
1002
}
  0
LINE
  5
C2C6
  8
D002
 10
79.76449316299542
 20
226.5210350070697
 30
0.0
 11
79.42459277188479
 21
226.3247934247642
 31
0.0
1001
GENIUS_GENODEF_13
1002
{
1000
HIER
1070
     0
1002
}
1002
{
1000
MANEDIT
1070
     0
1002
}
1002
{
1000
NOSEL
1070
     0
1002
}
1002
{
1000
BEHIND
1070
     0
1002
}
1002
{
1000
OTHER
1070
     0
1002
}
1002
{
1000
REACTOR
1002
}
1001
GENIUS_GENOBJ-N-CEN_13
1002
{
1000
OWNER
1000
GEN
1002
}
1001
GENIUS_GENCEN_19
1002
{
1040
3.0
1002
}
  0
LINE
  5
C2C7
  8
D002
 10
77.74942965353418
 20
225.0112273859343
 30
0.0
 11
77.60454698742475
 21
224.4705179148779
 31
0.0
  0
LINE
  5
C2C8
  8
D002
 10
78.18244235542645
 20
225.2612273859343
 30
0.0
 11
77.946053338371
 21
224.3790115639318
 31
0.0
  0
LINE
  5
C2C9
  8
D002
 10
81.73314651094276
 20
227.3112273859344
 30
0.0
 11
81.25990986538451
 21
227.038004081231
 31
0.0
1001
GENIUS_GENODEF_13
1002
{
1000
HIER
1070
     0
1002
}
1002
{
1000
MANEDIT
1070
     0
1002
}
1002
{
1000
NOSEL
1070
     0
1002
}
1002
{
1000
BEHIND
1070
     0
1002
}
1002
{
1000
OTHER
1070
     0
1002
}
1002
{
1000
REACTOR
1002
}
1001
GENIUS_GENOBJ-N-CEN_13
1002
{
1000
OWNER
1000
GEN
1002
}
1001
GENIUS_GENCEN_19
1002
{
1040
3.0
1002
}
  0
ARC
  5
C2CA
  8
D002
 10
76.28878900747915
 20
224.341131196502
 30
0.0
 40
0.1499999999999773
 50
120.0000000000254
 51
300.0000000000254
  0
ARC
  5
C2CB
  8
D002
 10
77.10447335795081
 20
225.5866708486521
 30
0.0
 40
0.1767766952966168
 50
75.0000000000127
 51
255.0000000000127
  0
LINE
  5
C2CC
  8
D002
 10
81.58314651094267
 20
227.5710350070697
 30
0.0
 11
81.10990986538465
 21
227.2978117023663
 31
0.0
1001
GENIUS_GENODEF_13
1002
{
1000
HIER
1070
     0
1002
}
1002
{
1000
MANEDIT
1070
     0
1002
}
1002
{
1000
NOSEL
1070
     0
1002
}
1002
{
1000
BEHIND
1070
     0
1002
}
1002
{
1000
OTHER
1070
     0
1002
}
1002
{
1000
REACTOR
1002
}
1001
GENIUS_GENOBJ-N-CEN_13
1002
{
1000
OWNER
1000
GEN
1002
}
1001
GENIUS_GENCEN_19
1002
{
1040
3.0
1002
}
  0
LINE
  5
C2CD
  8
D002
 10
80.80372364753677
 20
227.1210350070697
 30
0.0
 11
80.19750586488769
 21
226.7710350070697
 31
0.0
1001
GENIUS_GENODEF_13
1002
{
1000
HIER
1070
     0
1002
}
1002
{
1000
MANEDIT
1070
     0
1002
}
1002
{
1000
NOSEL
1070
     0
1002
}
1002
{
1000
BEHIND
1070
     0
1002
}
1002
{
1000
OTHER
1070
     0
1002
}
1002
{
1000
REACTOR
1002
}
1001
GENIUS_GENOBJ-N-CEN_13
1002
{
1000
OWNER
1000
GEN
1002
}
1001
GENIUS_GENCEN_19
1002
{
1040
3.0
1002
}
  0
LINE
  5
C2CE
  8
D002
 10
76.68702565303735
 20
224.7442583117731
 30
0.0
 11
76.21378900747911
 21
224.4710350070697
 31
0.0
1001
GENIUS_GENODEF_13
1002
{
1000
HIER
1070
     0
1002
}
1002
{
1000
MANEDIT
1070
     0
1002
}
1002
{
1000
NOSEL
1070
     0
1002
}
1002
{
1000
BEHIND
1070
     0
1002
}
1002
{
1000
OTHER
1070
     0
1002
}
1002
{
1000
REACTOR
1002
}
1001
GENIUS_GENOBJ-N-CEN_13
1002
{
1000
OWNER
1000
GEN
1002
}
1001
GENIUS_GENCEN_19
1002
{
1040
3.0
1002
}
  0
LINE
  5
C2CF
  8
D002
 10
80.95372364753663
 20
226.8612273859343
 30
0.0
 11
80.34750586488755
 21
226.5112273859343
 31
0.0
1001
GENIUS_GENODEF_13
1002
{
1000
HIER
1070
     0
1002
}
1002
{
1000
MANEDIT
1070
     0
1002
}
1002
{
1000
NOSEL
1070
     0
1002
}
1002
{
1000
BEHIND
1070
     0
1002
}
1002
{
1000
OTHER
1070
     0
1002
}
1002
{
1000
REACTOR
1002
}
1001
GENIUS_GENOBJ-N-CEN_13
1002
{
1000
OWNER
1000
GEN
1002
}
1001
GENIUS_GENCEN_19
1002
{
1040
3.0
1002
}
  0
LINE
  5
C2D0
  8
D002
 10
77.1432118708851
 20
224.6612273859343
 30
0.0
 11
76.99724610183122
 21
224.1164757196589
 31
0.0
  0
LINE
  5
C2D1
  8
D002
 10
76.83702565303722
 20
224.4844506906377
 30
0.0
 11
76.75576464525895
 21
224.1811804809346
 31
0.0
  0
ARC
  5
C2D2
  8
D002
 10
76.87650537354486
 20
224.1488281002967
 30
0.0
 40
0.1249999999999206
 50
164.9999999999954
 51
345.0000000001045
  0
LINE
  5
C2D3
  8
D002
 10
76.99321187088523
 20
224.9210350070696
 30
0.0
 11
76.44846020460975
 21
225.0670007761236
 31
0.0
  0
LINE
  5
C2D4
  8
D002
 10
76.68702565303735
 20
224.7442583117731
 30
0.0
 11
76.38375544333414
 21
224.8255193195513
 31
0.0
  0
LINE
  5
C2D5
  8
D002
 10
77.74942965353418
 20
225.0112273859343
 30
0.0
 11
77.1432118708851
 21
224.6612273859343
 31
0.0
1001
GENIUS_GENODEF_13
1002
{
1000
HIER
1070
     0
1002
}
1002
{
1000
MANEDIT
1070
     0
1002
}
1002
{
1000
NOSEL
1070
     0
1002
}
1002
{
1000
BEHIND
1070
     0
1002
}
1002
{
1000
OTHER
1070
     0
1002
}
1002
{
1000
REACTOR
1002
}
1001
GENIUS_GENOBJ-N-CEN_13
1002
{
1000
OWNER
1000
GEN
1002
}
1001
GENIUS_GENCEN_19
1002
{
1040
3.0
1002
}
  0
LINE
  5
C2D6
  8
D002
 10
78.03244235542658
 20
225.5210350070697
 30
0.0
 11
77.15022653342382
 21
225.7574240241252
 31
0.0
  0
ARC
  5
C2D7
  8
D002
 10
76.41610782397194
 20
224.9462600478374
 30
0.0
 40
0.1249999999999206
 50
74.99999999999544
 51
254.9999999999954
  0
LINE
  5
C2D8
  8
D002
 10
80.34750586488755
 20
226.5112273859343
 30
0.0
 11
80.88821533594407
 21
226.3663447198249
 31
0.0
  0
ARC
  5
C2D9
  8
D002
 10
80.84246216047106
 20
226.1955915443519
 30
0.0
 40
0.1767766952966168
 50
255.0000000000127
 51
75.0000000000127
  0
LINE
  5
C2DA
  8
D002
 10
79.76449316299542
 20
226.5210350070697
 30
0.0
 11
80.0008821800511
 21
227.4032508290722
 31
0.0
  0
LINE
  5
C2DB
  8
D002
 10
78.82346775921084
 20
224.891131196502
 30
0.0
 11
78.82346775921084
 21
225.2836143611127
 31
0.0
1001
GENIUS_GENODEF_13
1002
{
1000
HIER
1070
     0
1002
}
1002
{
1000
MANEDIT
1070
     0
1002
}
1002
{
1000
NOSEL
1070
     0
1002
}
1002
{
1000
BEHIND
1070
     0
1002
}
1002
{
1000
OTHER
1070
     0
1002
}
1002
{
1000
REACTOR
1002
}
1001
GENIUS_GENOBJ-N-CEN_13
1002
{
1000
OWNER
1000
GEN
1002
}
1001
GENIUS_GENCEN_19
1002
{
1040
3.0
1002
}
  0
LINE
  5
C2DC
  8
D002
 10
81.10990986538465
 20
227.2978117023663
 30
0.0
 11
81.19117087316292
 21
227.6010819120693
 31
0.0
  0
ARC
  5
C2DD
  8
D002
 10
81.07043014487701
 20
227.6334342927072
 30
0.0
 40
0.1249999999999206
 50
344.9999999999954
 51
165.0000000001046
  0
LINE
  5
C2DE
  8
D002
 10
76.83702565303722
 20
227.2978117023663
 30
0.0
 11
76.75576464525895
 21
227.6010819120694
 31
0.0
  0
LINE
  5
C2DF
  8
D002
 10
76.99321187088523
 20
226.8612273859343
 30
0.0
 11
76.44846020460975
 21
226.7152616168804
 31
0.0
  0
LINE
  5
C2E0
  8
D002
 10
76.68702565303735
 20
227.038004081231
 30
0.0
 11
76.38375544333414
 21
226.9567430734527
 31
0.0
  0
LINE
  5
C2E1
  8
D002
 10
80.80372364753677
 20
224.6612273859344
 30
0.0
 11
80.19750586488769
 21
225.0112273859344
 31
0.0
1001
GENIUS_GENODEF_13
1002
{
1000
HIER
1070
     0
1002
}
1002
{
1000
MANEDIT
1070
     0
1002
}
1002
{
1000
NOSEL
1070
     0
1002
}
1002
{
1000
BEHIND
1070
     0
1002
}
1002
{
1000
OTHER
1070
     0
1002
}
1002
{
1000
REACTOR
1002
}
1001
GENIUS_GENOBJ-N-CEN_13
1002
{
1000
OWNER
1000
GEN
1002
}
1001
GENIUS_GENCEN_19
1002
{
1040
3.0
1002
}
  0
LINE
  5
C2E2
  8
D002
 10
80.95372364753663
 20
224.9210350070697
 30
0.0
 11
80.34750586488755
 21
225.2710350070698
 31
0.0
1001
GENIUS_GENODEF_13
1002
{
1000
HIER
1070
     0
1002
}
1002
{
1000
MANEDIT
1070
     0
1002
}
1002
{
1000
NOSEL
1070
     0
1002
}
1002
{
1000
BEHIND
1070
     0
1002
}
1002
{
1000
OTHER
1070
     0
1002
}
1002
{
1000
REACTOR
1002
}
1001
GENIUS_GENOBJ-N-CEN_13
1002
{
1000
OWNER
1000
GEN
1002
}
1001
GENIUS_GENCEN_19
1002
{
1040
3.0
1002
}
  0
ARC
  5
C2E3
  8
D002
 10
76.87650537354486
 20
227.6334342927072
 30
0.0
 40
0.1249999999999206
 50
14.99999999995087
 51
194.9999999999509
  0
ARC
  5
C2E4
  8
D002
 10
76.41610782397194
 20
226.8360023451666
 30
0.0
 40
0.1249999999999206
 50
105.0000000000046
 51
285.0000000000046
  0
LINE
  5
C2E5
  8
D002
 10
79.76449316299542
 20
225.2612273859344
 30
0.0
 11
79.42459277188479
 21
225.4574689682398
 31
0.0
1001
GENIUS_GENODEF_13
1002
{
1000
HIER
1070
     0
1002
}
1002
{
1000
MANEDIT
1070
     0
1002
}
1002
{
1000
NOSEL
1070
     0
1002
}
1002
{
1000
BEHIND
1070
     0
1002
}
1002
{
1000
OTHER
1070
     0
1002
}
1002
{
1000
REACTOR
1002
}
1001
GENIUS_GENOBJ-N-CEN_13
1002
{
1000
OWNER
1000
GEN
1002
}
1001
GENIUS_GENCEN_19
1002
{
1040
3.0
1002
}
  0
LINE
  5
C2E6
  8
D002
 10
76.83702565303722
 20
227.2978117023663
 30
0.0
 11
76.3637890074792
 21
227.5710350070697
 31
0.0
1001
GENIUS_GENODEF_13
1002
{
1000
HIER
1070
     0
1002
}
1002
{
1000
MANEDIT
1070
     0
1002
}
1002
{
1000
NOSEL
1070
     0
1002
}
1002
{
1000
BEHIND
1070
     0
1002
}
1002
{
1000
OTHER
1070
     0
1002
}
1002
{
1000
REACTOR
1002
}
1001
GENIUS_GENOBJ-N-CEN_13
1002
{
1000
OWNER
1000
GEN
1002
}
1001
GENIUS_GENCEN_19
1002
{
1040
3.0
1002
}
  0
LINE
  5
C2E7
  8
D002
 10
77.74942965353418
 20
226.7710350070698
 30
0.0
 11
77.60454698742475
 21
227.3117444781262
 31
0.0
  0
LINE
  5
C2E8
  8
D002
 10
79.91449316299529
 20
225.5210350070698
 30
0.0
 11
80.79670898499805
 21
225.7574240241252
 31
0.0
  0
ARC
  5
C2E9
  8
D002
 10
77.77530016289776
 20
227.3574976535992
 30
0.0
 40
0.1767766952966168
 50
15.00000000002528
 51
194.9999999999861
  0
LINE
  5
C2EA
  8
D002
 10
81.58314651094267
 20
224.2112273859344
 30
0.0
 11
81.10990986538465
 21
224.4844506906377
 31
0.0
1001
GENIUS_GENODEF_13
1002
{
1000
HIER
1070
     0
1002
}
1002
{
1000
MANEDIT
1070
     0
1002
}
1002
{
1000
NOSEL
1070
     0
1002
}
1002
{
1000
BEHIND
1070
     0
1002
}
1002
{
1000
OTHER
1070
     0
1002
}
1002
{
1000
REACTOR
1002
}
1001
GENIUS_GENOBJ-N-CEN_13
1002
{
1000
OWNER
1000
GEN
1002
}
1001
GENIUS_GENCEN_19
1002
{
1040
3.0
1002
}
  0
LINE
  5
C2EB
  8
D002
 10
78.03244235542658
 20
226.2612273859344
 30
0.0
 11
77.15022653342382
 21
226.0248383688789
 31
0.0
  0
LINE
  5
C2EC
  8
D002
 10
79.91449316299529
 20
225.5210350070698
 30
0.0
 11
79.57459277188465
 21
225.7172765893751
 31
0.0
1001
GENIUS_GENODEF_13
1002
{
1000
HIER
1070
     0
1002
}
1002
{
1000
MANEDIT
1070
     0
1002
}
1002
{
1000
NOSEL
1070
     0
1002
}
1002
{
1000
BEHIND
1070
     0
1002
}
1002
{
1000
OTHER
1070
     0
1002
}
1002
{
1000
REACTOR
1002
}
1001
GENIUS_GENOBJ-N-CEN_13
1002
{
1000
OWNER
1000
GEN
1002
}
1001
GENIUS_GENCEN_19
1002
{
1040
3.0
1002
}
  0
LINE
  5
C2ED
  8
D002
 10
81.73314651094276
 20
224.4710350070697
 30
0.0
 11
81.25990986538451
 21
224.7442583117731
 31
0.0
1001
GENIUS_GENODEF_13
1002
{
1000
HIER
1070
     0
1002
}
1002
{
1000
MANEDIT
1070
     0
1002
}
1002
{
1000
NOSEL
1070
     0
1002
}
1002
{
1000
BEHIND
1070
     0
1002
}
1002
{
1000
OTHER
1070
     0
1002
}
1002
{
1000
REACTOR
1002
}
1001
GENIUS_GENOBJ-N-CEN_13
1002
{
1000
OWNER
1000
GEN
1002
}
1001
GENIUS_GENCEN_19
1002
{
1040
3.0
1002
}
  0
LINE
  5
C2EE
  8
D002
 10
77.1432118708851
 20
227.1210350070697
 30
0.0
 11
76.99724610183122
 21
227.6657866733451
 31
0.0
  0
ARC
  5
C2EF
  8
D002
 10
77.10447335795081
 20
226.1955915443519
 30
0.0
 40
0.1767766952966168
 50
104.9999999999873
 51
284.9999999999873
  0
ARC
  5
C2F0
  8
D002
 10
76.28878900747915
 20
227.4411311965021
 30
0.0
 40
0.1499999999999773
 50
59.99999999997465
 51
239.9999999999746
  0
LINE
  5
C2F1
  8
D002
 10
80.34750586488755
 20
225.2710350070698
 30
0.0
 11
80.88821533594407
 21
225.4159176731791
 31
0.0
  0
LINE
  5
C2F2
  8
D002
 10
77.74942965353418
 20
226.7710350070698
 30
0.0
 11
77.1432118708851
 21
227.1210350070697
 31
0.0
1001
GENIUS_GENODEF_13
1002
{
1000
HIER
1070
     0
1002
}
1002
{
1000
MANEDIT
1070
     0
1002
}
1002
{
1000
NOSEL
1070
     0
1002
}
1002
{
1000
BEHIND
1070
     0
1002
}
1002
{
1000
OTHER
1070
     0
1002
}
1002
{
1000
REACTOR
1002
}
1001
GENIUS_GENOBJ-N-CEN_13
1002
{
1000
OWNER
1000
GEN
1002
}
1001
GENIUS_GENCEN_19
1002
{
1040
3.0
1002
}
  0
ARC
  5
C2F3
  8
D002
 10
81.65814651094271
 20
224.3411311965021
 30
0.0
 40
0.1499999999999773
 50
239.9999999999746
 51
59.99999999997465
  0
ARC
  5
C2F4
  8
D002
 10
80.84246216047106
 20
225.5866708486522
 30
0.0
 40
0.1767766952966168
 50
284.9999999999873
 51
104.9999999999873
  0
LINE
  5
C2F5
  8
D002
 10
79.76449316299542
 20
225.2612273859344
 30
0.0
 11
80.0008821800511
 21
224.3790115639318
 31
0.0
  0
LINE
  5
C2F6
  8
D002
 10
76.68702565303735
 20
227.038004081231
 30
0.0
 11
76.21378900747911
 21
227.3112273859344
 31
0.0
1001
GENIUS_GENODEF_13
1002
{
1000
HIER
1070
     0
1002
}
1002
{
1000
MANEDIT
1070
     0
1002
}
1002
{
1000
NOSEL
1070
     0
1002
}
1002
{
1000
BEHIND
1070
     0
1002
}
1002
{
1000
OTHER
1070
     0
1002
}
1002
{
1000
REACTOR
1002
}
1001
GENIUS_GENOBJ-N-CEN_13
1002
{
1000
OWNER
1000
GEN
1002
}
1001
GENIUS_GENCEN_19
1002
{
1040
3.0
1002
}
  0
LINE
  5
C2F7
  8
D002
 10
80.19750586488769
 20
225.0112273859344
 30
0.0
 11
80.34238853099711
 21
224.4705179148779
 31
0.0
  0
LINE
  5
C2F8
  8
D002
 10
77.59942965353432
 20
226.5112273859344
 30
0.0
 11
77.0587201824778
 21
226.366344719825
 31
0.0
  0
LINE
  5
C2F9
  8
D002
 10
78.18244235542645
 20
226.5210350070698
 30
0.0
 11
77.946053338371
 21
227.4032508290723
 31
0.0
  0
ARC
  5
C2FA
  8
D002
 10
80.1716353555241
 20
224.4247647394049
 30
0.0
 40
0.1767766952966168
 50
195.0000000000253
 51
14.99999999998613
  0
LINE
  5
C2FB
  8
D002
 10
77.59942965353432
 20
226.5112273859344
 30
0.0
 11
76.99321187088523
 21
226.8612273859343
 31
0.0
1001
GENIUS_GENODEF_13
1002
{
1000
HIER
1070
     0
1002
}
1002
{
1000
MANEDIT
1070
     0
1002
}
1002
{
1000
NOSEL
1070
     0
1002
}
1002
{
1000
BEHIND
1070
     0
1002
}
1002
{
1000
OTHER
1070
     0
1002
}
1002
{
1000
REACTOR
1002
}
1001
GENIUS_GENOBJ-N-CEN_13
1002
{
1000
OWNER
1000
GEN
1002
}
1001
GENIUS_GENCEN_19
1002
{
1040
3.0
1002
}
  0
LINE
  5
C301
  8
D002
 10
78.37234274653721
 20
226.064985803629
 30
0.0
 11
78.03244235542658
 21
226.2612273859344
 31
0.0
1001
GENIUS_GENODEF_13
1002
{
1000
HIER
1070
     0
1002
}
1002
{
1000
MANEDIT
1070
     0
1002
}
1002
{
1000
NOSEL
1070
     0
1002
}
1002
{
1000
BEHIND
1070
     0
1002
}
1002
{
1000
OTHER
1070
     0
1002
}
1002
{
1000
REACTOR
1002
}
1001
GENIUS_GENOBJ-N-CEN_13
1002
{
1000
OWNER
1000
GEN
1002
}
1001
GENIUS_GENCEN_19
1002
{
1040
3.0
1002
}
  0
LINE
  5
C302
  8
D002
 10
78.52234274653708
 20
225.4574689682397
 30
0.0
 11
78.18244235542645
 21
225.2612273859343
 31
0.0
1001
GENIUS_GENODEF_13
1002
{
1000
HIER
1070
     0
1002
}
1002
{
1000
MANEDIT
1070
     0
1002
}
1002
{
1000
NOSEL
1070
     0
1002
}
1002
{
1000
BEHIND
1070
     0
1002
}
1002
{
1000
OTHER
1070
     0
1002
}
1002
{
1000
REACTOR
1002
}
1001
GENIUS_GENOBJ-N-CEN_13
1002
{
1000
OWNER
1000
GEN
1002
}
1001
GENIUS_GENCEN_19
1002
{
1040
3.0
1002
}
  0
LINE
  5
C303
  8
D002
 10
79.12346775921102
 20
226.4986480318913
 30
0.0
 11
79.12346775921102
 21
226.891131196502
 31
0.0
1001
GENIUS_GENODEF_13
1002
{
1000
HIER
1070
     0
1002
}
1002
{
1000
MANEDIT
1070
     0
1002
}
1002
{
1000
NOSEL
1070
     0
1002
}
1002
{
1000
BEHIND
1070
     0
1002
}
1002
{
1000
OTHER
1070
     0
1002
}
1002
{
1000
REACTOR
1002
}
1001
GENIUS_GENOBJ-N-CEN_13
1002
{
1000
OWNER
1000
GEN
1002
}
1001
GENIUS_GENCEN_19
1002
{
1040
3.0
1002
}
  0
LINE
  5
C304
  8
D002
 10
78.37234274653721
 20
225.717276589375
 30
0.0
 11
78.03244235542658
 21
225.5210350070697
 31
0.0
1001
GENIUS_GENODEF_13
1002
{
1000
HIER
1070
     0
1002
}
1002
{
1000
MANEDIT
1070
     0
1002
}
1002
{
1000
NOSEL
1070
     0
1002
}
1002
{
1000
BEHIND
1070
     0
1002
}
1002
{
1000
OTHER
1070
     0
1002
}
1002
{
1000
REACTOR
1002
}
1001
GENIUS_GENOBJ-N-CEN_13
1002
{
1000
OWNER
1000
GEN
1002
}
1001
GENIUS_GENCEN_19
1002
{
1040
3.0
1002
}
  0
LINE
  5
C305
  8
D002
 10
78.5223427465373
 20
226.3247934247643
 30
0.0
 11
78.18244235542645
 21
226.5210350070698
 31
0.0
1001
GENIUS_GENODEF_13
1002
{
1000
HIER
1070
     0
1002
}
1002
{
1000
MANEDIT
1070
     0
1002
}
1002
{
1000
NOSEL
1070
     0
1002
}
1002
{
1000
BEHIND
1070
     0
1002
}
1002
{
1000
OTHER
1070
     0
1002
}
1002
{
1000
REACTOR
1002
}
1001
GENIUS_GENOBJ-N-CEN_13
1002
{
1000
OWNER
1000
GEN
1002
}
1001
GENIUS_GENCEN_19
1002
{
1040
3.0
1002
}
  0
LINE
  5
C306
  8
D002
 10
78.82346775921084
 20
226.4986480318913
 30
0.0
 11
78.82346775921084
 21
226.891131196502
 31
0.0
1001
GENIUS_GENODEF_13
1002
{
1000
HIER
1070
     0
1002
}
1002
{
1000
MANEDIT
1070
     0
1002
}
1002
{
1000
NOSEL
1070
     0
1002
}
1002
{
1000
BEHIND
1070
     0
1002
}
1002
{
1000
OTHER
1070
     0
1002
}
1002
{
1000
REACTOR
1002
}
1001
GENIUS_GENOBJ-N-CEN_13
1002
{
1000
OWNER
1000
GEN
1002
}
1001
GENIUS_GENCEN_19
1002
{
1040
3.0
1002
}
  0
POINT
  5
C307
  8
D002
 10
78.97346775921093
 20
225.891131196502
 30
0.0
  0
LINE
  5
C30B
  8
D002
 10
78.82346775921084
 20
202.7911311965016
 30
0.0
 11
78.82346775921084
 21
203.3375778059083
 31
0.0
1001
GENIUS_GENODEF_13
1002
{
1000
HIER
1070
     0
1002
}
1002
{
1000
MANEDIT
1070
     0
1002
}
1002
{
1000
NOSEL
1070
     0
1002
}
1002
{
1000
BEHIND
1070
     0
1002
}
1002
{
1000
OTHER
1070
     0
1002
}
1002
{
1000
REACTOR
1002
}
1001
GENIUS_GENOBJ-N-CEN_13
1002
{
1000
OWNER
1000
GEN
1002
}
1001
GENIUS_GENCEN_19
1002
{
1040
3.0
1002
}
  0
LINE
  5
C30C
  8
D002
 10
79.12346775921102
 20
202.7911311965016
 30
0.0
 11
79.12346775921102
 21
203.3375778059083
 31
0.0
1001
GENIUS_GENODEF_13
1002
{
1000
HIER
1070
     0
1002
}
1002
{
1000
MANEDIT
1070
     0
1002
}
1002
{
1000
NOSEL
1070
     0
1002
}
1002
{
1000
BEHIND
1070
     0
1002
}
1002
{
1000
OTHER
1070
     0
1002
}
1002
{
1000
REACTOR
1002
}
1001
GENIUS_GENOBJ-N-CEN_13
1002
{
1000
OWNER
1000
GEN
1002
}
1001
GENIUS_GENCEN_19
1002
{
1040
3.0
1002
}
  0
LINE
  5
C30D
  8
D002
 10
79.12346775921102
 20
206.8911311965017
 30
0.0
 11
79.76929456415789
 21
207.5369580014487
 31
0.0
  0
LINE
  5
C30E
  8
D002
 10
79.12346775921102
 20
207.3911311965017
 30
0.0
 11
79.51929456415789
 21
207.7869580014487
 31
0.0
  0
ARC
  5
C30F
  8
D002
 10
78.97346775921093
 20
208.9911311965016
 30
0.0
 40
0.1499999999999773
 50
0.0
 51
180.0
  0
ARC
  5
C310
  8
D002
 10
79.64429456415789
 20
207.6619580014487
 30
0.0
 40
0.1767766952966168
 50
315.0000000000228
 51
134.9999999999967
  0
LINE
  5
C311
  8
D002
 10
78.82346775921084
 20
206.8911311965017
 30
0.0
 11
78.17764095426398
 21
207.5369580014487
 31
0.0
  0
LINE
  5
C312
  8
D002
 10
78.82346775921084
 20
207.3911311965017
 30
0.0
 11
78.42764095426398
 21
207.7869580014487
 31
0.0
  0
ARC
  5
C313
  8
D002
 10
78.30264095426398
 20
207.6619580014487
 30
0.0
 40
0.1767766952966168
 50
45.00000000000327
 51
224.9999999999772
  0
LINE
  5
C314
  8
D002
 10
79.12346775921102
 20
208.0911311965016
 30
0.0
 11
79.52225365643241
 21
208.489917093723
 31
0.0
  0
LINE
  5
C315
  8
D002
 10
79.12346775921102
 20
208.4446845870949
 30
0.0
 11
79.34547696113574
 21
208.6666937890196
 31
0.0
  0
ARC
  5
C316
  8
D002
 10
79.43386530878385
 20
208.5783054413715
 30
0.0
 40
0.1249999999999206
 50
314.9999999998848
 51
134.9999999999217
  0
LINE
  5
C317
  8
D002
 10
80.80372364753677
 20
204.6612273859341
 30
0.0
 11
80.94968941659064
 21
204.1164757196587
 31
0.0
  0
LINE
  5
C318
  8
D002
 10
81.10990986538465
 20
204.4844506906374
 30
0.0
 11
81.19117087316292
 21
204.1811804809344
 31
0.0
  0
ARC
  5
C319
  8
D002
 10
81.53082769444993
 20
204.9462600478371
 30
0.0
 40
0.1249999999999206
 50
285.0000000000046
 51
105.0000000000046
  0
LINE
  5
C31A
  8
D002
 10
79.12346775921102
 20
204.8911311965017
 30
0.0
 11
79.12346775921102
 21
205.2836143611124
 31
0.0
1001
GENIUS_GENODEF_13
1002
{
1000
HIER
1070
     0
1002
}
1002
{
1000
MANEDIT
1070
     0
1002
}
1002
{
1000
NOSEL
1070
     0
1002
}
1002
{
1000
BEHIND
1070
     0
1002
}
1002
{
1000
OTHER
1070
     0
1002
}
1002
{
1000
REACTOR
1002
}
1001
GENIUS_GENOBJ-N-CEN_13
1002
{
1000
OWNER
1000
GEN
1002
}
1001
GENIUS_GENCEN_19
1002
{
1040
3.0
1002
}
  0
LINE
  5
C31B
  8
D002
 10
81.25990986538451
 20
204.7442583117727
 30
0.0
 11
81.56318007508773
 21
204.8255193195511
 31
0.0
  0
ARC
  5
C31C
  8
D002
 10
81.07043014487701
 20
204.1488281002965
 30
0.0
 40
0.1249999999999206
 50
194.9999999999509
 51
15.00000000000457
  0
LINE
  5
C31D
  8
D002
 10
80.95372364753663
 20
204.9210350070694
 30
0.0
 11
81.49847531381212
 21
205.0670007761234
 31
0.0
  0
LINE
  5
C31E
  8
D002
 10
79.12346775921102
 20
203.6911311965017
 30
0.0
 11
79.12346775921102
 21
204.3911311965017
 31
0.0
1001
GENIUS_GENODEF_13
1002
{
1000
HIER
1070
     0
1002
}
1002
{
1000
MANEDIT
1070
     0
1002
}
1002
{
1000
NOSEL
1070
     0
1002
}
1002
{
1000
BEHIND
1070
     0
1002
}
1002
{
1000
OTHER
1070
     0
1002
}
1002
{
1000
REACTOR
1002
}
1001
GENIUS_GENOBJ-N-CEN_13
1002
{
1000
OWNER
1000
GEN
1002
}
1001
GENIUS_GENCEN_19
1002
{
1040
3.0
1002
}
  0
LINE
  5
C31F
  8
D002
 10
78.82346775921084
 20
203.6911311965017
 30
0.0
 11
78.82346775921084
 21
204.3911311965017
 31
0.0
1001
GENIUS_GENODEF_13
1002
{
1000
HIER
1070
     0
1002
}
1002
{
1000
MANEDIT
1070
     0
1002
}
1002
{
1000
NOSEL
1070
     0
1002
}
1002
{
1000
BEHIND
1070
     0
1002
}
1002
{
1000
OTHER
1070
     0
1002
}
1002
{
1000
REACTOR
1002
}
1001
GENIUS_GENOBJ-N-CEN_13
1002
{
1000
OWNER
1000
GEN
1002
}
1001
GENIUS_GENCEN_19
1002
{
1040
3.0
1002
}
  0
LINE
  5
C320
  8
D002
 10
78.82346775921084
 20
208.4446845870949
 30
0.0
 11
78.82346775921084
 21
208.9911311965016
 31
0.0
1001
GENIUS_GENODEF_13
1002
{
1000
HIER
1070
     0
1002
}
1002
{
1000
MANEDIT
1070
     0
1002
}
1002
{
1000
NOSEL
1070
     0
1002
}
1002
{
1000
BEHIND
1070
     0
1002
}
1002
{
1000
OTHER
1070
     0
1002
}
1002
{
1000
REACTOR
1002
}
1001
GENIUS_GENOBJ-N-CEN_13
1002
{
1000
OWNER
1000
GEN
1002
}
1001
GENIUS_GENCEN_19
1002
{
1040
3.0
1002
}
  0
LINE
  5
C321
  8
D002
 10
79.12346775921102
 20
208.4446845870949
 30
0.0
 11
79.12346775921102
 21
208.9911311965016
 31
0.0
1001
GENIUS_GENODEF_13
1002
{
1000
HIER
1070
     0
1002
}
1002
{
1000
MANEDIT
1070
     0
1002
}
1002
{
1000
NOSEL
1070
     0
1002
}
1002
{
1000
BEHIND
1070
     0
1002
}
1002
{
1000
OTHER
1070
     0
1002
}
1002
{
1000
REACTOR
1002
}
1001
GENIUS_GENOBJ-N-CEN_13
1002
{
1000
OWNER
1000
GEN
1002
}
1001
GENIUS_GENCEN_19
1002
{
1040
3.0
1002
}
  0
ARC
  5
C322
  8
D002
 10
78.51307020963802
 20
208.5783054413715
 30
0.0
 40
0.1249999999999206
 50
45.00000000007829
 51
224.9999999999677
  0
LINE
  5
C323
  8
D002
 10
78.82346775921084
 20
208.4446845870949
 30
0.0
 11
78.60145855728612
 21
208.6666937890196
 31
0.0
  0
LINE
  5
C324
  8
D002
 10
78.82346775921084
 20
208.0911311965016
 30
0.0
 11
78.42468186198946
 21
208.489917093723
 31
0.0
  0
LINE
  5
C325
  8
D002
 10
79.12346775921102
 20
207.3911311965017
 30
0.0
 11
79.12346775921102
 21
208.0911311965016
 31
0.0
1001
GENIUS_GENODEF_13
1002
{
1000
HIER
1070
     0
1002
}
1002
{
1000
MANEDIT
1070
     0
1002
}
1002
{
1000
NOSEL
1070
     0
1002
}
1002
{
1000
BEHIND
1070
     0
1002
}
1002
{
1000
OTHER
1070
     0
1002
}
1002
{
1000
REACTOR
1002
}
1001
GENIUS_GENOBJ-N-CEN_13
1002
{
1000
OWNER
1000
GEN
1002
}
1001
GENIUS_GENCEN_19
1002
{
1040
3.0
1002
}
  0
LINE
  5
C326
  8
D002
 10
78.82346775921084
 20
207.3911311965017
 30
0.0
 11
78.82346775921084
 21
208.0911311965016
 31
0.0
1001
GENIUS_GENODEF_13
1002
{
1000
HIER
1070
     0
1002
}
1002
{
1000
MANEDIT
1070
     0
1002
}
1002
{
1000
NOSEL
1070
     0
1002
}
1002
{
1000
BEHIND
1070
     0
1002
}
1002
{
1000
OTHER
1070
     0
1002
}
1002
{
1000
REACTOR
1002
}
1001
GENIUS_GENOBJ-N-CEN_13
1002
{
1000
OWNER
1000
GEN
1002
}
1001
GENIUS_GENCEN_19
1002
{
1040
3.0
1002
}
  0
LINE
  5
C327
  8
D002
 10
79.12346775921102
 20
203.3375778059083
 30
0.0
 11
79.34547696113574
 21
203.1155686039836
 31
0.0
  0
LINE
  5
C328
  8
D002
 10
78.82346775921084
 20
204.3911311965017
 30
0.0
 11
78.42764095426398
 21
203.9953043915546
 31
0.0
  0
ARC
  5
C329
  8
D002
 10
78.97346775921093
 20
202.7911311965016
 30
0.0
 40
0.1499999999999773
 50
180.0
 51
0.0
  0
ARC
  5
C32A
  8
D002
 10
79.64429456415789
 20
204.1203043915546
 30
0.0
 40
0.1767766952966168
 50
225.0000000000032
 51
45.00000000000327
  0
ARC
  5
C32B
  8
D002
 10
78.30264095426398
 20
204.1203043915546
 30
0.0
 40
0.1767766952966168
 50
134.9999999999967
 51
314.9999999999968
  0
LINE
  5
C32C
  8
D002
 10
79.12346775921102
 20
204.3911311965017
 30
0.0
 11
79.51929456415789
 21
203.9953043915546
 31
0.0
  0
LINE
  5
C32D
  8
D002
 10
78.82346775921084
 20
204.8911311965017
 30
0.0
 11
78.17764095426398
 21
204.2453043915546
 31
0.0
  0
ARC
  5
C32E
  8
D002
 10
79.43386530878385
 20
203.2039569516318
 30
0.0
 40
0.1249999999999206
 50
225.0000000000783
 51
44.99999999996776
  0
LINE
  5
C32F
  8
D002
 10
78.82346775921084
 20
203.6911311965017
 30
0.0
 11
78.42468186198946
 21
203.2923452992803
 31
0.0
  0
LINE
  5
C330
  8
D002
 10
79.12346775921102
 20
203.6911311965017
 30
0.0
 11
79.52225365643241
 21
203.2923452992803
 31
0.0
  0
LINE
  5
C331
  8
D002
 10
79.12346775921102
 20
204.8911311965017
 30
0.0
 11
79.76929456415789
 21
204.2453043915546
 31
0.0
  0
ARC
  5
C332
  8
D002
 10
78.51307020963802
 20
203.2039569516318
 30
0.0
 40
0.1249999999999206
 50
134.9999999998849
 51
314.9999999998848
  0
LINE
  5
C333
  8
D002
 10
78.82346775921084
 20
203.3375778059083
 30
0.0
 11
78.60145855728612
 21
203.1155686039836
 31
0.0
  0
LINE
  5
C334
  8
D002
 10
80.19750586488769
 20
206.7710350070693
 30
0.0
 11
80.34238853099711
 21
207.3117444781257
 31
0.0
  0
ARC
  5
C335
  8
D002
 10
80.1716353555241
 20
207.3574976535988
 30
0.0
 40
0.1767766952966168
 50
344.9999999999747
 51
164.9999999999747
  0
LINE
  5
C336
  8
D002
 10
76.83702565303722
 20
204.4844506906374
 30
0.0
 11
76.3637890074792
 21
204.211227385934
 31
0.0
1001
GENIUS_GENODEF_13
1002
{
1000
HIER
1070
     0
1002
}
1002
{
1000
MANEDIT
1070
     0
1002
}
1002
{
1000
NOSEL
1070
     0
1002
}
1002
{
1000
BEHIND
1070
     0
1002
}
1002
{
1000
OTHER
1070
     0
1002
}
1002
{
1000
REACTOR
1002
}
1001
GENIUS_GENOBJ-N-CEN_13
1002
{
1000
OWNER
1000
GEN
1002
}
1001
GENIUS_GENCEN_19
1002
{
1040
3.0
1002
}
  0
LINE
  5
C337
  8
D002
 10
79.91449316299529
 20
206.261227385934
 30
0.0
 11
80.79670898499805
 21
206.0248383688784
 31
0.0
  0
LINE
  5
C338
  8
D002
 10
80.95372364753663
 20
206.861227385934
 30
0.0
 11
81.49847531381212
 21
206.71526161688
 31
0.0
  0
LINE
  5
C339
  8
D002
 10
81.25990986538451
 20
207.0380040812307
 30
0.0
 11
81.56318007508773
 21
206.9567430734523
 31
0.0
  0
ARC
  5
C33A
  8
D002
 10
81.53082769444993
 20
206.8360023451663
 30
0.0
 40
0.1249999999999206
 50
254.9999999999954
 51
74.99999999999544
  0
LINE
  5
C33B
  8
D002
 10
80.80372364753677
 20
207.1210350070693
 30
0.0
 11
80.94968941659064
 21
207.6657866733447
 31
0.0
  0
LINE
  5
C33C
  8
D002
 10
77.59942965353432
 20
205.2710350070693
 30
0.0
 11
76.99321187088523
 21
204.9210350070693
 31
0.0
1001
GENIUS_GENODEF_13
1002
{
1000
HIER
1070
     0
1002
}
1002
{
1000
MANEDIT
1070
     0
1002
}
1002
{
1000
NOSEL
1070
     0
1002
}
1002
{
1000
BEHIND
1070
     0
1002
}
1002
{
1000
OTHER
1070
     0
1002
}
1002
{
1000
REACTOR
1002
}
1001
GENIUS_GENOBJ-N-CEN_13
1002
{
1000
OWNER
1000
GEN
1002
}
1001
GENIUS_GENCEN_19
1002
{
1040
3.0
1002
}
  0
ARC
  5
C33D
  8
D002
 10
77.77530016289776
 20
204.4247647394045
 30
0.0
 40
0.1767766952966168
 50
164.9999999999747
 51
345.0000000000139
  0
LINE
  5
C33E
  8
D002
 10
77.59942965353432
 20
205.2710350070693
 30
0.0
 11
77.0587201824778
 21
205.4159176731787
 31
0.0
  0
ARC
  5
C33F
  8
D002
 10
81.65814651094271
 20
207.4411311965017
 30
0.0
 40
0.1499999999999773
 50
300.0000000000254
 51
120.0000000000254
  0
LINE
  5
C340
  8
D002
 10
79.91449316299529
 20
206.261227385934
 30
0.0
 11
79.57459277188465
 21
206.0649858036285
 31
0.0
1001
GENIUS_GENODEF_13
1002
{
1000
HIER
1070
     0
1002
}
1002
{
1000
MANEDIT
1070
     0
1002
}
1002
{
1000
NOSEL
1070
     0
1002
}
1002
{
1000
BEHIND
1070
     0
1002
}
1002
{
1000
OTHER
1070
     0
1002
}
1002
{
1000
REACTOR
1002
}
1001
GENIUS_GENOBJ-N-CEN_13
1002
{
1000
OWNER
1000
GEN
1002
}
1001
GENIUS_GENCEN_19
1002
{
1040
3.0
1002
}
  0
LINE
  5
C341
  8
D002
 10
79.76449316299542
 20
206.5210350070693
 30
0.0
 11
79.42459277188479
 21
206.3247934247639
 31
0.0
1001
GENIUS_GENODEF_13
1002
{
1000
HIER
1070
     0
1002
}
1002
{
1000
MANEDIT
1070
     0
1002
}
1002
{
1000
NOSEL
1070
     0
1002
}
1002
{
1000
BEHIND
1070
     0
1002
}
1002
{
1000
OTHER
1070
     0
1002
}
1002
{
1000
REACTOR
1002
}
1001
GENIUS_GENOBJ-N-CEN_13
1002
{
1000
OWNER
1000
GEN
1002
}
1001
GENIUS_GENCEN_19
1002
{
1040
3.0
1002
}
  0
LINE
  5
C342
  8
D002
 10
77.74942965353418
 20
205.011227385934
 30
0.0
 11
77.60454698742475
 21
204.4705179148776
 31
0.0
  0
LINE
  5
C343
  8
D002
 10
78.18244235542645
 20
205.261227385934
 30
0.0
 11
77.946053338371
 21
204.3790115639314
 31
0.0
  0
LINE
  5
C344
  8
D002
 10
81.73314651094276
 20
207.311227385934
 30
0.0
 11
81.25990986538451
 21
207.0380040812307
 31
0.0
1001
GENIUS_GENODEF_13
1002
{
1000
HIER
1070
     0
1002
}
1002
{
1000
MANEDIT
1070
     0
1002
}
1002
{
1000
NOSEL
1070
     0
1002
}
1002
{
1000
BEHIND
1070
     0
1002
}
1002
{
1000
OTHER
1070
     0
1002
}
1002
{
1000
REACTOR
1002
}
1001
GENIUS_GENOBJ-N-CEN_13
1002
{
1000
OWNER
1000
GEN
1002
}
1001
GENIUS_GENCEN_19
1002
{
1040
3.0
1002
}
  0
ARC
  5
C345
  8
D002
 10
76.28878900747915
 20
204.3411311965016
 30
0.0
 40
0.1499999999999773
 50
120.0000000000254
 51
300.0000000000254
  0
ARC
  5
C346
  8
D002
 10
77.10447335795081
 20
205.5866708486517
 30
0.0
 40
0.1767766952966168
 50
75.0000000000127
 51
255.0000000000127
  0
LINE
  5
C347
  8
D002
 10
81.58314651094267
 20
207.5710350070694
 30
0.0
 11
81.10990986538465
 21
207.297811702366
 31
0.0
1001
GENIUS_GENODEF_13
1002
{
1000
HIER
1070
     0
1002
}
1002
{
1000
MANEDIT
1070
     0
1002
}
1002
{
1000
NOSEL
1070
     0
1002
}
1002
{
1000
BEHIND
1070
     0
1002
}
1002
{
1000
OTHER
1070
     0
1002
}
1002
{
1000
REACTOR
1002
}
1001
GENIUS_GENOBJ-N-CEN_13
1002
{
1000
OWNER
1000
GEN
1002
}
1001
GENIUS_GENCEN_19
1002
{
1040
3.0
1002
}
  0
LINE
  5
C348
  8
D002
 10
80.80372364753677
 20
207.1210350070693
 30
0.0
 11
80.19750586488769
 21
206.7710350070693
 31
0.0
1001
GENIUS_GENODEF_13
1002
{
1000
HIER
1070
     0
1002
}
1002
{
1000
MANEDIT
1070
     0
1002
}
1002
{
1000
NOSEL
1070
     0
1002
}
1002
{
1000
BEHIND
1070
     0
1002
}
1002
{
1000
OTHER
1070
     0
1002
}
1002
{
1000
REACTOR
1002
}
1001
GENIUS_GENOBJ-N-CEN_13
1002
{
1000
OWNER
1000
GEN
1002
}
1001
GENIUS_GENCEN_19
1002
{
1040
3.0
1002
}
  0
LINE
  5
C349
  8
D002
 10
76.68702565303735
 20
204.7442583117727
 30
0.0
 11
76.21378900747911
 21
204.4710350070694
 31
0.0
1001
GENIUS_GENODEF_13
1002
{
1000
HIER
1070
     0
1002
}
1002
{
1000
MANEDIT
1070
     0
1002
}
1002
{
1000
NOSEL
1070
     0
1002
}
1002
{
1000
BEHIND
1070
     0
1002
}
1002
{
1000
OTHER
1070
     0
1002
}
1002
{
1000
REACTOR
1002
}
1001
GENIUS_GENOBJ-N-CEN_13
1002
{
1000
OWNER
1000
GEN
1002
}
1001
GENIUS_GENCEN_19
1002
{
1040
3.0
1002
}
  0
LINE
  5
C34A
  8
D002
 10
80.95372364753663
 20
206.861227385934
 30
0.0
 11
80.34750586488755
 21
206.511227385934
 31
0.0
1001
GENIUS_GENODEF_13
1002
{
1000
HIER
1070
     0
1002
}
1002
{
1000
MANEDIT
1070
     0
1002
}
1002
{
1000
NOSEL
1070
     0
1002
}
1002
{
1000
BEHIND
1070
     0
1002
}
1002
{
1000
OTHER
1070
     0
1002
}
1002
{
1000
REACTOR
1002
}
1001
GENIUS_GENOBJ-N-CEN_13
1002
{
1000
OWNER
1000
GEN
1002
}
1001
GENIUS_GENCEN_19
1002
{
1040
3.0
1002
}
  0
LINE
  5
C34B
  8
D002
 10
77.1432118708851
 20
204.661227385934
 30
0.0
 11
76.99724610183122
 21
204.1164757196586
 31
0.0
  0
LINE
  5
C34C
  8
D002
 10
76.83702565303722
 20
204.4844506906374
 30
0.0
 11
76.75576464525895
 21
204.1811804809343
 31
0.0
  0
ARC
  5
C34D
  8
D002
 10
76.87650537354486
 20
204.1488281002964
 30
0.0
 40
0.1249999999999206
 50
164.9999999999954
 51
345.0000000001045
  0
LINE
  5
C34E
  8
D002
 10
76.99321187088523
 20
204.9210350070693
 30
0.0
 11
76.44846020460975
 21
205.0670007761233
 31
0.0
  0
LINE
  5
C34F
  8
D002
 10
76.68702565303735
 20
204.7442583117727
 30
0.0
 11
76.38375544333414
 21
204.825519319551
 31
0.0
  0
LINE
  5
C350
  8
D002
 10
77.74942965353418
 20
205.011227385934
 30
0.0
 11
77.1432118708851
 21
204.661227385934
 31
0.0
1001
GENIUS_GENODEF_13
1002
{
1000
HIER
1070
     0
1002
}
1002
{
1000
MANEDIT
1070
     0
1002
}
1002
{
1000
NOSEL
1070
     0
1002
}
1002
{
1000
BEHIND
1070
     0
1002
}
1002
{
1000
OTHER
1070
     0
1002
}
1002
{
1000
REACTOR
1002
}
1001
GENIUS_GENOBJ-N-CEN_13
1002
{
1000
OWNER
1000
GEN
1002
}
1001
GENIUS_GENCEN_19
1002
{
1040
3.0
1002
}
  0
LINE
  5
C351
  8
D002
 10
78.03244235542658
 20
205.5210350070693
 30
0.0
 11
77.15022653342382
 21
205.7574240241249
 31
0.0
  0
ARC
  5
C352
  8
D002
 10
76.41610782397194
 20
204.946260047837
 30
0.0
 40
0.1249999999999206
 50
74.99999999999544
 51
254.9999999999954
  0
LINE
  5
C353
  8
D002
 10
80.34750586488755
 20
206.511227385934
 30
0.0
 11
80.88821533594407
 21
206.3663447198246
 31
0.0
  0
ARC
  5
C354
  8
D002
 10
80.84246216047106
 20
206.1955915443515
 30
0.0
 40
0.1767766952966168
 50
255.0000000000127
 51
75.0000000000127
  0
LINE
  5
C355
  8
D002
 10
79.76449316299542
 20
206.5210350070693
 30
0.0
 11
80.0008821800511
 21
207.4032508290719
 31
0.0
  0
LINE
  5
C356
  8
D002
 10
78.82346775921084
 20
204.8911311965017
 30
0.0
 11
78.82346775921084
 21
205.2836143611124
 31
0.0
1001
GENIUS_GENODEF_13
1002
{
1000
HIER
1070
     0
1002
}
1002
{
1000
MANEDIT
1070
     0
1002
}
1002
{
1000
NOSEL
1070
     0
1002
}
1002
{
1000
BEHIND
1070
     0
1002
}
1002
{
1000
OTHER
1070
     0
1002
}
1002
{
1000
REACTOR
1002
}
1001
GENIUS_GENOBJ-N-CEN_13
1002
{
1000
OWNER
1000
GEN
1002
}
1001
GENIUS_GENCEN_19
1002
{
1040
3.0
1002
}
  0
LINE
  5
C357
  8
D002
 10
81.10990986538465
 20
207.297811702366
 30
0.0
 11
81.19117087316292
 21
207.601081912069
 31
0.0
  0
ARC
  5
C358
  8
D002
 10
81.07043014487701
 20
207.6334342927069
 30
0.0
 40
0.1249999999999206
 50
344.9999999999954
 51
165.0000000001046
  0
LINE
  5
C359
  8
D002
 10
76.83702565303722
 20
207.297811702366
 30
0.0
 11
76.75576464525895
 21
207.6010819120691
 31
0.0
  0
LINE
  5
C35A
  8
D002
 10
76.99321187088523
 20
206.861227385934
 30
0.0
 11
76.44846020460975
 21
206.71526161688
 31
0.0
  0
LINE
  5
C35B
  8
D002
 10
76.68702565303735
 20
207.0380040812307
 30
0.0
 11
76.38375544333414
 21
206.9567430734524
 31
0.0
  0
LINE
  5
C35C
  8
D002
 10
80.80372364753677
 20
204.6612273859341
 30
0.0
 11
80.19750586488769
 21
205.0112273859341
 31
0.0
1001
GENIUS_GENODEF_13
1002
{
1000
HIER
1070
     0
1002
}
1002
{
1000
MANEDIT
1070
     0
1002
}
1002
{
1000
NOSEL
1070
     0
1002
}
1002
{
1000
BEHIND
1070
     0
1002
}
1002
{
1000
OTHER
1070
     0
1002
}
1002
{
1000
REACTOR
1002
}
1001
GENIUS_GENOBJ-N-CEN_13
1002
{
1000
OWNER
1000
GEN
1002
}
1001
GENIUS_GENCEN_19
1002
{
1040
3.0
1002
}
  0
LINE
  5
C35D
  8
D002
 10
80.95372364753663
 20
204.9210350070694
 30
0.0
 11
80.34750586488755
 21
205.2710350070694
 31
0.0
1001
GENIUS_GENODEF_13
1002
{
1000
HIER
1070
     0
1002
}
1002
{
1000
MANEDIT
1070
     0
1002
}
1002
{
1000
NOSEL
1070
     0
1002
}
1002
{
1000
BEHIND
1070
     0
1002
}
1002
{
1000
OTHER
1070
     0
1002
}
1002
{
1000
REACTOR
1002
}
1001
GENIUS_GENOBJ-N-CEN_13
1002
{
1000
OWNER
1000
GEN
1002
}
1001
GENIUS_GENCEN_19
1002
{
1040
3.0
1002
}
  0
ARC
  5
C35E
  8
D002
 10
76.87650537354486
 20
207.6334342927069
 30
0.0
 40
0.1249999999999206
 50
14.99999999995087
 51
194.9999999999509
  0
ARC
  5
C35F
  8
D002
 10
76.41610782397194
 20
206.8360023451663
 30
0.0
 40
0.1249999999999206
 50
105.0000000000046
 51
285.0000000000046
  0
LINE
  5
C360
  8
D002
 10
79.76449316299542
 20
205.2612273859341
 30
0.0
 11
79.42459277188479
 21
205.4574689682394
 31
0.0
1001
GENIUS_GENODEF_13
1002
{
1000
HIER
1070
     0
1002
}
1002
{
1000
MANEDIT
1070
     0
1002
}
1002
{
1000
NOSEL
1070
     0
1002
}
1002
{
1000
BEHIND
1070
     0
1002
}
1002
{
1000
OTHER
1070
     0
1002
}
1002
{
1000
REACTOR
1002
}
1001
GENIUS_GENOBJ-N-CEN_13
1002
{
1000
OWNER
1000
GEN
1002
}
1001
GENIUS_GENCEN_19
1002
{
1040
3.0
1002
}
  0
LINE
  5
C361
  8
D002
 10
76.83702565303722
 20
207.297811702366
 30
0.0
 11
76.3637890074792
 21
207.5710350070694
 31
0.0
1001
GENIUS_GENODEF_13
1002
{
1000
HIER
1070
     0
1002
}
1002
{
1000
MANEDIT
1070
     0
1002
}
1002
{
1000
NOSEL
1070
     0
1002
}
1002
{
1000
BEHIND
1070
     0
1002
}
1002
{
1000
OTHER
1070
     0
1002
}
1002
{
1000
REACTOR
1002
}
1001
GENIUS_GENOBJ-N-CEN_13
1002
{
1000
OWNER
1000
GEN
1002
}
1001
GENIUS_GENCEN_19
1002
{
1040
3.0
1002
}
  0
LINE
  5
C362
  8
D002
 10
77.74942965353418
 20
206.7710350070694
 30
0.0
 11
77.60454698742475
 21
207.3117444781258
 31
0.0
  0
LINE
  5
C363
  8
D002
 10
79.91449316299529
 20
205.5210350070694
 30
0.0
 11
80.79670898499805
 21
205.7574240241249
 31
0.0
  0
ARC
  5
C364
  8
D002
 10
77.77530016289776
 20
207.3574976535988
 30
0.0
 40
0.1767766952966168
 50
15.00000000002528
 51
194.9999999999861
  0
LINE
  5
C365
  8
D002
 10
81.58314651094267
 20
204.211227385934
 30
0.0
 11
81.10990986538465
 21
204.4844506906374
 31
0.0
1001
GENIUS_GENODEF_13
1002
{
1000
HIER
1070
     0
1002
}
1002
{
1000
MANEDIT
1070
     0
1002
}
1002
{
1000
NOSEL
1070
     0
1002
}
1002
{
1000
BEHIND
1070
     0
1002
}
1002
{
1000
OTHER
1070
     0
1002
}
1002
{
1000
REACTOR
1002
}
1001
GENIUS_GENOBJ-N-CEN_13
1002
{
1000
OWNER
1000
GEN
1002
}
1001
GENIUS_GENCEN_19
1002
{
1040
3.0
1002
}
  0
LINE
  5
C366
  8
D002
 10
78.03244235542658
 20
206.2612273859341
 30
0.0
 11
77.15022653342382
 21
206.0248383688785
 31
0.0
  0
LINE
  5
C367
  8
D002
 10
79.91449316299529
 20
205.5210350070694
 30
0.0
 11
79.57459277188465
 21
205.7172765893748
 31
0.0
1001
GENIUS_GENODEF_13
1002
{
1000
HIER
1070
     0
1002
}
1002
{
1000
MANEDIT
1070
     0
1002
}
1002
{
1000
NOSEL
1070
     0
1002
}
1002
{
1000
BEHIND
1070
     0
1002
}
1002
{
1000
OTHER
1070
     0
1002
}
1002
{
1000
REACTOR
1002
}
1001
GENIUS_GENOBJ-N-CEN_13
1002
{
1000
OWNER
1000
GEN
1002
}
1001
GENIUS_GENCEN_19
1002
{
1040
3.0
1002
}
  0
LINE
  5
C368
  8
D002
 10
81.73314651094276
 20
204.4710350070694
 30
0.0
 11
81.25990986538451
 21
204.7442583117727
 31
0.0
1001
GENIUS_GENODEF_13
1002
{
1000
HIER
1070
     0
1002
}
1002
{
1000
MANEDIT
1070
     0
1002
}
1002
{
1000
NOSEL
1070
     0
1002
}
1002
{
1000
BEHIND
1070
     0
1002
}
1002
{
1000
OTHER
1070
     0
1002
}
1002
{
1000
REACTOR
1002
}
1001
GENIUS_GENOBJ-N-CEN_13
1002
{
1000
OWNER
1000
GEN
1002
}
1001
GENIUS_GENCEN_19
1002
{
1040
3.0
1002
}
  0
LINE
  5
C369
  8
D002
 10
77.1432118708851
 20
207.1210350070693
 30
0.0
 11
76.99724610183122
 21
207.6657866733447
 31
0.0
  0
ARC
  5
C36A
  8
D002
 10
77.10447335795081
 20
206.1955915443515
 30
0.0
 40
0.1767766952966168
 50
104.9999999999873
 51
284.9999999999873
  0
ARC
  5
C36B
  8
D002
 10
76.28878900747915
 20
207.4411311965018
 30
0.0
 40
0.1499999999999773
 50
59.99999999997465
 51
239.9999999999746
  0
LINE
  5
C36C
  8
D002
 10
80.34750586488755
 20
205.2710350070694
 30
0.0
 11
80.88821533594407
 21
205.4159176731787
 31
0.0
  0
LINE
  5
C36D
  8
D002
 10
77.74942965353418
 20
206.7710350070694
 30
0.0
 11
77.1432118708851
 21
207.1210350070693
 31
0.0
1001
GENIUS_GENODEF_13
1002
{
1000
HIER
1070
     0
1002
}
1002
{
1000
MANEDIT
1070
     0
1002
}
1002
{
1000
NOSEL
1070
     0
1002
}
1002
{
1000
BEHIND
1070
     0
1002
}
1002
{
1000
OTHER
1070
     0
1002
}
1002
{
1000
REACTOR
1002
}
1001
GENIUS_GENOBJ-N-CEN_13
1002
{
1000
OWNER
1000
GEN
1002
}
1001
GENIUS_GENCEN_19
1002
{
1040
3.0
1002
}
  0
ARC
  5
C36E
  8
D002
 10
81.65814651094271
 20
204.3411311965017
 30
0.0
 40
0.1499999999999773
 50
239.9999999999746
 51
59.99999999997465
  0
ARC
  5
C36F
  8
D002
 10
80.84246216047106
 20
205.5866708486519
 30
0.0
 40
0.1767766952966168
 50
284.9999999999873
 51
104.9999999999873
  0
LINE
  5
C370
  8
D002
 10
79.76449316299542
 20
205.2612273859341
 30
0.0
 11
80.0008821800511
 21
204.3790115639314
 31
0.0
  0
LINE
  5
C371
  8
D002
 10
76.68702565303735
 20
207.0380040812307
 30
0.0
 11
76.21378900747911
 21
207.311227385934
 31
0.0
1001
GENIUS_GENODEF_13
1002
{
1000
HIER
1070
     0
1002
}
1002
{
1000
MANEDIT
1070
     0
1002
}
1002
{
1000
NOSEL
1070
     0
1002
}
1002
{
1000
BEHIND
1070
     0
1002
}
1002
{
1000
OTHER
1070
     0
1002
}
1002
{
1000
REACTOR
1002
}
1001
GENIUS_GENOBJ-N-CEN_13
1002
{
1000
OWNER
1000
GEN
1002
}
1001
GENIUS_GENCEN_19
1002
{
1040
3.0
1002
}
  0
LINE
  5
C372
  8
D002
 10
80.19750586488769
 20
205.0112273859341
 30
0.0
 11
80.34238853099711
 21
204.4705179148776
 31
0.0
  0
LINE
  5
C373
  8
D002
 10
77.59942965353432
 20
206.5112273859341
 30
0.0
 11
77.0587201824778
 21
206.3663447198247
 31
0.0
  0
LINE
  5
C374
  8
D002
 10
78.18244235542645
 20
206.5210350070694
 30
0.0
 11
77.946053338371
 21
207.403250829072
 31
0.0
  0
ARC
  5
C375
  8
D002
 10
80.1716353555241
 20
204.4247647394046
 30
0.0
 40
0.1767766952966168
 50
195.0000000000253
 51
14.99999999998613
  0
LINE
  5
C376
  8
D002
 10
77.59942965353432
 20
206.5112273859341
 30
0.0
 11
76.99321187088523
 21
206.861227385934
 31
0.0
1001
GENIUS_GENODEF_13
1002
{
1000
HIER
1070
     0
1002
}
1002
{
1000
MANEDIT
1070
     0
1002
}
1002
{
1000
NOSEL
1070
     0
1002
}
1002
{
1000
BEHIND
1070
     0
1002
}
1002
{
1000
OTHER
1070
     0
1002
}
1002
{
1000
REACTOR
1002
}
1001
GENIUS_GENOBJ-N-CEN_13
1002
{
1000
OWNER
1000
GEN
1002
}
1001
GENIUS_GENCEN_19
1002
{
1040
3.0
1002
}
  0
LINE
  5
C37C
  8
D002
 10
78.37234274653721
 20
206.0649858036286
 30
0.0
 11
78.03244235542658
 21
206.2612273859341
 31
0.0
1001
GENIUS_GENODEF_13
1002
{
1000
HIER
1070
     0
1002
}
1002
{
1000
MANEDIT
1070
     0
1002
}
1002
{
1000
NOSEL
1070
     0
1002
}
1002
{
1000
BEHIND
1070
     0
1002
}
1002
{
1000
OTHER
1070
     0
1002
}
1002
{
1000
REACTOR
1002
}
1001
GENIUS_GENOBJ-N-CEN_13
1002
{
1000
OWNER
1000
GEN
1002
}
1001
GENIUS_GENCEN_19
1002
{
1040
3.0
1002
}
  0
LINE
  5
C37D
  8
D002
 10
78.52234274653708
 20
205.4574689682393
 30
0.0
 11
78.18244235542645
 21
205.261227385934
 31
0.0
1001
GENIUS_GENODEF_13
1002
{
1000
HIER
1070
     0
1002
}
1002
{
1000
MANEDIT
1070
     0
1002
}
1002
{
1000
NOSEL
1070
     0
1002
}
1002
{
1000
BEHIND
1070
     0
1002
}
1002
{
1000
OTHER
1070
     0
1002
}
1002
{
1000
REACTOR
1002
}
1001
GENIUS_GENOBJ-N-CEN_13
1002
{
1000
OWNER
1000
GEN
1002
}
1001
GENIUS_GENCEN_19
1002
{
1040
3.0
1002
}
  0
LINE
  5
C37E
  8
D002
 10
79.12346775921102
 20
206.4986480318909
 30
0.0
 11
79.12346775921102
 21
206.8911311965017
 31
0.0
1001
GENIUS_GENODEF_13
1002
{
1000
HIER
1070
     0
1002
}
1002
{
1000
MANEDIT
1070
     0
1002
}
1002
{
1000
NOSEL
1070
     0
1002
}
1002
{
1000
BEHIND
1070
     0
1002
}
1002
{
1000
OTHER
1070
     0
1002
}
1002
{
1000
REACTOR
1002
}
1001
GENIUS_GENOBJ-N-CEN_13
1002
{
1000
OWNER
1000
GEN
1002
}
1001
GENIUS_GENCEN_19
1002
{
1040
3.0
1002
}
  0
LINE
  5
C37F
  8
D002
 10
78.37234274653721
 20
205.7172765893746
 30
0.0
 11
78.03244235542658
 21
205.5210350070693
 31
0.0
1001
GENIUS_GENODEF_13
1002
{
1000
HIER
1070
     0
1002
}
1002
{
1000
MANEDIT
1070
     0
1002
}
1002
{
1000
NOSEL
1070
     0
1002
}
1002
{
1000
BEHIND
1070
     0
1002
}
1002
{
1000
OTHER
1070
     0
1002
}
1002
{
1000
REACTOR
1002
}
1001
GENIUS_GENOBJ-N-CEN_13
1002
{
1000
OWNER
1000
GEN
1002
}
1001
GENIUS_GENCEN_19
1002
{
1040
3.0
1002
}
  0
LINE
  5
C380
  8
D002
 10
78.5223427465373
 20
206.324793424764
 30
0.0
 11
78.18244235542645
 21
206.5210350070694
 31
0.0
1001
GENIUS_GENODEF_13
1002
{
1000
HIER
1070
     0
1002
}
1002
{
1000
MANEDIT
1070
     0
1002
}
1002
{
1000
NOSEL
1070
     0
1002
}
1002
{
1000
BEHIND
1070
     0
1002
}
1002
{
1000
OTHER
1070
     0
1002
}
1002
{
1000
REACTOR
1002
}
1001
GENIUS_GENOBJ-N-CEN_13
1002
{
1000
OWNER
1000
GEN
1002
}
1001
GENIUS_GENCEN_19
1002
{
1040
3.0
1002
}
  0
LINE
  5
C381
  8
D002
 10
78.82346775921084
 20
206.4986480318909
 30
0.0
 11
78.82346775921084
 21
206.8911311965017
 31
0.0
1001
GENIUS_GENODEF_13
1002
{
1000
HIER
1070
     0
1002
}
1002
{
1000
MANEDIT
1070
     0
1002
}
1002
{
1000
NOSEL
1070
     0
1002
}
1002
{
1000
BEHIND
1070
     0
1002
}
1002
{
1000
OTHER
1070
     0
1002
}
1002
{
1000
REACTOR
1002
}
1001
GENIUS_GENOBJ-N-CEN_13
1002
{
1000
OWNER
1000
GEN
1002
}
1001
GENIUS_GENCEN_19
1002
{
1040
3.0
1002
}
  0
POINT
  5
C382
  8
D002
 10
78.97346775921093
 20
205.8911311965017
 30
0.0
  0
LINE
  5
C384
  8
0
 10
44.25218735582231
 20
200.4403655242981
 30
0.0
 11
43.03975179052415
 21
198.3403655242977
 31
0.0
  0
ARC
  5
C385
  8
0
 10
43.12635433090247
 20
198.2903655242979
 30
0.0
 40
0.0999999999998077
 50
150.0000000000498
 51
270.0000000000499
  0
LINE
  5
C386
  8
0
 10
43.12635433090256
 20
198.1903655242981
 30
0.0
 11
45.55122546149889
 21
198.1903655242981
 31
0.0
  0
ARC
  5
C387
  8
0
 10
45.55122546149897
 20
198.2903655242979
 30
0.0
 40
0.0999999999998075
 50
269.9999999999499
 51
29.9999999999503
  0
LINE
  5
C388
  8
0
 10
45.6378280018773
 20
198.3403655242977
 30
0.0
 11
44.42539243657913
 21
200.4403655242981
 31
0.0
  0
ARC
  5
C389
  8
0
 10
44.33878989620072
 20
200.3903655242981
 30
0.0
 40
0.0999999999999585
 50
29.99999999999998
 51
150.0
  0
LINE
  5
C38A
  8
0
 10
44.29548862670683
 20
200.3153655242981
 30
0.0
 11
43.16965560112405
 21
198.3653655243092
 31
0.0
  0
ARC
  5
C38B
  8
0
 10
43.212956871307
 20
198.3403655242978
 30
0.0
 40
0.0500000000002611
 50
149.9999999851142
 51
269.9999999998677
  0
LINE
  5
C38C
  8
0
 10
43.21295687130689
 20
198.2903655242976
 30
0.0
 11
45.4646229211464
 21
198.2903655242976
 31
0.0
  0
ARC
  5
C38D
  8
0
 10
45.46462292114634
 20
198.3403655242976
 30
0.0
 40
0.0500000000000013
 50
270.0000000000688
 51
29.99999998531542
  0
LINE
  5
C38E
  8
0
 10
45.50792419134197
 20
198.3653655242865
 30
0.0
 11
44.38209116708524
 21
200.3153655242981
 31
0.0
  0
ARC
  5
C38F
  8
0
 10
44.33878989689603
 20
200.2903655242981
 30
0.0
 40
0.0499999999999793
 50
30.00000000000012
 51
149.9999999999999
  0
LINE
  5
C390
  8
D002
 10
78.97346775921093
 20
226.2009976453023
 30
0.0
 11
78.70511554276933
 21
226.0460644209022
 31
0.0
  0
LINE
  5
C391
  8
D002
 10
78.70511554276933
 20
226.0460644209022
 30
0.0
 11
78.70511554276933
 21
225.7361979721018
 31
0.0
  0
LINE
  5
C392
  8
D002
 10
78.70511554276933
 20
225.7361979721018
 30
0.0
 11
78.97346775921093
 21
225.5812647477017
 31
0.0
  0
LINE
  5
C393
  8
D002
 10
78.97346775921093
 20
225.5812647477017
 30
0.0
 11
79.24181997565253
 21
225.7361979721018
 31
0.0
  0
LINE
  5
C394
  8
D002
 10
79.24181997565253
 20
225.7361979721018
 30
0.0
 11
79.24181997565253
 21
226.0460644209022
 31
0.0
  0
LINE
  5
C395
  8
D002
 10
79.24181997565253
 20
226.0460644209022
 30
0.0
 11
78.97346775921093
 21
226.2009976453023
 31
0.0
  0
LINE
  5
C396
  8
D002
 10
78.82346775921084
 20
226.4986480318913
 30
0.0
 11
78.5223427465373
 21
226.3247934247643
 31
0.0
  0
LINE
  5
C397
  8
D002
 10
79.42459277188479
 20
226.3247934247642
 30
0.0
 11
79.12346775921102
 21
226.4986480318913
 31
0.0
  0
LINE
  5
C398
  8
D002
 10
78.52234274653708
 20
225.4574689682397
 30
0.0
 11
78.82346775921084
 21
225.2836143611127
 31
0.0
  0
LINE
  5
C399
  8
D002
 10
79.12346775921102
 20
225.2836143611127
 30
0.0
 11
79.42459277188479
 21
225.4574689682398
 31
0.0
  0
LINE
  5
C39A
  8
D002
 10
79.57459277188465
 20
225.7172765893751
 30
0.0
 11
79.57459277188465
 21
226.0649858036289
 31
0.0
  0
LINE
  5
C39B
  8
D002
 10
78.37234274653721
 20
226.064985803629
 30
0.0
 11
78.37234274653721
 21
225.717276589375
 31
0.0
  0
LINE
  5
C39C
  8
D002
 10
78.97346775921093
 20
206.2009976453019
 30
0.0
 11
78.70511554276933
 21
206.0460644209018
 31
0.0
  0
LINE
  5
C39D
  8
D002
 10
78.70511554276933
 20
206.0460644209018
 30
0.0
 11
78.70511554276933
 21
205.7361979721015
 31
0.0
  0
LINE
  5
C39E
  8
D002
 10
78.70511554276933
 20
205.7361979721015
 30
0.0
 11
78.97346775921093
 21
205.5812647477014
 31
0.0
  0
LINE
  5
C39F
  8
D002
 10
78.97346775921093
 20
205.5812647477014
 30
0.0
 11
79.24181997565253
 21
205.7361979721015
 31
0.0
  0
LINE
  5
C3A0
  8
D002
 10
79.24181997565253
 20
205.7361979721015
 30
0.0
 11
79.24181997565253
 21
206.0460644209018
 31
0.0
  0
LINE
  5
C3A1
  8
D002
 10
79.24181997565253
 20
206.0460644209018
 30
0.0
 11
78.97346775921093
 21
206.2009976453019
 31
0.0
  0
LINE
  5
C3A2
  8
D002
 10
78.82346775921084
 20
206.4986480318909
 30
0.0
 11
78.5223427465373
 21
206.324793424764
 31
0.0
  0
LINE
  5
C3A3
  8
D002
 10
79.42459277188479
 20
206.3247934247639
 30
0.0
 11
79.12346775921102
 21
206.4986480318909
 31
0.0
  0
LINE
  5
C3A4
  8
D002
 10
78.52234274653708
 20
205.4574689682393
 30
0.0
 11
78.82346775921084
 21
205.2836143611124
 31
0.0
  0
LINE
  5
C3A5
  8
D002
 10
79.12346775921102
 20
205.2836143611124
 30
0.0
 11
79.42459277188479
 21
205.4574689682394
 31
0.0
  0
LINE
  5
C3A6
  8
D002
 10
79.57459277188465
 20
205.7172765893748
 30
0.0
 11
79.57459277188465
 21
206.0649858036285
 31
0.0
  0
LINE
  5
C3A7
  8
D002
 10
78.37234274653721
 20
206.0649858036286
 30
0.0
 11
78.37234274653721
 21
205.7172765893746
 31
0.0
  0
VIEWPORT
  5
22
 67
     1
  8
0
 10
5.269134197284911
 20
5.545311567251436
 30
0.0
 40
11.13808705479925
 41
12.32365374410561
 68
     1
 69
     1
1001
GENIUS_GENSCREG_15
1000
PF
1040
1.0
1000
DF
1040
1.0
1000
MIN
1011
-0.2999093301147138
1021
-0.6165153048013714
1031
0.0
1021
-0.6165153048013714
1031
0.0
1000
MAX
1011
10.83817772468454
1021
11.70713843930424
1031
0.0
1021
11.70713843930424
1031
0.0
1000
FLAGS
1070
     4
1001
GENIUS_GENODEF_13
1002
{
1000
HIER
1070
     0
1002
}
1002
{
1000
MANEDIT
1070
     0
1002
}
1002
{
1000
NOSEL
1070
     0
1002
}
1002
{
1000
BEHIND
1070
     0
1002
}
1002
{
1000
OTHER
1070
     0
1002
}
1002
{
1000
REACTOR
1002
}
1001
GENIUS_GENOBJ-N-SDF_13
1002
{
1000
OWNER
1000
GEN
1002
}
1001
ACAD
1000
MVIEW
1002
{
1070
    16
1010
0.0
1020
0.0
1030
0.0
1020
0.0
1030
0.0
1010
0.0
1020
0.0
1030
1.0
1020
0.0
1030
1.0
1040
0.0
1040
12.32365374410561
1040
5.269134197284911
1040
5.545311567251436
1040
50.0
1040
0.0
1040
0.0
1070
     0
1070
   100
1070
     0
1070
     1
1070
     0
1070
     0
1070
     0
1070
     0
1040
0.0
1040
0.0
1040
0.0
1040
1.0
1040
1.0
1040
10.0
1040
10.0
1070
     0
1002
{
1002
}
1002
}
  0
ENDSEC
  0
EOF
