  0
SECTION
  2
HEADER
  9
$ACADVER
  1
AC1009
  9
$DWGCODEPAGE
  3
ansi_932
  9
$INSBASE
 10
0.0
 20
0.0
 30
0.0
  9
$EXTMIN
 10
0.0000019319777493
 20
0.0000050735020523
 30
0.0
  9
$EXTMAX
 10
235.1103317283133
 20
294.6851362700035
 30
0.0
  9
$LIMMIN
 10
0.0
 20
0.0
  9
$LIMMAX
 10
420.0
 20
420.0
  9
$ORTHOMODE
 70
     0
  9
$REGENMODE
 70
     1
  9
$FILLMODE
 70
     1
  9
$QTEXTMODE
 70
     0
  9
$MIRRTEXT
 70
     0
  9
$DRAGMODE
 70
     2
  9
$LTSCALE
 40
10.0
  9
$OSMODE
 70
   549
  9
$ATTMODE
 70
     1
  9
$TEXTSIZE
 40
1.0
  9
$TRACEWID
 40
1.0
  9
$TEXTSTYLE
  7
STANDARD
  9
$CLAYER
  8
10
  9
$CELTYPE
  6
BYLAYER
  9
$CECOLOR
 62
   256
  9
$DIMSCALE
 40
1.0
  9
$DIMASZ
 40
2.5
  9
$DIMEXO
 40
1.0
  9
$DIMDLI
 40
7.0
  9
$DIMRND
 40
0.0
  9
$DIMDLE
 40
0.0
  9
$DIMEXE
 40
1.0
  9
$DIMTP
 40
0.1
  9
$DIMTM
 40
0.1
  9
$DIMTXT
 40
3.0
  9
$DIMCEN
 40
0.0
  9
$DIMTSZ
 40
0.0
  9
$DIMTOL
 70
     0
  9
$DIMLIM
 70
     0
  9
$DIMTIH
 70
     0
  9
$DIMTOH
 70
     0
  9
$DIMSE1
 70
     0
  9
$DIMSE2
 70
     0
  9
$DIMTAD
 70
     3
  9
$DIMZIN
 70
     8
  9
$DIMBLK
  1
OPEN
  9
$DIMASO
 70
     1
  9
$DIMSHO
 70
     1
  9
$DIMPOST
  1

  9
$DIMAPOST
  1
"
  9
$DIMALT
 70
     0
  9
$DIMALTD
 70
     2
  9
$DIMALTF
 40
0.0393701
  9
$DIMLFAC
 40
1.0
  9
$DIMTOFL
 70
     1
  9
$DIMTVP
 40
0.0
  9
$DIMTIX
 70
     0
  9
$DIMSOXD
 70
     0
  9
$DIMSAH
 70
     0
  9
$DIMBLK1
  1

  9
$DIMBLK2
  1

  9
$DIMSTYLE
  2
AM_JIS
  9
$DIMCLRD
 70
   256
  9
$DIMCLRE
 70
   256
  9
$DIMCLRT
 70
     2
  9
$DIMTFAC
 40
0.71
  9
$DIMGAP
 40
1.0
  9
$LUNITS
 70
     2
  9
$LUPREC
 70
     2
  9
$SKETCHINC
 40
1.0
  9
$FILLETRAD
 40
2.5
  9
$AUNITS
 70
     0
  9
$AUPREC
 70
     0
  9
$MENU
  1
.
  9
$ELEVATION
 40
0.0
  9
$PELEVATION
 40
0.0
  9
$THICKNESS
 40
0.0
  9
$LIMCHECK
 70
     0
  9
$CHAMFERA
 40
2.5
  9
$CHAMFERB
 40
2.5
  9
$SKPOLY
 70
     1
  9
$TDCREATE
 40
2457177.654148542
  9
$TDUPDATE
 40
2460346.652878507
  9
$TDINDWG
 40
0.128627581
  9
$TDUSRTIMER
 40
0.1285961458
  9
$USRTIMER
 70
     1
  9
$ANGBASE
 50
0.0
  9
$ANGDIR
 70
     0
  9
$PDMODE
 70
     0
  9
$PDSIZE
 40
0.0
  9
$PLINEWID
 40
0.0
  9
$COORDS
 70
     0
  9
$SPLFRAME
 70
     0
  9
$SPLINETYPE
 70
     6
  9
$SPLINESEGS
 70
     8
  9
$ATTDIA
 70
     1
  9
$ATTREQ
 70
     1
  9
$HANDLING
 70
     1
  9
$HANDSEED
  5
9CC7
  9
$SURFTAB1
 70
     6
  9
$SURFTAB2
 70
     6
  9
$SURFTYPE
 70
     6
  9
$SURFU
 70
     6
  9
$SURFV
 70
     6
  9
$UCSNAME
  2

  9
$UCSORG
 10
0.0
 20
0.0
 30
0.0
  9
$UCSXDIR
 10
1.0
 20
0.0
 30
0.0
  9
$UCSYDIR
 10
0.0
 20
1.0
 30
0.0
  9
$PUCSNAME
  2

  9
$PUCSORG
 10
0.0
 20
0.0
 30
0.0
  9
$PUCSXDIR
 10
1.0
 20
0.0
 30
0.0
  9
$PUCSYDIR
 10
0.0
 20
1.0
 30
0.0
  9
$USERI1
 70
     0
  9
$USERI2
 70
     0
  9
$USERI3
 70
     0
  9
$USERI4
 70
     0
  9
$USERI5
 70
     0
  9
$USERR1
 40
0.0
  9
$USERR2
 40
0.0
  9
$USERR3
 40
0.0
  9
$USERR4
 40
0.0
  9
$USERR5
 40
0.0
  9
$WORLDVIEW
 70
     1
  9
$SHADEDGE
 70
     3
  9
$SHADEDIF
 70
    70
  9
$TILEMODE
 70
     1
  9
$MAXACTVP
 70
    48
  9
$PLIMCHECK
 70
     0
  9
$PEXTMIN
 10
1.000000000000000E+20
 20
1.000000000000000E+20
 30
1.000000000000000E+20
  9
$PEXTMAX
 10
-1.000000000000000E+20
 20
-1.000000000000000E+20
 30
-1.000000000000000E+20
  9
$PLIMMIN
 10
-0.2500002402958907
 20
-0.2499999962453767
  9
$PLIMMAX
 10
10.74999951940822
 20
8.249999763458732
  9
$UNITMODE
 70
     0
  9
$VISRETAIN
 70
     1
  9
$PLINEGEN
 70
     0
  9
$PSLTSCALE
 70
     1
  0
ENDSEC
  0
SECTION
  2
TABLES
  0
TABLE
  2
VPORT
 70
     1
  0
VPORT
  2
*ACTIVE
 70
     0
 10
0.0
 20
0.0
 11
1.0
 21
1.0
 12
210.0
 22
210.0
 13
0.0
 23
0.0
 14
2.5
 24
2.5
 15
10.0
 25
10.0
 16
0.0
 26
0.0
 36
1.0
 17
0.0
 27
0.0
 37
0.0
 40
423.2589718719689
 41
2.05293551491819
 42
50.0
 43
0.0
 44
0.0
 50
0.0
 51
0.0
 71
     0
 72
   100
 73
     1
 74
     3
 75
     0
 76
     0
 77
     0
 78
     0
  0
ENDTAB
  0
TABLE
  2
LTYPE
 70
    22
  0
LTYPE
  2
CONTINUOUS
 70
     0
  3
Solid line
 72
    65
 73
     0
 40
0.0
  0
LTYPE
  2
HIDDEN
 70
     0
  3
__ __ __ __ __ __ __ __ __ __ __ __ __ __ __ __
 72
    65
 73
     2
 40
0.375
 49
0.25
 49
-0.125
  0
LTYPE
  2
PHANTOM2
 70
     0
  3
___ _ _ ___ _ _ ___ _ _ ___ _ _ ___ _ _ ___ _ _
 72
    65
 73
     6
 40
1.25
 49
0.625
 49
-0.125
 49
0.125
 49
-0.125
 49
0.125
 49
-0.125
  0
LTYPE
  2
CENTER
 70
     0
  3
____ _ ____ _ ____ _ ____ _ ____ _ ____ _ ____ 
 72
    65
 73
     4
 40
2.0
 49
1.25
 49
-0.25
 49
0.25
 49
-0.25
  0
LTYPE
  2
ACJISTGB
 70
     0
  3
__ . . __ . .
 72
    65
 73
     6
 40
9.0
 49
4.0
 49
-1.0
 49
1.0
 49
-1.0
 49
1.0
 49
-1.0
  0
LTYPE
  2
ACJISTGL
 70
     0
  3
_ _ _ _ _
 72
    65
 73
     2
 40
3.0
 49
2.0
 49
-1.0
  0
LTYPE
  2
ACISOWELD
 70
     0
  3
_ _ _ _ _
 72
    65
 73
     2
 40
2.0
 49
2.0
 49
-1.0
  0
LTYPE
  2
ACISOTGB
 70
     0
  3
__ . . __ . .
 72
    65
 73
     6
 40
9.0
 49
4.0
 49
-1.0
 49
1.0
 49
-1.0
 49
1.0
 49
-1.0
  0
LTYPE
  2
ACISOTGL
 70
     0
  3
_ _ _ _ _
 72
    65
 73
     2
 40
3.0
 49
2.0
 49
-1.0
  0
LTYPE
  2
AM_ISO02W050
 70
     0
  3
__ __ __ __ __ __ __ __ __ __ __ __ __ __ __
 72
    65
 73
     2
 40
7.5
 49
6.0
 49
-1.5
  0
LTYPE
  2
AM_ISO08W050
 70
     0
  3
____ . ____ . ____ . ____ . ____ . ____ . ____
 72
    65
 73
     4
 40
18.0
 49
12.0
 49
-1.5
 49
3.0
 49
-1.5
  0
LTYPE
  2
AM_ISO09W050
 70
     0
  3
_____ . . _____ . . _____ . . ____ .. ____
 72
    65
 73
     6
 40
22.5
 49
12.0
 49
-1.5
 49
3.0
 49
-1.5
 49
3.0
 49
-1.5
  0
LTYPE
  2
AM_ISO02W050X2
 70
     0
  3
 _ _ _ _ _ _ _ _ _ _ _ _
 72
    65
 73
     2
 40
3.75
 49
3.0
 49
-0.75
  0
LTYPE
  2
AM_ISO08W050X2
 70
     0
  3
__ . __ . __ . __ . __ . __
 72
    65
 73
     4
 40
9.0
 49
6.0
 49
-0.75
 49
1.5
 49
-0.75
  0
LTYPE
  2
AMZIGZAG
 70
     0
  3
/\/-/\/-/\/-/\/-/\/-/\/
 72
    65
 73
     2
 40
11.0001
 49
0.0001
 49
-11.0
  0
LTYPE
  2
AMCONSTR
 70
     0
  3
_______________________
 72
    65
 73
     2
 40
9999.0
 49
9999.0
 49
0.0
  0
LTYPE
  2
CENTER2
 70
     0
  3
Center (.5x) ___ _ ___ _ ___ _ ___ _ ___ _ ___
 72
    65
 73
     4
 40
1.125
 49
0.75
 49
-0.125
 49
0.125
 49
-0.125
  0
LTYPE
  2
HIDDEN2
 70
     0
  3
Hidden (.5x) _ _ _ _ _ _ _ _ _ _ _ _ _ _ _ _ _
 72
    65
 73
     2
 40
0.1875
 49
0.125
 49
-0.0625
  0
LTYPE
  2
ACJISWELD
 70
     0
  3
_ _ _ _ _
 72
    65
 73
     2
 40
2.0
 49
2.0
 49
-1.0
  0
LTYPE
  2
AMZIGZAG2
 70
     0
  3
/\/-/\/-/\/-/\/-/\/-/\/
 72
    65
 73
     2
 40
0.4401
 49
0.0001
 49
-0.44
  0
LTYPE
  2
ACANSTGB
 70
     0
  3
__ . . __ . .
 72
    65
 73
     6
 40
0.35433070866
 49
0.15748031496
 49
-0.03937007874
 49
0.03937007874
 49
-0.03937007874
 49
0.03937007874
 49
-0.03937007874
  0
LTYPE
  2
ACANSTGL
 70
     0
  3
_ _ _ _ _
 72
    65
 73
     2
 40
0.11811023622
 49
0.07874015748
 49
-0.03937007874
  0
ENDTAB
  0
TABLE
  2
LAYER
 70
     5
  0
LAYER
  2
0
 70
     0
 62
     7
  6
CONTINUOUS
  0
LAYER
  2
7
 70
     0
 62
     4
  6
CENTER2
  0
LAYER
  2
10
 70
     0
 62
     2
  6
CONTINUOUS
  0
LAYER
  2
DEFPOINTS
 70
     0
 62
     7
  6
CONTINUOUS
  0
LAYER
  2
AM_0
 70
     0
 62
     7
  6
CONTINUOUS
  0
ENDTAB
  0
TABLE
  2
STYLE
 70
     8
  0
STYLE
  2
STANDARD
 70
     0
 40
0.0
 41
1.0
 50
0.0
 71
     0
 42
1.0
  3
ISOCP.SHX
  4
EXTFONT.SHX
  0
STYLE
  2
ACJISTS
 70
     0
 40
1.0
 41
1.0
 50
0.0
 71
     0
 42
3.5
  3
isocp.shx
  4
extfont.shx
  0
STYLE
  2
ACJISGDT
 70
     0
 40
0.0
 41
1.0
 50
0.0
 71
     0
 42
3.5
  3
amgdt.shx
  4
extfont.shx
  0
STYLE
  2
ACISOTS
 70
     0
 40
1.0
 41
1.0
 50
0.0
 71
     0
 42
1.0
  3
isocp.shx
  4
extfont.shx
  0
STYLE
  2
ACISOGDT
 70
     0
 40
0.0
 41
1.0
 50
0.0
 71
     0
 42
3.5
  3
amgdt.shx
  4
extfont.shx
  0
STYLE
  2

 70
     1
 40
0.0
 41
1.0
 50
0.0
 71
     0
 42
3.5
  3
ltypeshp.shx
  4

  0
STYLE
  2

 70
     1
 40
0.0
 41
1.0
 50
0.0
 71
     0
 42
4.0
  3
genltshp.shx
  4

  0
STYLE
  2
ACANSGDT
 70
     0
 40
0.0
 41
1.0
 50
0.0
 71
     0
 42
4.0
  3
amgdt.shx
  4

  0
ENDTAB
  0
TABLE
  2
VIEW
 70
     3
  0
VIEW
  2
AMDTVIEW1
 70
     0
 40
329.0721649484536
 10
210.0
 20
164.5360824742268
 41
420.0
 11
0.0
 21
0.0
 31
1.0
 12
0.0
 22
0.0
 32
0.0
 42
50.0
 43
0.0
 44
0.0
 50
0.0
 71
     0
  0
VIEW
  2
AMDTVIEW2
 70
     0
 40
329.0721649484536
 10
210.0
 20
164.5360824742268
 41
420.0
 11
0.0
 21
0.0
 31
1.0
 12
0.0
 22
0.0
 32
0.0
 42
50.0
 43
0.0
 44
0.0
 50
0.0
 71
     0
  0
VIEW
  2
AMDTVIEW3
 70
     0
 40
329.0721649484536
 10
210.0
 20
164.5360824742268
 41
420.0
 11
0.0
 21
0.0
 31
1.0
 12
0.0
 22
0.0
 32
0.0
 42
50.0
 43
0.0
 44
0.0
 50
0.0
 71
     0
  0
ENDTAB
  0
TABLE
  2
UCS
 70
     0
  0
ENDTAB
  0
TABLE
  2
APPID
 70
    68
  0
APPID
  2
ACAD
 70
     0
  0
APPID
  2
AD_DRAW
 70
     0
  0
APPID
  2
DESIGNERASSEMBLIES
 70
     0
  0
APPID
  2
MCAD_NO_VIS
 70
     0
  0
APPID
  2
ASURF_PCURVE_APPNAME
 70
     0
  0
APPID
  2
ACAD_TEMP_GRAPHIC
 70
     0
  0
APPID
  2
ACATTRIBSERVICES
 70
     0
  0
APPID
  2
ACADM_DIM_EDIT
 70
     0
  0
APPID
  2
GENIUS_GENDIM_13
 70
     0
  0
APPID
  2
GENIUS_GENDTOL_13
 70
     0
  0
APPID
  2
GENIUS_GE3DTOL_13
 70
     0
  0
APPID
  2
AMG_3D2D_5_0
 70
     0
  0
APPID
  2
AMDT_DM_ADJ
 70
     0
  0
APPID
  2
ACAD_PSEXT
 70
     0
  0
APPID
  2
ACAD_DSTYLE_DIMTEXT_FILL
 70
     0
  0
APPID
  2
ACAECLAYERSTANDARD
 70
     0
  0
APPID
  2
GENIUS_GENREC_14
 70
     0
  0
APPID
  2
GENIUS_GENODEF_13
 70
     0
  0
APPID
  2
GENIUS_GENOBJ-N-REC_13
 70
     0
  0
APPID
  2
DCO15
 70
     0
  0
APPID
  2
ACAD_DSTYLE_DIMJAG
 70
     0
  0
APPID
  2
ACAD_DSTYLE_DIMTALN
 70
     0
  0
APPID
  2
ACAD_MLEADERVER
 70
     0
  0
APPID
  2
GENIUS_GENSCREG_15
 70
     0
  0
APPID
  2
GENIUS_GENOBJ-N-SDF_13
 70
     0
  0
APPID
  2
ACAD_NAV_VCDISPLAY
 70
     0
  0
APPID
  2
ACAD_EXEMPT_FROM_CAD_STAND
 70
     0
  0
APPID
  2
ACCMTRANSPARENCY
 70
     0
  0
APPID
  2
GENIUS_GENOBJ-N-CEN_13
 70
     0
  0
APPID
  2
GENIUS_GENOBJ-N-FIL_13
 70
     0
  0
APPID
  2
GENIUS_GENCEN_19
 70
     0
  0
APPID
  2
ACAD_DSTYLE_DIMBREAK
 70
     0
  0
APPID
  2
PLOTTRANSPARENCY
 70
     0
  0
APPID
  2
ACAD_SPLINE_DATA
 70
     0
  0
APPID
  2
ACAD_SPLINE_DATA2
 70
     0
  0
APPID
  2
GENIUS_GENOLIS_13
 70
     0
  0
APPID
  2
GENIUS_GENOENT_13
 70
     0
  0
APPID
  2
GENIUS_GENOBJ-N-CRS_13
 70
     0
  0
APPID
  2
GENIUS_GENOREF_13
 70
     0
  0
APPID
  2
HC_SUPERPART
 70
     0
  0
APPID
  2
HC_SP4BLOCK
 70
     0
  0
APPID
  2
HC_XDATA_SPRING
 70
     0
  0
APPID
  2
HCCAD_FRAME
 70
     0
  0
APPID
  2
GENIUS_GENOBJ-N-TIT_13
 70
     0
  0
APPID
  2
GENIUS_GENOBJ-N-ZOO_13
 70
     0
  0
APPID
  2
GENIUS_GENTITLE_13
 70
     0
  0
APPID
  2
GENIUS_GENSYMENT_13
 70
     0
  0
APPID
  2
GENIUS_GENSCSYM_13
 70
     0
  0
APPID
  2
GENIUS_GENOBJ-N-REV_13
 70
     0
  0
APPID
  2
GENIUS_GENOBJ-N-RSSYM_13
 70
     0
  0
APPID
  2
GENIUS_GENREV_15
 70
     0
  0
APPID
  2
HRA
 70
     0
  0
APPID
  2
HTIT
 70
     0
  0
APPID
  2
GENIUS_GENZOO_17
 70
     0
  0
APPID
  2
GENIUS_GENCRS_20
 70
     0
  0
APPID
  2
GENIUS_GENOBJ-N-CRC_13
 70
     0
  0
APPID
  2
GENIUS_GENCRC_14
 70
     0
  0
APPID
  2
GENIUS_GENFIL_13
 70
     0
  0
APPID
  2
GENIUS_GENOBJ-N-CHA_13
 70
     0
  0
APPID
  2
GENIUS_GENHATCH_13
 70
     0
  0
APPID
  2
GENIUS_GENOBJ-N-HTC_13
 70
     0
  0
APPID
  2
GENIUS_GENOBJ-N-DIM_13
 70
     0
  0
APPID
  2
GENIUS_GENOBJ-N-DIMLI_13
 70
     0
  0
APPID
  2
GENIUS_GENOBJ-N-FITL_13
 70
     0
  0
APPID
  2
GENIUS_GENFITL_13
 70
     0
  0
APPID
  2
GENLAYCOLOR
 70
     0
  0
APPID
  2
ACADANNOTATIVE
 70
     0
  0
APPID
  2
ACADANNOPO
 70
     0
  0
ENDTAB
  0
TABLE
  2
DIMSTYLE
 70
    23
  0
DIMSTYLE
  2
STANDARD
 70
     0
  3

  4

  5

  6

  7

 40
1.0
 41
2.5
 42
0.625
 43
3.75
 44
1.25
 45
0.0
 46
0.0
 47
0.0
 48
0.0
140
2.5
141
2.5
142
0.0
143
0.0394
144
1.0
145
0.0
146
1.0
147
0.625
 71
     0
 72
     0
 73
     0
 74
     0
 75
     0
 76
     0
 77
     1
 78
     8
170
     0
171
     4
172
     1
173
     0
174
     0
175
     0
176
     0
177
     0
178
     0
  0
DIMSTYLE
  2
AM_JIS
 70
     0
  3

  4
"
  5
OPEN
  6

  7

 40
1.0
 41
2.5
 42
1.0
 43
7.0
 44
1.0
 45
0.0
 46
0.0
 47
0.1
 48
0.1
140
3.0
141
0.0
142
0.0
143
0.0393701
144
1.0
145
0.0
146
0.71
147
1.0
 71
     0
 72
     0
 73
     0
 74
     0
 75
     0
 76
     0
 77
     3
 78
     8
170
     0
171
     2
172
     1
173
     0
174
     0
175
     0
176
   256
177
   256
178
     2
  0
DIMSTYLE
  2
AM_JIS$3
 70
     0
  3

  4
"
  5
OPEN
  6

  7

 40
1.0
 41
2.5
 42
1.0
 43
10.0
 44
1.0
 45
0.0
 46
0.0
 47
0.1
 48
0.1
140
3.0
141
0.0
142
0.0
143
0.0393701
144
1.0
145
0.0
146
0.71
147
1.0
 71
     0
 72
     0
 73
     0
 74
     0
 75
     0
 76
     0
 77
     3
 78
     8
170
     0
171
     2
172
     1
173
     0
174
     0
175
     0
176
   256
177
   256
178
     2
  0
DIMSTYLE
  2
AM_JIS$4
 70
     0
  3

  4
"
  5

  6
OPEN30
  7
OPEN
 40
1.0
 41
2.5
 42
1.0
 43
10.0
 44
1.0
 45
0.0
 46
0.0
 47
0.1
 48
0.1
140
3.0
141
0.0
142
0.0
143
0.0393701
144
1.0
145
0.0
146
0.71
147
1.0
 71
     0
 72
     0
 73
     0
 74
     0
 75
     0
 76
     0
 77
     3
 78
     8
170
     0
171
     2
172
     1
173
     1
174
     0
175
     0
176
   256
177
   256
178
     2
  0
DIMSTYLE
  2
AM_JIS$6
 70
     0
  3

  4
"
  5
OPEN30
  6
OPEN30
  7
OPEN30
 40
1.0
 41
2.5
 42
1.0
 43
10.0
 44
1.0
 45
0.0
 46
0.0
 47
0.1
 48
0.1
140
3.5
141
0.0
142
0.0
143
0.0393701
144
1.0
145
0.0
146
0.71
147
1.5
 71
     0
 72
     0
 73
     0
 74
     0
 75
     0
 76
     0
 77
     0
 78
     8
170
     0
171
     2
172
     1
173
     0
174
     0
175
     0
176
   256
177
   256
178
     2
  0
DIMSTYLE
  2
AM_JIS$7
 70
     0
  3

  4
"
  5
OPEN30
  6

  7

 40
1.0
 41
2.5
 42
1.0
 43
10.0
 44
1.0
 45
0.0
 46
0.0
 47
0.1
 48
0.1
140
3.0
141
0.0
142
0.0
143
0.0393701
144
1.0
145
0.0
146
0.71
147
1.0
 71
     0
 72
     0
 73
     0
 74
     0
 75
     0
 76
     0
 77
     3
 78
     8
170
     0
171
     2
172
     1
173
     0
174
     0
175
     0
176
   256
177
   256
178
     2
  0
DIMSTYLE
  2
AM_JIS$SF
 70
     0
  3

  4
"
  5
OPEN
  6

  7

 40
1.0
 41
2.5
 42
1.0
 43
7.0
 44
1.0
 45
0.0
 46
0.0
 47
0.1
 48
0.1
140
3.5
141
0.0
142
0.0
143
0.0393701
144
1.0
145
0.0
146
0.71
147
1.5
 71
     0
 72
     0
 73
     0
 74
     0
 75
     1
 76
     1
 77
     3
 78
     8
170
     0
171
     2
172
     1
173
     0
174
     0
175
     0
176
   256
177
   256
178
     2
  0
DIMSTYLE
  2
AM_JIS$SH
 70
     0
  3

  4
"
  5

  6
GENAXEH
  7
OPEN
 40
1.0
 41
2.5
 42
1.0
 43
7.0
 44
1.0
 45
0.0
 46
0.0
 47
0.1
 48
0.1
140
3.5
141
0.0
142
0.0
143
0.0393701
144
2.0
145
0.0
146
0.71
147
1.5
 71
     0
 72
     0
 73
     0
 74
     0
 75
     1
 76
     1
 77
     3
 78
     8
170
     0
171
     2
172
     1
173
     1
174
     0
175
     0
176
   256
177
   256
178
     2
  0
DIMSTYLE
  2
AM_ISO
 70
     0
  3

  4
"
  5

  6

  7

 40
1.0
 41
2.5
 42
1.0
 43
10.0
 44
1.0
 45
0.0
 46
0.0
 47
0.1
 48
0.1
140
3.5
141
0.0
142
0.0
143
0.0393701
144
1.0
145
0.0
146
0.71
147
1.5
 71
     0
 72
     0
 73
     0
 74
     0
 75
     0
 76
     0
 77
     1
 78
     8
170
     0
171
     2
172
     1
173
     0
174
     0
175
     0
176
   256
177
   256
178
     2
  0
DIMSTYLE
  2
AM_ISO$3
 70
     0
  3

  4
"
  5

  6

  7

 40
1.0
 41
2.5
 42
1.0
 43
10.0
 44
1.0
 45
0.0
 46
0.0
 47
0.1
 48
0.1
140
3.5
141
0.0
142
0.0
143
0.0393701
144
1.0
145
0.0
146
0.71
147
1.5
 71
     0
 72
     0
 73
     0
 74
     1
 75
     0
 76
     0
 77
     1
 78
     8
170
     0
171
     2
172
     0
173
     0
174
     0
175
     0
176
   256
177
   256
178
     2
  0
DIMSTYLE
  2
AM_ISO$4
 70
     0
  3

  4
"
  5

  6

  7

 40
1.0
 41
2.5
 42
1.0
 43
10.0
 44
1.0
 45
0.0
 46
0.0
 47
0.1
 48
0.1
140
3.5
141
0.0
142
0.0
143
0.0393701
144
1.0
145
0.0
146
0.71
147
1.5
 71
     0
 72
     0
 73
     0
 74
     1
 75
     0
 76
     0
 77
     1
 78
     8
170
     0
171
     2
172
     0
173
     0
174
     0
175
     0
176
   256
177
   256
178
     2
  0
DIMSTYLE
  2
AM_ISO$6
 70
     0
  3

  4
"
  5

  6

  7

 40
1.0
 41
2.5
 42
1.0
 43
10.0
 44
1.0
 45
0.0
 46
0.0
 47
0.1
 48
0.1
140
3.5
141
0.0
142
0.0
143
0.0393701
144
1.0
145
0.0
146
0.71
147
1.5
 71
     0
 72
     0
 73
     0
 74
     0
 75
     0
 76
     0
 77
     0
 78
     8
170
     0
171
     2
172
     1
173
     0
174
     0
175
     0
176
   256
177
   256
178
     2
  0
DIMSTYLE
  2
AM_ISO$7
 70
     0
  3

  4
"
  5

  6

  7

 40
1.0
 41
2.5
 42
1.0
 43
10.0
 44
1.0
 45
0.0
 46
0.0
 47
0.1
 48
0.1
140
5.0
141
0.0
142
0.0
143
0.0393701
144
1.0
145
0.0
146
0.71
147
1.5
 71
     0
 72
     0
 73
     0
 74
     0
 75
     0
 76
     0
 77
     1
 78
     8
170
     0
171
     2
172
     1
173
     0
174
     0
175
     0
176
   256
177
   256
178
     2
  0
DIMSTYLE
  2
AM_ISO$SF
 70
     0
  3

  4
"
  5

  6

  7

 40
1.0
 41
2.5
 42
1.0
 43
10.0
 44
1.0
 45
0.0
 46
0.0
 47
0.1
 48
0.1
140
3.5
141
0.0
142
0.0
143
0.0393701
144
1.0
145
0.0
146
0.71
147
1.5
 71
     0
 72
     0
 73
     0
 74
     0
 75
     1
 76
     1
 77
     1
 78
     8
170
     0
171
     2
172
     1
173
     0
174
     0
175
     0
176
   256
177
   256
178
     2
  0
DIMSTYLE
  2
AM_ISO$SH
 70
     0
  3

  4
"
  5

  6
GENAXEH
  7

 40
1.0
 41
2.5
 42
1.0
 43
10.0
 44
1.0
 45
0.0
 46
0.0
 47
0.1
 48
0.1
140
3.5
141
0.0
142
0.0
143
0.0393701
144
2.0
145
0.0
146
0.71
147
1.5
 71
     0
 72
     0
 73
     0
 74
     0
 75
     1
 76
     1
 77
     1
 78
     8
170
     0
171
     2
172
     1
173
     1
174
     0
175
     0
176
   256
177
   256
178
     2
  0
DIMSTYLE
  2
AM_JIS$2
 70
     0
  3

  4
"
  5
OPEN
  6

  7

 40
1.0
 41
2.5
 42
1.0
 43
7.0
 44
1.0
 45
0.0
 46
0.0
 47
0.1
 48
0.1
140
3.0
141
0.0
142
0.0
143
0.0393701
144
1.0
145
0.0
146
0.71
147
1.0
 71
     0
 72
     0
 73
     0
 74
     0
 75
     0
 76
     0
 77
     3
 78
     8
170
     0
171
     2
172
     1
173
     0
174
     0
175
     0
176
   256
177
   256
178
     2
  0
DIMSTYLE
  2
AM_JIS$0
 70
     0
  3

  4
"
  5
OPEN
  6

  7

 40
1.0
 41
2.5
 42
1.0
 43
7.0
 44
1.0
 45
0.0
 46
0.0
 47
0.1
 48
0.1
140
3.0
141
0.0
142
0.0
143
0.0393701
144
1.0
145
0.0
146
0.71
147
1.0
 71
     0
 72
     0
 73
     0
 74
     0
 75
     0
 76
     0
 77
     3
 78
     8
170
     0
171
     2
172
     1
173
     0
174
     0
175
     0
176
   256
177
   256
178
     2
  0
DIMSTYLE
  2
AM_ANSI
 70
     0
  3

  4
mm
  5

  6

  7

 40
1.0
 41
0.12
 42
0.05
 43
0.5
 44
0.1
 45
0.0
 46
0.0
 47
0.1
 48
0.1
140
0.12
141
0.0
142
0.0
143
25.4
144
1.0
145
0.0
146
0.71
147
0.06
 71
     0
 72
     0
 73
     1
 74
     1
 75
     0
 76
     0
 77
     0
 78
     7
170
     0
171
     2
172
     0
173
     0
174
     0
175
     0
176
   256
177
   256
178
     2
  0
DIMSTYLE
  2
AM_ANSI$3
 70
     0
  3

  4
mm
  5

  6

  7

 40
1.0
 41
0.12
 42
0.05
 43
0.5
 44
0.1
 45
0.0
 46
0.0
 47
0.1
 48
0.1
140
0.12
141
0.0
142
0.0
143
25.4
144
1.0
145
0.0
146
0.71
147
0.06
 71
     0
 72
     0
 73
     1
 74
     1
 75
     0
 76
     0
 77
     0
 78
     7
170
     0
171
     2
172
     0
173
     0
174
     0
175
     0
176
   256
177
   256
178
     2
  0
DIMSTYLE
  2
AM_ANSI$4
 70
     0
  3

  4
mm
  5

  6

  7

 40
1.0
 41
0.12
 42
0.05
 43
0.5
 44
0.1
 45
0.0
 46
0.0
 47
0.1
 48
0.1
140
0.12
141
0.0
142
0.0
143
25.4
144
1.0
145
0.0
146
0.71
147
0.06
 71
     0
 72
     0
 73
     1
 74
     1
 75
     0
 76
     0
 77
     0
 78
     7
170
     0
171
     2
172
     0
173
     0
174
     0
175
     0
176
   256
177
   256
178
     2
  0
DIMSTYLE
  2
AM_ANSI$7
 70
     0
  3

  4
mm
  5

  6

  7

 40
1.0
 41
0.12
 42
0.05
 43
0.5
 44
0.1
 45
0.0
 46
0.0
 47
0.1
 48
0.1
140
0.12
141
0.0
142
0.0
143
25.4
144
1.0
145
0.0
146
0.71
147
0.06
 71
     0
 72
     0
 73
     1
 74
     1
 75
     0
 76
     0
 77
     0
 78
     7
170
     0
171
     2
172
     0
173
     0
174
     0
175
     0
176
   256
177
   256
178
     2
  0
DIMSTYLE
  2
AM_ANSI$SF
 70
     0
  3

  4
mm
  5

  6

  7

 40
1.0
 41
0.12
 42
0.05
 43
0.5
 44
0.1
 45
0.0
 46
0.0
 47
0.1
 48
0.1
140
0.12
141
0.0
142
0.0
143
25.4
144
1.0
145
0.0
146
0.71
147
0.06
 71
     0
 72
     0
 73
     1
 74
     1
 75
     1
 76
     1
 77
     0
 78
     7
170
     0
171
     2
172
     0
173
     0
174
     0
175
     0
176
   256
177
   256
178
     2
  0
DIMSTYLE
  2
AM_ANSI$SH
 70
     0
  3

  4
mm
  5

  6
GENAXEH
  7

 40
1.0
 41
0.12
 42
0.05
 43
0.5
 44
0.1
 45
0.0
 46
0.0
 47
0.1
 48
0.1
140
0.12
141
0.0
142
0.0
143
25.4
144
1.0
145
0.0
146
0.71
147
0.06
 71
     0
 72
     0
 73
     1
 74
     1
 75
     1
 76
     1
 77
     0
 78
     7
170
     0
171
     2
172
     0
173
     1
174
     0
175
     0
176
   256
177
   256
178
     2
  0
ENDTAB
  0
ENDSEC
  0
SECTION
  2
BLOCKS
  0
BLOCK
  8
0
  2
$MODEL_SPACE
 70
     0
 10
0.0
 20
0.0
 30
0.0
  3
$MODEL_SPACE
  1

  0
ENDBLK
  5
1C
  8
0
  0
BLOCK
 67
     1
  8
0
  2
$PAPER_SPACE
 70
     0
 10
0.0
 20
0.0
 30
0.0
  3
$PAPER_SPACE
  1

  0
ENDBLK
  5
19
 67
     1
  8
0
  0
BLOCK
  8
0
  2
_OPEN30
 70
     0
 10
0.0
 20
0.0
 30
0.0
  3
_OPEN30
  1

  0
LINE
  5
2EF
  8
0
  6
BYBLOCK
 62
     0
 10
-1.0
 20
0.26794919
 30
0.0
 11
0.0
 21
0.0
 31
0.0
  0
LINE
  5
2F0
  8
0
  6
BYBLOCK
 62
     0
 10
0.0
 20
0.0
 30
0.0
 11
-1.0
 21
-0.26794919
 31
0.0
  0
LINE
  5
2F1
  8
0
  6
BYBLOCK
 62
     0
 10
0.0
 20
0.0
 30
0.0
 11
-1.0
 21
0.0
 31
0.0
  0
ENDBLK
  5
2F3
  8
0
  0
BLOCK
  8
0
  2
GENAXEH
 70
     0
 10
0.0
 20
0.0
 30
0.0
  3
GENAXEH
  1

  0
LINE
  5
2F5
  8
0
 10
-1.0
 20
0.0
 30
0.0
 11
1.0
 21
0.0
 31
0.0
  0
ENDBLK
  5
2F7
  8
0
  0
BLOCK
  8
0
  2
_OPEN
 70
     0
 10
0.0
 20
0.0
 30
0.0
  3
_OPEN
  1

  0
LINE
  5
597
  8
0
  6
BYBLOCK
 62
     0
 10
-1.0
 20
0.1666666666666667
 30
0.0
 11
0.0
 21
0.0
 31
0.0
  0
LINE
  5
598
  8
0
  6
BYBLOCK
 62
     0
 10
-1.0
 20
-0.1666666666666667
 30
0.0
 11
0.0
 21
0.0
 31
0.0
  0
LINE
  5
599
  8
0
  6
BYBLOCK
 62
     0
 10
0.0
 20
0.0
 30
0.0
 11
-1.0
 21
0.0
 31
0.0
  0
ENDBLK
  5
59B
  8
0
  0
BLOCK
  8
0
  2
_TAGCIRCLE
 70
     2
 10
0.0
 20
0.0
 30
0.0
  3
_TAGCIRCLE
  1

  0
CIRCLE
  5
1151
  8
0
  6
BYBLOCK
 62
     0
 10
0.0
 20
0.0
 30
0.0
 40
4.0
  0
ATTDEF
  5
1152
  8
0
 62
     0
 10
-7.1
 20
-1.5
 30
0.0
 40
3.0
  1
タグ番号
 72
     1
 11
0.0
 21
-1.5
 31
0.0
  3
タグ番号を入力
  2
タグ番号
 70
     0
  0
ENDBLK
  5
1154
  8
0
  0
BLOCK
  8
0
  2
_ACMFILLED15
 70
     0
 10
0.0
 20
0.0
 30
0.0
  3
_ACMFILLED15
  1
Acad:XRef
  0
TRACE
  5
7B9D
  8
AM_0
 62
     0
 10
-1.0
 20
0.1316524975873958
 30
0.0
 11
-1.0
 21
-0.1316524975873958
 31
0.0
 12
0.0
 22
0.0
 32
0.0
 13
0.0
 23
0.0
 33
0.0
  0
ENDBLK
  5
7B9B
  8
0
  0
BLOCK
  8
0
  2
_ACMOPEN30
 70
     0
 10
0.0
 20
0.0
 30
0.0
  3
_ACMOPEN30
  1
Acad:XRef
  0
LINE
  5
7BA7
  8
AM_0
 62
     0
 10
-1.0
 20
0.0
 30
0.0
 11
0.0
 21
0.0
 31
0.0
  0
LINE
  5
7BA8
  8
AM_0
 62
     0
 10
-1.0
 20
-0.2679491924311227
 30
0.0
 11
0.0
 21
0.0
 31
0.0
  0
LINE
  5
7BA9
  8
AM_0
 62
     0
 10
-1.0
 20
0.2679491924311227
 30
0.0
 11
0.0
 21
0.0
 31
0.0
  0
ENDBLK
  5
7BA6
  8
0
  0
BLOCK
  8
0
  2
_ACMFILLEDHALF
 70
     0
 10
0.0
 20
0.0
 30
0.0
  3
_ACMFILLEDHALF
  1

  0
TRACE
  5
7BB2
  8
0
 62
     0
 10
-0.8
 20
0.0
 30
0.0
 11
-1.0
 21
0.166666666
 31
0.0
 12
0.0
 22
0.0
 32
0.0
 13
0.0
 23
0.0
 33
0.0
  0
LINE
  5
7BB3
  8
0
 62
     0
 10
-1.0
 20
0.0
 30
0.0
 11
-0.8
 21
0.0
 31
0.0
  0
ENDBLK
  5
7BB4
  8
0
  0
BLOCK
  8
0
  2
_ACMOPEN15
 70
     0
 10
0.0
 20
0.0
 30
0.0
  3
_ACMOPEN15
  1
Acad:XRef
  0
LINE
  5
7BC1
  8
AM_0
 62
     0
 10
-1.0
 20
0.0
 30
0.0
 11
0.0
 21
0.0
 31
0.0
  0
LINE
  5
7BC2
  8
AM_0
 62
     0
 10
-1.0
 20
-0.1316524975873958
 30
0.0
 11
0.0
 21
0.0
 31
0.0
  0
LINE
  5
7BC3
  8
AM_0
 62
     0
 10
-1.0
 20
0.1316524975873958
 30
0.0
 11
0.0
 21
0.0
 31
0.0
  0
ENDBLK
  5
7BC0
  8
0
  0
BLOCK
  8
10
  2
*X9
 70
     1
 10
0.0
 20
0.0
 30
0.0
  3
*X9
  1
Acad:XRef
  0
TEXT
  5
9CC3
  8
0
 62
     7
 10
69.35712706503368
 20
206.6384461030276
 30
0.0
 40
1.9
  1
凍結
  0
TEXT
  5
9CC4
  8
0
 62
     7
 10
69.34302687950493
 20
203.3143273646231
 30
0.0
 40
1.9
  1
予防
  0
ENDBLK
  5
9CC6
  8
10
  0
ENDSEC
  0
SECTION
  2
ENTITIES
  0
TEXT
  5
1802
  8
10
 10
-1.499998068022251
 20
0.0000050735020523
 30
0.0
 40
10.0
  1
2024.02.01 EV1A 1台単独AU
 11
-1.499998068022251
 21
0.0000050735020523
 31
0.0
 73
     1
  0
LINE
  5
460A
  8
0
 10
25.5218561517737
 20
289.8911362700035
 30
0.0
 11
125.5218561517737
 21
289.8911362700032
 31
0.0
  0
LINE
  5
460B
  8
0
 10
25.5218561517737
 20
169.8911362700033
 30
0.0
 11
125.5218561517737
 21
169.8911362700033
 31
0.0
  0
ARC
  5
460D
  8
0
 10
25.5218561517737
 20
281.8911362700035
 30
0.0
 40
8.0
 50
90.0
 51
180.0
  0
LINE
  5
460E
  8
0
 10
21.27921546465438
 20
286.1337769571226
 30
0.0
 11
29.5218561517737
 21
277.8911362700035
 31
0.0
  0
LINE
  5
460F
  8
0
 10
31.5218561517737
 20
181.8911362700033
 30
0.0
 11
119.5218561517737
 21
181.8911362700035
 31
0.0
  0
LINE
  5
4610
  8
0
 10
31.5218561517737
 20
277.8911362700035
 30
0.0
 11
119.5218561517737
 21
277.8911362700034
 31
0.0
  0
LINE
  5
4613
  8
0
 10
29.5218561517737
 20
275.8911362700035
 30
0.0
 11
29.5218561517737
 21
183.8911362700033
 31
0.0
  0
LINE
  5
4615
  8
0
 10
17.5218561517737
 20
281.8911362700035
 30
0.0
 11
17.5218561517737
 21
177.8911362700033
 31
0.0
  0
LINE
  5
4616
  8
0
 10
21.27921546465461
 20
173.648495582884
 30
0.0
 11
29.5218561517737
 21
181.8911362700033
 31
0.0
  0
ARC
  5
4617
  8
0
 10
25.5218561517737
 20
177.8911362700033
 30
0.0
 40
8.0
 50
180.0
 51
270.0
  0
ARC
  5
461D
  8
0
 10
125.5218561517737
 20
281.8911362700032
 30
0.0
 40
8.0
 50
0.0
 51
90.0
  0
LINE
  5
461E
  8
0
 10
129.764496838893
 20
286.1337769571226
 30
0.0
 11
121.5218561517737
 21
277.8911362700032
 31
0.0
  0
LINE
  5
4620
  8
0
 10
121.5218561517737
 20
275.8911362700034
 30
0.0
 11
121.5218561517737
 21
183.8911362700035
 31
0.0
  0
LINE
  5
4621
  8
0
 10
133.5218561517737
 20
281.8911362700032
 30
0.0
 11
133.5218561517737
 21
177.8911362700033
 31
0.0
  0
LINE
  5
4622
  8
0
 10
121.5218561517737
 20
181.8911362700034
 30
0.0
 11
129.764496838893
 21
173.6484955828839
 31
0.0
  0
ARC
  5
4623
  8
0
 10
125.5218561517737
 20
177.8911362700033
 30
0.0
 40
8.0
 50
270.0
 51
0.0
  0
LINE
  5
7574
  8
0
 10
189.5660993381843
 20
280.475921694233
 30
0.0
 11
190.8619853924649
 21
287.8252567141703
 31
0.0
  0
LINE
  5
7575
  8
0
 10
194.6103319285505
 20
169.8911362700033
 30
0.0
 11
194.6103319285506
 21
289.8911362700032
 31
0.0
  0
LINE
  5
7578
  8
0
 10
189.1103319285506
 20
184.5157961757808
 30
0.0
 11
189.1103319285506
 21
275.2664763642251
 31
0.0
  0
LINE
  5
757D
  8
0
 10
189.5660993381843
 20
179.306350845773
 30
0.0
 11
190.8619853924649
 21
171.9570158258361
 31
0.0
  0
ARC
  5
757E
  8
0
 10
193.3240047749954
 20
172.3911362700034
 30
0.0
 40
2.5
 50
190.0000000000002
 51
270.0
  0
LINE
  5
757F
  8
0
 10
194.6103319285506
 20
169.8911362700034
 30
0.0
 11
193.3240047749954
 21
169.8911362700034
 31
0.0
  0
ARC
  5
7580
  8
0
 10
219.1103319285507
 20
184.5157961757808
 30
0.0
 40
30.0
 50
180.0
 51
190.0000000000002
  0
ARC
  5
7581
  8
0
 10
219.1103319285507
 20
275.2664763642251
 30
0.0
 40
30.0
 50
169.9999999999998
 51
180.0
  0
ARC
  5
7582
  8
0
 10
193.3240047749954
 20
287.391136270003
 30
0.0
 40
2.5
 50
90.0
 51
169.9999999999998
  0
LINE
  5
7583
  8
0
 10
194.610331928544
 20
289.8911362700032
 30
0.0
 11
193.3240047749889
 21
289.8911362700032
 31
0.0
  0
ARC
  5
7584
  8
0
 10
186.4103320747654
 20
259.6911362700033
 30
0.0
 40
1.0
 50
90.0
 51
180.0
  0
LINE
  5
7585
  8
0
 10
186.4103320747654
 20
260.6911362700033
 30
0.0
 11
189.1103320747653
 21
260.6911362700033
 31
0.0
  0
LINE
  5
7586
  8
0
 10
186.4103320747654
 20
253.6911362700033
 30
0.0
 11
189.1103320747653
 21
253.6911362700033
 31
0.0
  0
LINE
  5
7587
  8
0
 10
185.4103320747654
 20
259.6911362700033
 30
0.0
 11
185.4103320747654
 21
254.6911362700033
 31
0.0
  0
ARC
  5
7588
  8
0
 10
186.4103320747654
 20
254.6911362700033
 30
0.0
 40
1.0
 50
180.0
 51
270.0
  0
LINE
  5
75A7
  8
0
 10
125.5218568968318
 20
144.5475054339941
 30
0.0
 11
25.5218554067157
 21
144.5475054339941
 31
0.0
  0
LINE
  5
75A8
  8
0
 10
125.5218568968318
 20
140.5475055932502
 30
0.0
 11
25.5218554067157
 21
140.5475055932502
 31
0.0
  0
LINE
  5
75A9
  8
0
 10
17.52185782070381
 20
140.5475055932502
 30
0.0
 11
17.52185782070381
 21
144.5475054339941
 31
0.0
  0
LINE
  5
75AA
  8
0
 10
25.5218554067157
 20
144.5475054339941
 30
0.0
 11
17.52185782070381
 21
144.5475054339941
 31
0.0
  0
LINE
  5
75AB
  8
0
 10
25.5218554067157
 20
140.5475055932502
 30
0.0
 11
17.52185782070381
 21
140.5475055932502
 31
0.0
  0
LINE
  5
75AC
  8
0
 10
133.5218544828437
 20
140.5475055932502
 30
0.0
 11
133.5218544828437
 21
144.5475054339941
 31
0.0
  0
LINE
  5
75AD
  8
0
 10
133.5218544828437
 20
144.5475054339941
 30
0.0
 11
125.5218568968318
 21
144.5475054339941
 31
0.0
  0
LINE
  5
75AE
  8
0
 10
133.5218544828437
 20
140.5475055932502
 30
0.0
 11
125.5218568968318
 21
140.5475055932502
 31
0.0
  0
LINE
  5
75AF
  8
0
 10
18.62185781474335
 20
144.5475054339941
 30
0.0
 11
18.62185781474335
 21
145.0475054339912
 31
0.0
  0
LINE
  5
75B0
  8
0
 10
132.4218544888042
 20
144.5475054339941
 30
0.0
 11
132.4218544888042
 21
145.0475054339912
 31
0.0
  0
LINE
  5
75B1
  8
0
 10
118.5218576120876
 20
138.0475056491296
 30
0.0
 11
32.52185469145996
 21
138.0475056491296
 31
0.0
  0
LINE
  5
75B2
  8
0
 10
120.5218579399131
 20
140.5475055932502
 30
0.0
 11
120.5218579399131
 21
138.0475056491296
 31
0.0
  0
LINE
  5
75B3
  8
0
 10
120.5218579399131
 20
138.0475056491296
 30
0.0
 11
118.5218576120876
 21
138.0475056491296
 31
0.0
  0
LINE
  5
75B4
  8
0
 10
30.52185436363442
 20
138.0475056491296
 30
0.0
 11
30.52185436363442
 21
140.5475055932502
 31
0.0
  0
LINE
  5
75B5
  8
0
 10
32.52185469145996
 20
138.0475056491296
 30
0.0
 11
30.52185436363442
 21
138.0475056491296
 31
0.0
  0
LINE
  5
75B6
  8
0
 10
39.02185668821556
 20
150.5475053697328
 30
0.0
 11
112.021855615332
 21
150.5475053697328
 31
0.0
  0
LINE
  5
75B7
  8
0
 10
118.521857612088
 20
118.5475052467982
 30
0.0
 11
50.02185662861137
 21
118.5475052467982
 31
0.0
  0
LINE
  5
75B8
  8
0
 10
50.02185662861137
 20
118.5475052467982
 30
0.0
 11
40.15028437252312
 21
118.5475052467982
 31
0.0
  0
LINE
  5
75B9
  8
0
 10
38.73607104296951
 20
119.1332922450702
 30
0.0
 11
33.52185671801834
 21
124.3475047073762
 31
0.0
  0
LINE
  5
75BA
  8
0
 10
33.52185671801834
 20
124.3475047073762
 30
0.0
 11
33.10764168973236
 21
124.7617197356622
 31
0.0
  0
ARC
  5
75BB
  8
0
 10
118.5218561517742
 20
120.5475054554145
 30
0.0
 40
2.000000000000028
 50
270.0
 51
0.0
  0
ARC
  5
75BC
  8
0
 10
40.15028327652016
 20
120.5475054554145
 30
0.0
 40
2.0
 50
224.9999999999945
 51
270.0
  0
LINE
  5
75BD
  8
0
 10
118.521857612088
 20
137.5475055671732
 30
0.0
 11
32.52185469146042
 21
137.5475055671732
 31
0.0
  0
LINE
  5
75BE
  8
0
 10
120.5218579399136
 20
137.5475055671732
 30
0.0
 11
118.521857612088
 21
137.5475055671732
 31
0.0
  0
LINE
  5
75BF
  8
0
 10
120.5218579399136
 20
137.5475055671732
 30
0.0
 11
120.5218579399136
 21
120.5475055746238
 31
0.0
  0
ARC
  5
75C0
  8
0
 10
34.52185615177422
 20
126.1759325801607
 30
0.0
 40
2.0
 50
180.0
 51
224.9999999999945
  0
LINE
  5
75C1
  8
0
 10
32.52185469146042
 20
126.1759330652158
 30
0.0
 11
32.52185469146042
 21
135.0475056230526
 31
0.0
  0
LINE
  5
75C2
  8
0
 10
30.52185436363487
 20
135.0475056230526
 30
0.0
 11
30.52185436363487
 21
137.5475055671732
 31
0.0
  0
LINE
  5
75C3
  8
0
 10
32.52185469146042
 20
137.5475055671732
 30
0.0
 11
30.52185436363487
 21
137.5475055671732
 31
0.0
  0
LINE
  5
75C4
  8
0
 10
32.52185469146042
 20
135.0475056230526
 30
0.0
 11
30.52185436363487
 21
135.0475056230526
 31
0.0
  0
LINE
  5
75C5
  8
0
 10
31.62185435767441
 20
137.5475055671732
 30
0.0
 11
31.62185435767441
 21
138.0475056491296
 31
0.0
  0
LINE
  5
75C6
  8
0
 10
119.421857945874
 20
137.5475055671732
 30
0.0
 11
119.421857945874
 21
138.0475056491296
 31
0.0
  0
ARC
  5
75C7
  8
0
 10
114.721856151774
 20
118.3475054554144
 30
0.0
 40
0.2000000000000171
 50
90.0
 51
180.0
  0
LINE
  5
75C8
  8
0
 10
48.52185545141964
 20
118.5475052467982
 30
0.0
 11
48.52185545141964
 21
118.3475055865447
 31
0.0
  0
LINE
  5
75C9
  8
0
 10
50.02185662861137
 20
118.3475055865447
 30
0.0
 11
50.02185662861137
 21
118.5475052467982
 31
0.0
  0
LINE
  5
75CA
  8
0
 10
49.82185696835785
 20
109.6934550575415
 30
0.0
 11
48.40028246517448
 21
109.6934550575415
 31
0.0
  0
LINE
  5
75CB
  8
0
 10
50.02185662861137
 20
110.5792583100001
 30
0.0
 11
48.59898199911385
 21
110.5792583100001
 31
0.0
  0
LINE
  5
75CC
  8
0
 10
112.5218566286114
 20
109.5475056342284
 30
0.0
 11
50.02185662861137
 21
109.5475056342284
 31
0.0
  0
LINE
  5
75CD
  8
0
 10
50.02185662861137
 20
110.5792583100001
 30
0.0
 11
50.02185662861137
 21
111.5475059620539
 31
0.0
  0
LINE
  5
75CE
  8
0
 10
50.02185662861137
 20
109.5475056342284
 30
0.0
 11
50.02185662861137
 21
109.6246154181163
 31
0.0
  0
LINE
  5
75CF
  8
0
 10
47.73606879289417
 20
110.1332926325003
 30
0.0
 11
38.91496320839195
 21
118.9544000796477
 31
0.0
  0
LINE
  5
75D0
  8
0
 10
48.52185545141964
 20
111.9695273361604
 30
0.0
 11
48.52185545141964
 21
110.9190792910258
 31
0.0
  0
ARC
  5
75D1
  8
0
 10
112.5218561517742
 20
111.5475054554145
 30
0.0
 40
2.0
 50
270.0
 51
0.0
  0
LINE
  5
75D2
  8
0
 10
48.52185545141964
 20
111.9695273361604
 30
0.0
 11
48.52185545141964
 21
118.3475055865447
 31
0.0
  0
LINE
  5
75D3
  8
0
 10
114.5218569564369
 20
118.3475055865447
 30
0.0
 11
114.5218569564369
 21
111.5475059620539
 31
0.0
  0
LINE
  5
75D4
  8
0
 10
50.02185662861137
 20
118.3475055865447
 30
0.0
 11
50.02185662861137
 21
111.5475059620539
 31
0.0
  0
ARC
  5
75D5
  8
0
 10
49.15028327652016
 20
111.5475054554145
 30
0.0
 40
1.114196214777944
 50
235.6658476036726
 51
240.3436094009312
  0
ARC
  5
75D6
  8
0
 10
49.15028327652016
 20
111.5475054554145
 30
0.0
 40
2.000000000000035
 50
224.9999999999945
 51
247.9756871629578
  0
ARC
  5
75D7
  8
0
 10
48.72185615177403
 20
111.2475054554145
 30
0.0
 40
0.2000000000000171
 50
180.0
 51
270.0
  0
LINE
  5
75D8
  8
0
 10
48.72185697431831
 20
111.047504948775
 30
0.0
 11
49.82185696835785
 21
111.047504948775
 31
0.0
  0
ARC
  5
75D9
  8
0
 10
49.8218561517744
 20
111.2475054554145
 30
0.0
 40
0.1999999999999886
 50
270.0
 51
0.0
  0
ARC
  5
75DA
  8
0
 10
49.15028327652016
 20
111.5475054554145
 30
0.0
 40
2.000000000000035
 50
247.9756871629578
 51
270.0
  0
LINE
  5
75DB
  8
0
 10
49.15028398509293
 20
109.5475056342284
 30
0.0
 11
50.02185662861137
 21
109.5475056342284
 31
0.0
  0
LINE
  5
75DC
  8
0
 10
48.52185545141964
 20
112.1759326330821
 30
0.0
 11
49.09170379514961
 21
111.6060842893521
 31
0.0
  0
LINE
  5
75DD
  8
0
 10
49.23312512810497
 20
111.5475059620539
 30
0.0
 11
50.02185662861137
 21
111.5475059620539
 31
0.0
  0
ARC
  5
75DE
  8
0
 10
49.23312598899446
 20
111.7475054554145
 30
0.0
 40
0.1999999999999895
 50
224.9999999999945
 51
270.0
  0
LINE
  5
75DF
  8
0
 10
32.52185615177422
 20
126.1759325801607
 30
0.0
 11
32.52185469146042
 21
125.3475063767091
 31
0.0
  0
LINE
  5
75E0
  8
0
 10
32.52185469146042
 20
125.3475063767091
 30
0.0
 11
33.10760135571871
 21
124.7616794071774
 31
0.0
  0
LINE
  5
75E1
  8
0
 10
52.96668634991823
 20
153.747138105097
 30
0.0
 11
51.96668634991846
 21
153.747138105097
 31
0.0
  0
LINE
  5
75E2
  8
0
 10
53.96668634991846
 20
154.247138105097
 30
0.0
 11
52.96668634991846
 21
154.247138105097
 31
0.0
  0
LINE
  5
75E3
  8
0
 10
51.96668634991846
 20
154.247138105097
 30
0.0
 11
50.96668634991846
 21
154.247138105097
 31
0.0
  0
LINE
  5
75E4
  8
0
 10
51.96668634991846
 20
154.247138105097
 30
0.0
 11
51.96668634991846
 21
153.747138105097
 31
0.0
  0
LINE
  5
75E5
  8
0
 10
54.96668634991846
 20
154.247138105097
 30
0.0
 11
54.96668634991846
 21
153.747138105097
 31
0.0
  0
LINE
  5
75E6
  8
0
 10
52.96668634991846
 20
154.247138105097
 30
0.0
 11
52.96668634991823
 21
153.747138105097
 31
0.0
  0
LINE
  5
75E7
  8
0
 10
53.96668634991846
 20
154.247138105097
 30
0.0
 11
53.96668634991846
 21
153.747138105097
 31
0.0
  0
LINE
  5
75E8
  8
0
 10
54.96668634991846
 20
153.747138105097
 30
0.0
 11
53.96668634991846
 21
153.747138105097
 31
0.0
  0
LINE
  5
75E9
  8
0
 10
56.9666863499184
 20
150.5475053697328
 30
0.0
 11
56.96668634991823
 21
153.247138105097
 31
0.0
  0
ARC
  5
75EA
  8
0
 10
55.96668634991823
 20
153.247138105097
 30
0.0
 40
1.0
 50
0.0
 51
90.0
  0
LINE
  5
75EB
  8
0
 10
55.96668634991823
 20
154.247138105097
 30
0.0
 11
54.96668634991846
 21
154.247138105097
 31
0.0
  0
LINE
  5
75EC
  8
0
 10
49.96668634991846
 20
150.5475053697328
 30
0.0
 11
49.96668634991846
 21
153.247138105097
 31
0.0
  0
ARC
  5
75ED
  8
0
 10
50.96668634991846
 20
153.247138105097
 30
0.0
 40
1.0
 50
90.0
 51
180.0
  0
ARC
  5
75EE
  8
0
 10
40.32184852237873
 20
117.5475167449059
 30
0.0
 40
0.3000000119209
 50
179.9980552173233
 51
314.9996865396516
  0
LINE
  5
75EF
  8
0
 10
40.02185691471294
 20
117.5475167449059
 30
0.0
 11
33.52186072941066
 21
124.047512930209
 31
0.0
  0
LINE
  5
75F0
  8
0
 10
35.50176490421489
 20
119.2391823943209
 30
0.0
 11
36.91597617740871
 21
120.6533974822109
 31
0.0
  0
LINE
  5
75F1
  8
0
 10
36.91597617740871
 20
117.8249711211269
 30
0.0
 11
38.33019126529888
 21
119.2391823943209
 31
0.0
  0
LINE
  5
75F2
  8
0
 10
36.63312400455669
 20
117.8249787505219
 30
0.0
 11
35.50176108951763
 21
118.9563416655609
 31
0.0
  0
ARC
  5
75F3
  8
0
 10
35.64318336124683
 20
119.0977677519869
 30
0.0
 40
0.2000000029802
 50
135.0000039841164
 51
224.9999996583493
  0
ARC
  5
75F4
  8
0
 10
36.77455390567974
 20
117.9664010222499
 30
0.0
 40
0.2000000029802
 50
224.9999996583493
 51
314.9999987478129
  0
LINE
  5
75F5
  8
0
 10
33.52185310001568
 20
124.0475053008149
 30
0.0
 11
33.52185310001568
 21
124.3475083253789
 31
0.0
  0
LINE
  5
75F6
  8
0
 10
133.5218561517734
 20
145.0475054339912
 30
0.0
 11
17.52185615177331
 21
145.0475054339912
 31
0.0
  0
ARC
  5
75F7
  8
0
 10
118.897196245996
 20
120.5475054339912
 30
0.0
 40
30.0
 50
80.00000000000146
 51
90.0
  0
LINE
  5
75F8
  8
0
 10
118.897196245996
 20
150.5475054339912
 30
0.0
 11
32.14651605755142
 21
150.5475054339912
 31
0.0
  0
ARC
  5
75F9
  8
0
 10
131.0218561517734
 20
146.3338325875464
 30
0.0
 40
2.5
 50
0.0
 51
80.00000000000146
  0
LINE
  5
75FA
  8
0
 10
133.5218561517734
 20
145.0475054339912
 30
0.0
 11
133.5218561517734
 21
146.3338325875464
 31
0.0
  0
LINE
  5
75FB
  8
0
 10
124.1066415760038
 20
150.0917380243574
 30
0.0
 11
131.4559765959407
 21
148.7958519700769
 31
0.0
  0
ARC
  5
75FC
  8
0
 10
32.14651605755142
 20
120.5475054339912
 30
0.0
 40
30.0
 50
90.0
 51
99.99999999999855
  0
ARC
  5
75FD
  8
0
 10
20.02185615177353
 20
146.3338325875463
 30
0.0
 40
2.5
 50
99.99999999999855
 51
180.0
  0
LINE
  5
75FE
  8
0
 10
26.93707072754358
 20
150.0917380243574
 30
0.0
 11
19.58773570760621
 21
148.7958519700768
 31
0.0
  0
LINE
  5
75FF
  8
0
 10
17.52185615177331
 20
145.0475054339978
 30
0.0
 11
17.52185615177331
 21
146.333832587553
 31
0.0
  0
LINE
  5
7600
  8
0
 10
202.1103317953686
 20
263.0161354131874
 30
0.0
 11
202.1103317953686
 21
197.0161357708152
 31
0.0
  0
LINE
  5
7601
  8
0
 10
202.1103317953686
 20
265.0161357410129
 30
0.0
 11
202.1103317953686
 21
263.0161354131874
 31
0.0
  0
LINE
  5
7602
  8
0
 10
202.1103317953686
 20
265.0161357410129
 30
0.0
 11
204.6103317394892
 21
265.0161357410129
 31
0.0
  0
LINE
  5
7603
  8
0
 10
204.6103317394892
 20
195.0161354429897
 30
0.0
 11
202.1103317953686
 21
195.0161354429897
 31
0.0
  0
LINE
  5
7604
  8
0
 10
202.1103317953686
 20
197.0161357708152
 30
0.0
 11
202.1103317953686
 21
195.0161354429897
 31
0.0
  0
LINE
  5
7605
  8
0
 10
202.1103317953686
 20
263.9161357469734
 30
0.0
 11
201.6103317953686
 21
263.9161357469734
 31
0.0
  0
LINE
  5
7606
  8
0
 10
202.1103317953686
 20
196.1161354370292
 30
0.0
 11
201.6103317953686
 21
196.1161354370292
 31
0.0
  0
LINE
  5
7607
  8
0
 10
204.6103317394892
 20
265.0161357410129
 30
0.0
 11
213.481904297326
 21
265.0161357410129
 31
0.0
  0
LINE
  5
7608
  8
0
 10
213.481904297326
 20
195.0161354429897
 30
0.0
 11
204.6103317394892
 21
195.0161354429897
 31
0.0
  0
LINE
  5
7609
  8
0
 10
213.481904297326
 20
265.0161357410129
 30
0.0
 11
219.110331787918
 21
265.0161357410129
 31
0.0
  0
LINE
  5
760A
  8
0
 10
219.110331787918
 20
195.0161354429897
 30
0.0
 11
213.481904297326
 21
195.0161354429897
 31
0.0
  0
LINE
  5
760B
  8
0
 10
228.1103314004878
 20
201.7661360837396
 30
0.0
 11
221.310331775997
 21
201.7661360837396
 31
0.0
  0
ARC
  5
760C
  8
0
 10
219.1103319071273
 20
197.0161355920013
 30
0.0
 40
2.0
 50
270.0
 51
0.0
  0
LINE
  5
760D
  8
0
 10
221.1103321157435
 20
230.0161355920013
 30
0.0
 11
221.1103321157435
 21
197.0161357708152
 31
0.0
  0
ARC
  5
760E
  8
0
 10
219.1103319071273
 20
263.0161355920013
 30
0.0
 40
2.0
 50
0.0
 51
90.0
  0
LINE
  5
760F
  8
0
 10
221.1103321157435
 20
262.0161371119198
 30
0.0
 11
221.1103321157435
 21
230.0161355920013
 31
0.0
  0
LINE
  5
7610
  8
0
 10
221.310331775997
 20
258.266135100263
 30
0.0
 11
228.1103317283133
 21
258.266135100263
 31
0.0
  0
ARC
  5
7611
  8
0
 10
221.3103319071271
 20
201.5661355920013
 30
0.0
 40
0.1999999999999957
 50
90.0
 51
180.0
  0
ARC
  5
7612
  8
0
 10
221.3103319071271
 20
258.4661355920013
 30
0.0
 40
0.2000000000000171
 50
180.0
 51
270.0
  0
LINE
  5
7613
  8
0
 10
230.1103317283133
 20
256.2661351002631
 30
0.0
 11
230.1103317283133
 21
203.7661364115652
 31
0.0
  0
ARC
  5
7614
  8
0
 10
228.1103319071273
 20
203.7661355920013
 30
0.0
 40
2.0
 50
270.0
 51
0.0
  0
LINE
  5
7615
  8
0
 10
221.1103321157435
 20
263.0161354131874
 30
0.0
 11
221.1103321157435
 21
262.0161371119198
 31
0.0
  0
LINE
  5
7617
  8
0
 10
199.1103318512479
 20
290.0161342508968
 30
0.0
 11
195.1103320105041
 21
290.0161342508968
 31
0.0
  0
LINE
  5
7618
  8
0
 10
195.1103320105041
 20
290.0161342508968
 30
0.0
 11
195.1103320105041
 21
282.0161366648849
 31
0.0
  0
LINE
  5
7619
  8
0
 10
199.1103318512479
 20
290.0161342508968
 30
0.0
 11
199.1103318512479
 21
282.0161366648849
 31
0.0
  0
LINE
  5
761A
  8
0
 10
195.1103320105041
 20
282.0161366648849
 30
0.0
 11
195.1103320105041
 21
178.0161345191177
 31
0.0
  0
LINE
  5
761B
  8
0
 10
199.1103318512479
 20
282.0161366648849
 30
0.0
 11
199.1103318512479
 21
178.0161345191177
 31
0.0
  0
LINE
  5
761C
  8
0
 10
199.1103318512479
 20
170.0161369331058
 30
0.0
 11
195.1103320105041
 21
170.0161369331058
 31
0.0
  0
LINE
  5
761D
  8
0
 10
195.1103320105041
 20
178.0161345191177
 30
0.0
 11
195.1103320105041
 21
170.0161369331058
 31
0.0
  0
LINE
  5
761E
  8
0
 10
199.1103318512479
 20
178.0161345191177
 30
0.0
 11
199.1103318512479
 21
170.0161369331058
 31
0.0
  0
LINE
  5
761F
  8
0
 10
195.1103320105041
 20
171.1161369271453
 30
0.0
 11
194.6103319285504
 21
171.1161369271453
 31
0.0
  0
LINE
  5
7620
  8
0
 10
195.1103320105041
 20
288.9161342568573
 30
0.0
 11
194.6103319285506
 21
288.9161342568573
 31
0.0
  0
LINE
  5
7621
  8
0
 10
201.6103317953686
 20
263.0161354131874
 30
0.0
 11
201.6103317953686
 21
197.0161357708152
 31
0.0
  0
LINE
  5
7622
  8
0
 10
201.6103317953686
 20
195.0161354429897
 30
0.0
 11
199.1103318512479
 21
195.0161354429897
 31
0.0
  0
LINE
  5
7623
  8
0
 10
201.6103317953686
 20
197.0161357708152
 30
0.0
 11
201.6103317953686
 21
195.0161354429897
 31
0.0
  0
LINE
  5
7624
  8
0
 10
199.1103318512479
 20
265.0161357410129
 30
0.0
 11
201.6103317953686
 21
265.0161357410129
 31
0.0
  0
LINE
  5
7625
  8
0
 10
201.6103317953686
 20
265.0161357410129
 30
0.0
 11
201.6103317953686
 21
263.0161354131874
 31
0.0
  0
LINE
  5
7626
  8
0
 10
201.6103317953686
 20
263.0161354131874
 30
0.0
 11
201.6103317953686
 21
197.0161357708152
 31
0.0
  0
LINE
  5
77C3
  8
7
 10
12.72785615177361
 20
229.8911362700034
 30
0.0
 11
138.3158561517736
 21
229.8911362700031
 31
0.0
1001
GENIUS_GENOBJ-N-CEN_13
1002
{
1000
OWNER
1000
GEN
1002
}
1001
GENIUS_GENODEF_13
1002
{
1000
HIER
1070
     0
1002
}
1002
{
1000
MANEDIT
1070
     0
1002
}
1002
{
1000
NOSEL
1070
     0
1002
}
1002
{
1000
BEHIND
1070
     0
1002
}
1002
{
1000
OTHER
1070
     0
1002
}
1002
{
1000
REACTOR
1002
}
1001
GENIUS_GENCEN_19
1002
{
1040
2.794
1002
}
  0
LINE
  5
77C4
  8
7
 10
75.5218561517737
 20
294.6851362700035
 30
0.0
 11
75.5218561517737
 21
165.0971362700033
 31
0.0
1001
GENIUS_GENOBJ-N-CEN_13
1002
{
1000
OWNER
1000
GEN
1002
}
1001
GENIUS_GENODEF_13
1002
{
1000
HIER
1070
     0
1002
}
1002
{
1000
MANEDIT
1070
     0
1002
}
1002
{
1000
NOSEL
1070
     0
1002
}
1002
{
1000
BEHIND
1070
     0
1002
}
1002
{
1000
OTHER
1070
     0
1002
}
1002
{
1000
REACTOR
1002
}
1001
GENIUS_GENCEN_19
1002
{
1040
2.794
1002
}
  0
LINE
  5
77DD
  8
7
 10
235.1103317283133
 20
230.0161355920013
 30
0.0
 11
184.1103319285506
 21
230.0161355920013
 31
0.0
1001
GENIUS_GENOBJ-N-CEN_13
1002
{
1000
OWNER
1000
GEN
1002
}
1001
GENIUS_GENODEF_13
1002
{
1000
HIER
1070
     0
1002
}
1002
{
1000
MANEDIT
1070
     0
1002
}
1002
{
1000
NOSEL
1070
     0
1002
}
1002
{
1000
BEHIND
1070
     0
1002
}
1002
{
1000
OTHER
1070
     0
1002
}
1002
{
1000
REACTOR
1002
}
1001
GENIUS_GENCEN_19
1002
{
1040
2.794
1002
}
  0
LINE
  5
77DE
  8
7
 10
75.52185615177376
 20
104.5475056342284
 30
0.0
 11
75.52185615177376
 21
155.5475054339912
 31
0.0
1001
GENIUS_GENOBJ-N-CEN_13
1002
{
1000
OWNER
1000
GEN
1002
}
1001
GENIUS_GENODEF_13
1002
{
1000
HIER
1070
     0
1002
}
1002
{
1000
MANEDIT
1070
     0
1002
}
1002
{
1000
NOSEL
1070
     0
1002
}
1002
{
1000
BEHIND
1070
     0
1002
}
1002
{
1000
OTHER
1070
     0
1002
}
1002
{
1000
REACTOR
1002
}
1001
GENIUS_GENCEN_19
1002
{
1040
2.794
1002
}
  0
LINE
  5
77DF
  8
0
 10
48.59898190247389
 20
110.5792596188625
 30
0.0
 11
48.40028246517448
 21
109.6934550575415
 31
0.0
  0
LINE
  5
77E0
  8
0
 10
50.02185662861137
 20
109.5475056342284
 30
0.0
 11
50.02185662861137
 21
109.6246154181163
 31
0.0
  0
ARC
  5
77E1
  8
0
 10
49.99817736882864
 20
109.6234257302165
 30
0.0
 40
0.0237091269589662
 50
2.876222857360645
 51
43.43589811605096
  0
ARC
  5
77E2
  8
0
 10
49.93341644773955
 20
109.5593603589566
 30
0.0
 40
0.1147998884239122
 50
44.43153582575037
 51
70.88950362693386
  0
ARC
  5
77E3
  8
0
 10
49.82916808337586
 20
109.2891290601922
 30
0.0
 40
0.4043928833089286
 50
69.46801332213798
 51
91.03603616465674
  0
LINE
  5
77E4
  8
0
 10
48.59898199911385
 20
110.5792583100001
 30
0.0
 11
48.52185615177422
 21
110.6274442868451
 31
0.0
  0
LINE
  5
77E5
  8
0
 10
48.52185615177422
 20
110.6274442868451
 30
0.0
 11
48.52185615177422
 21
110.9190783306683
 31
0.0
  0
LINE
  5
77E6
  8
0
 10
38.91496320839195
 20
118.9544000796477
 30
0.0
 11
38.73607104296951
 21
119.1332922450702
 31
0.0
  0
ARC
  5
77E7
  8
0
 10
228.1103317283133
 20
256.2661351002631
 30
0.0
 40
2.0
 50
0.0
 51
90.0
  0
LINE
  5
9036
  8
0
 10
38.2718561517737
 20
264.9911362700033
 30
0.0
 11
112.7718561517737
 21
264.9911362700033
 31
0.0
  0
LINE
  5
9037
  8
0
 10
38.2718561517737
 20
194.7911362700032
 30
0.0
 11
112.7718561517737
 21
194.7911362700032
 31
0.0
  0
LINE
  5
9038
  8
0
 10
38.2718561517737
 20
264.9911362700033
 30
0.0
 11
38.2718561517737
 21
194.7911362700032
 31
0.0
  0
LINE
  5
9039
  8
0
 10
112.7718561517737
 20
264.9911362700033
 30
0.0
 11
112.7718561517737
 21
194.7911362700032
 31
0.0
  0
LINE
  5
903A
  8
0
 10
112.0218556153319
 20
195.3911371342706
 30
0.0
 11
112.0218556153319
 21
264.3911354057359
 31
0.0
  0
LINE
  5
903B
  8
0
 10
39.02185668821551
 20
195.3911371342706
 30
0.0
 11
112.0218556153319
 21
195.3911371342706
 31
0.0
  0
LINE
  5
903C
  8
0
 10
39.02185668821551
 20
264.3911354057359
 30
0.0
 11
39.02185668821551
 21
195.3911371342706
 31
0.0
  0
LINE
  5
903D
  8
0
 10
112.0218556153319
 20
264.3911354057359
 30
0.0
 11
39.02185668821551
 21
264.3911354057359
 31
0.0
  0
LINE
  5
903E
  8
0
 10
40.52185600276209
 20
196.8911364488172
 30
0.0
 11
110.5218563007853
 21
196.8911364488172
 31
0.0
  0
LINE
  5
903F
  8
0
 10
110.5218563007853
 20
196.8911364488172
 30
0.0
 11
110.5218563007853
 21
262.8911360911893
 31
0.0
  0
LINE
  5
9040
  8
0
 10
110.5218563007853
 20
262.8911360911893
 30
0.0
 11
65.52185637529112
 21
262.8911360911893
 31
0.0
  0
LINE
  5
9041
  8
0
 10
40.52185600276209
 20
250.8911359868812
 30
0.0
 11
65.52185637529112
 21
250.8911359868812
 31
0.0
  0
LINE
  5
9042
  8
0
 10
40.52185600276209
 20
250.8911359868812
 30
0.0
 11
40.52185600276209
 21
196.8911364488172
 31
0.0
  0
LINE
  5
9043
  8
0
 10
47.32185562725283
 20
253.191135805087
 30
0.0
 11
57.32185540373541
 21
253.191135805087
 31
0.0
  0
LINE
  5
9044
  8
0
 10
57.32185540373541
 20
253.191135805087
 30
0.0
 11
57.32185540373541
 21
261.1911371163892
 31
0.0
  0
LINE
  5
9045
  8
0
 10
57.32185540373541
 20
261.1911371163892
 30
0.0
 11
47.32185562725283
 21
261.1911371163892
 31
0.0
  0
LINE
  5
9046
  8
0
 10
47.32185562725283
 20
261.1911371163892
 30
0.0
 11
47.32185562725283
 21
253.191135805087
 31
0.0
  0
LINE
  5
9047
  8
0
 10
65.52185637529112
 20
250.8911359868812
 30
0.0
 11
65.52185637529112
 21
262.8911360911893
 31
0.0
  0
LINE
  5
9048
  8
0
 10
112.5218566286109
 20
194.8911361209916
 30
0.0
 11
112.5218566286109
 21
264.8911364190149
 31
0.0
  0
LINE
  5
9049
  8
0
 10
38.52185567493655
 20
194.8911361209916
 30
0.0
 11
112.5218566286109
 21
194.8911361209916
 31
0.0
  0
LINE
  5
904A
  8
0
 10
38.52185567493655
 20
264.8911364190149
 30
0.0
 11
38.52185567493655
 21
194.8911361209916
 31
0.0
  0
LINE
  5
904B
  8
0
 10
112.5218566286109
 20
264.8911364190149
 30
0.0
 11
38.52185567493655
 21
264.8911364190149
 31
0.0
  0
ARC
  5
904C
  8
0
 10
48.7218555154941
 20
259.691135805087
 30
0.0
 40
1.0
 50
90.0
 51
180.0
  0
ARC
  5
904D
  8
0
 10
53.7218555154941
 20
259.691135805087
 30
0.0
 40
1.0
 50
0.0
 51
90.0
  0
LINE
  5
904E
  8
0
 10
48.7218555154941
 20
260.691135805087
 30
0.0
 11
53.7218555154941
 21
260.691135805087
 31
0.0
  0
LINE
  5
904F
  8
0
 10
53.7218555154941
 20
253.6911358050871
 30
0.0
 11
48.7218555154941
 21
253.691135805087
 31
0.0
  0
ARC
  5
9050
  8
0
 10
48.7218555154941
 20
254.691135805087
 30
0.0
 40
1.0
 50
180.0
 51
270.0000000000016
  0
ARC
  5
9051
  8
0
 10
53.7218555154941
 20
254.6911358050871
 30
0.0
 40
1.0
 50
270.0
 51
0.0
  0
LINE
  5
9052
  8
0
 10
52.7218555154941
 20
253.6911358050871
 30
0.0
 11
52.7218555154941
 21
260.691135805087
 31
0.0
  0
LINE
  5
9053
  8
0
 10
51.7218555154941
 20
253.691135805087
 30
0.0
 11
51.7218555154941
 21
260.691135805087
 31
0.0
  0
LINE
  5
9054
  8
0
 10
50.7218555154941
 20
253.6911358050869
 30
0.0
 11
50.7218555154941
 21
260.691135805087
 31
0.0
  0
LINE
  5
9055
  8
0
 10
49.7218555154941
 20
253.6911358050869
 30
0.0
 11
49.7218555154941
 21
260.691135805087
 31
0.0
  0
LINE
  5
9056
  8
0
 10
47.7218555154941
 20
254.691135805087
 30
0.0
 11
47.7218555154941
 21
259.691135805087
 31
0.0
  0
LINE
  5
9057
  8
0
 10
54.7218555154941
 20
259.691135805087
 30
0.0
 11
54.7218555154941
 21
254.6911358050871
 31
0.0
  0
LINE
  5
9058
  8
0
 10
65.77185637529112
 20
262.6411362700034
 30
0.0
 11
110.2718561517737
 21
262.6411362700032
 31
0.0
  0
LINE
  5
9059
  8
0
 10
110.2718561517737
 20
262.6411362700032
 30
0.0
 11
110.2718561517737
 21
197.1411362700032
 31
0.0
  0
LINE
  5
905A
  8
0
 10
40.7718561517737
 20
197.1411362700034
 30
0.0
 11
40.7718561517737
 21
250.6411359868812
 31
0.0
  0
LINE
  5
905B
  8
0
 10
110.2718561517737
 20
197.1411362700032
 30
0.0
 11
40.7718561517737
 21
197.1411362700034
 31
0.0
  0
LINE
  5
905C
  8
0
  6
CONTINUOUS
 10
65.77185637529112
 20
250.6411359868812
 30
0.0
 11
65.77185637529112
 21
262.6411362700034
 31
0.0
  0
LINE
  5
905D
  8
0
  6
CONTINUOUS
 10
40.7718561517737
 20
250.6411359868812
 30
0.0
 11
65.77185637529112
 21
250.6411359868812
 31
0.0
  0
INSERT
  5
905E
  8
0
 62
     7
  2
*X9
 10
0.0
 20
0.0
 30
0.0
  0
TEXT
  5
905F
  8
0
 62
     7
 10
69.34772694134784
 20
212.9769742415557
 30
0.0
 40
1.9
  1
給水
  0
TEXT
  5
9060
  8
0
 62
     7
 10
89.3430064300669
 20
207.9715320646849
 30
0.0
 40
4.0
  1
PUSH
 41
1.2
  0
TEXT
  5
9061
  8
0
 62
     7
 10
49.75042694406555
 20
246.2980317554704
 30
0.0
 40
2.0
  1
電源
  0
LINE
  5
9063
  8
0
 10
43.87435615177367
 20
217.1012443773085
 30
0.0
 11
43.87435615177367
 21
219.6387443773091
 31
0.0
  0
LINE
  5
9064
  8
0
 10
44.09185615177387
 20
217.1012443773085
 30
0.0
 11
44.09185615177387
 21
219.6387443773091
 31
0.0
  0
LINE
  5
9065
  8
0
 10
41.7718561517737
 20
217.1012443773085
 30
0.0
 11
42.56935615177383
 21
217.1012443773085
 31
0.0
  0
LINE
  5
9066
  8
0
 10
41.7718561517737
 20
219.6387443773091
 30
0.0
 11
42.56935615177383
 21
219.6387443773091
 31
0.0
  0
LINE
  5
9067
  8
0
 10
42.56935615177383
 20
219.6387443773091
 30
0.0
 11
42.56935615177383
 21
218.768744377309
 31
0.0
  0
LINE
  5
9068
  8
0
 10
43.07685615177354
 20
219.6387443773091
 30
0.0
 11
43.07685615177354
 21
218.768744377309
 31
0.0
  0
LINE
  5
9069
  8
0
 10
42.56935615177383
 20
217.1012443773085
 30
0.0
 11
42.56935615177383
 21
217.9712443773084
 31
0.0
  0
LINE
  5
906A
  8
0
 10
43.07685615177354
 20
217.1012443773085
 30
0.0
 11
43.07685615177354
 21
217.9712443773084
 31
0.0
  0
LINE
  5
906B
  8
0
 10
43.07685615177354
 20
219.6387443773091
 30
0.0
 11
43.87435615177367
 21
219.6387443773091
 31
0.0
  0
LINE
  5
906C
  8
0
 10
43.07685615177354
 20
217.1012443773085
 30
0.0
 11
43.87435615177367
 21
217.1012443773085
 31
0.0
  0
LINE
  5
906D
  8
0
 10
42.56935615177383
 20
218.768744377309
 30
0.0
 11
43.07685615177354
 21
218.768744377309
 31
0.0
  0
LINE
  5
906E
  8
0
 10
42.56935615177383
 20
217.9712443773084
 30
0.0
 11
43.07685615177354
 21
217.9712443773084
 31
0.0
  0
LINE
  5
906F
  8
0
 10
44.88935615177354
 20
217.1012443773085
 30
0.0
 11
44.88935615177354
 21
219.6387443773091
 31
0.0
  0
LINE
  5
9070
  8
0
 10
45.10685615177374
 20
217.1012443773085
 30
0.0
 11
45.10685615177374
 21
219.6387443773091
 31
0.0
  0
LINE
  5
9071
  8
0
 10
44.09185615177387
 20
219.6387443773091
 30
0.0
 11
44.88935615177354
 21
219.6387443773091
 31
0.0
  0
LINE
  5
9072
  8
0
 10
44.09185615177387
 20
217.1012443773085
 30
0.0
 11
44.88935615177354
 21
217.1012443773085
 31
0.0
  0
LINE
  5
9073
  8
0
 10
47.2093561517737
 20
217.1012443773085
 30
0.0
 11
47.2093561517737
 21
217.6812443773084
 31
0.0
  0
LINE
  5
9074
  8
0
 10
47.2093561517737
 20
219.0587443773092
 30
0.0
 11
47.2093561517737
 21
219.6387443773091
 31
0.0
  0
LINE
  5
9075
  8
0
 10
45.10685615177374
 20
217.1012443773085
 30
0.0
 11
45.90435615177387
 21
217.1012443773085
 31
0.0
  0
LINE
  5
9076
  8
0
 10
45.10685615177374
 20
219.6387443773091
 30
0.0
 11
45.90435615177387
 21
219.6387443773091
 31
0.0
  0
LINE
  5
9077
  8
0
 10
45.90435615177387
 20
219.6387443773091
 30
0.0
 11
45.90435615177387
 21
218.768744377309
 31
0.0
  0
LINE
  5
9078
  8
0
 10
46.41185615177358
 20
219.6387443773091
 30
0.0
 11
46.41185615177358
 21
219.0587443773092
 31
0.0
  0
LINE
  5
9079
  8
0
 10
45.90435615177387
 20
217.1012443773085
 30
0.0
 11
45.90435615177387
 21
217.9712443773084
 31
0.0
  0
LINE
  5
907A
  8
0
 10
46.41185615177358
 20
217.1012443773085
 30
0.0
 11
46.41185615177358
 21
217.6812443773084
 31
0.0
  0
ARC
  5
907B
  8
0
 10
46.12185615177361
 20
217.6812443773084
 30
0.0
 40
0.29
 50
0.0
 51
90.0
  0
ARC
  5
907C
  8
0
 10
46.12185615177361
 20
217.6812443773084
 30
0.0
 40
1.0875
 50
0.0
 51
39.29648023918966
  0
LINE
  5
907D
  8
0
 10
46.41185615177358
 20
219.6387443773091
 30
0.0
 11
47.2093561517737
 21
219.6387443773091
 31
0.0
  0
LINE
  5
907E
  8
0
 10
46.41185615177358
 20
217.1012443773085
 30
0.0
 11
47.2093561517737
 21
217.1012443773085
 31
0.0
  0
LINE
  5
907F
  8
0
 10
45.90435615177387
 20
218.768744377309
 30
0.0
 11
46.12185615177361
 21
218.768744377309
 31
0.0
  0
ARC
  5
9080
  8
0
 10
46.12185615177361
 20
219.0587443773092
 30
0.0
 40
0.29
 50
270.0
 51
0.0
  0
ARC
  5
9081
  8
0
 10
46.12185615177361
 20
219.0587443773092
 30
0.0
 40
1.0875
 50
320.7035197608187
 51
0.0
  0
LINE
  5
9082
  8
0
 10
45.90435615177387
 20
217.9712443773084
 30
0.0
 11
46.12185615177361
 21
217.9712443773084
 31
0.0
  0
LINE
  5
9083
  8
0
 10
47.4268561517739
 20
217.1012443773085
 30
0.0
 11
47.4268561517739
 21
218.5874943773084
 31
0.0
  0
LINE
  5
9084
  8
0
 10
49.52935615177387
 20
217.1012443773085
 30
0.0
 11
49.52935615177387
 21
218.5874943773084
 31
0.0
  0
LINE
  5
9085
  8
0
 10
47.4268561517739
 20
217.1012443773085
 30
0.0
 11
48.22435615177358
 21
217.1012443773085
 31
0.0
  0
LINE
  5
9086
  8
0
 10
48.22435615177358
 20
217.1012443773085
 30
0.0
 11
48.22435615177358
 21
217.6087443773082
 31
0.0
  0
LINE
  5
9087
  8
0
 10
48.73185615177374
 20
217.1012443773085
 30
0.0
 11
48.73185615177374
 21
217.6087443773082
 31
0.0
  0
LINE
  5
9088
  8
0
 10
48.73185615177374
 20
217.1012443773085
 30
0.0
 11
49.52935615177387
 21
217.1012443773085
 31
0.0
  0
LINE
  5
9089
  8
0
 10
48.22435615177358
 20
217.6087443773082
 30
0.0
 11
48.73185615177374
 21
217.6087443773082
 31
0.0
  0
LINE
  5
908A
  8
0
 10
48.22435615177358
 20
218.3337443773086
 30
0.0
 11
48.73185615177374
 21
218.3337443773086
 31
0.0
  0
ARC
  5
908B
  8
0
 10
48.47810615177389
 20
218.5874943773084
 30
0.0
 40
1.05125
 50
0.0
 51
180.0
  0
ARC
  5
908C
  8
0
 10
48.47810615177389
 20
218.5874943773084
 30
0.0
 40
0.25375
 50
0.0
 51
180.0
  0
LINE
  5
908D
  8
0
 10
48.22435615177358
 20
218.3337443773086
 30
0.0
 11
48.22435615177358
 21
218.5874943773084
 31
0.0
  0
LINE
  5
908E
  8
0
 10
48.73185615177374
 20
218.5874943773084
 30
0.0
 11
48.73185615177374
 21
218.3337443773086
 31
0.0
  0
LINE
  5
908F
  8
0
 10
49.74685615177361
 20
217.1012443773085
 30
0.0
 11
49.74685615177361
 21
219.6387443773091
 31
0.0
  0
LINE
  5
9090
  8
0
 10
51.84935615177358
 20
217.1012443773085
 30
0.0
 11
51.84935615177358
 21
217.6812443773084
 31
0.0
  0
LINE
  5
9091
  8
0
 10
49.74685615177361
 20
217.1012443773085
 30
0.0
 11
50.54435615177374
 21
217.1012443773085
 31
0.0
  0
LINE
  5
9092
  8
0
 10
50.68935615177372
 20
217.8987443773086
 30
0.0
 11
50.8343561517737
 21
217.8987443773086
 31
0.0
  0
LINE
  5
9093
  8
0
 10
50.68935615177372
 20
218.478744377309
 30
0.0
 11
50.8343561517737
 21
218.478744377309
 31
0.0
  0
LINE
  5
9094
  8
0
 10
50.54435615177374
 20
217.1012443773085
 30
0.0
 11
50.54435615177374
 21
218.9137443773087
 31
0.0
  0
LINE
  5
9095
  8
0
 10
51.0518561517739
 20
217.1012443773085
 30
0.0
 11
51.0518561517739
 21
217.6812443773084
 31
0.0
  0
ARC
  5
9096
  8
0
 10
50.8343561517737
 20
217.6812443773084
 30
0.0
 40
0.2175
 50
0.0
 51
90.0
  0
ARC
  5
9097
  8
0
 10
50.8343561517737
 20
217.6812443773084
 30
0.0
 40
1.015
 50
0.0
 51
30.66296328368225
  0
LINE
  5
9098
  8
0
 10
49.74685615177361
 20
219.6387443773091
 30
0.0
 11
50.90685615177347
 21
219.6387443773091
 31
0.0
  0
LINE
  5
9099
  8
0
 10
50.54435615177374
 20
218.9137443773087
 30
0.0
 11
50.8343561517737
 21
218.9137443773087
 31
0.0
  0
LINE
  5
909A
  8
0
 10
51.0518561517739
 20
217.1012443773085
 30
0.0
 11
51.84935615177358
 21
217.1012443773085
 31
0.0
  0
ARC
  5
909B
  8
0
 10
50.8343561517737
 20
218.6962443773087
 30
0.0
 40
0.2175
 50
270.0
 51
90.0
  0
ARC
  5
909C
  8
0
 10
50.90685615177347
 20
218.6962443773087
 30
0.0
 40
0.9425
 50
328.1493895340805
 51
90.0
  0
LINE
  5
909D
  8
0
 10
50.68935615177372
 20
218.478744377309
 30
0.0
 11
50.68935615177372
 21
217.8987443773086
 31
0.0
  0
LINE
  5
909E
  8
0
 10
52.06685615177378
 20
217.1012443773085
 30
0.0
 11
52.06685615177378
 21
219.6387443773091
 31
0.0
  0
LINE
  5
909F
  8
0
 10
52.8643561517739
 20
217.1012443773085
 30
0.0
 11
52.8643561517739
 21
219.6387443773091
 31
0.0
  0
LINE
  5
90A0
  8
0
 10
55.76435615177354
 20
217.1374943773086
 30
0.0
 11
55.76435615177354
 21
218.5874943773084
 31
0.0
  0
LINE
  5
90A1
  8
0
 10
52.06685615177378
 20
219.6387443773091
 30
0.0
 11
52.8643561517739
 21
219.6387443773091
 31
0.0
  0
LINE
  5
90A2
  8
0
 10
52.06685615177378
 20
217.1012443773085
 30
0.0
 11
52.8643561517739
 21
217.1012443773085
 31
0.0
  0
ARC
  5
90A3
  8
0
 10
55.03935615177363
 20
218.3699943773087
 30
0.0
 40
1.305
 50
84.27518954777628
 51
281.4211862750086
  0
ARC
  5
90A4
  8
0
 10
55.03935615177363
 20
218.3699943773087
 30
0.0
 40
0.5075000000000001
 50
84.27518954777645
 51
270.0
  0
CIRCLE
  5
90A5
  8
0
 10
57.28685615177358
 20
218.3699943773087
 30
0.0
 40
1.305
  0
CIRCLE
  5
90A6
  8
0
 10
57.28685615177358
 20
218.3699943773087
 30
0.0
 40
0.5075000000000001
  0
LINE
  5
90A7
  8
0
 10
55.03935615177363
 20
217.862494377309
 30
0.0
 11
55.03935615177363
 21
218.5874943773084
 31
0.0
  0
LINE
  5
90A8
  8
0
 10
55.03935615177363
 20
218.5874943773084
 30
0.0
 11
55.76435615177354
 21
218.5874943773084
 31
0.0
  0
LINE
  5
90A9
  8
0
 10
55.29777199335797
 20
217.0908359614674
 30
0.0
 11
55.76435615177354
 21
217.1374943773086
 31
0.0
  0
LINE
  5
90AA
  8
0
 10
55.16953071536466
 20
219.6684856491291
 30
0.0
 11
55.76435615177354
 21
219.6387443773091
 31
0.0
  0
LINE
  5
90AB
  8
0
 10
55.76435615177354
 20
219.6387443773091
 30
0.0
 11
55.76435615177354
 21
218.8412443773085
 31
0.0
  0
LINE
  5
90AC
  8
0
 10
55.76435615177354
 20
218.8412443773085
 30
0.0
 11
55.08997959317014
 21
218.8749632052394
 31
0.0
  0
LINE
  5
90AD
  8
0
 10
58.80935615177361
 20
217.1012443773085
 30
0.0
 11
58.80935615177361
 21
219.6387443773091
 31
0.0
  0
LINE
  5
90AE
  8
0
 10
60.91185615177358
 20
217.1012443773085
 30
0.0
 11
60.91185615177358
 21
217.6812443773084
 31
0.0
  0
LINE
  5
90AF
  8
0
 10
60.91185615177358
 20
219.0587443773092
 30
0.0
 11
60.91185615177358
 21
219.6387443773091
 31
0.0
  0
LINE
  5
90B0
  8
0
 10
58.80935615177361
 20
217.1012443773085
 30
0.0
 11
59.60685615177374
 21
217.1012443773085
 31
0.0
  0
LINE
  5
90B1
  8
0
 10
58.80935615177361
 20
219.6387443773091
 30
0.0
 11
59.60685615177374
 21
219.6387443773091
 31
0.0
  0
LINE
  5
90B2
  8
0
 10
59.60685615177374
 20
219.6387443773091
 30
0.0
 11
59.60685615177374
 21
218.768744377309
 31
0.0
  0
LINE
  5
90B3
  8
0
 10
60.1143561517739
 20
219.6387443773091
 30
0.0
 11
60.1143561517739
 21
219.0587443773092
 31
0.0
  0
LINE
  5
90B4
  8
0
 10
59.60685615177374
 20
217.1012443773085
 30
0.0
 11
59.60685615177374
 21
217.9712443773084
 31
0.0
  0
LINE
  5
90B5
  8
0
 10
60.1143561517739
 20
217.1012443773085
 30
0.0
 11
60.1143561517739
 21
217.6812443773084
 31
0.0
  0
ARC
  5
90B6
  8
0
 10
59.82435615177349
 20
217.6812443773084
 30
0.0
 40
0.29
 50
0.0
 51
90.0
  0
ARC
  5
90B7
  8
0
 10
59.82435615177349
 20
217.6812443773084
 30
0.0
 40
1.0875
 50
0.0
 51
39.29648023918966
  0
LINE
  5
90B8
  8
0
 10
60.1143561517739
 20
219.6387443773091
 30
0.0
 11
60.91185615177358
 21
219.6387443773091
 31
0.0
  0
LINE
  5
90B9
  8
0
 10
60.1143561517739
 20
217.1012443773085
 30
0.0
 11
60.91185615177358
 21
217.1012443773085
 31
0.0
  0
LINE
  5
90BA
  8
0
 10
59.60685615177374
 20
218.768744377309
 30
0.0
 11
59.82435615177349
 21
218.768744377309
 31
0.0
  0
ARC
  5
90BB
  8
0
 10
59.82435615177349
 20
219.0587443773092
 30
0.0
 40
0.29
 50
270.0
 51
0.0
  0
ARC
  5
90BC
  8
0
 10
59.82435615177349
 20
219.0587443773092
 30
0.0
 40
1.0875
 50
320.7035197608187
 51
0.0
  0
LINE
  5
90BD
  8
0
 10
59.60685615177374
 20
217.9712443773084
 30
0.0
 11
59.82435615177349
 21
217.9712443773084
 31
0.0
  0
LINE
  5
90BE
  8
0
 10
61.12935615177378
 20
217.1012443773085
 30
0.0
 11
61.12935615177378
 21
219.6387443773091
 31
0.0
  0
LINE
  5
90BF
  8
0
 10
61.9268561517739
 20
217.1012443773085
 30
0.0
 11
61.9268561517739
 21
219.6387443773091
 31
0.0
  0
LINE
  5
90C0
  8
0
 10
61.12935615177378
 20
219.6387443773091
 30
0.0
 11
61.9268561517739
 21
219.6387443773091
 31
0.0
  0
LINE
  5
90C1
  8
0
 10
61.12935615177378
 20
217.1012443773085
 30
0.0
 11
61.9268561517739
 21
217.1012443773085
 31
0.0
  0
LINE
  5
90C2
  8
0
 10
62.14435615177365
 20
217.1012443773085
 30
0.0
 11
62.14435615177365
 21
218.5874943773084
 31
0.0
  0
LINE
  5
90C3
  8
0
 10
64.24685615177361
 20
217.1012443773085
 30
0.0
 11
64.24685615177361
 21
218.5874943773084
 31
0.0
  0
LINE
  5
90C4
  8
0
 10
62.14435615177365
 20
217.1012443773085
 30
0.0
 11
62.94185615177378
 21
217.1012443773085
 31
0.0
  0
LINE
  5
90C5
  8
0
 10
62.94185615177378
 20
217.1012443773085
 30
0.0
 11
62.94185615177378
 21
218.5874943773084
 31
0.0
  0
LINE
  5
90C6
  8
0
 10
63.44935615177349
 20
217.1012443773085
 30
0.0
 11
63.44935615177349
 21
218.5874943773084
 31
0.0
  0
LINE
  5
90C7
  8
0
 10
63.44935615177349
 20
217.1012443773085
 30
0.0
 11
64.24685615177361
 21
217.1012443773085
 31
0.0
  0
ARC
  5
90C8
  8
0
 10
63.19560615177363
 20
218.5874943773084
 30
0.0
 40
1.05125
 50
0.0
 51
180.0
  0
ARC
  5
90C9
  8
0
 10
63.19560615177363
 20
218.5874943773084
 30
0.0
 40
0.25375
 50
0.0
 51
180.0
  0
CIRCLE
  5
90CA
  8
0
 10
95.52185615177376
 20
209.8911362700034
 30
0.0
 40
8.25
  0
LINE
  5
90CB
  8
0
 10
68.2718561517733
 20
203.8911362700028
 30
0.0
 11
68.2718561517733
 21
215.8911362700032
 31
0.0
  0
ARC
  5
90CC
  8
0
 10
70.2718561517733
 20
203.8911362700028
 30
0.0
 40
2.0
 50
180.0
 51
270.0
1001
GENIUS_GENOBJ-N-FIL_13
1002
{
1000
OWNER
1000
GEN
1002
}
1001
GENIUS_GENODEF_13
1002
{
1000
HIER
1070
     0
1002
}
1002
{
1000
MANEDIT
1070
     0
1002
}
1002
{
1000
NOSEL
1070
     0
1002
}
1002
{
1000
BEHIND
1070
     0
1002
}
1002
{
1000
OTHER
1070
     0
1002
}
1002
{
1000
REACTOR
1002
}
  0
LINE
  5
90CD
  8
0
 10
86.2718561517724
 20
203.8911362700028
 30
0.0
 11
86.2718561517724
 21
215.8911362700023
 31
0.0
  0
ARC
  5
90CE
  8
0
 10
84.2718561517724
 20
215.8911362700023
 30
0.0
 40
2.0
 50
0.0
 51
90.0
1001
GENIUS_GENODEF_13
1002
{
1000
HIER
1070
     0
1002
}
1002
{
1000
MANEDIT
1070
     0
1002
}
1002
{
1000
NOSEL
1070
     0
1002
}
1002
{
1000
BEHIND
1070
     0
1002
}
1002
{
1000
OTHER
1070
     0
1002
}
1002
{
1000
REACTOR
1002
}
1001
GENIUS_GENOBJ-N-FIL_13
1002
{
1000
OWNER
1000
GEN
1002
}
  0
LINE
  5
90CF
  8
0
 10
86.2718561517724
 20
209.3911362700028
 30
0.0
 11
86.24963589325938
 21
209.3911362700028
 31
0.0
  0
LINE
  5
90D0
  8
0
 10
84.8218561517728
 20
209.5411362700027
 30
0.0
 11
69.7218561517729
 21
209.5411362700027
 31
0.0
  0
LINE
  5
90D1
  8
0
 10
86.2718561517724
 20
210.3911362700028
 30
0.0
 11
86.24963589325938
 21
210.3911362700028
 31
0.0
  0
LINE
  5
90D2
  8
0
 10
84.8218561517728
 20
210.2411362700027
 30
0.0
 11
69.7218561517729
 21
210.2411362700027
 31
0.0
  0
CIRCLE
  5
90D3
  8
0
 10
77.47346969118843
 20
213.8911362700032
 30
0.0
 40
2.0
  0
LINE
  5
90D4
  8
0
 10
84.2718561517724
 20
217.8911362700023
 30
0.0
 11
70.2718561517733
 21
217.8911362700032
 31
0.0
  0
ARC
  5
90D5
  8
0
 10
70.2718561517733
 20
215.8911362700032
 30
0.0
 40
2.0
 50
90.0
 51
180.0
1001
GENIUS_GENOBJ-N-FIL_13
1002
{
1000
OWNER
1000
GEN
1002
}
1001
GENIUS_GENODEF_13
1002
{
1000
HIER
1070
     0
1002
}
1002
{
1000
MANEDIT
1070
     0
1002
}
1002
{
1000
NOSEL
1070
     0
1002
}
1002
{
1000
BEHIND
1070
     0
1002
}
1002
{
1000
OTHER
1070
     0
1002
}
1002
{
1000
REACTOR
1002
}
  0
LINE
  5
90D6
  8
0
 10
84.2718561517724
 20
201.8911362700028
 30
0.0
 11
70.2718561517733
 21
201.8911362700028
 31
0.0
  0
ARC
  5
90D7
  8
0
 10
84.2718561517724
 20
203.8911362700028
 30
0.0
 40
2.0
 50
270.0
 51
0.0
1001
GENIUS_GENODEF_13
1002
{
1000
HIER
1070
     0
1002
}
1002
{
1000
MANEDIT
1070
     0
1002
}
1002
{
1000
NOSEL
1070
     0
1002
}
1002
{
1000
BEHIND
1070
     0
1002
}
1002
{
1000
OTHER
1070
     0
1002
}
1002
{
1000
REACTOR
1002
}
1001
GENIUS_GENOBJ-N-FIL_13
1002
{
1000
OWNER
1000
GEN
1002
}
  0
TEXT
  5
90D8
  8
0
 10
41.65052034472361
 20
220.3458387727714
 30
0.0
 40
1.8
  1
電動水抜操作盤 EV1A
  0
CIRCLE
  5
9109
  8
0
 10
65.82231811433564
 20
224.3743007952838
 30
0.0
 40
1.125
  0
TEXT
  5
910A
  8
0
 10
65.10231811433565
 20
223.6063007952838
 30
0.0
 40
1.44
  1
Ｒ
 72
     4
 11
65.82231811433564
 21
224.3743007952838
 31
0.0
  0
LINE
  5
9113
  8
0
 10
55.82185551549412
 20
248.2411362700035
 30
0.0
 11
55.82185551549412
 21
246.2411362700035
 31
0.0
  0
LINE
  5
9114
  8
0
 10
48.82185551549412
 20
248.2411362700035
 30
0.0
 11
48.82185551549412
 21
246.2411362700035
 31
0.0
  0
ARC
  5
9115
  8
0
 10
49.82185551549412
 20
248.2411362700035
 30
0.0
 40
1.0
 50
90.0
 51
180.0
  0
ARC
  5
9116
  8
0
 10
49.82185551549412
 20
246.2411362700035
 30
0.0
 40
1.0
 50
180.0
 51
270.0
  0
ARC
  5
9117
  8
0
 10
54.82185551549412
 20
246.2411362700035
 30
0.0
 40
1.0
 50
270.0
 51
0.0
  0
ARC
  5
9118
  8
0
 10
54.82185551549412
 20
248.2411362700035
 30
0.0
 40
1.0
 50
0.0
 51
90.0
  0
LINE
  5
9119
  8
0
 10
49.82185551549412
 20
249.2411362700035
 30
0.0
 11
54.82185551549412
 21
249.2411362700035
 31
0.0
  0
LINE
  5
911A
  8
0
 10
49.82185551549412
 20
245.2411362700035
 30
0.0
 11
54.82185551549412
 21
245.2411362700035
 31
0.0
  0
TEXT
  5
911B
  8
0
 10
42.16044235838125
 20
246.2788604505848
 30
0.0
 40
2.0
  1
OFF
 41
1.5
  0
TEXT
  5
911C
  8
0
 10
57.20729150807297
 20
246.2788604505848
 30
0.0
 40
2.0
  1
ON
 41
1.5
  0
ARC
  5
911D
  8
0
 10
69.7218561517729
 20
209.8911362700028
 30
0.0
 40
0.3500000000000227
 50
90.0
 51
270.0
  0
ARC
  5
911E
  8
0
 10
84.8218561517728
 20
209.8911362700028
 30
0.0
 40
0.3500000000000227
 50
270.0
 51
90.0
  0
LINE
  5
911F
  8
0
 10
56.5218561517737
 20
212.8911362700034
 30
0.0
 11
64.5218561517737
 21
212.8911362700034
 31
0.0
  0
ARC
  5
9120
  8
0
 10
64.5218561517737
 20
210.8911362700034
 30
0.0
 40
2.0
 50
0.0
 51
90.0
  0
ARC
  5
9121
  8
0
 10
56.5218561517737
 20
210.8911362700034
 30
0.0
 40
2.0
 50
90.0
 51
180.0
  0
ARC
  5
9122
  8
0
 10
64.5218561517737
 20
203.8911362700029
 30
0.0
 40
2.0
 50
270.0
 51
0.0
  0
LINE
  5
9123
  8
0
 10
66.5218561517737
 20
203.8911362700029
 30
0.0
 11
66.5218561517737
 21
210.8911362700034
 31
0.0
  0
LINE
  5
9124
  8
0
 10
56.5218561517737
 20
201.8911362700029
 30
0.0
 11
64.5218561517737
 21
201.8911362700029
 31
0.0
  0
ARC
  5
9125
  8
0
 10
56.5218561517737
 20
203.8911362700029
 30
0.0
 40
2.0
 50
180.0
 51
270.0
  0
LINE
  5
9126
  8
0
 10
54.5218561517737
 20
203.8911362700029
 30
0.0
 11
54.5218561517737
 21
210.8911362700034
 31
0.0
  0
TEXT
  5
9127
  8
0
 10
55.65609042412076
 20
203.1068556636895
 30
0.0
 40
1.9
  1
点検
  0
ARC
  5
9128
  8
0
 10
64.27349234550186
 20
204.4584520354259
 30
0.0
 40
0.9999999999999992
 50
233.0491207032591
 51
57.32628399712605
  0
LINE
  5
9129
  8
0
 10
63.67236222803129
 20
203.6593008720847
 30
0.0
 11
58.96522801641669
 21
207.2000579545677
 31
0.0
  0
LINE
  5
912A
  8
0
 10
59.85524786706148
 20
208.4800423840364
 30
0.0
 11
64.813346572564
 21
205.3002105598993
 31
0.0
  0
ARC
  5
912B
  8
0
 10
57.40559677286444
 20
209.2339502767104
 30
0.0
 40
1.99079584716086
 50
1.683229077249547
 51
160.7903378653517
  0
ARC
  5
912C
  8
0
 10
60.39510209412404
 20
209.3218009085096
 30
0.0
 40
0.9999999999999992
 50
181.6832290772424
 51
237.326283997126
1001
GENIUS_GENODEF_13
1002
{
1000
HIER
1070
     0
1002
}
1002
{
1000
MANEDIT
1070
     0
1002
}
1002
{
1000
NOSEL
1070
     0
1002
}
1002
{
1000
BEHIND
1070
     0
1002
}
1002
{
1000
OTHER
1070
     0
1002
}
1002
{
1000
REACTOR
1002
}
1001
GENIUS_GENOBJ-N-FIL_13
1002
{
1000
OWNER
1000
GEN
1002
}
  0
ARC
  5
912D
  8
0
 10
57.40559677286444
 20
209.2339502767104
 30
0.0
 40
1.99079584716086
 50
219.5850668351122
 51
288.6921756231417
  0
ARC
  5
912E
  8
0
 10
58.36409789894648
 20
206.4009067912262
 30
0.0
 40
0.9999999999999992
 50
53.04912070325908
 51
108.6921756231398
1001
GENIUS_GENOBJ-N-FIL_13
1002
{
1000
OWNER
1000
GEN
1002
}
1001
GENIUS_GENODEF_13
1002
{
1000
HIER
1070
     0
1002
}
1002
{
1000
MANEDIT
1070
     0
1002
}
1002
{
1000
NOSEL
1070
     0
1002
}
1002
{
1000
BEHIND
1070
     0
1002
}
1002
{
1000
OTHER
1070
     0
1002
}
1002
{
1000
REACTOR
1002
}
  0
LINE
  5
912F
  8
0
 10
57.96654129808908
 20
209.3347558361868
 30
0.0
 11
57.58408692139605
 21
208.273162916147
 31
0.0
  0
LINE
  5
9130
  8
0
 10
57.58408692139605
 20
208.273162916147
 30
0.0
 11
55.87133152286617
 21
207.9653690819417
 31
0.0
  0
LINE
  5
9131
  8
0
 10
57.96654129808897
 20
209.3347558361875
 30
0.0
 11
57.23840204920225
 21
210.1967675022119
 31
0.0
  0
LINE
  5
9132
  8
0
 10
57.23840204920225
 20
210.1967675022119
 30
0.0
 11
55.52564665067212
 21
209.8889736680063
 31
0.0
  0
CIRCLE
  5
9133
  8
0
 10
64.27349234550186
 20
204.4584520354259
 30
0.0
 40
0.4999999999999996
  0
LINE
  5
9134
  8
0
 10
42.53436654623886
 20
212.5722712700029
 30
0.0
 11
44.87114804623889
 21
212.5722712700029
 31
0.0
  0
LINE
  5
9135
  8
0
 10
44.87114804623889
 20
212.5722712700029
 30
0.0
 11
44.87114804623889
 21
212.9062551700029
 31
0.0
  0
LINE
  5
9136
  8
0
 10
44.87114804623889
 20
212.9062551700029
 30
0.0
 11
42.53436654623886
 21
212.9062551700029
 31
0.0
  0
LINE
  5
9137
  8
0
 10
42.53436654623886
 20
212.9062551700029
 30
0.0
 11
42.53436654623886
 21
212.5722712700029
 31
0.0
  0
LINE
  5
9138
  8
0
 10
45.53874154623884
 20
212.5722712700029
 30
0.0
 11
46.53995604623884
 21
212.5722712700029
 31
0.0
  0
LINE
  5
9139
  8
0
 10
46.53995604623884
 20
212.5722712700029
 30
0.0
 11
46.53995604623884
 21
212.9062551700029
 31
0.0
  0
LINE
  5
913A
  8
0
 10
46.53995604623884
 20
212.9062551700029
 30
0.0
 11
45.53874154623884
 21
212.9062551700029
 31
0.0
  0
LINE
  5
913B
  8
0
 10
45.53874154623884
 20
212.9062551700029
 30
0.0
 11
45.53874154623884
 21
212.5722712700029
 31
0.0
  0
LINE
  5
913C
  8
0
 10
47.20751154623886
 20
212.5722712700029
 30
0.0
 11
47.54149544623888
 21
212.5722712700029
 31
0.0
  0
LINE
  5
913D
  8
0
 10
47.54149544623888
 20
212.5722712700029
 30
0.0
 11
47.54149544623888
 21
212.9062551700029
 31
0.0
  0
LINE
  5
913E
  8
0
 10
47.54149544623888
 20
212.9062551700029
 30
0.0
 11
47.20751154623886
 21
212.9062551700029
 31
0.0
  0
LINE
  5
913F
  8
0
 10
47.20751154623886
 20
212.9062551700029
 30
0.0
 11
47.20751154623886
 21
212.5722712700029
 31
0.0
  0
LINE
  5
9140
  8
0
 10
47.87507654623886
 20
212.5722712700029
 30
0.0
 11
48.20906139623887
 21
212.5722712700029
 31
0.0
  0
LINE
  5
9141
  8
0
 10
48.20906139623887
 20
212.5722712700029
 30
0.0
 11
48.20906139623887
 21
212.9062551700029
 31
0.0
  0
LINE
  5
9142
  8
0
 10
48.20906139623887
 20
212.9062551700029
 30
0.0
 11
47.87507654623886
 21
212.9062551700029
 31
0.0
  0
LINE
  5
9143
  8
0
 10
47.87507654623886
 20
212.9062551700029
 30
0.0
 11
47.87507654623886
 21
212.5722712700029
 31
0.0
  0
LINE
  5
9144
  8
0
 10
48.54273654623887
 20
212.5722712700029
 30
0.0
 11
48.87672139623885
 21
212.5722712700029
 31
0.0
  0
LINE
  5
9145
  8
0
 10
48.87672139623885
 20
212.5722712700029
 30
0.0
 11
48.87672139623885
 21
212.9062551700029
 31
0.0
  0
LINE
  5
9146
  8
0
 10
48.87672139623885
 20
212.9062551700029
 30
0.0
 11
48.54273654623887
 21
212.9062551700029
 31
0.0
  0
LINE
  5
9147
  8
0
 10
48.54273654623887
 20
212.9062551700029
 30
0.0
 11
48.54273654623887
 21
212.5722712700029
 31
0.0
  0
LINE
  5
9148
  8
0
 10
49.87748654623886
 20
212.5722712700029
 30
0.0
 11
50.21147044623888
 21
212.5722712700029
 31
0.0
  0
LINE
  5
9149
  8
0
 10
50.21147044623888
 20
212.5722712700029
 30
0.0
 11
50.21147044623888
 21
212.9062551700029
 31
0.0
  0
LINE
  5
914A
  8
0
 10
50.21147044623888
 20
212.9062551700029
 30
0.0
 11
49.87748654623886
 21
212.9062551700029
 31
0.0
  0
LINE
  5
914B
  8
0
 10
49.87748654623886
 20
212.9062551700029
 30
0.0
 11
49.87748654623886
 21
212.5722712700029
 31
0.0
  0
LINE
  5
914D
  8
0
 10
51.54707544623886
 20
212.5722712700029
 30
0.0
 11
53.21550154623887
 21
212.5722712700029
 31
0.0
  0
LINE
  5
914E
  8
0
 10
53.54987304623887
 20
210.5691012700029
 30
0.0
 11
53.54987304623887
 21
212.9062551700029
 31
0.0
  0
LINE
  5
914F
  8
0
 10
53.54987304623887
 20
212.9062551700029
 30
0.0
 11
51.21309154623887
 21
212.9062551700029
 31
0.0
  0
LINE
  5
9150
  8
0
 10
51.21309154623887
 20
212.9062551700029
 30
0.0
 11
51.21309154623887
 21
210.5691012700029
 31
0.0
  0
LINE
  5
9151
  8
0
 10
42.53436654623886
 20
212.2383462700029
 30
0.0
 11
42.86872189623887
 21
212.2383462700029
 31
0.0
  0
LINE
  5
9152
  8
0
 10
42.86872189623887
 20
212.2383462700029
 30
0.0
 11
42.86872189623887
 21
212.5723311200029
 31
0.0
  0
LINE
  5
9153
  8
0
 10
42.86872189623887
 20
212.5723311200029
 30
0.0
 11
42.53436654623886
 21
212.5723311200029
 31
0.0
  0
LINE
  5
9154
  8
0
 10
42.53436654623886
 20
212.5723311200029
 30
0.0
 11
42.53436654623886
 21
212.2383462700029
 31
0.0
  0
LINE
  5
9155
  8
0
 10
44.53744154623885
 20
212.2383462700029
 30
0.0
 11
44.87142544623885
 21
212.2383462700029
 31
0.0
  0
LINE
  5
9156
  8
0
 10
44.87142544623885
 20
212.2383462700029
 30
0.0
 11
44.87142544623885
 21
212.5723311200029
 31
0.0
  0
LINE
  5
9157
  8
0
 10
44.87142544623885
 20
212.5723311200029
 30
0.0
 11
44.53744154623885
 21
212.5723311200029
 31
0.0
  0
LINE
  5
9158
  8
0
 10
44.53744154623885
 20
212.5723311200029
 30
0.0
 11
44.53744154623885
 21
212.2383462700029
 31
0.0
  0
LINE
  5
9159
  8
0
 10
45.20510154623886
 20
212.2383462700029
 30
0.0
 11
46.20668654623887
 21
212.2383462700029
 31
0.0
  0
LINE
  5
915A
  8
0
 10
46.20668654623887
 20
212.2383462700029
 30
0.0
 11
46.20668654623887
 21
212.5723311200029
 31
0.0
  0
LINE
  5
915B
  8
0
 10
46.20668654623887
 20
212.5723311200029
 30
0.0
 11
45.20510154623886
 21
212.5723311200029
 31
0.0
  0
LINE
  5
915C
  8
0
 10
45.20510154623886
 20
212.5723311200029
 30
0.0
 11
45.20510154623886
 21
212.2383462700029
 31
0.0
  0
LINE
  5
915D
  8
0
 10
46.54032654623887
 20
212.2383462700029
 30
0.0
 11
47.54154104623888
 21
212.2383462700029
 31
0.0
  0
LINE
  5
915E
  8
0
 10
47.54154104623888
 20
212.2383462700029
 30
0.0
 11
47.54154104623888
 21
212.5723311200029
 31
0.0
  0
LINE
  5
915F
  8
0
 10
47.54154104623888
 20
212.5723311200029
 30
0.0
 11
46.54032654623887
 21
212.5723311200029
 31
0.0
  0
LINE
  5
9160
  8
0
 10
46.54032654623887
 20
212.5723311200029
 30
0.0
 11
46.54032654623887
 21
212.2383462700029
 31
0.0
  0
LINE
  5
9161
  8
0
 10
48.20909654623887
 20
212.2383462700029
 30
0.0
 11
48.54308044623886
 21
212.2383462700029
 31
0.0
  0
LINE
  5
9162
  8
0
 10
48.54308044623886
 20
212.2383462700029
 30
0.0
 11
48.54308044623886
 21
212.5723311200029
 31
0.0
  0
LINE
  5
9163
  8
0
 10
48.54308044623886
 20
212.5723311200029
 30
0.0
 11
48.20909654623887
 21
212.5723311200029
 31
0.0
  0
LINE
  5
9164
  8
0
 10
48.20909654623887
 20
212.5723311200029
 30
0.0
 11
48.20909654623887
 21
212.2383462700029
 31
0.0
  0
LINE
  5
9165
  8
0
 10
49.20992154623886
 20
212.2383462700029
 30
0.0
 11
49.54427689623887
 21
212.2383462700029
 31
0.0
  0
LINE
  5
9166
  8
0
 10
49.54427689623887
 20
212.2383462700029
 30
0.0
 11
49.54427689623887
 21
212.5723311200029
 31
0.0
  0
LINE
  5
9167
  8
0
 10
49.54427689623887
 20
212.5723311200029
 30
0.0
 11
49.20992154623886
 21
212.5723311200029
 31
0.0
  0
LINE
  5
9168
  8
0
 10
49.20992154623886
 20
212.5723311200029
 30
0.0
 11
49.20992154623886
 21
212.2383462700029
 31
0.0
  0
LINE
  5
9169
  8
0
 10
49.87748654623886
 20
212.2383462700029
 30
0.0
 11
50.21147044623888
 21
212.2383462700029
 31
0.0
  0
LINE
  5
916A
  8
0
 10
50.21147044623888
 20
212.2383462700029
 30
0.0
 11
50.21147044623888
 21
212.5723311200029
 31
0.0
  0
LINE
  5
916B
  8
0
 10
50.21147044623888
 20
212.5723311200029
 30
0.0
 11
49.87748654623886
 21
212.5723311200029
 31
0.0
  0
LINE
  5
916C
  8
0
 10
49.87748654623886
 20
212.5723311200029
 30
0.0
 11
49.87748654623886
 21
212.2383462700029
 31
0.0
  0
LINE
  5
916D
  8
0
 10
50.54590654623885
 20
212.2383462700029
 30
0.0
 11
50.87989139623886
 21
212.2383462700029
 31
0.0
  0
LINE
  5
916F
  8
0
 10
50.87989139623886
 20
212.2383016200029
 30
0.0
 11
50.87989139623886
 21
212.5723311200029
 31
0.0
  0
LINE
  5
9170
  8
0
 10
50.87989139623886
 20
212.5723311200029
 30
0.0
 11
50.54590654623885
 21
212.5723311200029
 31
0.0
  0
LINE
  5
9171
  8
0
 10
50.54590654623885
 20
212.5723311200029
 30
0.0
 11
50.54590654623885
 21
212.2383016200029
 31
0.0
  0
LINE
  5
9172
  8
0
 10
42.53436654623886
 20
211.9039462700029
 30
0.0
 11
42.86872189623887
 21
211.9039462700029
 31
0.0
  0
LINE
  5
9173
  8
0
 10
42.86872189623887
 20
211.9039462700029
 30
0.0
 11
42.86872189623887
 21
212.2383016200029
 31
0.0
  0
LINE
  5
9174
  8
0
 10
42.86872189623887
 20
212.2383016200029
 30
0.0
 11
42.53436654623886
 21
212.2383016200029
 31
0.0
  0
LINE
  5
9175
  8
0
 10
42.53436654623886
 20
212.2383016200029
 30
0.0
 11
42.53436654623886
 21
211.9039462700029
 31
0.0
  0
LINE
  5
9176
  8
0
 10
43.20193154623885
 20
211.9039462700029
 30
0.0
 11
44.20351654623886
 21
211.9039462700029
 31
0.0
  0
LINE
  5
9177
  8
0
 10
44.20351654623886
 20
211.9039462700029
 30
0.0
 11
44.20351654623886
 21
212.2383016200029
 31
0.0
  0
LINE
  5
9178
  8
0
 10
44.20351654623886
 20
212.2383016200029
 30
0.0
 11
43.20193154623885
 21
212.2383016200029
 31
0.0
  0
LINE
  5
9179
  8
0
 10
43.20193154623885
 20
212.2383016200029
 30
0.0
 11
43.20193154623885
 21
211.9039462700029
 31
0.0
  0
LINE
  5
917A
  8
0
 10
44.53744154623885
 20
211.9039462700029
 30
0.0
 11
44.87142544623885
 21
211.9039462700029
 31
0.0
  0
LINE
  5
917B
  8
0
 10
44.87142544623885
 20
211.9039462700029
 30
0.0
 11
44.87142544623885
 21
212.2383016200029
 31
0.0
  0
LINE
  5
917C
  8
0
 10
44.87142544623885
 20
212.2383016200029
 30
0.0
 11
44.53744154623885
 21
212.2383016200029
 31
0.0
  0
LINE
  5
917D
  8
0
 10
44.53744154623885
 20
212.2383016200029
 30
0.0
 11
44.53744154623885
 21
211.9039462700029
 31
0.0
  0
LINE
  5
917E
  8
0
 10
45.20510154623886
 20
211.9039462700029
 30
0.0
 11
46.20668654623887
 21
211.9039462700029
 31
0.0
  0
LINE
  5
917F
  8
0
 10
46.20668654623887
 20
211.9039462700029
 30
0.0
 11
46.20668654623887
 21
212.2383016200029
 31
0.0
  0
LINE
  5
9180
  8
0
 10
46.20668654623887
 20
212.2383016200029
 30
0.0
 11
45.20510154623886
 21
212.2383016200029
 31
0.0
  0
LINE
  5
9181
  8
0
 10
45.20510154623886
 20
212.2383016200029
 30
0.0
 11
45.20510154623886
 21
211.9039462700029
 31
0.0
  0
LINE
  5
9182
  8
0
 10
46.54032654623887
 20
211.9039462700029
 30
0.0
 11
47.20755334623885
 21
211.9039462700029
 31
0.0
  0
LINE
  5
9183
  8
0
 10
47.20755334623885
 20
211.9039462700029
 30
0.0
 11
47.20755334623885
 21
212.2383016200029
 31
0.0
  0
LINE
  5
9184
  8
0
 10
47.20755334623885
 20
212.2383016200029
 30
0.0
 11
46.54032654623887
 21
212.2383016200029
 31
0.0
  0
LINE
  5
9185
  8
0
 10
46.54032654623887
 20
212.2383016200029
 30
0.0
 11
46.54032654623887
 21
211.9039462700029
 31
0.0
  0
LINE
  5
9186
  8
0
 10
47.54153154623887
 20
211.9039462700029
 30
0.0
 11
47.87588689623888
 21
211.9039462700029
 31
0.0
  0
LINE
  5
9187
  8
0
 10
47.87588689623888
 20
211.9039462700029
 30
0.0
 11
47.87588689623888
 21
212.2383016200029
 31
0.0
  0
LINE
  5
9188
  8
0
 10
47.87588689623888
 20
212.2383016200029
 30
0.0
 11
47.54153154623887
 21
212.2383016200029
 31
0.0
  0
LINE
  5
9189
  8
0
 10
47.54153154623887
 20
212.2383016200029
 30
0.0
 11
47.54153154623887
 21
211.9039462700029
 31
0.0
  0
LINE
  5
918A
  8
0
 10
48.20909654623887
 20
211.9039462700029
 30
0.0
 11
49.21068154623887
 21
211.9039462700029
 31
0.0
  0
LINE
  5
918B
  8
0
 10
49.21068154623887
 20
211.9039462700029
 30
0.0
 11
49.21068154623887
 21
212.2383016200029
 31
0.0
  0
LINE
  5
918C
  8
0
 10
49.21068154623887
 20
212.2383016200029
 30
0.0
 11
48.20909654623887
 21
212.2383016200029
 31
0.0
  0
LINE
  5
918D
  8
0
 10
48.20909654623887
 20
212.2383016200029
 30
0.0
 11
48.20909654623887
 21
211.9039462700029
 31
0.0
  0
LINE
  5
918E
  8
0
 10
49.54432154623885
 20
211.9039462700029
 30
0.0
 11
49.87830639623886
 21
211.9039462700029
 31
0.0
  0
LINE
  5
918F
  8
0
 10
49.87830639623886
 20
211.9039462700029
 30
0.0
 11
49.87830639623886
 21
212.2383016200029
 31
0.0
  0
LINE
  5
9190
  8
0
 10
49.87830639623886
 20
212.2383016200029
 30
0.0
 11
49.54432154623885
 21
212.2383016200029
 31
0.0
  0
LINE
  5
9191
  8
0
 10
49.54432154623885
 20
212.2383016200029
 30
0.0
 11
49.54432154623885
 21
211.9039462700029
 31
0.0
  0
LINE
  5
9192
  8
0
 10
50.54590654623885
 20
211.9039462700029
 30
0.0
 11
50.87989139623886
 21
211.9039462700029
 31
0.0
  0
LINE
  5
9193
  8
0
 10
50.87989139623886
 20
211.9039462700029
 30
0.0
 11
50.87989139623886
 21
212.2383016200029
 31
0.0
  0
LINE
  5
9194
  8
0
 10
50.87989139623886
 20
212.2383016200029
 30
0.0
 11
50.54590654623885
 21
212.2383016200029
 31
0.0
  0
LINE
  5
9195
  8
0
 10
50.54590654623885
 20
212.2383016200029
 30
0.0
 11
50.54590654623885
 21
211.9039462700029
 31
0.0
  0
LINE
  5
9197
  8
0
 10
52.88224154623884
 20
211.2367612700029
 30
0.0
 11
52.88224154623884
 21
212.2383016200029
 31
0.0
  0
LINE
  5
9198
  8
0
 10
52.88224154623884
 20
212.2383016200029
 30
0.0
 11
51.88065654623887
 21
212.2383016200029
 31
0.0
  0
LINE
  5
9199
  8
0
 10
51.88065654623887
 20
212.2383016200029
 30
0.0
 11
51.88065654623887
 21
211.2367612700029
 31
0.0
  0
LINE
  5
919A
  8
0
 10
42.53436654623886
 20
211.5706862700029
 30
0.0
 11
42.86872189623887
 21
211.5706862700029
 31
0.0
  0
LINE
  5
919B
  8
0
 10
42.86872189623887
 20
211.5706862700029
 30
0.0
 11
42.86872189623887
 21
211.9046701700029
 31
0.0
  0
LINE
  5
919C
  8
0
 10
42.86872189623887
 20
211.9046701700029
 30
0.0
 11
42.53436654623886
 21
211.9046701700029
 31
0.0
  0
LINE
  5
919D
  8
0
 10
42.53436654623886
 20
211.9046701700029
 30
0.0
 11
42.53436654623886
 21
211.5706862700029
 31
0.0
  0
LINE
  5
919E
  8
0
 10
43.20193154623885
 20
211.5706862700029
 30
0.0
 11
44.20351654623886
 21
211.5706862700029
 31
0.0
  0
LINE
  5
919F
  8
0
 10
44.20351654623886
 20
211.5706862700029
 30
0.0
 11
44.20351654623886
 21
211.9046701700029
 31
0.0
  0
LINE
  5
91A0
  8
0
 10
44.20351654623886
 20
211.9046701700029
 30
0.0
 11
43.20193154623885
 21
211.9046701700029
 31
0.0
  0
LINE
  5
91A1
  8
0
 10
43.20193154623885
 20
211.9046701700029
 30
0.0
 11
43.20193154623885
 21
211.5706862700029
 31
0.0
  0
LINE
  5
91A2
  8
0
 10
44.53744154623885
 20
211.5706862700029
 30
0.0
 11
44.87142544623885
 21
211.5706862700029
 31
0.0
  0
LINE
  5
91A3
  8
0
 10
44.87142544623885
 20
211.5706862700029
 30
0.0
 11
44.87142544623885
 21
211.9046701700029
 31
0.0
  0
LINE
  5
91A4
  8
0
 10
44.87142544623885
 20
211.9046701700029
 30
0.0
 11
44.53744154623885
 21
211.9046701700029
 31
0.0
  0
LINE
  5
91A5
  8
0
 10
44.53744154623885
 20
211.9046701700029
 30
0.0
 11
44.53744154623885
 21
211.5706862700029
 31
0.0
  0
LINE
  5
91A6
  8
0
 10
45.20510154623886
 20
211.5706862700029
 30
0.0
 11
45.53908639623887
 21
211.5706862700029
 31
0.0
  0
LINE
  5
91A7
  8
0
 10
45.53908639623887
 20
211.5706862700029
 30
0.0
 11
45.53908639623887
 21
211.9046701700029
 31
0.0
  0
LINE
  5
91A8
  8
0
 10
45.53908639623887
 20
211.9046701700029
 30
0.0
 11
45.20510154623886
 21
211.9046701700029
 31
0.0
  0
LINE
  5
91A9
  8
0
 10
45.20510154623886
 20
211.9046701700029
 30
0.0
 11
45.20510154623886
 21
211.5706862700029
 31
0.0
  0
LINE
  5
91AA
  8
0
 10
48.87666154623886
 20
211.5706862700029
 30
0.0
 11
49.21064544623886
 21
211.5706862700029
 31
0.0
  0
LINE
  5
91AB
  8
0
 10
49.21064544623886
 20
211.5706862700029
 30
0.0
 11
49.21064544623886
 21
211.9046701700029
 31
0.0
  0
LINE
  5
91AC
  8
0
 10
49.21064544623886
 20
211.9046701700029
 30
0.0
 11
48.87666154623886
 21
211.9046701700029
 31
0.0
  0
LINE
  5
91AD
  8
0
 10
48.87666154623886
 20
211.9046701700029
 30
0.0
 11
48.87666154623886
 21
211.5706862700029
 31
0.0
  0
LINE
  5
91AE
  8
0
 10
49.54432154623885
 20
211.5706862700029
 30
0.0
 11
50.87914754623887
 21
211.5706862700029
 31
0.0
  0
LINE
  5
91AF
  8
0
 10
50.87914754623887
 20
211.5706862700029
 30
0.0
 11
50.87914754623887
 21
211.9046701700029
 31
0.0
  0
LINE
  5
91B0
  8
0
 10
50.87914754623887
 20
211.9046701700029
 30
0.0
 11
49.54432154623885
 21
211.9046701700029
 31
0.0
  0
LINE
  5
91B1
  8
0
 10
49.54432154623885
 20
211.9046701700029
 30
0.0
 11
49.54432154623885
 21
211.5706862700029
 31
0.0
  0
LINE
  5
91B2
  8
0
 10
42.53436654623886
 20
211.2367612700029
 30
0.0
 11
42.86872189623887
 21
211.2367612700029
 31
0.0
  0
LINE
  5
91B3
  8
0
 10
42.86872189623887
 20
211.2367612700029
 30
0.0
 11
42.86872189623887
 21
211.5707461200029
 31
0.0
  0
LINE
  5
91B4
  8
0
 10
42.86872189623887
 20
211.5707461200029
 30
0.0
 11
42.53436654623886
 21
211.5707461200029
 31
0.0
  0
LINE
  5
91B5
  8
0
 10
42.53436654623886
 20
211.5707461200029
 30
0.0
 11
42.53436654623886
 21
211.2367612700029
 31
0.0
  0
LINE
  5
91B6
  8
0
 10
43.20193154623885
 20
211.2367612700029
 30
0.0
 11
44.20351654623886
 21
211.2367612700029
 31
0.0
  0
LINE
  5
91B7
  8
0
 10
44.20351654623886
 20
211.2367612700029
 30
0.0
 11
44.20351654623886
 21
211.5707461200029
 31
0.0
  0
LINE
  5
91B8
  8
0
 10
44.20351654623886
 20
211.5707461200029
 30
0.0
 11
43.20193154623885
 21
211.5707461200029
 31
0.0
  0
LINE
  5
91B9
  8
0
 10
43.20193154623885
 20
211.5707461200029
 30
0.0
 11
43.20193154623885
 21
211.2367612700029
 31
0.0
  0
LINE
  5
91BA
  8
0
 10
44.53744154623885
 20
211.2367612700029
 30
0.0
 11
44.87142544623885
 21
211.2367612700029
 31
0.0
  0
LINE
  5
91BB
  8
0
 10
44.87142544623885
 20
211.2367612700029
 30
0.0
 11
44.87142544623885
 21
211.5707461200029
 31
0.0
  0
LINE
  5
91BC
  8
0
 10
44.87142544623885
 20
211.5707461200029
 30
0.0
 11
44.53744154623885
 21
211.5707461200029
 31
0.0
  0
LINE
  5
91BD
  8
0
 10
44.53744154623885
 20
211.5707461200029
 30
0.0
 11
44.53744154623885
 21
211.2367612700029
 31
0.0
  0
LINE
  5
91BE
  8
0
 10
45.53874154623884
 20
211.2367612700029
 30
0.0
 11
45.87272639623885
 21
211.2367612700029
 31
0.0
  0
LINE
  5
91BF
  8
0
 10
45.87272639623885
 20
211.2367612700029
 30
0.0
 11
45.87272639623885
 21
211.5707461200029
 31
0.0
  0
LINE
  5
91C0
  8
0
 10
45.87272639623885
 20
211.5707461200029
 30
0.0
 11
45.53874154623884
 21
211.5707461200029
 31
0.0
  0
LINE
  5
91C1
  8
0
 10
45.53874154623884
 20
211.5707461200029
 30
0.0
 11
45.53874154623884
 21
211.2367612700029
 31
0.0
  0
LINE
  5
91C2
  8
0
 10
46.20592654623886
 20
211.2367612700029
 30
0.0
 11
47.20751154623886
 21
211.2367612700029
 31
0.0
  0
LINE
  5
91C3
  8
0
 10
47.20751154623886
 20
211.2367612700029
 30
0.0
 11
47.20751154623886
 21
211.5707461200029
 31
0.0
  0
LINE
  5
91C4
  8
0
 10
47.20751154623886
 20
211.5707461200029
 30
0.0
 11
46.20592654623886
 21
211.5707461200029
 31
0.0
  0
LINE
  5
91C5
  8
0
 10
46.20592654623886
 20
211.5707461200029
 30
0.0
 11
46.20592654623886
 21
211.2367612700029
 31
0.0
  0
LINE
  5
91C6
  8
0
 10
47.54153154623887
 20
211.2367612700029
 30
0.0
 11
47.87588689623888
 21
211.2367612700029
 31
0.0
  0
LINE
  5
91C7
  8
0
 10
47.87588689623888
 20
211.2367612700029
 30
0.0
 11
47.87588689623888
 21
211.5707461200029
 31
0.0
  0
LINE
  5
91C8
  8
0
 10
47.87588689623888
 20
211.5707461200029
 30
0.0
 11
47.54153154623887
 21
211.5707461200029
 31
0.0
  0
LINE
  5
91C9
  8
0
 10
47.54153154623887
 20
211.5707461200029
 30
0.0
 11
47.54153154623887
 21
211.2367612700029
 31
0.0
  0
LINE
  5
91CA
  8
0
 10
48.20909654623887
 20
211.2367612700029
 30
0.0
 11
48.87669384623885
 21
211.2367612700029
 31
0.0
  0
LINE
  5
91CB
  8
0
 10
48.87669384623885
 20
211.2367612700029
 30
0.0
 11
48.87669384623885
 21
211.5707461200029
 31
0.0
  0
LINE
  5
91CC
  8
0
 10
48.87669384623885
 20
211.5707461200029
 30
0.0
 11
48.20909654623887
 21
211.5707461200029
 31
0.0
  0
LINE
  5
91CD
  8
0
 10
48.20909654623887
 20
211.5707461200029
 30
0.0
 11
48.20909654623887
 21
211.2367612700029
 31
0.0
  0
LINE
  5
91CE
  8
0
 10
50.21150654623887
 20
211.2367612700029
 30
0.0
 11
50.54586189623888
 21
211.2367612700029
 31
0.0
  0
LINE
  5
91CF
  8
0
 10
50.54586189623888
 20
211.2367612700029
 30
0.0
 11
50.54586189623888
 21
211.5707461200029
 31
0.0
  0
LINE
  5
91D0
  8
0
 10
50.54586189623888
 20
211.5707461200029
 30
0.0
 11
50.21150654623887
 21
211.5707461200029
 31
0.0
  0
LINE
  5
91D1
  8
0
 10
50.21150654623887
 20
211.5707461200029
 30
0.0
 11
50.21150654623887
 21
211.2367612700029
 31
0.0
  0
LINE
  5
91D2
  8
0
 10
51.88065654623887
 20
211.2367612700029
 30
0.0
 11
52.88224154623884
 21
211.2367612700029
 31
0.0
  0
LINE
  5
91D3
  8
0
 10
42.53436654623886
 20
210.9031212700029
 30
0.0
 11
42.86872189623887
 21
210.9031212700029
 31
0.0
  0
LINE
  5
91D4
  8
0
 10
42.86872189623887
 20
210.9031212700029
 30
0.0
 11
42.86872189623887
 21
211.2371061200029
 31
0.0
  0
LINE
  5
91D5
  8
0
 10
42.86872189623887
 20
211.2371061200029
 30
0.0
 11
42.53436654623886
 21
211.2371061200029
 31
0.0
  0
LINE
  5
91D6
  8
0
 10
42.53436654623886
 20
211.2371061200029
 30
0.0
 11
42.53436654623886
 21
210.9031212700029
 31
0.0
  0
LINE
  5
91D7
  8
0
 10
44.53744154623885
 20
210.9031212700029
 30
0.0
 11
44.87142544623885
 21
210.9031212700029
 31
0.0
  0
LINE
  5
91D8
  8
0
 10
44.87142544623885
 20
210.9031212700029
 30
0.0
 11
44.87142544623885
 21
211.2371061200029
 31
0.0
  0
LINE
  5
91D9
  8
0
 10
44.87142544623885
 20
211.2371061200029
 30
0.0
 11
44.53744154623885
 21
211.2371061200029
 31
0.0
  0
LINE
  5
91DA
  8
0
 10
44.53744154623885
 20
211.2371061200029
 30
0.0
 11
44.53744154623885
 21
210.9031212700029
 31
0.0
  0
LINE
  5
91DB
  8
0
 10
46.87349154623885
 20
210.9031212700029
 30
0.0
 11
47.54108979623888
 21
210.9031212700029
 31
0.0
  0
LINE
  5
91DC
  8
0
 10
47.54108979623888
 20
210.9031212700029
 30
0.0
 11
47.54108979623888
 21
211.2371061200029
 31
0.0
  0
LINE
  5
91DD
  8
0
 10
47.54108979623888
 20
211.2371061200029
 30
0.0
 11
46.87349154623885
 21
211.2371061200029
 31
0.0
  0
LINE
  5
91DE
  8
0
 10
46.87349154623885
 20
211.2371061200029
 30
0.0
 11
46.87349154623885
 21
210.9031212700029
 31
0.0
  0
LINE
  5
91DF
  8
0
 10
47.87507654623886
 20
210.9031212700029
 30
0.0
 11
48.20906139623887
 21
210.9031212700029
 31
0.0
  0
LINE
  5
91E0
  8
0
 10
48.20906139623887
 20
210.9031212700029
 30
0.0
 11
48.20906139623887
 21
211.2371061200029
 31
0.0
  0
LINE
  5
91E1
  8
0
 10
48.20906139623887
 20
211.2371061200029
 30
0.0
 11
47.87507654623886
 21
211.2371061200029
 31
0.0
  0
LINE
  5
91E2
  8
0
 10
47.87507654623886
 20
211.2371061200029
 30
0.0
 11
47.87507654623886
 21
210.9031212700029
 31
0.0
  0
LINE
  5
91E3
  8
0
 10
48.54273654623887
 20
210.9031212700029
 30
0.0
 11
48.87672139623885
 21
210.9031212700029
 31
0.0
  0
LINE
  5
91E4
  8
0
 10
48.87672139623885
 20
210.9031212700029
 30
0.0
 11
48.87672139623885
 21
211.2371061200029
 31
0.0
  0
LINE
  5
91E5
  8
0
 10
48.87672139623885
 20
211.2371061200029
 30
0.0
 11
48.54273654623887
 21
211.2371061200029
 31
0.0
  0
LINE
  5
91E6
  8
0
 10
48.54273654623887
 20
211.2371061200029
 30
0.0
 11
48.54273654623887
 21
210.9031212700029
 31
0.0
  0
LINE
  5
91E7
  8
0
 10
49.20992154623886
 20
210.9031212700029
 30
0.0
 11
49.54427689623887
 21
210.9031212700029
 31
0.0
  0
LINE
  5
91E8
  8
0
 10
49.54427689623887
 20
210.9031212700029
 30
0.0
 11
49.54427689623887
 21
211.2371061200029
 31
0.0
  0
LINE
  5
91E9
  8
0
 10
49.54427689623887
 20
211.2371061200029
 30
0.0
 11
49.20992154623886
 21
211.2371061200029
 31
0.0
  0
LINE
  5
91EA
  8
0
 10
49.20992154623886
 20
211.2371061200029
 30
0.0
 11
49.20992154623886
 21
210.9031212700029
 31
0.0
  0
LINE
  5
91EB
  8
0
 10
51.54707544623886
 20
210.9030851700029
 30
0.0
 11
51.54707544623886
 21
212.5722712700029
 31
0.0
  0
LINE
  5
91EC
  8
0
 10
53.21550154623887
 20
212.5722712700029
 30
0.0
 11
53.21550154623887
 21
210.9030851700029
 31
0.0
  0
LINE
  5
91ED
  8
0
 10
42.53436654623886
 20
210.5691012700029
 30
0.0
 11
44.87114804623889
 21
210.5691012700029
 31
0.0
  0
LINE
  5
91EE
  8
0
 10
44.87114804623889
 20
210.5691012700029
 30
0.0
 11
44.87114804623889
 21
210.9030851700029
 31
0.0
  0
LINE
  5
91EF
  8
0
 10
44.87114804623889
 20
210.9030851700029
 30
0.0
 11
42.53436654623886
 21
210.9030851700029
 31
0.0
  0
LINE
  5
91F0
  8
0
 10
42.53436654623886
 20
210.9030851700029
 30
0.0
 11
42.53436654623886
 21
210.5691012700029
 31
0.0
  0
LINE
  5
91F1
  8
0
 10
45.20510154623886
 20
210.5691012700029
 30
0.0
 11
45.53908639623887
 21
210.5691012700029
 31
0.0
  0
LINE
  5
91F2
  8
0
 10
45.53908639623887
 20
210.5691012700029
 30
0.0
 11
45.53908639623887
 21
210.9030851700029
 31
0.0
  0
LINE
  5
91F3
  8
0
 10
45.53908639623887
 20
210.9030851700029
 30
0.0
 11
45.20510154623886
 21
210.9030851700029
 31
0.0
  0
LINE
  5
91F4
  8
0
 10
45.20510154623886
 20
210.9030851700029
 30
0.0
 11
45.20510154623886
 21
210.5691012700029
 31
0.0
  0
LINE
  5
91F5
  8
0
 10
45.87266654623886
 20
210.5691012700029
 30
0.0
 11
46.20665044623888
 21
210.5691012700029
 31
0.0
  0
LINE
  5
91F6
  8
0
 10
46.20665044623888
 20
210.5691012700029
 30
0.0
 11
46.20665044623888
 21
210.9030851700029
 31
0.0
  0
LINE
  5
91F7
  8
0
 10
46.20665044623888
 20
210.9030851700029
 30
0.0
 11
45.87266654623886
 21
210.9030851700029
 31
0.0
  0
LINE
  5
91F8
  8
0
 10
45.87266654623886
 20
210.9030851700029
 30
0.0
 11
45.87266654623886
 21
210.5691012700029
 31
0.0
  0
LINE
  5
91F9
  8
0
 10
46.54032654623887
 20
210.5691012700029
 30
0.0
 11
46.87431044623887
 21
210.5691012700029
 31
0.0
  0
LINE
  5
91FA
  8
0
 10
46.87431044623887
 20
210.5691012700029
 30
0.0
 11
46.87431044623887
 21
210.9030851700029
 31
0.0
  0
LINE
  5
91FB
  8
0
 10
46.87431044623887
 20
210.9030851700029
 30
0.0
 11
46.54032654623887
 21
210.9030851700029
 31
0.0
  0
LINE
  5
91FC
  8
0
 10
46.54032654623887
 20
210.9030851700029
 30
0.0
 11
46.54032654623887
 21
210.5691012700029
 31
0.0
  0
LINE
  5
91FD
  8
0
 10
47.20751154623886
 20
210.5691012700029
 30
0.0
 11
47.54149544623888
 21
210.5691012700029
 31
0.0
  0
LINE
  5
91FE
  8
0
 10
47.54149544623888
 20
210.5691012700029
 30
0.0
 11
47.54149544623888
 21
210.9030851700029
 31
0.0
  0
LINE
  5
91FF
  8
0
 10
47.54149544623888
 20
210.9030851700029
 30
0.0
 11
47.20751154623886
 21
210.9030851700029
 31
0.0
  0
LINE
  5
9200
  8
0
 10
47.20751154623886
 20
210.9030851700029
 30
0.0
 11
47.20751154623886
 21
210.5691012700029
 31
0.0
  0
LINE
  5
9201
  8
0
 10
47.87507654623886
 20
210.5691012700029
 30
0.0
 11
48.20906139623887
 21
210.5691012700029
 31
0.0
  0
LINE
  5
9202
  8
0
 10
48.20906139623887
 20
210.5691012700029
 30
0.0
 11
48.20906139623887
 21
210.9030851700029
 31
0.0
  0
LINE
  5
9203
  8
0
 10
48.20906139623887
 20
210.9030851700029
 30
0.0
 11
47.87507654623886
 21
210.9030851700029
 31
0.0
  0
LINE
  5
9204
  8
0
 10
47.87507654623886
 20
210.9030851700029
 30
0.0
 11
47.87507654623886
 21
210.5691012700029
 31
0.0
  0
LINE
  5
9205
  8
0
 10
48.54273654623887
 20
210.5691012700029
 30
0.0
 11
48.87672139623885
 21
210.5691012700029
 31
0.0
  0
LINE
  5
9206
  8
0
 10
48.87672139623885
 20
210.5691012700029
 30
0.0
 11
48.87672139623885
 21
210.9030851700029
 31
0.0
  0
LINE
  5
9207
  8
0
 10
48.87672139623885
 20
210.9030851700029
 30
0.0
 11
48.54273654623887
 21
210.9030851700029
 31
0.0
  0
LINE
  5
9208
  8
0
 10
48.54273654623887
 20
210.9030851700029
 30
0.0
 11
48.54273654623887
 21
210.5691012700029
 31
0.0
  0
LINE
  5
9209
  8
0
 10
49.20992154623886
 20
210.5691012700029
 30
0.0
 11
49.54427689623887
 21
210.5691012700029
 31
0.0
  0
LINE
  5
920A
  8
0
 10
49.54427689623887
 20
210.5691012700029
 30
0.0
 11
49.54427689623887
 21
210.9030851700029
 31
0.0
  0
LINE
  5
920B
  8
0
 10
49.54427689623887
 20
210.9030851700029
 30
0.0
 11
49.20992154623886
 21
210.9030851700029
 31
0.0
  0
LINE
  5
920C
  8
0
 10
49.20992154623886
 20
210.9030851700029
 30
0.0
 11
49.20992154623886
 21
210.5691012700029
 31
0.0
  0
LINE
  5
920D
  8
0
 10
49.87748654623886
 20
210.5691012700029
 30
0.0
 11
50.21147044623888
 21
210.5691012700029
 31
0.0
  0
LINE
  5
920E
  8
0
 10
50.21147044623888
 20
210.5691012700029
 30
0.0
 11
50.21147044623888
 21
210.9030851700029
 31
0.0
  0
LINE
  5
920F
  8
0
 10
50.21147044623888
 20
210.9030851700029
 30
0.0
 11
49.87748654623886
 21
210.9030851700029
 31
0.0
  0
LINE
  5
9210
  8
0
 10
49.87748654623886
 20
210.9030851700029
 30
0.0
 11
49.87748654623886
 21
210.5691012700029
 31
0.0
  0
LINE
  5
9211
  8
0
 10
50.54590654623885
 20
210.5691012700029
 30
0.0
 11
50.87989139623886
 21
210.5691012700029
 31
0.0
  0
LINE
  5
9212
  8
0
 10
50.87989139623886
 20
210.5691012700029
 30
0.0
 11
50.87989139623886
 21
210.9030851700029
 31
0.0
  0
LINE
  5
9213
  8
0
 10
50.87989139623886
 20
210.9030851700029
 30
0.0
 11
50.54590654623885
 21
210.9030851700029
 31
0.0
  0
LINE
  5
9214
  8
0
 10
50.54590654623885
 20
210.9030851700029
 30
0.0
 11
50.54590654623885
 21
210.5691012700029
 31
0.0
  0
LINE
  5
9215
  8
0
 10
51.21309154623887
 20
210.5691012700029
 30
0.0
 11
53.54987304623887
 21
210.5691012700029
 31
0.0
  0
LINE
  5
9216
  8
0
 10
53.21550154623887
 20
210.9030851700029
 30
0.0
 11
51.54707544623886
 21
210.9030851700029
 31
0.0
  0
LINE
  5
9217
  8
0
 10
45.20510154623886
 20
210.2359362700029
 30
0.0
 11
45.53908639623887
 21
210.2359362700029
 31
0.0
  0
LINE
  5
9218
  8
0
 10
45.53908639623887
 20
210.2359362700029
 30
0.0
 11
45.53908639623887
 21
210.5699201700029
 31
0.0
  0
LINE
  5
9219
  8
0
 10
45.53908639623887
 20
210.5699201700029
 30
0.0
 11
45.20510154623886
 21
210.5699201700029
 31
0.0
  0
LINE
  5
921A
  8
0
 10
45.20510154623886
 20
210.5699201700029
 30
0.0
 11
45.20510154623886
 21
210.2359362700029
 31
0.0
  0
LINE
  5
921B
  8
0
 10
46.54032654623887
 20
210.2359362700029
 30
0.0
 11
46.87431044623887
 21
210.2359362700029
 31
0.0
  0
LINE
  5
921C
  8
0
 10
46.87431044623887
 20
210.2359362700029
 30
0.0
 11
46.87431044623887
 21
210.5699201700029
 31
0.0
  0
LINE
  5
921D
  8
0
 10
46.87431044623887
 20
210.5699201700029
 30
0.0
 11
46.54032654623887
 21
210.5699201700029
 31
0.0
  0
LINE
  5
921E
  8
0
 10
46.54032654623887
 20
210.5699201700029
 30
0.0
 11
46.54032654623887
 21
210.2359362700029
 31
0.0
  0
LINE
  5
921F
  8
0
 10
47.20751154623886
 20
210.2359362700029
 30
0.0
 11
47.54149544623888
 21
210.2359362700029
 31
0.0
  0
LINE
  5
9220
  8
0
 10
47.54149544623888
 20
210.2359362700029
 30
0.0
 11
47.54149544623888
 21
210.5699201700029
 31
0.0
  0
LINE
  5
9221
  8
0
 10
47.54149544623888
 20
210.5699201700029
 30
0.0
 11
47.20751154623886
 21
210.5699201700029
 31
0.0
  0
LINE
  5
9222
  8
0
 10
47.20751154623886
 20
210.5699201700029
 30
0.0
 11
47.20751154623886
 21
210.2359362700029
 31
0.0
  0
LINE
  5
9223
  8
0
 10
49.87748654623886
 20
210.2359362700029
 30
0.0
 11
50.21147044623888
 21
210.2359362700029
 31
0.0
  0
LINE
  5
9224
  8
0
 10
50.21147044623888
 20
210.2359362700029
 30
0.0
 11
50.21147044623888
 21
210.5699201700029
 31
0.0
  0
LINE
  5
9225
  8
0
 10
50.21147044623888
 20
210.5699201700029
 30
0.0
 11
49.87748654623886
 21
210.5699201700029
 31
0.0
  0
LINE
  5
9226
  8
0
 10
49.87748654623886
 20
210.5699201700029
 30
0.0
 11
49.87748654623886
 21
210.2359362700029
 31
0.0
  0
LINE
  5
9227
  8
0
 10
50.54590654623885
 20
210.2359362700029
 30
0.0
 11
50.87989139623886
 21
210.2359362700029
 31
0.0
  0
LINE
  5
9228
  8
0
 10
50.87989139623886
 20
210.2359362700029
 30
0.0
 11
50.87989139623886
 21
210.5699201700029
 31
0.0
  0
LINE
  5
9229
  8
0
 10
50.87989139623886
 20
210.5699201700029
 30
0.0
 11
50.54590654623885
 21
210.5699201700029
 31
0.0
  0
LINE
  5
922A
  8
0
 10
50.54590654623885
 20
210.5699201700029
 30
0.0
 11
50.54590654623885
 21
210.2359362700029
 31
0.0
  0
LINE
  5
922B
  8
0
 10
42.53436654623886
 20
209.9015362700029
 30
0.0
 11
42.86872189623887
 21
209.9015362700029
 31
0.0
  0
LINE
  5
922C
  8
0
 10
42.86872189623887
 20
209.9015362700029
 30
0.0
 11
42.86872189623887
 21
210.2358916200029
 31
0.0
  0
LINE
  5
922D
  8
0
 10
42.86872189623887
 20
210.2358916200029
 30
0.0
 11
42.53436654623886
 21
210.2358916200029
 31
0.0
  0
LINE
  5
922E
  8
0
 10
42.53436654623886
 20
210.2358916200029
 30
0.0
 11
42.53436654623886
 21
209.9015362700029
 31
0.0
  0
LINE
  5
922F
  8
0
 10
44.53744154623885
 20
209.9015362700029
 30
0.0
 11
44.87142544623885
 21
209.9015362700029
 31
0.0
  0
LINE
  5
9230
  8
0
 10
44.87142544623885
 20
209.9015362700029
 30
0.0
 11
44.87142544623885
 21
210.2358916200029
 31
0.0
  0
LINE
  5
9231
  8
0
 10
44.87142544623885
 20
210.2358916200029
 30
0.0
 11
44.53744154623885
 21
210.2358916200029
 31
0.0
  0
LINE
  5
9232
  8
0
 10
44.53744154623885
 20
210.2358916200029
 30
0.0
 11
44.53744154623885
 21
209.9015362700029
 31
0.0
  0
LINE
  5
9233
  8
0
 10
45.20510154623886
 20
209.9015362700029
 30
0.0
 11
46.20668654623887
 21
209.9015362700029
 31
0.0
  0
LINE
  5
9234
  8
0
 10
46.20668654623887
 20
209.9015362700029
 30
0.0
 11
46.20668654623887
 21
210.2358916200029
 31
0.0
  0
LINE
  5
9235
  8
0
 10
46.20668654623887
 20
210.2358916200029
 30
0.0
 11
45.20510154623886
 21
210.2358916200029
 31
0.0
  0
LINE
  5
9236
  8
0
 10
45.20510154623886
 20
210.2358916200029
 30
0.0
 11
45.20510154623886
 21
209.9015362700029
 31
0.0
  0
LINE
  5
9237
  8
0
 10
46.87349154623885
 20
209.9015362700029
 30
0.0
 11
48.54267004623887
 21
209.9015362700029
 31
0.0
  0
LINE
  5
9238
  8
0
 10
48.54267004623887
 20
209.9015362700029
 30
0.0
 11
48.54267004623887
 21
210.2358916200029
 31
0.0
  0
LINE
  5
9239
  8
0
 10
48.54267004623887
 20
210.2358916200029
 30
0.0
 11
46.87349154623885
 21
210.2358916200029
 31
0.0
  0
LINE
  5
923A
  8
0
 10
46.87349154623885
 20
210.2358916200029
 30
0.0
 11
46.87349154623885
 21
209.9015362700029
 31
0.0
  0
LINE
  5
923B
  8
0
 10
49.87748654623886
 20
209.9015362700029
 30
0.0
 11
50.21147044623888
 21
209.9015362700029
 31
0.0
  0
LINE
  5
923C
  8
0
 10
50.21147044623888
 20
209.9015362700029
 30
0.0
 11
50.21147044623888
 21
210.2358916200029
 31
0.0
  0
LINE
  5
923D
  8
0
 10
50.21147044623888
 20
210.2358916200029
 30
0.0
 11
49.87748654623886
 21
210.2358916200029
 31
0.0
  0
LINE
  5
923E
  8
0
 10
49.87748654623886
 20
210.2358916200029
 30
0.0
 11
49.87748654623886
 21
209.9015362700029
 31
0.0
  0
LINE
  5
923F
  8
0
 10
50.54590654623885
 20
209.9015362700029
 30
0.0
 11
51.54712104623886
 21
209.9015362700029
 31
0.0
  0
LINE
  5
9240
  8
0
 10
51.54712104623886
 20
209.9015362700029
 30
0.0
 11
51.54712104623886
 21
210.2358916200029
 31
0.0
  0
LINE
  5
9241
  8
0
 10
51.54712104623886
 20
210.2358916200029
 30
0.0
 11
50.54590654623885
 21
210.2358916200029
 31
0.0
  0
LINE
  5
9242
  8
0
 10
50.54590654623885
 20
210.2358916200029
 30
0.0
 11
50.54590654623885
 21
209.9015362700029
 31
0.0
  0
LINE
  5
9243
  8
0
 10
52.21391654623886
 20
209.9015362700029
 30
0.0
 11
53.21550154623887
 21
209.9015362700029
 31
0.0
  0
LINE
  5
9244
  8
0
 10
53.21550154623887
 20
209.9015362700029
 30
0.0
 11
53.21550154623887
 21
210.2358916200029
 31
0.0
  0
LINE
  5
9245
  8
0
 10
53.21550154623887
 20
210.2358916200029
 30
0.0
 11
52.21391654623886
 21
210.2358916200029
 31
0.0
  0
LINE
  5
9246
  8
0
 10
52.21391654623886
 20
210.2358916200029
 30
0.0
 11
52.21391654623886
 21
209.9015362700029
 31
0.0
  0
LINE
  5
9247
  8
0
 10
42.53436654623886
 20
209.5682762700029
 30
0.0
 11
42.86872189623887
 21
209.5682762700029
 31
0.0
  0
LINE
  5
9248
  8
0
 10
42.86872189623887
 20
209.5682762700029
 30
0.0
 11
42.86872189623887
 21
209.9022611200029
 31
0.0
  0
LINE
  5
9249
  8
0
 10
42.86872189623887
 20
209.9022611200029
 30
0.0
 11
42.53436654623886
 21
209.9022611200029
 31
0.0
  0
LINE
  5
924A
  8
0
 10
42.53436654623886
 20
209.9022611200029
 30
0.0
 11
42.53436654623886
 21
209.5682762700029
 31
0.0
  0
LINE
  5
924B
  8
0
 10
44.20351654623886
 20
209.5682762700029
 30
0.0
 11
44.53750139623887
 21
209.5682762700029
 31
0.0
  0
LINE
  5
924C
  8
0
 10
44.53750139623887
 20
209.5682762700029
 30
0.0
 11
44.53750139623887
 21
209.9022611200029
 31
0.0
  0
LINE
  5
924D
  8
0
 10
44.53750139623887
 20
209.9022611200029
 30
0.0
 11
44.20351654623886
 21
209.9022611200029
 31
0.0
  0
LINE
  5
924E
  8
0
 10
44.20351654623886
 20
209.9022611200029
 30
0.0
 11
44.20351654623886
 21
209.5682762700029
 31
0.0
  0
LINE
  5
924F
  8
0
 10
45.20510154623886
 20
209.5682762700029
 30
0.0
 11
45.53908639623887
 21
209.5682762700029
 31
0.0
  0
LINE
  5
9250
  8
0
 10
45.53908639623887
 20
209.5682762700029
 30
0.0
 11
45.53908639623887
 21
209.9022611200029
 31
0.0
  0
LINE
  5
9251
  8
0
 10
45.53908639623887
 20
209.9022611200029
 30
0.0
 11
45.20510154623886
 21
209.9022611200029
 31
0.0
  0
LINE
  5
9252
  8
0
 10
45.20510154623886
 20
209.9022611200029
 30
0.0
 11
45.20510154623886
 21
209.5682762700029
 31
0.0
  0
LINE
  5
9253
  8
0
 10
45.87266654623886
 20
209.5682762700029
 30
0.0
 11
46.87388104623886
 21
209.5682762700029
 31
0.0
  0
LINE
  5
9254
  8
0
 10
46.87388104623886
 20
209.5682762700029
 30
0.0
 11
46.87388104623886
 21
209.9022611200029
 31
0.0
  0
LINE
  5
9255
  8
0
 10
46.87388104623886
 20
209.9022611200029
 30
0.0
 11
45.87266654623886
 21
209.9022611200029
 31
0.0
  0
LINE
  5
9256
  8
0
 10
45.87266654623886
 20
209.9022611200029
 30
0.0
 11
45.87266654623886
 21
209.5682762700029
 31
0.0
  0
LINE
  5
9257
  8
0
 10
47.54153154623887
 20
209.5682762700029
 30
0.0
 11
47.87588689623888
 21
209.5682762700029
 31
0.0
  0
LINE
  5
9258
  8
0
 10
47.87588689623888
 20
209.5682762700029
 30
0.0
 11
47.87588689623888
 21
209.9022611200029
 31
0.0
  0
LINE
  5
9259
  8
0
 10
47.87588689623888
 20
209.9022611200029
 30
0.0
 11
47.54153154623887
 21
209.9022611200029
 31
0.0
  0
LINE
  5
925A
  8
0
 10
47.54153154623887
 20
209.9022611200029
 30
0.0
 11
47.54153154623887
 21
209.5682762700029
 31
0.0
  0
LINE
  5
925B
  8
0
 10
48.54273654623887
 20
209.5682762700029
 30
0.0
 11
49.20996334623888
 21
209.5682762700029
 31
0.0
  0
LINE
  5
925C
  8
0
 10
49.20996334623888
 20
209.5682762700029
 30
0.0
 11
49.20996334623888
 21
209.9022611200029
 31
0.0
  0
LINE
  5
925D
  8
0
 10
49.20996334623888
 20
209.9022611200029
 30
0.0
 11
48.54273654623887
 21
209.9022611200029
 31
0.0
  0
LINE
  5
925E
  8
0
 10
48.54273654623887
 20
209.9022611200029
 30
0.0
 11
48.54273654623887
 21
209.5682762700029
 31
0.0
  0
LINE
  5
925F
  8
0
 10
49.54432154623885
 20
209.5682762700029
 30
0.0
 11
50.54590654623885
 21
209.5682762700029
 31
0.0
  0
LINE
  5
9260
  8
0
 10
50.54590654623885
 20
209.5682762700029
 30
0.0
 11
50.54590654623885
 21
209.9022611200029
 31
0.0
  0
LINE
  5
9261
  8
0
 10
50.54590654623885
 20
209.9022611200029
 30
0.0
 11
49.54432154623885
 21
209.9022611200029
 31
0.0
  0
LINE
  5
9262
  8
0
 10
49.54432154623885
 20
209.9022611200029
 30
0.0
 11
49.54432154623885
 21
209.5682762700029
 31
0.0
  0
LINE
  5
9263
  8
0
 10
51.88065654623887
 20
209.5682762700029
 30
0.0
 11
52.88224154623884
 21
209.5682762700029
 31
0.0
  0
LINE
  5
9264
  8
0
 10
52.88224154623884
 20
209.5682762700029
 30
0.0
 11
52.88224154623884
 21
209.9022611200029
 31
0.0
  0
LINE
  5
9265
  8
0
 10
52.88224154623884
 20
209.9022611200029
 30
0.0
 11
51.88065654623887
 21
209.9022611200029
 31
0.0
  0
LINE
  5
9266
  8
0
 10
51.88065654623887
 20
209.9022611200029
 30
0.0
 11
51.88065654623887
 21
209.5682762700029
 31
0.0
  0
LINE
  5
9267
  8
0
 10
43.20193154623885
 20
209.2343512700029
 30
0.0
 11
43.53628784623885
 21
209.2343512700029
 31
0.0
  0
LINE
  5
9268
  8
0
 10
43.53628784623885
 20
209.2343512700029
 30
0.0
 11
43.53628784623885
 21
209.5683351700029
 31
0.0
  0
LINE
  5
9269
  8
0
 10
43.53628784623885
 20
209.5683351700029
 30
0.0
 11
43.20193154623885
 21
209.5683351700029
 31
0.0
  0
LINE
  5
926A
  8
0
 10
43.20193154623885
 20
209.5683351700029
 30
0.0
 11
43.20193154623885
 21
209.2343512700029
 31
0.0
  0
LINE
  5
926B
  8
0
 10
43.86949654623888
 20
209.2343512700029
 30
0.0
 11
45.20469304623884
 21
209.2343512700029
 31
0.0
  0
LINE
  5
926C
  8
0
 10
45.20469304623884
 20
209.2343512700029
 30
0.0
 11
45.20469304623884
 21
209.5683351700029
 31
0.0
  0
LINE
  5
926D
  8
0
 10
45.20469304623884
 20
209.5683351700029
 30
0.0
 11
43.86949654623888
 21
209.5683351700029
 31
0.0
  0
LINE
  5
926E
  8
0
 10
43.86949654623888
 20
209.5683351700029
 30
0.0
 11
43.86949654623888
 21
209.2343512700029
 31
0.0
  0
LINE
  5
926F
  8
0
 10
45.53874154623884
 20
209.2343512700029
 30
0.0
 11
46.20596834623888
 21
209.2343512700029
 31
0.0
  0
LINE
  5
9270
  8
0
 10
46.20596834623888
 20
209.2343512700029
 30
0.0
 11
46.20596834623888
 21
209.5683351700029
 31
0.0
  0
LINE
  5
9271
  8
0
 10
46.20596834623888
 20
209.5683351700029
 30
0.0
 11
45.53874154623884
 21
209.5683351700029
 31
0.0
  0
LINE
  5
9272
  8
0
 10
45.53874154623884
 20
209.5683351700029
 30
0.0
 11
45.53874154623884
 21
209.2343512700029
 31
0.0
  0
LINE
  5
9273
  8
0
 10
46.54032654623887
 20
209.2343512700029
 30
0.0
 11
46.87431044623887
 21
209.2343512700029
 31
0.0
  0
LINE
  5
9274
  8
0
 10
46.87431044623887
 20
209.2343512700029
 30
0.0
 11
46.87431044623887
 21
209.5683351700029
 31
0.0
  0
LINE
  5
9275
  8
0
 10
46.87431044623887
 20
209.5683351700029
 30
0.0
 11
46.54032654623887
 21
209.5683351700029
 31
0.0
  0
LINE
  5
9276
  8
0
 10
46.54032654623887
 20
209.5683351700029
 30
0.0
 11
46.54032654623887
 21
209.2343512700029
 31
0.0
  0
LINE
  5
9277
  8
0
 10
47.54153154623887
 20
209.2343512700029
 30
0.0
 11
47.87588689623888
 21
209.2343512700029
 31
0.0
  0
LINE
  5
9278
  8
0
 10
47.87588689623888
 20
209.2343512700029
 30
0.0
 11
47.87588689623888
 21
209.5683351700029
 31
0.0
  0
LINE
  5
9279
  8
0
 10
47.87588689623888
 20
209.5683351700029
 30
0.0
 11
47.54153154623887
 21
209.5683351700029
 31
0.0
  0
LINE
  5
927A
  8
0
 10
47.54153154623887
 20
209.5683351700029
 30
0.0
 11
47.54153154623887
 21
209.2343512700029
 31
0.0
  0
LINE
  5
927B
  8
0
 10
48.54273654623887
 20
209.2343512700029
 30
0.0
 11
48.87672139623885
 21
209.2343512700029
 31
0.0
  0
LINE
  5
927C
  8
0
 10
48.87672139623885
 20
209.2343512700029
 30
0.0
 11
48.87672139623885
 21
209.5683351700029
 31
0.0
  0
LINE
  5
927D
  8
0
 10
48.87672139623885
 20
209.5683351700029
 30
0.0
 11
48.54273654623887
 21
209.5683351700029
 31
0.0
  0
LINE
  5
927E
  8
0
 10
48.54273654623887
 20
209.5683351700029
 30
0.0
 11
48.54273654623887
 21
209.2343512700029
 31
0.0
  0
LINE
  5
927F
  8
0
 10
49.20992154623886
 20
209.2343512700029
 30
0.0
 11
49.54427689623887
 21
209.2343512700029
 31
0.0
  0
LINE
  5
9280
  8
0
 10
49.54427689623887
 20
209.2343512700029
 30
0.0
 11
49.54427689623887
 21
209.5683351700029
 31
0.0
  0
LINE
  5
9281
  8
0
 10
49.54427689623887
 20
209.5683351700029
 30
0.0
 11
49.20992154623886
 21
209.5683351700029
 31
0.0
  0
LINE
  5
9282
  8
0
 10
49.20992154623886
 20
209.5683351700029
 30
0.0
 11
49.20992154623886
 21
209.2343512700029
 31
0.0
  0
LINE
  5
9283
  8
0
 10
49.87748654623886
 20
209.2343512700029
 30
0.0
 11
50.21147044623888
 21
209.2343512700029
 31
0.0
  0
LINE
  5
9284
  8
0
 10
50.21147044623888
 20
209.2343512700029
 30
0.0
 11
50.21147044623888
 21
209.5683351700029
 31
0.0
  0
LINE
  5
9285
  8
0
 10
50.21147044623888
 20
209.5683351700029
 30
0.0
 11
49.87748654623886
 21
209.5683351700029
 31
0.0
  0
LINE
  5
9286
  8
0
 10
49.87748654623886
 20
209.5683351700029
 30
0.0
 11
49.87748654623886
 21
209.2343512700029
 31
0.0
  0
LINE
  5
9287
  8
0
 10
50.54590654623885
 20
209.2343512700029
 30
0.0
 11
51.54712104623886
 21
209.2343512700029
 31
0.0
  0
LINE
  5
9288
  8
0
 10
51.54712104623886
 20
209.2343512700029
 30
0.0
 11
51.54712104623886
 21
209.5683351700029
 31
0.0
  0
LINE
  5
9289
  8
0
 10
51.54712104623886
 20
209.5683351700029
 30
0.0
 11
50.54590654623885
 21
209.5683351700029
 31
0.0
  0
LINE
  5
928A
  8
0
 10
50.54590654623885
 20
209.5683351700029
 30
0.0
 11
50.54590654623885
 21
209.2343512700029
 31
0.0
  0
LINE
  5
928B
  8
0
 10
51.88065654623887
 20
209.2343512700029
 30
0.0
 11
52.21464139623885
 21
209.2343512700029
 31
0.0
  0
LINE
  5
928C
  8
0
 10
52.21464139623885
 20
209.2343512700029
 30
0.0
 11
52.21464139623885
 21
209.5683351700029
 31
0.0
  0
LINE
  5
928D
  8
0
 10
52.21464139623885
 20
209.5683351700029
 30
0.0
 11
51.88065654623887
 21
209.5683351700029
 31
0.0
  0
LINE
  5
928E
  8
0
 10
51.88065654623887
 20
209.5683351700029
 30
0.0
 11
51.88065654623887
 21
209.2343512700029
 31
0.0
  0
LINE
  5
928F
  8
0
 10
52.54831654623885
 20
209.2343512700029
 30
0.0
 11
53.21554239623887
 21
209.2343512700029
 31
0.0
  0
LINE
  5
9290
  8
0
 10
53.21554239623887
 20
209.2343512700029
 30
0.0
 11
53.21554239623887
 21
209.5683351700029
 31
0.0
  0
LINE
  5
9291
  8
0
 10
53.21554239623887
 20
209.5683351700029
 30
0.0
 11
52.54831654623885
 21
209.5683351700029
 31
0.0
  0
LINE
  5
9292
  8
0
 10
52.54831654623885
 20
209.5683351700029
 30
0.0
 11
52.54831654623885
 21
209.2343512700029
 31
0.0
  0
LINE
  5
9293
  8
0
 10
42.53436654623886
 20
208.8999512700029
 30
0.0
 11
43.20196384623884
 21
208.8999512700029
 31
0.0
  0
LINE
  5
9294
  8
0
 10
43.20196384623884
 20
208.8999512700029
 30
0.0
 11
43.20196384623884
 21
209.2343066200029
 31
0.0
  0
LINE
  5
9295
  8
0
 10
43.20196384623884
 20
209.2343066200029
 30
0.0
 11
42.53436654623886
 21
209.2343066200029
 31
0.0
  0
LINE
  5
9296
  8
0
 10
42.53436654623886
 20
209.2343066200029
 30
0.0
 11
42.53436654623886
 21
208.8999512700029
 31
0.0
  0
LINE
  5
9297
  8
0
 10
43.53585654623888
 20
208.8999512700029
 30
0.0
 11
44.20345384623886
 21
208.8999512700029
 31
0.0
  0
LINE
  5
9298
  8
0
 10
44.20345384623886
 20
208.8999512700029
 30
0.0
 11
44.20345384623886
 21
209.2343066200029
 31
0.0
  0
LINE
  5
9299
  8
0
 10
44.20345384623886
 20
209.2343066200029
 30
0.0
 11
43.53585654623888
 21
209.2343066200029
 31
0.0
  0
LINE
  5
929A
  8
0
 10
43.53585654623888
 20
209.2343066200029
 30
0.0
 11
43.53585654623888
 21
208.8999512700029
 31
0.0
  0
LINE
  5
929B
  8
0
 10
44.87108154623886
 20
208.8999512700029
 30
0.0
 11
45.20506544623885
 21
208.8999512700029
 31
0.0
  0
LINE
  5
929C
  8
0
 10
45.20506544623885
 20
208.8999512700029
 30
0.0
 11
45.20506544623885
 21
209.2343066200029
 31
0.0
  0
LINE
  5
929D
  8
0
 10
45.20506544623885
 20
209.2343066200029
 30
0.0
 11
44.87108154623886
 21
209.2343066200029
 31
0.0
  0
LINE
  5
929E
  8
0
 10
44.87108154623886
 20
209.2343066200029
 30
0.0
 11
44.87108154623886
 21
208.8999512700029
 31
0.0
  0
LINE
  5
929F
  8
0
 10
45.87266654623886
 20
208.8999512700029
 30
0.0
 11
46.53989239623886
 21
208.8999512700029
 31
0.0
  0
LINE
  5
92A0
  8
0
 10
46.53989239623886
 20
208.8999512700029
 30
0.0
 11
46.53989239623886
 21
209.2343066200029
 31
0.0
  0
LINE
  5
92A1
  8
0
 10
46.53989239623886
 20
209.2343066200029
 30
0.0
 11
45.87266654623886
 21
209.2343066200029
 31
0.0
  0
LINE
  5
92A2
  8
0
 10
45.87266654623886
 20
209.2343066200029
 30
0.0
 11
45.87266654623886
 21
208.8999512700029
 31
0.0
  0
LINE
  5
92A3
  8
0
 10
47.20751154623886
 20
208.8999512700029
 30
0.0
 11
47.87510884623887
 21
208.8999512700029
 31
0.0
  0
LINE
  5
92A4
  8
0
 10
47.87510884623887
 20
208.8999512700029
 30
0.0
 11
47.87510884623887
 21
209.2343066200029
 31
0.0
  0
LINE
  5
92A5
  8
0
 10
47.87510884623887
 20
209.2343066200029
 30
0.0
 11
47.20751154623886
 21
209.2343066200029
 31
0.0
  0
LINE
  5
92A6
  8
0
 10
47.20751154623886
 20
209.2343066200029
 30
0.0
 11
47.20751154623886
 21
208.8999512700029
 31
0.0
  0
LINE
  5
92A7
  8
0
 10
48.87666154623886
 20
208.8999512700029
 30
0.0
 11
49.54425884623885
 21
208.8999512700029
 31
0.0
  0
LINE
  5
92A8
  8
0
 10
49.54425884623885
 20
208.8999512700029
 30
0.0
 11
49.54425884623885
 21
209.2343066200029
 31
0.0
  0
LINE
  5
92A9
  8
0
 10
49.54425884623885
 20
209.2343066200029
 30
0.0
 11
48.87666154623886
 21
209.2343066200029
 31
0.0
  0
LINE
  5
92AA
  8
0
 10
48.87666154623886
 20
209.2343066200029
 30
0.0
 11
48.87666154623886
 21
208.8999512700029
 31
0.0
  0
LINE
  5
92AB
  8
0
 10
49.87748654623886
 20
208.8999512700029
 30
0.0
 11
50.54508384623887
 21
208.8999512700029
 31
0.0
  0
LINE
  5
92AC
  8
0
 10
50.54508384623887
 20
208.8999512700029
 30
0.0
 11
50.54508384623887
 21
209.2343066200029
 31
0.0
  0
LINE
  5
92AD
  8
0
 10
50.54508384623887
 20
209.2343066200029
 30
0.0
 11
49.87748654623886
 21
209.2343066200029
 31
0.0
  0
LINE
  5
92AE
  8
0
 10
49.87748654623886
 20
209.2343066200029
 30
0.0
 11
49.87748654623886
 21
208.8999512700029
 31
0.0
  0
LINE
  5
92AF
  8
0
 10
50.87907154623886
 20
208.8999512700029
 30
0.0
 11
51.21305639623887
 21
208.8999512700029
 31
0.0
  0
LINE
  5
92B0
  8
0
 10
51.21305639623887
 20
208.8999512700029
 30
0.0
 11
51.21305639623887
 21
209.2343066200029
 31
0.0
  0
LINE
  5
92B1
  8
0
 10
51.21305639623887
 20
209.2343066200029
 30
0.0
 11
50.87907154623886
 21
209.2343066200029
 31
0.0
  0
LINE
  5
92B2
  8
0
 10
50.87907154623886
 20
209.2343066200029
 30
0.0
 11
50.87907154623886
 21
208.8999512700029
 31
0.0
  0
LINE
  5
92B3
  8
0
 10
51.54673154623885
 20
208.8999512700029
 30
0.0
 11
53.54915104623888
 21
208.8999512700029
 31
0.0
  0
LINE
  5
92B4
  8
0
 10
53.54915104623888
 20
208.8999512700029
 30
0.0
 11
53.54915104623888
 21
209.2343066200029
 31
0.0
  0
LINE
  5
92B5
  8
0
 10
53.54915104623888
 20
209.2343066200029
 30
0.0
 11
51.54673154623885
 21
209.2343066200029
 31
0.0
  0
LINE
  5
92B6
  8
0
 10
51.54673154623885
 20
209.2343066200029
 30
0.0
 11
51.54673154623885
 21
208.8999512700029
 31
0.0
  0
LINE
  5
92B7
  8
0
 10
42.86867154623886
 20
208.5666912700029
 30
0.0
 11
43.20265639623886
 21
208.5666912700029
 31
0.0
  0
LINE
  5
92B8
  8
0
 10
43.20265639623886
 20
208.5666912700029
 30
0.0
 11
43.20265639623886
 21
208.9006761200029
 31
0.0
  0
LINE
  5
92B9
  8
0
 10
43.20265639623886
 20
208.9006761200029
 30
0.0
 11
42.86867154623886
 21
208.9006761200029
 31
0.0
  0
LINE
  5
92BA
  8
0
 10
42.86867154623886
 20
208.9006761200029
 30
0.0
 11
42.86867154623886
 21
208.5666912700029
 31
0.0
  0
LINE
  5
92BB
  8
0
 10
43.53585654623888
 20
208.5666912700029
 30
0.0
 11
43.86984044623887
 21
208.5666912700029
 31
0.0
  0
LINE
  5
92BC
  8
0
 10
43.86984044623887
 20
208.5666912700029
 30
0.0
 11
43.86984044623887
 21
208.9006761200029
 31
0.0
  0
LINE
  5
92BD
  8
0
 10
43.86984044623887
 20
208.9006761200029
 30
0.0
 11
43.53585654623888
 21
208.9006761200029
 31
0.0
  0
LINE
  5
92BE
  8
0
 10
43.53585654623888
 20
208.9006761200029
 30
0.0
 11
43.53585654623888
 21
208.5666912700029
 31
0.0
  0
LINE
  5
92BF
  8
0
 10
44.53744154623885
 20
208.5666912700029
 30
0.0
 11
45.53902654623886
 21
208.5666912700029
 31
0.0
  0
LINE
  5
92C0
  8
0
 10
45.53902654623886
 20
208.5666912700029
 30
0.0
 11
45.53902654623886
 21
208.9006761200029
 31
0.0
  0
LINE
  5
92C1
  8
0
 10
45.53902654623886
 20
208.9006761200029
 30
0.0
 11
44.53744154623885
 21
208.9006761200029
 31
0.0
  0
LINE
  5
92C2
  8
0
 10
44.53744154623885
 20
208.9006761200029
 30
0.0
 11
44.53744154623885
 21
208.5666912700029
 31
0.0
  0
LINE
  5
92C3
  8
0
 10
46.87349154623885
 20
208.5666912700029
 30
0.0
 11
47.54108979623888
 21
208.5666912700029
 31
0.0
  0
LINE
  5
92C4
  8
0
 10
47.54108979623888
 20
208.5666912700029
 30
0.0
 11
47.54108979623888
 21
208.9006761200029
 31
0.0
  0
LINE
  5
92C5
  8
0
 10
47.54108979623888
 20
208.9006761200029
 30
0.0
 11
46.87349154623885
 21
208.9006761200029
 31
0.0
  0
LINE
  5
92C6
  8
0
 10
46.87349154623885
 20
208.9006761200029
 30
0.0
 11
46.87349154623885
 21
208.5666912700029
 31
0.0
  0
LINE
  5
92C7
  8
0
 10
47.87507654623886
 20
208.5666912700029
 30
0.0
 11
48.87666154623886
 21
208.5666912700029
 31
0.0
  0
LINE
  5
92C8
  8
0
 10
48.87666154623886
 20
208.5666912700029
 30
0.0
 11
48.87666154623886
 21
208.9006761200029
 31
0.0
  0
LINE
  5
92C9
  8
0
 10
48.87666154623886
 20
208.9006761200029
 30
0.0
 11
47.87507654623886
 21
208.9006761200029
 31
0.0
  0
LINE
  5
92CA
  8
0
 10
47.87507654623886
 20
208.9006761200029
 30
0.0
 11
47.87507654623886
 21
208.5666912700029
 31
0.0
  0
LINE
  5
92CB
  8
0
 10
49.20992154623886
 20
208.5666912700029
 30
0.0
 11
50.21150654623887
 21
208.5666912700029
 31
0.0
  0
LINE
  5
92CC
  8
0
 10
50.21150654623887
 20
208.5666912700029
 30
0.0
 11
50.21150654623887
 21
208.9006761200029
 31
0.0
  0
LINE
  5
92CD
  8
0
 10
50.21150654623887
 20
208.9006761200029
 30
0.0
 11
49.20992154623886
 21
208.9006761200029
 31
0.0
  0
LINE
  5
92CE
  8
0
 10
49.20992154623886
 20
208.9006761200029
 30
0.0
 11
49.20992154623886
 21
208.5666912700029
 31
0.0
  0
LINE
  5
92CF
  8
0
 10
50.54590654623885
 20
208.5666912700029
 30
0.0
 11
50.87989139623886
 21
208.5666912700029
 31
0.0
  0
LINE
  5
92D0
  8
0
 10
50.87989139623886
 20
208.5666912700029
 30
0.0
 11
50.87989139623886
 21
208.9006761200029
 31
0.0
  0
LINE
  5
92D1
  8
0
 10
50.87989139623886
 20
208.9006761200029
 30
0.0
 11
50.54590654623885
 21
208.9006761200029
 31
0.0
  0
LINE
  5
92D2
  8
0
 10
50.54590654623885
 20
208.9006761200029
 30
0.0
 11
50.54590654623885
 21
208.5666912700029
 31
0.0
  0
LINE
  5
92D3
  8
0
 10
51.21309154623887
 20
208.5666912700029
 30
0.0
 11
51.88068884623885
 21
208.5666912700029
 31
0.0
  0
LINE
  5
92D4
  8
0
 10
51.88068884623885
 20
208.5666912700029
 30
0.0
 11
51.88068884623885
 21
208.9006761200029
 31
0.0
  0
LINE
  5
92D5
  8
0
 10
51.88068884623885
 20
208.9006761200029
 30
0.0
 11
51.21309154623887
 21
208.9006761200029
 31
0.0
  0
LINE
  5
92D6
  8
0
 10
51.21309154623887
 20
208.9006761200029
 30
0.0
 11
51.21309154623887
 21
208.5666912700029
 31
0.0
  0
LINE
  5
92D7
  8
0
 10
42.53436654623886
 20
208.2327662700029
 30
0.0
 11
43.20196384623884
 21
208.2327662700029
 31
0.0
  0
LINE
  5
92D8
  8
0
 10
43.20196384623884
 20
208.2327662700029
 30
0.0
 11
43.20196384623884
 21
208.5667501700029
 31
0.0
  0
LINE
  5
92D9
  8
0
 10
43.20196384623884
 20
208.5667501700029
 30
0.0
 11
42.53436654623886
 21
208.5667501700029
 31
0.0
  0
LINE
  5
92DA
  8
0
 10
42.53436654623886
 20
208.5667501700029
 30
0.0
 11
42.53436654623886
 21
208.2327662700029
 31
0.0
  0
LINE
  5
92DB
  8
0
 10
43.53585654623888
 20
208.2327662700029
 30
0.0
 11
44.20345384623886
 21
208.2327662700029
 31
0.0
  0
LINE
  5
92DC
  8
0
 10
44.20345384623886
 20
208.2327662700029
 30
0.0
 11
44.20345384623886
 21
208.5667501700029
 31
0.0
  0
LINE
  5
92DD
  8
0
 10
44.20345384623886
 20
208.5667501700029
 30
0.0
 11
43.53585654623888
 21
208.5667501700029
 31
0.0
  0
LINE
  5
92DE
  8
0
 10
43.53585654623888
 20
208.5667501700029
 30
0.0
 11
43.53585654623888
 21
208.2327662700029
 31
0.0
  0
LINE
  5
92DF
  8
0
 10
44.87108154623886
 20
208.2327662700029
 30
0.0
 11
45.53867884623884
 21
208.2327662700029
 31
0.0
  0
LINE
  5
92E0
  8
0
 10
45.53867884623884
 20
208.2327662700029
 30
0.0
 11
45.53867884623884
 21
208.5667501700029
 31
0.0
  0
LINE
  5
92E1
  8
0
 10
45.53867884623884
 20
208.5667501700029
 30
0.0
 11
44.87108154623886
 21
208.5667501700029
 31
0.0
  0
LINE
  5
92E2
  8
0
 10
44.87108154623886
 20
208.5667501700029
 30
0.0
 11
44.87108154623886
 21
208.2327662700029
 31
0.0
  0
LINE
  5
92E3
  8
0
 10
46.20592654623886
 20
208.2327662700029
 30
0.0
 11
46.87352384623887
 21
208.2327662700029
 31
0.0
  0
LINE
  5
92E4
  8
0
 10
46.87352384623887
 20
208.2327662700029
 30
0.0
 11
46.87352384623887
 21
208.5667501700029
 31
0.0
  0
LINE
  5
92E5
  8
0
 10
46.87352384623887
 20
208.5667501700029
 30
0.0
 11
46.20592654623886
 21
208.5667501700029
 31
0.0
  0
LINE
  5
92E6
  8
0
 10
46.20592654623886
 20
208.5667501700029
 30
0.0
 11
46.20592654623886
 21
208.2327662700029
 31
0.0
  0
LINE
  5
92E7
  8
0
 10
47.20751154623886
 20
208.2327662700029
 30
0.0
 11
47.54149544623888
 21
208.2327662700029
 31
0.0
  0
LINE
  5
92E8
  8
0
 10
47.54149544623888
 20
208.2327662700029
 30
0.0
 11
47.54149544623888
 21
208.5667501700029
 31
0.0
  0
LINE
  5
92E9
  8
0
 10
47.54149544623888
 20
208.5667501700029
 30
0.0
 11
47.20751154623886
 21
208.5667501700029
 31
0.0
  0
LINE
  5
92EA
  8
0
 10
47.20751154623886
 20
208.5667501700029
 30
0.0
 11
47.20751154623886
 21
208.2327662700029
 31
0.0
  0
LINE
  5
92EB
  8
0
 10
47.87507654623886
 20
208.2327662700029
 30
0.0
 11
48.54267384623887
 21
208.2327662700029
 31
0.0
  0
LINE
  5
92EC
  8
0
 10
48.54267384623887
 20
208.2327662700029
 30
0.0
 11
48.54267384623887
 21
208.5667501700029
 31
0.0
  0
LINE
  5
92ED
  8
0
 10
48.54267384623887
 20
208.5667501700029
 30
0.0
 11
47.87507654623886
 21
208.5667501700029
 31
0.0
  0
LINE
  5
92EE
  8
0
 10
47.87507654623886
 20
208.5667501700029
 30
0.0
 11
47.87507654623886
 21
208.2327662700029
 31
0.0
  0
LINE
  5
92EF
  8
0
 10
49.20992154623886
 20
208.2327662700029
 30
0.0
 11
49.87751979623886
 21
208.2327662700029
 31
0.0
  0
LINE
  5
92F0
  8
0
 10
49.87751979623886
 20
208.2327662700029
 30
0.0
 11
49.87751979623886
 21
208.5667501700029
 31
0.0
  0
LINE
  5
92F1
  8
0
 10
49.87751979623886
 20
208.5667501700029
 30
0.0
 11
49.20992154623886
 21
208.5667501700029
 31
0.0
  0
LINE
  5
92F2
  8
0
 10
49.20992154623886
 20
208.5667501700029
 30
0.0
 11
49.20992154623886
 21
208.2327662700029
 31
0.0
  0
LINE
  5
92F3
  8
0
 10
50.21150654623887
 20
208.2327662700029
 30
0.0
 11
50.54586189623888
 21
208.2327662700029
 31
0.0
  0
LINE
  5
92F4
  8
0
 10
50.54586189623888
 20
208.2327662700029
 30
0.0
 11
50.54586189623888
 21
208.5667501700029
 31
0.0
  0
LINE
  5
92F5
  8
0
 10
50.54586189623888
 20
208.5667501700029
 30
0.0
 11
50.21150654623887
 21
208.5667501700029
 31
0.0
  0
LINE
  5
92F6
  8
0
 10
50.21150654623887
 20
208.5667501700029
 30
0.0
 11
50.21150654623887
 21
208.2327662700029
 31
0.0
  0
LINE
  5
92F7
  8
0
 10
51.21309154623887
 20
208.2327662700029
 30
0.0
 11
51.54707544623886
 21
208.2327662700029
 31
0.0
  0
LINE
  5
92F8
  8
0
 10
51.54707544623886
 20
208.2327662700029
 30
0.0
 11
51.54707544623886
 21
208.5667501700029
 31
0.0
  0
LINE
  5
92F9
  8
0
 10
51.54707544623886
 20
208.5667501700029
 30
0.0
 11
51.21309154623887
 21
208.5667501700029
 31
0.0
  0
LINE
  5
92FA
  8
0
 10
51.21309154623887
 20
208.5667501700029
 30
0.0
 11
51.21309154623887
 21
208.2327662700029
 31
0.0
  0
LINE
  5
92FB
  8
0
 10
52.21391654623886
 20
208.2327662700029
 30
0.0
 11
53.54911304623886
 21
208.2327662700029
 31
0.0
  0
LINE
  5
92FC
  8
0
 10
53.54911304623886
 20
208.2327662700029
 30
0.0
 11
53.54911304623886
 21
208.5667501700029
 31
0.0
  0
LINE
  5
92FD
  8
0
 10
53.54911304623886
 20
208.5667501700029
 30
0.0
 11
52.21391654623886
 21
208.5667501700029
 31
0.0
  0
LINE
  5
92FE
  8
0
 10
52.21391654623886
 20
208.5667501700029
 30
0.0
 11
52.21391654623886
 21
208.2327662700029
 31
0.0
  0
LINE
  5
92FF
  8
0
 10
42.86867154623886
 20
207.8991262700029
 30
0.0
 11
46.20665804623886
 21
207.8991262700029
 31
0.0
  0
LINE
  5
9300
  8
0
 10
46.20665804623886
 20
207.8991262700029
 30
0.0
 11
46.20665804623886
 21
208.2331111200029
 31
0.0
  0
LINE
  5
9301
  8
0
 10
46.20665804623886
 20
208.2331111200029
 30
0.0
 11
42.86867154623886
 21
208.2331111200029
 31
0.0
  0
LINE
  5
9302
  8
0
 10
42.86867154623886
 20
208.2331111200029
 30
0.0
 11
42.86867154623886
 21
207.8991262700029
 31
0.0
  0
LINE
  5
9303
  8
0
 10
46.87349154623885
 20
207.8991262700029
 30
0.0
 11
47.20747639623886
 21
207.8991262700029
 31
0.0
  0
LINE
  5
9304
  8
0
 10
47.20747639623886
 20
207.8991262700029
 30
0.0
 11
47.20747639623886
 21
208.2331111200029
 31
0.0
  0
LINE
  5
9305
  8
0
 10
47.20747639623886
 20
208.2331111200029
 30
0.0
 11
46.87349154623885
 21
208.2331111200029
 31
0.0
  0
LINE
  5
9306
  8
0
 10
46.87349154623885
 20
208.2331111200029
 30
0.0
 11
46.87349154623885
 21
207.8991262700029
 31
0.0
  0
LINE
  5
9307
  8
0
 10
48.20909654623887
 20
207.8991262700029
 30
0.0
 11
48.54308044623886
 21
207.8991262700029
 31
0.0
  0
LINE
  5
9308
  8
0
 10
48.54308044623886
 20
207.8991262700029
 30
0.0
 11
48.54308044623886
 21
208.2331111200029
 31
0.0
  0
LINE
  5
9309
  8
0
 10
48.54308044623886
 20
208.2331111200029
 30
0.0
 11
48.20909654623887
 21
208.2331111200029
 31
0.0
  0
LINE
  5
930A
  8
0
 10
48.20909654623887
 20
208.2331111200029
 30
0.0
 11
48.20909654623887
 21
207.8991262700029
 31
0.0
  0
LINE
  5
930B
  8
0
 10
48.87666154623886
 20
207.8991262700029
 30
0.0
 11
49.21064544623886
 21
207.8991262700029
 31
0.0
  0
LINE
  5
930C
  8
0
 10
49.21064544623886
 20
207.8991262700029
 30
0.0
 11
49.21064544623886
 21
208.2331111200029
 31
0.0
  0
LINE
  5
930D
  8
0
 10
49.21064544623886
 20
208.2331111200029
 30
0.0
 11
48.87666154623886
 21
208.2331111200029
 31
0.0
  0
LINE
  5
930E
  8
0
 10
48.87666154623886
 20
208.2331111200029
 30
0.0
 11
48.87666154623886
 21
207.8991262700029
 31
0.0
  0
LINE
  5
930F
  8
0
 10
50.87907154623886
 20
207.8991262700029
 30
0.0
 11
51.54666979623886
 21
207.8991262700029
 31
0.0
  0
LINE
  5
9310
  8
0
 10
51.54666979623886
 20
207.8991262700029
 30
0.0
 11
51.54666979623886
 21
208.2331111200029
 31
0.0
  0
LINE
  5
9311
  8
0
 10
51.54666979623886
 20
208.2331111200029
 30
0.0
 11
50.87907154623886
 21
208.2331111200029
 31
0.0
  0
LINE
  5
9312
  8
0
 10
50.87907154623886
 20
208.2331111200029
 30
0.0
 11
50.87907154623886
 21
207.8991262700029
 31
0.0
  0
LINE
  5
9313
  8
0
 10
51.88065654623887
 20
207.8991262700029
 30
0.0
 11
52.21464139623885
 21
207.8991262700029
 31
0.0
  0
LINE
  5
9314
  8
0
 10
52.21464139623885
 20
207.8991262700029
 30
0.0
 11
52.21464139623885
 21
208.2331111200029
 31
0.0
  0
LINE
  5
9315
  8
0
 10
52.21464139623885
 20
208.2331111200029
 30
0.0
 11
51.88065654623887
 21
208.2331111200029
 31
0.0
  0
LINE
  5
9316
  8
0
 10
51.88065654623887
 20
208.2331111200029
 30
0.0
 11
51.88065654623887
 21
207.8991262700029
 31
0.0
  0
LINE
  5
9317
  8
0
 10
52.54831654623885
 20
207.8991262700029
 30
0.0
 11
53.21554239623887
 21
207.8991262700029
 31
0.0
  0
LINE
  5
9318
  8
0
 10
53.21554239623887
 20
207.8991262700029
 30
0.0
 11
53.21554239623887
 21
208.2331111200029
 31
0.0
  0
LINE
  5
9319
  8
0
 10
53.21554239623887
 20
208.2331111200029
 30
0.0
 11
52.54831654623885
 21
208.2331111200029
 31
0.0
  0
LINE
  5
931A
  8
0
 10
52.54831654623885
 20
208.2331111200029
 30
0.0
 11
52.54831654623885
 21
207.8991262700029
 31
0.0
  0
LINE
  5
931B
  8
0
 10
42.53436654623886
 20
207.5651062700029
 30
0.0
 11
43.20196384623884
 21
207.5651062700029
 31
0.0
  0
LINE
  5
931C
  8
0
 10
43.20196384623884
 20
207.5651062700029
 30
0.0
 11
43.20196384623884
 21
207.8991262700029
 31
0.0
  0
LINE
  5
931D
  8
0
 10
43.20196384623884
 20
207.8991262700029
 30
0.0
 11
42.53436654623886
 21
207.8991262700029
 31
0.0
  0
LINE
  5
931E
  8
0
 10
42.53436654623886
 20
207.8991262700029
 30
0.0
 11
42.53436654623886
 21
207.5651062700029
 31
0.0
  0
LINE
  5
931F
  8
0
 10
43.53585654623888
 20
207.5651062700029
 30
0.0
 11
44.20345384623886
 21
207.5651062700029
 31
0.0
  0
LINE
  5
9320
  8
0
 10
44.20345384623886
 20
207.5651062700029
 30
0.0
 11
44.20345384623886
 21
207.8991262700029
 31
0.0
  0
LINE
  5
9321
  8
0
 10
44.20345384623886
 20
207.8991262700029
 30
0.0
 11
43.53585654623888
 21
207.8991262700029
 31
0.0
  0
LINE
  5
9322
  8
0
 10
43.53585654623888
 20
207.8991262700029
 30
0.0
 11
43.53585654623888
 21
207.5651062700029
 31
0.0
  0
LINE
  5
9323
  8
0
 10
45.53874154623884
 20
207.5651062700029
 30
0.0
 11
45.87272639623885
 21
207.5651062700029
 31
0.0
  0
LINE
  5
9324
  8
0
 10
45.87272639623885
 20
207.5651062700029
 30
0.0
 11
45.87272639623885
 21
207.8991262700029
 31
0.0
  0
LINE
  5
9325
  8
0
 10
45.87272639623885
 20
207.8991262700029
 30
0.0
 11
45.53874154623884
 21
207.8991262700029
 31
0.0
  0
LINE
  5
9326
  8
0
 10
45.53874154623884
 20
207.8991262700029
 30
0.0
 11
45.53874154623884
 21
207.5651062700029
 31
0.0
  0
LINE
  5
9327
  8
0
 10
46.54032654623887
 20
207.5651062700029
 30
0.0
 11
46.87431044623887
 21
207.5651062700029
 31
0.0
  0
LINE
  5
9328
  8
0
 10
46.87431044623887
 20
207.5651062700029
 30
0.0
 11
46.87431044623887
 21
207.8991262700029
 31
0.0
  0
LINE
  5
9329
  8
0
 10
46.87431044623887
 20
207.8991262700029
 30
0.0
 11
46.54032654623887
 21
207.8991262700029
 31
0.0
  0
LINE
  5
932A
  8
0
 10
46.54032654623887
 20
207.8991262700029
 30
0.0
 11
46.54032654623887
 21
207.5651062700029
 31
0.0
  0
LINE
  5
932B
  8
0
 10
47.20751154623886
 20
207.5651062700029
 30
0.0
 11
47.87510884623887
 21
207.5651062700029
 31
0.0
  0
LINE
  5
932C
  8
0
 10
47.87510884623887
 20
207.5651062700029
 30
0.0
 11
47.87510884623887
 21
207.8991262700029
 31
0.0
  0
LINE
  5
932D
  8
0
 10
47.87510884623887
 20
207.8991262700029
 30
0.0
 11
47.20751154623886
 21
207.8991262700029
 31
0.0
  0
LINE
  5
932E
  8
0
 10
47.20751154623886
 20
207.8991262700029
 30
0.0
 11
47.20751154623886
 21
207.5651062700029
 31
0.0
  0
LINE
  5
932F
  8
0
 10
48.54273654623887
 20
207.5651062700029
 30
0.0
 11
49.20996334623888
 21
207.5651062700029
 31
0.0
  0
LINE
  5
9330
  8
0
 10
49.20996334623888
 20
207.5651062700029
 30
0.0
 11
49.20996334623888
 21
207.8991262700029
 31
0.0
  0
LINE
  5
9331
  8
0
 10
49.20996334623888
 20
207.8991262700029
 30
0.0
 11
48.54273654623887
 21
207.8991262700029
 31
0.0
  0
LINE
  5
9332
  8
0
 10
48.54273654623887
 20
207.8991262700029
 30
0.0
 11
48.54273654623887
 21
207.5651062700029
 31
0.0
  0
LINE
  5
9333
  8
0
 10
50.87907154623886
 20
207.5651062700029
 30
0.0
 11
51.21309154623887
 21
207.5651062700029
 31
0.0
  0
LINE
  5
9334
  8
0
 10
51.21309154623887
 20
207.5651062700029
 30
0.0
 11
51.21309154623887
 21
207.8991262700029
 31
0.0
  0
LINE
  5
9335
  8
0
 10
51.21309154623887
 20
207.8991262700029
 30
0.0
 11
50.87910669623886
 21
207.8991262700029
 31
0.0
  0
LINE
  5
9336
  8
0
 10
50.87910669623886
 20
207.8991262700029
 30
0.0
 11
50.87907154623886
 21
207.5651062700029
 31
0.0
  0
LINE
  5
9337
  8
0
 10
51.88065654623887
 20
207.5651062700029
 30
0.0
 11
52.88224154623884
 21
207.5651062700029
 31
0.0
  0
LINE
  5
9338
  8
0
 10
52.88224154623884
 20
207.5651062700029
 30
0.0
 11
52.88224154623884
 21
207.8991262700029
 31
0.0
  0
LINE
  5
9339
  8
0
 10
52.88224154623884
 20
207.8991262700029
 30
0.0
 11
51.88065654623887
 21
207.8991262700029
 31
0.0
  0
LINE
  5
933A
  8
0
 10
51.88065654623887
 20
207.8991262700029
 30
0.0
 11
51.88065654623887
 21
207.5651062700029
 31
0.0
  0
LINE
  5
933B
  8
0
 10
53.21550154623887
 20
207.5651062700029
 30
0.0
 11
53.54985784623887
 21
207.5651062700029
 31
0.0
  0
LINE
  5
933C
  8
0
 10
53.54985784623887
 20
207.5651062700029
 30
0.0
 11
53.54985784623887
 21
207.8991262700029
 31
0.0
  0
LINE
  5
933D
  8
0
 10
53.54985784623887
 20
207.8991262700029
 30
0.0
 11
53.21550154623887
 21
207.8991262700029
 31
0.0
  0
LINE
  5
933E
  8
0
 10
53.21550154623887
 20
207.8991262700029
 30
0.0
 11
53.21550154623887
 21
207.5651062700029
 31
0.0
  0
LINE
  5
933F
  8
0
 10
42.86867154623886
 20
207.2315612700029
 30
0.0
 11
43.20265639623886
 21
207.2315612700029
 31
0.0
  0
LINE
  5
9340
  8
0
 10
43.20265639623886
 20
207.2315612700029
 30
0.0
 11
43.20265639623886
 21
207.5659166200029
 31
0.0
  0
LINE
  5
9341
  8
0
 10
43.20265639623886
 20
207.5659166200029
 30
0.0
 11
42.86867154623886
 21
207.5659166200029
 31
0.0
  0
LINE
  5
9342
  8
0
 10
42.86867154623886
 20
207.5659166200029
 30
0.0
 11
42.86867154623886
 21
207.2315612700029
 31
0.0
  0
LINE
  5
9343
  8
0
 10
44.53744154623885
 20
207.2315612700029
 30
0.0
 11
44.87142544623885
 21
207.2315612700029
 31
0.0
  0
LINE
  5
9344
  8
0
 10
44.87142544623885
 20
207.2315612700029
 30
0.0
 11
44.87142544623885
 21
207.5659166200029
 31
0.0
  0
LINE
  5
9345
  8
0
 10
44.87142544623885
 20
207.5659166200029
 30
0.0
 11
44.53744154623885
 21
207.5659166200029
 31
0.0
  0
LINE
  5
9346
  8
0
 10
44.53744154623885
 20
207.5659166200029
 30
0.0
 11
44.53744154623885
 21
207.2315612700029
 31
0.0
  0
LINE
  5
9347
  8
0
 10
45.53874154623884
 20
207.2315612700029
 30
0.0
 11
46.20596834623888
 21
207.2315612700029
 31
0.0
  0
LINE
  5
9348
  8
0
 10
46.20596834623888
 20
207.2315612700029
 30
0.0
 11
46.20596834623888
 21
207.5659166200029
 31
0.0
  0
LINE
  5
9349
  8
0
 10
46.20596834623888
 20
207.5659166200029
 30
0.0
 11
45.53874154623884
 21
207.5659166200029
 31
0.0
  0
LINE
  5
934A
  8
0
 10
45.53874154623884
 20
207.5659166200029
 30
0.0
 11
45.53874154623884
 21
207.2315612700029
 31
0.0
  0
LINE
  5
934B
  8
0
 10
46.54032654623887
 20
207.2315612700029
 30
0.0
 11
47.20755334623885
 21
207.2315612700029
 31
0.0
  0
LINE
  5
934C
  8
0
 10
47.20755334623885
 20
207.2315612700029
 30
0.0
 11
47.20755334623885
 21
207.5659166200029
 31
0.0
  0
LINE
  5
934D
  8
0
 10
47.20755334623885
 20
207.5659166200029
 30
0.0
 11
46.54032654623887
 21
207.5659166200029
 31
0.0
  0
LINE
  5
934E
  8
0
 10
46.54032654623887
 20
207.5659166200029
 30
0.0
 11
46.54032654623887
 21
207.2315612700029
 31
0.0
  0
LINE
  5
934F
  8
0
 10
48.20909654623887
 20
207.2315612700029
 30
0.0
 11
49.21068154623887
 21
207.2315612700029
 31
0.0
  0
LINE
  5
9350
  8
0
 10
49.21068154623887
 20
207.2315612700029
 30
0.0
 11
49.21068154623887
 21
207.5659166200029
 31
0.0
  0
LINE
  5
9351
  8
0
 10
49.21068154623887
 20
207.5659166200029
 30
0.0
 11
48.20909654623887
 21
207.5659166200029
 31
0.0
  0
LINE
  5
9352
  8
0
 10
48.20909654623887
 20
207.5659166200029
 30
0.0
 11
48.20909654623887
 21
207.2315612700029
 31
0.0
  0
LINE
  5
9353
  8
0
 10
49.87748654623886
 20
207.2315612700029
 30
0.0
 11
50.21147044623888
 21
207.2315612700029
 31
0.0
  0
LINE
  5
9354
  8
0
 10
50.21147044623888
 20
207.2315612700029
 30
0.0
 11
50.21147044623888
 21
207.5659166200029
 31
0.0
  0
LINE
  5
9355
  8
0
 10
50.21147044623888
 20
207.5659166200029
 30
0.0
 11
49.87748654623886
 21
207.5659166200029
 31
0.0
  0
LINE
  5
9356
  8
0
 10
49.87748654623886
 20
207.5659166200029
 30
0.0
 11
49.87748654623886
 21
207.2315612700029
 31
0.0
  0
LINE
  5
9357
  8
0
 10
50.54590654623885
 20
207.2315612700029
 30
0.0
 11
51.21313334623886
 21
207.2315612700029
 31
0.0
  0
LINE
  5
9358
  8
0
 10
51.21313334623886
 20
207.2315612700029
 30
0.0
 11
51.21313334623886
 21
207.5659166200029
 31
0.0
  0
LINE
  5
9359
  8
0
 10
51.21313334623886
 20
207.5659166200029
 30
0.0
 11
50.54590654623885
 21
207.5659166200029
 31
0.0
  0
LINE
  5
935A
  8
0
 10
50.54590654623885
 20
207.5659166200029
 30
0.0
 11
50.54590654623885
 21
207.2315612700029
 31
0.0
  0
LINE
  5
935B
  8
0
 10
51.54673154623885
 20
207.2315612700029
 30
0.0
 11
52.54831654623885
 21
207.2315612700029
 31
0.0
  0
LINE
  5
935C
  8
0
 10
52.54831654623885
 20
207.2315612700029
 30
0.0
 11
52.54831654623885
 21
207.5659166200029
 31
0.0
  0
LINE
  5
935D
  8
0
 10
52.54831654623885
 20
207.5659166200029
 30
0.0
 11
51.54673154623885
 21
207.5659166200029
 31
0.0
  0
LINE
  5
935E
  8
0
 10
51.54673154623885
 20
207.5659166200029
 30
0.0
 11
51.54673154623885
 21
207.2315612700029
 31
0.0
  0
LINE
  5
935F
  8
0
 10
53.21550154623887
 20
207.2315612700029
 30
0.0
 11
53.54985784623887
 21
207.2315612700029
 31
0.0
  0
LINE
  5
9360
  8
0
 10
53.54985784623887
 20
207.2315612700029
 30
0.0
 11
53.54985784623887
 21
207.5659166200029
 31
0.0
  0
LINE
  5
9361
  8
0
 10
53.54985784623887
 20
207.5659166200029
 30
0.0
 11
53.21550154623887
 21
207.5659166200029
 31
0.0
  0
LINE
  5
9362
  8
0
 10
53.21550154623887
 20
207.5659166200029
 30
0.0
 11
53.21550154623887
 21
207.2315612700029
 31
0.0
  0
LINE
  5
9363
  8
0
 10
42.86867154623886
 20
206.8975412700029
 30
0.0
 11
43.53589834623887
 21
206.8975412700029
 31
0.0
  0
LINE
  5
9364
  8
0
 10
43.53589834623887
 20
206.8975412700029
 30
0.0
 11
43.53589834623887
 21
207.2315261200029
 31
0.0
  0
LINE
  5
9365
  8
0
 10
43.53589834623887
 20
207.2315261200029
 30
0.0
 11
42.86867154623886
 21
207.2315261200029
 31
0.0
  0
LINE
  5
9366
  8
0
 10
42.86867154623886
 20
207.2315261200029
 30
0.0
 11
42.86867154623886
 21
206.8975412700029
 31
0.0
  0
LINE
  5
9367
  8
0
 10
43.86949654623888
 20
206.8975412700029
 30
0.0
 11
44.20348044623887
 21
206.8975412700029
 31
0.0
  0
LINE
  5
9368
  8
0
 10
44.20348044623887
 20
206.8975412700029
 30
0.0
 11
44.20348044623887
 21
207.2315261200029
 31
0.0
  0
LINE
  5
9369
  8
0
 10
44.20348044623887
 20
207.2315261200029
 30
0.0
 11
43.86949654623888
 21
207.2315261200029
 31
0.0
  0
LINE
  5
936A
  8
0
 10
43.86949654623888
 20
207.2315261200029
 30
0.0
 11
43.86949654623888
 21
206.8975412700029
 31
0.0
  0
LINE
  5
936B
  8
0
 10
46.20592654623886
 20
206.8975412700029
 30
0.0
 11
46.53991044623888
 21
206.8975412700029
 31
0.0
  0
LINE
  5
936C
  8
0
 10
46.53991044623888
 20
206.8975412700029
 30
0.0
 11
46.53991044623888
 21
207.2315261200029
 31
0.0
  0
LINE
  5
936D
  8
0
 10
46.53991044623888
 20
207.2315261200029
 30
0.0
 11
46.20592654623886
 21
207.2315261200029
 31
0.0
  0
LINE
  5
936E
  8
0
 10
46.20592654623886
 20
207.2315261200029
 30
0.0
 11
46.20592654623886
 21
206.8975412700029
 31
0.0
  0
LINE
  5
936F
  8
0
 10
46.87349154623885
 20
206.8975412700029
 30
0.0
 11
49.87749604623886
 21
206.8975412700029
 31
0.0
  0
LINE
  5
9370
  8
0
 10
49.87749604623886
 20
206.8975412700029
 30
0.0
 11
49.87749604623886
 21
207.2315261200029
 31
0.0
  0
LINE
  5
9371
  8
0
 10
49.87749604623886
 20
207.2315261200029
 30
0.0
 11
46.87349154623885
 21
207.2315261200029
 31
0.0
  0
LINE
  5
9372
  8
0
 10
46.87349154623885
 20
207.2315261200029
 30
0.0
 11
46.87349154623885
 21
206.8975412700029
 31
0.0
  0
LINE
  5
9373
  8
0
 10
50.21150654623887
 20
206.8975412700029
 30
0.0
 11
51.54670304623886
 21
206.8975412700029
 31
0.0
  0
LINE
  5
9374
  8
0
 10
51.54670304623886
 20
206.8975412700029
 30
0.0
 11
51.54670304623886
 21
207.2315261200029
 31
0.0
  0
LINE
  5
9375
  8
0
 10
51.54670304623886
 20
207.2315261200029
 30
0.0
 11
50.21150654623887
 21
207.2315261200029
 31
0.0
  0
LINE
  5
9376
  8
0
 10
50.21150654623887
 20
207.2315261200029
 30
0.0
 11
50.21150654623887
 21
206.8975412700029
 31
0.0
  0
LINE
  5
9377
  8
0
 10
52.21391654623886
 20
206.8975412700029
 30
0.0
 11
52.88151384623885
 21
206.8975412700029
 31
0.0
  0
LINE
  5
9378
  8
0
 10
52.88151384623885
 20
206.8975412700029
 30
0.0
 11
52.88151384623885
 21
207.2315261200029
 31
0.0
  0
LINE
  5
9379
  8
0
 10
52.88151384623885
 20
207.2315261200029
 30
0.0
 11
52.21391654623886
 21
207.2315261200029
 31
0.0
  0
LINE
  5
937A
  8
0
 10
52.21391654623886
 20
207.2315261200029
 30
0.0
 11
52.21391654623886
 21
206.8975412700029
 31
0.0
  0
LINE
  5
937B
  8
0
 10
53.21550154623887
 20
206.8975412700029
 30
0.0
 11
53.54985784623887
 21
206.8975412700029
 31
0.0
  0
LINE
  5
937C
  8
0
 10
53.54985784623887
 20
206.8975412700029
 30
0.0
 11
53.54985784623887
 21
207.2315261200029
 31
0.0
  0
LINE
  5
937D
  8
0
 10
53.54985784623887
 20
207.2315261200029
 30
0.0
 11
53.21550154623887
 21
207.2315261200029
 31
0.0
  0
LINE
  5
937E
  8
0
 10
53.21550154623887
 20
207.2315261200029
 30
0.0
 11
53.21550154623887
 21
206.8975412700029
 31
0.0
  0
LINE
  5
937F
  8
0
 10
43.20193154623885
 20
206.5642812700029
 30
0.0
 11
43.53628784623885
 21
206.5642812700029
 31
0.0
  0
LINE
  5
9380
  8
0
 10
43.53628784623885
 20
206.5642812700029
 30
0.0
 11
43.53628784623885
 21
206.8982651700029
 31
0.0
  0
LINE
  5
9381
  8
0
 10
43.53628784623885
 20
206.8982651700029
 30
0.0
 11
43.20193154623885
 21
206.8982651700029
 31
0.0
  0
LINE
  5
9382
  8
0
 10
43.20193154623885
 20
206.8982651700029
 30
0.0
 11
43.20193154623885
 21
206.5642812700029
 31
0.0
  0
LINE
  5
9383
  8
0
 10
43.86949654623888
 20
206.5642812700029
 30
0.0
 11
44.20348044623887
 21
206.5642812700029
 31
0.0
  0
LINE
  5
9384
  8
0
 10
44.20348044623887
 20
206.5642812700029
 30
0.0
 11
44.20348044623887
 21
206.8982651700029
 31
0.0
  0
LINE
  5
9385
  8
0
 10
44.20348044623887
 20
206.8982651700029
 30
0.0
 11
43.86949654623888
 21
206.8982651700029
 31
0.0
  0
LINE
  5
9386
  8
0
 10
43.86949654623888
 20
206.8982651700029
 30
0.0
 11
43.86949654623888
 21
206.5642812700029
 31
0.0
  0
LINE
  5
9387
  8
0
 10
44.53744154623885
 20
206.5642812700029
 30
0.0
 11
46.54023154623886
 21
206.5642812700029
 31
0.0
  0
LINE
  5
9388
  8
0
 10
46.54023154623886
 20
206.5642812700029
 30
0.0
 11
46.54023154623886
 21
206.8982651700029
 31
0.0
  0
LINE
  5
9389
  8
0
 10
46.54023154623886
 20
206.8982651700029
 30
0.0
 11
44.53744154623885
 21
206.8982651700029
 31
0.0
  0
LINE
  5
938A
  8
0
 10
44.53744154623885
 20
206.8982651700029
 30
0.0
 11
44.53744154623885
 21
206.5642812700029
 31
0.0
  0
LINE
  5
938B
  8
0
 10
46.87349154623885
 20
206.5642812700029
 30
0.0
 11
47.20747639623886
 21
206.5642812700029
 31
0.0
  0
LINE
  5
938C
  8
0
 10
47.20747639623886
 20
206.5642812700029
 30
0.0
 11
47.20747639623886
 21
206.8982651700029
 31
0.0
  0
LINE
  5
938D
  8
0
 10
47.20747639623886
 20
206.8982651700029
 30
0.0
 11
46.87349154623885
 21
206.8982651700029
 31
0.0
  0
LINE
  5
938E
  8
0
 10
46.87349154623885
 20
206.8982651700029
 30
0.0
 11
46.87349154623885
 21
206.5642812700029
 31
0.0
  0
LINE
  5
938F
  8
0
 10
47.54153154623887
 20
206.5642812700029
 30
0.0
 11
48.20912979623884
 21
206.5642812700029
 31
0.0
  0
LINE
  5
9390
  8
0
 10
48.20912979623884
 20
206.5642812700029
 30
0.0
 11
48.20912979623884
 21
206.8982651700029
 31
0.0
  0
LINE
  5
9391
  8
0
 10
48.20912979623884
 20
206.8982651700029
 30
0.0
 11
47.54153154623887
 21
206.8982651700029
 31
0.0
  0
LINE
  5
9392
  8
0
 10
47.54153154623887
 20
206.8982651700029
 30
0.0
 11
47.54153154623887
 21
206.5642812700029
 31
0.0
  0
LINE
  5
9393
  8
0
 10
48.87666154623886
 20
206.5642812700029
 30
0.0
 11
49.21064544623886
 21
206.5642812700029
 31
0.0
  0
LINE
  5
9394
  8
0
 10
49.21064544623886
 20
206.5642812700029
 30
0.0
 11
49.21064544623886
 21
206.8982651700029
 31
0.0
  0
LINE
  5
9395
  8
0
 10
49.21064544623886
 20
206.8982651700029
 30
0.0
 11
48.87666154623886
 21
206.8982651700029
 31
0.0
  0
LINE
  5
9396
  8
0
 10
48.87666154623886
 20
206.8982651700029
 30
0.0
 11
48.87666154623886
 21
206.5642812700029
 31
0.0
  0
LINE
  5
9397
  8
0
 10
50.21150654623887
 20
206.5642812700029
 30
0.0
 11
50.54586189623888
 21
206.5642812700029
 31
0.0
  0
LINE
  5
9398
  8
0
 10
50.54586189623888
 20
206.5642812700029
 30
0.0
 11
50.54586189623888
 21
206.8982651700029
 31
0.0
  0
LINE
  5
9399
  8
0
 10
50.54586189623888
 20
206.8982651700029
 30
0.0
 11
50.21150654623887
 21
206.8982651700029
 31
0.0
  0
LINE
  5
939A
  8
0
 10
50.21150654623887
 20
206.8982651700029
 30
0.0
 11
50.21150654623887
 21
206.5642812700029
 31
0.0
  0
LINE
  5
939B
  8
0
 10
51.54673154623885
 20
206.5642812700029
 30
0.0
 11
51.88071544623887
 21
206.5642812700029
 31
0.0
  0
LINE
  5
939C
  8
0
 10
51.88071544623887
 20
206.5642812700029
 30
0.0
 11
51.88071544623887
 21
206.8982651700029
 31
0.0
  0
LINE
  5
939D
  8
0
 10
51.88071544623887
 20
206.8982651700029
 30
0.0
 11
51.54673154623885
 21
206.8982651700029
 31
0.0
  0
LINE
  5
939E
  8
0
 10
51.54673154623885
 20
206.8982651700029
 30
0.0
 11
51.54673154623885
 21
206.5642812700029
 31
0.0
  0
LINE
  5
939F
  8
0
 10
52.21391654623886
 20
206.5642812700029
 30
0.0
 11
52.88151384623885
 21
206.5642812700029
 31
0.0
  0
LINE
  5
93A0
  8
0
 10
52.88151384623885
 20
206.5642812700029
 30
0.0
 11
52.88151384623885
 21
206.8982651700029
 31
0.0
  0
LINE
  5
93A1
  8
0
 10
52.88151384623885
 20
206.8982651700029
 30
0.0
 11
52.21391654623886
 21
206.8982651700029
 31
0.0
  0
LINE
  5
93A2
  8
0
 10
52.21391654623886
 20
206.8982651700029
 30
0.0
 11
52.21391654623886
 21
206.5642812700029
 31
0.0
  0
LINE
  5
93A3
  8
0
 10
53.21550154623887
 20
206.5642812700029
 30
0.0
 11
53.54985784623887
 21
206.5642812700029
 31
0.0
  0
LINE
  5
93A4
  8
0
 10
53.54985784623887
 20
206.5642812700029
 30
0.0
 11
53.54985784623887
 21
206.8982651700029
 31
0.0
  0
LINE
  5
93A5
  8
0
 10
53.54985784623887
 20
206.8982651700029
 30
0.0
 11
53.21550154623887
 21
206.8982651700029
 31
0.0
  0
LINE
  5
93A6
  8
0
 10
53.21550154623887
 20
206.8982651700029
 30
0.0
 11
53.21550154623887
 21
206.5642812700029
 31
0.0
  0
LINE
  5
93A7
  8
0
 10
42.86867154623886
 20
206.2303562700029
 30
0.0
 11
43.20265639623886
 21
206.2303562700029
 31
0.0
  0
LINE
  5
93A8
  8
0
 10
43.20265639623886
 20
206.2303562700029
 30
0.0
 11
43.20265639623886
 21
206.5643411200029
 31
0.0
  0
LINE
  5
93A9
  8
0
 10
43.20265639623886
 20
206.5643411200029
 30
0.0
 11
42.86867154623886
 21
206.5643411200029
 31
0.0
  0
LINE
  5
93AA
  8
0
 10
42.86867154623886
 20
206.5643411200029
 30
0.0
 11
42.86867154623886
 21
206.2303562700029
 31
0.0
  0
LINE
  5
93AB
  8
0
 10
43.53585654623888
 20
206.2303562700029
 30
0.0
 11
44.53744154623885
 21
206.2303562700029
 31
0.0
  0
LINE
  5
93AC
  8
0
 10
44.53744154623885
 20
206.2303562700029
 30
0.0
 11
44.53744154623885
 21
206.5643411200029
 31
0.0
  0
LINE
  5
93AD
  8
0
 10
44.53744154623885
 20
206.5643411200029
 30
0.0
 11
43.53585654623888
 21
206.5643411200029
 31
0.0
  0
LINE
  5
93AE
  8
0
 10
43.53585654623888
 20
206.5643411200029
 30
0.0
 11
43.53585654623888
 21
206.2303562700029
 31
0.0
  0
LINE
  5
93AF
  8
0
 10
44.87108154623886
 20
206.2303562700029
 30
0.0
 11
45.53867884623884
 21
206.2303562700029
 31
0.0
  0
LINE
  5
93B0
  8
0
 10
45.53867884623884
 20
206.2303562700029
 30
0.0
 11
45.53867884623884
 21
206.5643411200029
 31
0.0
  0
LINE
  5
93B1
  8
0
 10
45.53867884623884
 20
206.5643411200029
 30
0.0
 11
44.87108154623886
 21
206.5643411200029
 31
0.0
  0
LINE
  5
93B2
  8
0
 10
44.87108154623886
 20
206.5643411200029
 30
0.0
 11
44.87108154623886
 21
206.2303562700029
 31
0.0
  0
LINE
  5
93B3
  8
0
 10
45.87266654623886
 20
206.2303562700029
 30
0.0
 11
46.20665044623888
 21
206.2303562700029
 31
0.0
  0
LINE
  5
93B4
  8
0
 10
46.20665044623888
 20
206.2303562700029
 30
0.0
 11
46.20665044623888
 21
206.5643411200029
 31
0.0
  0
LINE
  5
93B5
  8
0
 10
46.20665044623888
 20
206.5643411200029
 30
0.0
 11
45.87266654623886
 21
206.5643411200029
 31
0.0
  0
LINE
  5
93B6
  8
0
 10
45.87266654623886
 20
206.5643411200029
 30
0.0
 11
45.87266654623886
 21
206.2303562700029
 31
0.0
  0
LINE
  5
93B7
  8
0
 10
47.54153154623887
 20
206.2303562700029
 30
0.0
 11
49.87831304623887
 21
206.2303562700029
 31
0.0
  0
LINE
  5
93B8
  8
0
 10
49.87831304623887
 20
206.2303562700029
 30
0.0
 11
49.87831304623887
 21
206.5643411200029
 31
0.0
  0
LINE
  5
93B9
  8
0
 10
49.87831304623887
 20
206.5643411200029
 30
0.0
 11
47.54153154623887
 21
206.5643411200029
 31
0.0
  0
LINE
  5
93BA
  8
0
 10
47.54153154623887
 20
206.5643411200029
 30
0.0
 11
47.54153154623887
 21
206.2303562700029
 31
0.0
  0
LINE
  5
93BB
  8
0
 10
50.21150654623887
 20
206.2303562700029
 30
0.0
 11
50.54586189623888
 21
206.2303562700029
 31
0.0
  0
LINE
  5
93BC
  8
0
 10
50.54586189623888
 20
206.2303562700029
 30
0.0
 11
50.54586189623888
 21
206.5643411200029
 31
0.0
  0
LINE
  5
93BD
  8
0
 10
50.54586189623888
 20
206.5643411200029
 30
0.0
 11
50.21150654623887
 21
206.5643411200029
 31
0.0
  0
LINE
  5
93BE
  8
0
 10
50.21150654623887
 20
206.5643411200029
 30
0.0
 11
50.21150654623887
 21
206.2303562700029
 31
0.0
  0
LINE
  5
93BF
  8
0
 10
50.87907154623886
 20
206.2303562700029
 30
0.0
 11
51.21305639623887
 21
206.2303562700029
 31
0.0
  0
LINE
  5
93C0
  8
0
 10
51.21305639623887
 20
206.2303562700029
 30
0.0
 11
51.21305639623887
 21
206.5643411200029
 31
0.0
  0
LINE
  5
93C1
  8
0
 10
51.21305639623887
 20
206.5643411200029
 30
0.0
 11
50.87907154623886
 21
206.5643411200029
 31
0.0
  0
LINE
  5
93C2
  8
0
 10
50.87907154623886
 20
206.5643411200029
 30
0.0
 11
50.87907154623886
 21
206.2303562700029
 31
0.0
  0
LINE
  5
93C3
  8
0
 10
51.88065654623887
 20
206.2303562700029
 30
0.0
 11
52.88224154623884
 21
206.2303562700029
 31
0.0
  0
LINE
  5
93C4
  8
0
 10
52.88224154623884
 20
206.2303562700029
 30
0.0
 11
52.88224154623884
 21
206.5643411200029
 31
0.0
  0
LINE
  5
93C5
  8
0
 10
52.88224154623884
 20
206.5643411200029
 30
0.0
 11
51.88065654623887
 21
206.5643411200029
 31
0.0
  0
LINE
  5
93C6
  8
0
 10
51.88065654623887
 20
206.5643411200029
 30
0.0
 11
51.88065654623887
 21
206.2303562700029
 31
0.0
  0
LINE
  5
93C7
  8
0
 10
53.21550154623887
 20
206.2303562700029
 30
0.0
 11
53.54985784623887
 21
206.2303562700029
 31
0.0
  0
LINE
  5
93C8
  8
0
 10
53.54985784623887
 20
206.2303562700029
 30
0.0
 11
53.54985784623887
 21
206.5643411200029
 31
0.0
  0
LINE
  5
93C9
  8
0
 10
53.54985784623887
 20
206.5643411200029
 30
0.0
 11
53.21550154623887
 21
206.5643411200029
 31
0.0
  0
LINE
  5
93CA
  8
0
 10
53.21550154623887
 20
206.5643411200029
 30
0.0
 11
53.21550154623887
 21
206.2303562700029
 31
0.0
  0
LINE
  5
93CB
  8
0
 10
42.53436654623886
 20
205.8959562700029
 30
0.0
 11
43.86956304623885
 21
205.8959562700029
 31
0.0
  0
LINE
  5
93CC
  8
0
 10
43.86956304623885
 20
205.8959562700029
 30
0.0
 11
43.86956304623885
 21
206.2303116200029
 31
0.0
  0
LINE
  5
93CD
  8
0
 10
43.86956304623885
 20
206.2303116200029
 30
0.0
 11
42.53436654623886
 21
206.2303116200029
 31
0.0
  0
LINE
  5
93CE
  8
0
 10
42.53436654623886
 20
206.2303116200029
 30
0.0
 11
42.53436654623886
 21
205.8959562700029
 31
0.0
  0
LINE
  5
93CF
  8
0
 10
44.53744154623885
 20
205.8959562700029
 30
0.0
 11
44.87142544623885
 21
205.8959562700029
 31
0.0
  0
LINE
  5
93D0
  8
0
 10
44.87142544623885
 20
205.8959562700029
 30
0.0
 11
44.87142544623885
 21
206.2303116200029
 31
0.0
  0
LINE
  5
93D1
  8
0
 10
44.87142544623885
 20
206.2303116200029
 30
0.0
 11
44.53744154623885
 21
206.2303116200029
 31
0.0
  0
LINE
  5
93D2
  8
0
 10
44.53744154623885
 20
206.2303116200029
 30
0.0
 11
44.53744154623885
 21
205.8959562700029
 31
0.0
  0
LINE
  5
93D3
  8
0
 10
45.20510154623886
 20
205.8959562700029
 30
0.0
 11
45.53908639623887
 21
205.8959562700029
 31
0.0
  0
LINE
  5
93D4
  8
0
 10
45.53908639623887
 20
205.8959562700029
 30
0.0
 11
45.53908639623887
 21
206.2303116200029
 31
0.0
  0
LINE
  5
93D5
  8
0
 10
45.53908639623887
 20
206.2303116200029
 30
0.0
 11
45.20510154623886
 21
206.2303116200029
 31
0.0
  0
LINE
  5
93D6
  8
0
 10
45.20510154623886
 20
206.2303116200029
 30
0.0
 11
45.20510154623886
 21
205.8959562700029
 31
0.0
  0
LINE
  5
93D7
  8
0
 10
45.87266654623886
 20
205.8959562700029
 30
0.0
 11
46.20665044623888
 21
205.8959562700029
 31
0.0
  0
LINE
  5
93D8
  8
0
 10
46.20665044623888
 20
205.8959562700029
 30
0.0
 11
46.20665044623888
 21
206.2303116200029
 31
0.0
  0
LINE
  5
93D9
  8
0
 10
46.20665044623888
 20
206.2303116200029
 30
0.0
 11
45.87266654623886
 21
206.2303116200029
 31
0.0
  0
LINE
  5
93DA
  8
0
 10
45.87266654623886
 20
206.2303116200029
 30
0.0
 11
45.87266654623886
 21
205.8959562700029
 31
0.0
  0
LINE
  5
93DB
  8
0
 10
46.54032654623887
 20
205.8959562700029
 30
0.0
 11
47.54154104623888
 21
205.8959562700029
 31
0.0
  0
LINE
  5
93DC
  8
0
 10
47.54154104623888
 20
205.8959562700029
 30
0.0
 11
47.54154104623888
 21
206.2303116200029
 31
0.0
  0
LINE
  5
93DD
  8
0
 10
47.54154104623888
 20
206.2303116200029
 30
0.0
 11
46.54032654623887
 21
206.2303116200029
 31
0.0
  0
LINE
  5
93DE
  8
0
 10
46.54032654623887
 20
206.2303116200029
 30
0.0
 11
46.54032654623887
 21
205.8959562700029
 31
0.0
  0
LINE
  5
93DF
  8
0
 10
47.87507654623886
 20
205.8959562700029
 30
0.0
 11
48.20906139623887
 21
205.8959562700029
 31
0.0
  0
LINE
  5
93E0
  8
0
 10
48.20906139623887
 20
205.8959562700029
 30
0.0
 11
48.20906139623887
 21
206.2303116200029
 31
0.0
  0
LINE
  5
93E1
  8
0
 10
48.20906139623887
 20
206.2303116200029
 30
0.0
 11
47.87507654623886
 21
206.2303116200029
 31
0.0
  0
LINE
  5
93E2
  8
0
 10
47.87507654623886
 20
206.2303116200029
 30
0.0
 11
47.87507654623886
 21
205.8959562700029
 31
0.0
  0
LINE
  5
93E3
  8
0
 10
49.20992154623886
 20
205.8959562700029
 30
0.0
 11
50.21150654623887
 21
205.8959562700029
 31
0.0
  0
LINE
  5
93E4
  8
0
 10
50.21150654623887
 20
205.8959562700029
 30
0.0
 11
50.21150654623887
 21
206.2303116200029
 31
0.0
  0
LINE
  5
93E5
  8
0
 10
50.21150654623887
 20
206.2303116200029
 30
0.0
 11
49.20992154623886
 21
206.2303116200029
 31
0.0
  0
LINE
  5
93E6
  8
0
 10
49.20992154623886
 20
206.2303116200029
 30
0.0
 11
49.20992154623886
 21
205.8959562700029
 31
0.0
  0
LINE
  5
93E7
  8
0
 10
50.87907154623886
 20
205.8959562700029
 30
0.0
 11
51.21305639623887
 21
205.8959562700029
 31
0.0
  0
LINE
  5
93E8
  8
0
 10
51.21305639623887
 20
205.8959562700029
 30
0.0
 11
51.21305639623887
 21
206.2303116200029
 31
0.0
  0
LINE
  5
93E9
  8
0
 10
51.21305639623887
 20
206.2303116200029
 30
0.0
 11
50.87907154623886
 21
206.2303116200029
 31
0.0
  0
LINE
  5
93EA
  8
0
 10
50.87907154623886
 20
206.2303116200029
 30
0.0
 11
50.87907154623886
 21
205.8959562700029
 31
0.0
  0
LINE
  5
93EB
  8
0
 10
51.88065654623887
 20
205.8959562700029
 30
0.0
 11
52.54788334623888
 21
205.8959562700029
 31
0.0
  0
LINE
  5
93EC
  8
0
 10
52.54788334623888
 20
205.8959562700029
 30
0.0
 11
52.54788334623888
 21
206.2303116200029
 31
0.0
  0
LINE
  5
93ED
  8
0
 10
52.54788334623888
 20
206.2303116200029
 30
0.0
 11
51.88065654623887
 21
206.2303116200029
 31
0.0
  0
LINE
  5
93EE
  8
0
 10
51.88065654623887
 20
206.2303116200029
 30
0.0
 11
51.88065654623887
 21
205.8959562700029
 31
0.0
  0
LINE
  5
93EF
  8
0
 10
42.53436654623886
 20
205.5626962700029
 30
0.0
 11
43.20196384623884
 21
205.5626962700029
 31
0.0
  0
LINE
  5
93F0
  8
0
 10
43.20196384623884
 20
205.5626962700029
 30
0.0
 11
43.20196384623884
 21
205.8966811200029
 31
0.0
  0
LINE
  5
93F1
  8
0
 10
43.20196384623884
 20
205.8966811200029
 30
0.0
 11
42.53436654623886
 21
205.8966811200029
 31
0.0
  0
LINE
  5
93F2
  8
0
 10
42.53436654623886
 20
205.8966811200029
 30
0.0
 11
42.53436654623886
 21
205.5626962700029
 31
0.0
  0
LINE
  5
93F3
  8
0
 10
43.53585654623888
 20
205.5626962700029
 30
0.0
 11
43.86984044623887
 21
205.5626962700029
 31
0.0
  0
LINE
  5
93F4
  8
0
 10
43.86984044623887
 20
205.5626962700029
 30
0.0
 11
43.86984044623887
 21
205.8966811200029
 31
0.0
  0
LINE
  5
93F5
  8
0
 10
43.86984044623887
 20
205.8966811200029
 30
0.0
 11
43.53585654623888
 21
205.8966811200029
 31
0.0
  0
LINE
  5
93F6
  8
0
 10
43.53585654623888
 20
205.8966811200029
 30
0.0
 11
43.53585654623888
 21
205.5626962700029
 31
0.0
  0
LINE
  5
93F7
  8
0
 10
44.20351654623886
 20
205.5626962700029
 30
0.0
 11
44.53750139623887
 21
205.5626962700029
 31
0.0
  0
LINE
  5
93F8
  8
0
 10
44.53750139623887
 20
205.5626962700029
 30
0.0
 11
44.53750139623887
 21
205.8966811200029
 31
0.0
  0
LINE
  5
93F9
  8
0
 10
44.53750139623887
 20
205.8966811200029
 30
0.0
 11
44.20351654623886
 21
205.8966811200029
 31
0.0
  0
LINE
  5
93FA
  8
0
 10
44.20351654623886
 20
205.8966811200029
 30
0.0
 11
44.20351654623886
 21
205.5626962700029
 31
0.0
  0
LINE
  5
93FB
  8
0
 10
45.20510154623886
 20
205.5626962700029
 30
0.0
 11
45.53908639623887
 21
205.5626962700029
 31
0.0
  0
LINE
  5
93FC
  8
0
 10
45.53908639623887
 20
205.5626962700029
 30
0.0
 11
45.53908639623887
 21
205.8966811200029
 31
0.0
  0
LINE
  5
93FD
  8
0
 10
45.53908639623887
 20
205.8966811200029
 30
0.0
 11
45.20510154623886
 21
205.8966811200029
 31
0.0
  0
LINE
  5
93FE
  8
0
 10
45.20510154623886
 20
205.8966811200029
 30
0.0
 11
45.20510154623886
 21
205.5626962700029
 31
0.0
  0
LINE
  5
93FF
  8
0
 10
45.87266654623886
 20
205.5626962700029
 30
0.0
 11
46.87388104623886
 21
205.5626962700029
 31
0.0
  0
LINE
  5
9400
  8
0
 10
46.87388104623886
 20
205.5626962700029
 30
0.0
 11
46.87388104623886
 21
205.8966811200029
 31
0.0
  0
LINE
  5
9401
  8
0
 10
46.87388104623886
 20
205.8966811200029
 30
0.0
 11
45.87266654623886
 21
205.8966811200029
 31
0.0
  0
LINE
  5
9402
  8
0
 10
45.87266654623886
 20
205.8966811200029
 30
0.0
 11
45.87266654623886
 21
205.5626962700029
 31
0.0
  0
LINE
  5
9403
  8
0
 10
47.20751154623886
 20
205.5626962700029
 30
0.0
 11
47.54149544623888
 21
205.5626962700029
 31
0.0
  0
LINE
  5
9404
  8
0
 10
47.54149544623888
 20
205.5626962700029
 30
0.0
 11
47.54149544623888
 21
205.8966811200029
 31
0.0
  0
LINE
  5
9405
  8
0
 10
47.54149544623888
 20
205.8966811200029
 30
0.0
 11
47.20751154623886
 21
205.8966811200029
 31
0.0
  0
LINE
  5
9406
  8
0
 10
47.20751154623886
 20
205.8966811200029
 30
0.0
 11
47.20751154623886
 21
205.5626962700029
 31
0.0
  0
LINE
  5
9407
  8
0
 10
47.87507654623886
 20
205.5626962700029
 30
0.0
 11
48.87666154623886
 21
205.5626962700029
 31
0.0
  0
LINE
  5
9408
  8
0
 10
48.87666154623886
 20
205.5626962700029
 30
0.0
 11
48.87666154623886
 21
205.8966811200029
 31
0.0
  0
LINE
  5
9409
  8
0
 10
48.87666154623886
 20
205.8966811200029
 30
0.0
 11
47.87507654623886
 21
205.8966811200029
 31
0.0
  0
LINE
  5
940A
  8
0
 10
47.87507654623886
 20
205.8966811200029
 30
0.0
 11
47.87507654623886
 21
205.5626962700029
 31
0.0
  0
LINE
  5
940B
  8
0
 10
49.20992154623886
 20
205.5626962700029
 30
0.0
 11
49.54427689623887
 21
205.5626962700029
 31
0.0
  0
LINE
  5
940C
  8
0
 10
49.54427689623887
 20
205.5626962700029
 30
0.0
 11
49.54427689623887
 21
205.8966811200029
 31
0.0
  0
LINE
  5
940D
  8
0
 10
49.54427689623887
 20
205.8966811200029
 30
0.0
 11
49.20992154623886
 21
205.8966811200029
 31
0.0
  0
LINE
  5
940E
  8
0
 10
49.20992154623886
 20
205.8966811200029
 30
0.0
 11
49.20992154623886
 21
205.5626962700029
 31
0.0
  0
LINE
  5
940F
  8
0
 10
49.87748654623886
 20
205.5626962700029
 30
0.0
 11
50.54508384623887
 21
205.5626962700029
 31
0.0
  0
LINE
  5
9410
  8
0
 10
50.54508384623887
 20
205.5626962700029
 30
0.0
 11
50.54508384623887
 21
205.8966811200029
 31
0.0
  0
LINE
  5
9411
  8
0
 10
50.54508384623887
 20
205.8966811200029
 30
0.0
 11
49.87748654623886
 21
205.8966811200029
 31
0.0
  0
LINE
  5
9412
  8
0
 10
49.87748654623886
 20
205.8966811200029
 30
0.0
 11
49.87748654623886
 21
205.5626962700029
 31
0.0
  0
LINE
  5
9413
  8
0
 10
51.54673154623885
 20
205.5626962700029
 30
0.0
 11
52.88155754623887
 21
205.5626962700029
 31
0.0
  0
LINE
  5
9414
  8
0
 10
52.88155754623887
 20
205.5626962700029
 30
0.0
 11
52.88155754623887
 21
205.8966811200029
 31
0.0
  0
LINE
  5
9415
  8
0
 10
52.88155754623887
 20
205.8966811200029
 30
0.0
 11
51.54673154623885
 21
205.8966811200029
 31
0.0
  0
LINE
  5
9416
  8
0
 10
51.54673154623885
 20
205.8966811200029
 30
0.0
 11
51.54673154623885
 21
205.5626962700029
 31
0.0
  0
LINE
  5
9417
  8
0
 10
42.53436654623886
 20
205.2287712700029
 30
0.0
 11
42.86872189623887
 21
205.2287712700029
 31
0.0
  0
LINE
  5
9418
  8
0
 10
42.86872189623887
 20
205.2287712700029
 30
0.0
 11
42.86872189623887
 21
205.5627551700029
 31
0.0
  0
LINE
  5
9419
  8
0
 10
42.86872189623887
 20
205.5627551700029
 30
0.0
 11
42.53436654623886
 21
205.5627551700029
 31
0.0
  0
LINE
  5
941A
  8
0
 10
42.53436654623886
 20
205.5627551700029
 30
0.0
 11
42.53436654623886
 21
205.2287712700029
 31
0.0
  0
LINE
  5
941B
  8
0
 10
43.20193154623885
 20
205.2287712700029
 30
0.0
 11
43.53628784623885
 21
205.2287712700029
 31
0.0
  0
LINE
  5
941C
  8
0
 10
43.53628784623885
 20
205.2287712700029
 30
0.0
 11
43.53628784623885
 21
205.5627551700029
 31
0.0
  0
LINE
  5
941D
  8
0
 10
43.53628784623885
 20
205.5627551700029
 30
0.0
 11
43.20193154623885
 21
205.5627551700029
 31
0.0
  0
LINE
  5
941E
  8
0
 10
43.20193154623885
 20
205.5627551700029
 30
0.0
 11
43.20193154623885
 21
205.2287712700029
 31
0.0
  0
LINE
  5
941F
  8
0
 10
43.86949654623888
 20
205.2287712700029
 30
0.0
 11
44.87108154623886
 21
205.2287712700029
 31
0.0
  0
LINE
  5
9420
  8
0
 10
44.87108154623886
 20
205.2287712700029
 30
0.0
 11
44.87108154623886
 21
205.5627551700029
 31
0.0
  0
LINE
  5
9421
  8
0
 10
44.87108154623886
 20
205.5627551700029
 30
0.0
 11
43.86949654623888
 21
205.5627551700029
 31
0.0
  0
LINE
  5
9422
  8
0
 10
43.86949654623888
 20
205.5627551700029
 30
0.0
 11
43.86949654623888
 21
205.2287712700029
 31
0.0
  0
LINE
  5
9423
  8
0
 10
45.53874154623884
 20
205.2287712700029
 30
0.0
 11
45.87272639623885
 21
205.2287712700029
 31
0.0
  0
LINE
  5
9424
  8
0
 10
45.87272639623885
 20
205.2287712700029
 30
0.0
 11
45.87272639623885
 21
205.5627551700029
 31
0.0
  0
LINE
  5
9425
  8
0
 10
45.87272639623885
 20
205.5627551700029
 30
0.0
 11
45.53874154623884
 21
205.5627551700029
 31
0.0
  0
LINE
  5
9426
  8
0
 10
45.53874154623884
 20
205.5627551700029
 30
0.0
 11
45.53874154623884
 21
205.2287712700029
 31
0.0
  0
LINE
  5
9427
  8
0
 10
46.20592654623886
 20
205.2287712700029
 30
0.0
 11
46.53991044623888
 21
205.2287712700029
 31
0.0
  0
LINE
  5
9428
  8
0
 10
46.53991044623888
 20
205.2287712700029
 30
0.0
 11
46.53991044623888
 21
205.5627551700029
 31
0.0
  0
LINE
  5
9429
  8
0
 10
46.53991044623888
 20
205.5627551700029
 30
0.0
 11
46.20592654623886
 21
205.5627551700029
 31
0.0
  0
LINE
  5
942A
  8
0
 10
46.20592654623886
 20
205.5627551700029
 30
0.0
 11
46.20592654623886
 21
205.2287712700029
 31
0.0
  0
LINE
  5
942B
  8
0
 10
47.54153154623887
 20
205.2287712700029
 30
0.0
 11
48.54311654623885
 21
205.2287712700029
 31
0.0
  0
LINE
  5
942C
  8
0
 10
48.54311654623885
 20
205.2287712700029
 30
0.0
 11
48.54311654623885
 21
205.5627551700029
 31
0.0
  0
LINE
  5
942D
  8
0
 10
48.54311654623885
 20
205.5627551700029
 30
0.0
 11
47.54153154623887
 21
205.5627551700029
 31
0.0
  0
LINE
  5
942E
  8
0
 10
47.54153154623887
 20
205.5627551700029
 30
0.0
 11
47.54153154623887
 21
205.2287712700029
 31
0.0
  0
LINE
  5
942F
  8
0
 10
49.20992154623886
 20
205.2287712700029
 30
0.0
 11
49.87751979623886
 21
205.2287712700029
 31
0.0
  0
LINE
  5
9430
  8
0
 10
49.87751979623886
 20
205.2287712700029
 30
0.0
 11
49.87751979623886
 21
205.5627551700029
 31
0.0
  0
LINE
  5
9431
  8
0
 10
49.87751979623886
 20
205.5627551700029
 30
0.0
 11
49.20992154623886
 21
205.5627551700029
 31
0.0
  0
LINE
  5
9432
  8
0
 10
49.20992154623886
 20
205.5627551700029
 30
0.0
 11
49.20992154623886
 21
205.2287712700029
 31
0.0
  0
LINE
  5
9433
  8
0
 10
50.54590654623885
 20
205.2287712700029
 30
0.0
 11
51.21313334623886
 21
205.2287712700029
 31
0.0
  0
LINE
  5
9434
  8
0
 10
51.21313334623886
 20
205.2287712700029
 30
0.0
 11
51.21313334623886
 21
205.5627551700029
 31
0.0
  0
LINE
  5
9435
  8
0
 10
51.21313334623886
 20
205.5627551700029
 30
0.0
 11
50.54590654623885
 21
205.5627551700029
 31
0.0
  0
LINE
  5
9436
  8
0
 10
50.54590654623885
 20
205.5627551700029
 30
0.0
 11
50.54590654623885
 21
205.2287712700029
 31
0.0
  0
LINE
  5
9437
  8
0
 10
51.54673154623885
 20
205.2287712700029
 30
0.0
 11
51.88071544623887
 21
205.2287712700029
 31
0.0
  0
LINE
  5
9438
  8
0
 10
51.88071544623887
 20
205.2287712700029
 30
0.0
 11
51.88071544623887
 21
205.5627551700029
 31
0.0
  0
LINE
  5
9439
  8
0
 10
51.88071544623887
 20
205.5627551700029
 30
0.0
 11
51.54673154623885
 21
205.5627551700029
 31
0.0
  0
LINE
  5
943A
  8
0
 10
51.54673154623885
 20
205.5627551700029
 30
0.0
 11
51.54673154623885
 21
205.2287712700029
 31
0.0
  0
LINE
  5
943B
  8
0
 10
52.21391654623886
 20
205.2287712700029
 30
0.0
 11
53.21550154623887
 21
205.2287712700029
 31
0.0
  0
LINE
  5
943C
  8
0
 10
53.21550154623887
 20
205.2287712700029
 30
0.0
 11
53.21550154623887
 21
205.5627551700029
 31
0.0
  0
LINE
  5
943D
  8
0
 10
53.21550154623887
 20
205.5627551700029
 30
0.0
 11
52.21391654623886
 21
205.5627551700029
 31
0.0
  0
LINE
  5
943E
  8
0
 10
52.21391654623886
 20
205.5627551700029
 30
0.0
 11
52.21391654623886
 21
205.2287712700029
 31
0.0
  0
LINE
  5
943F
  8
0
 10
42.53436654623886
 20
204.8951312700029
 30
0.0
 11
42.86872189623887
 21
204.8951312700029
 31
0.0
  0
LINE
  5
9440
  8
0
 10
42.86872189623887
 20
204.8951312700029
 30
0.0
 11
42.86872189623887
 21
205.2291151700029
 31
0.0
  0
LINE
  5
9441
  8
0
 10
42.86872189623887
 20
205.2291151700029
 30
0.0
 11
42.53436654623886
 21
205.2291151700029
 31
0.0
  0
LINE
  5
9442
  8
0
 10
42.53436654623886
 20
205.2291151700029
 30
0.0
 11
42.53436654623886
 21
204.8951312700029
 31
0.0
  0
LINE
  5
9443
  8
0
 10
43.86949654623888
 20
204.8951312700029
 30
0.0
 11
44.53709384623886
 21
204.8951312700029
 31
0.0
  0
LINE
  5
9444
  8
0
 10
44.53709384623886
 20
204.8951312700029
 30
0.0
 11
44.53709384623886
 21
205.2291151700029
 31
0.0
  0
LINE
  5
9445
  8
0
 10
44.53709384623886
 20
205.2291151700029
 30
0.0
 11
43.86949654623888
 21
205.2291151700029
 31
0.0
  0
LINE
  5
9446
  8
0
 10
43.86949654623888
 20
205.2291151700029
 30
0.0
 11
43.86949654623888
 21
204.8951312700029
 31
0.0
  0
LINE
  5
9447
  8
0
 10
44.87108154623886
 20
204.8951312700029
 30
0.0
 11
46.87350104623886
 21
204.8951312700029
 31
0.0
  0
LINE
  5
9448
  8
0
 10
46.87350104623886
 20
204.8951312700029
 30
0.0
 11
46.87350104623886
 21
205.2291151700029
 31
0.0
  0
LINE
  5
9449
  8
0
 10
46.87350104623886
 20
205.2291151700029
 30
0.0
 11
44.87108154623886
 21
205.2291151700029
 31
0.0
  0
LINE
  5
944A
  8
0
 10
44.87108154623886
 20
205.2291151700029
 30
0.0
 11
44.87108154623886
 21
204.8951312700029
 31
0.0
  0
LINE
  5
944B
  8
0
 10
48.54273654623887
 20
204.8951312700029
 30
0.0
 11
48.87672139623885
 21
204.8951312700029
 31
0.0
  0
LINE
  5
944C
  8
0
 10
48.87672139623885
 20
204.8951312700029
 30
0.0
 11
48.87672139623885
 21
205.2291151700029
 31
0.0
  0
LINE
  5
944D
  8
0
 10
48.87672139623885
 20
205.2291151700029
 30
0.0
 11
48.54273654623887
 21
205.2291151700029
 31
0.0
  0
LINE
  5
944E
  8
0
 10
48.54273654623887
 20
205.2291151700029
 30
0.0
 11
48.54273654623887
 21
204.8951312700029
 31
0.0
  0
LINE
  5
944F
  8
0
 10
49.87748654623886
 20
204.8951312700029
 30
0.0
 11
50.54508384623887
 21
204.8951312700029
 31
0.0
  0
LINE
  5
9450
  8
0
 10
50.54508384623887
 20
204.8951312700029
 30
0.0
 11
50.54508384623887
 21
205.2291151700029
 31
0.0
  0
LINE
  5
9451
  8
0
 10
50.54508384623887
 20
205.2291151700029
 30
0.0
 11
49.87748654623886
 21
205.2291151700029
 31
0.0
  0
LINE
  5
9452
  8
0
 10
49.87748654623886
 20
205.2291151700029
 30
0.0
 11
49.87748654623886
 21
204.8951312700029
 31
0.0
  0
LINE
  5
9453
  8
0
 10
50.87907154623886
 20
204.8951312700029
 30
0.0
 11
51.88065654623887
 21
204.8951312700029
 31
0.0
  0
LINE
  5
9454
  8
0
 10
51.88065654623887
 20
204.8951312700029
 30
0.0
 11
51.88065654623887
 21
205.2291151700029
 31
0.0
  0
LINE
  5
9455
  8
0
 10
51.88065654623887
 20
205.2291151700029
 30
0.0
 11
50.87907154623886
 21
205.2291151700029
 31
0.0
  0
LINE
  5
9456
  8
0
 10
50.87907154623886
 20
205.2291151700029
 30
0.0
 11
50.87907154623886
 21
204.8951312700029
 31
0.0
  0
LINE
  5
9457
  8
0
 10
52.21391654623886
 20
204.8951312700029
 30
0.0
 11
52.88151384623885
 21
204.8951312700029
 31
0.0
  0
LINE
  5
9458
  8
0
 10
52.88151384623885
 20
204.8951312700029
 30
0.0
 11
52.88151384623885
 21
205.2291151700029
 31
0.0
  0
LINE
  5
9459
  8
0
 10
52.88151384623885
 20
205.2291151700029
 30
0.0
 11
52.21391654623886
 21
205.2291151700029
 31
0.0
  0
LINE
  5
945A
  8
0
 10
52.21391654623886
 20
205.2291151700029
 30
0.0
 11
52.21391654623886
 21
204.8951312700029
 31
0.0
  0
LINE
  5
945B
  8
0
 10
53.21550154623887
 20
204.8951312700029
 30
0.0
 11
53.54985784623887
 21
204.8951312700029
 31
0.0
  0
LINE
  5
945C
  8
0
 10
53.54985784623887
 20
204.8951312700029
 30
0.0
 11
53.54985784623887
 21
205.2291151700029
 31
0.0
  0
LINE
  5
945D
  8
0
 10
53.54985784623887
 20
205.2291151700029
 30
0.0
 11
53.21550154623887
 21
205.2291151700029
 31
0.0
  0
LINE
  5
945E
  8
0
 10
53.21550154623887
 20
205.2291151700029
 30
0.0
 11
53.21550154623887
 21
204.8951312700029
 31
0.0
  0
LINE
  5
945F
  8
0
 10
42.53436654623886
 20
204.5611112700029
 30
0.0
 11
43.20196384623884
 21
204.5611112700029
 31
0.0
  0
LINE
  5
9460
  8
0
 10
43.20196384623884
 20
204.5611112700029
 30
0.0
 11
43.20196384623884
 21
204.8950961200029
 31
0.0
  0
LINE
  5
9461
  8
0
 10
43.20196384623884
 20
204.8950961200029
 30
0.0
 11
42.53436654623886
 21
204.8950961200029
 31
0.0
  0
LINE
  5
9462
  8
0
 10
42.53436654623886
 20
204.8950961200029
 30
0.0
 11
42.53436654623886
 21
204.5611112700029
 31
0.0
  0
LINE
  5
9463
  8
0
 10
43.53585654623888
 20
204.5611112700029
 30
0.0
 11
43.86984044623887
 21
204.5611112700029
 31
0.0
  0
LINE
  5
9464
  8
0
 10
43.86984044623887
 20
204.5611112700029
 30
0.0
 11
43.86984044623887
 21
204.8950961200029
 31
0.0
  0
LINE
  5
9465
  8
0
 10
43.86984044623887
 20
204.8950961200029
 30
0.0
 11
43.53585654623888
 21
204.8950961200029
 31
0.0
  0
LINE
  5
9466
  8
0
 10
43.53585654623888
 20
204.8950961200029
 30
0.0
 11
43.53585654623888
 21
204.5611112700029
 31
0.0
  0
LINE
  5
9467
  8
0
 10
44.20351654623886
 20
204.5611112700029
 30
0.0
 11
46.20593604623886
 21
204.5611112700029
 31
0.0
  0
LINE
  5
9468
  8
0
 10
46.20593604623886
 20
204.5611112700029
 30
0.0
 11
46.20593604623886
 21
204.8950961200029
 31
0.0
  0
LINE
  5
9469
  8
0
 10
46.20593604623886
 20
204.8950961200029
 30
0.0
 11
44.20351654623886
 21
204.8950961200029
 31
0.0
  0
LINE
  5
946A
  8
0
 10
44.20351654623886
 20
204.8950961200029
 30
0.0
 11
44.20351654623886
 21
204.5611112700029
 31
0.0
  0
LINE
  5
946B
  8
0
 10
47.54153154623887
 20
204.5611112700029
 30
0.0
 11
48.20912979623884
 21
204.5611112700029
 31
0.0
  0
LINE
  5
946C
  8
0
 10
48.20912979623884
 20
204.5611112700029
 30
0.0
 11
48.20912979623884
 21
204.8950961200029
 31
0.0
  0
LINE
  5
946D
  8
0
 10
48.20912979623884
 20
204.8950961200029
 30
0.0
 11
47.54153154623887
 21
204.8950961200029
 31
0.0
  0
LINE
  5
946E
  8
0
 10
47.54153154623887
 20
204.8950961200029
 30
0.0
 11
47.54153154623887
 21
204.5611112700029
 31
0.0
  0
LINE
  5
946F
  8
0
 10
48.87666154623886
 20
204.5611112700029
 30
0.0
 11
49.54425884623885
 21
204.5611112700029
 31
0.0
  0
LINE
  5
9470
  8
0
 10
49.54425884623885
 20
204.5611112700029
 30
0.0
 11
49.54425884623885
 21
204.8950961200029
 31
0.0
  0
LINE
  5
9471
  8
0
 10
49.54425884623885
 20
204.8950961200029
 30
0.0
 11
48.87666154623886
 21
204.8950961200029
 31
0.0
  0
LINE
  5
9472
  8
0
 10
48.87666154623886
 20
204.8950961200029
 30
0.0
 11
48.87666154623886
 21
204.5611112700029
 31
0.0
  0
LINE
  5
9473
  8
0
 10
50.54590654623885
 20
204.5611112700029
 30
0.0
 11
52.54832604623886
 21
204.5611112700029
 31
0.0
  0
LINE
  5
9474
  8
0
 10
52.54832604623886
 20
204.5611112700029
 30
0.0
 11
52.54832604623886
 21
204.8950961200029
 31
0.0
  0
LINE
  5
9475
  8
0
 10
52.54832604623886
 20
204.8950961200029
 30
0.0
 11
50.54590654623885
 21
204.8950961200029
 31
0.0
  0
LINE
  5
9476
  8
0
 10
50.54590654623885
 20
204.8950961200029
 30
0.0
 11
50.54590654623885
 21
204.5611112700029
 31
0.0
  0
LINE
  5
9477
  8
0
 10
45.20510154623886
 20
204.2275662700029
 30
0.0
 11
45.53908639623887
 21
204.2275662700029
 31
0.0
  0
LINE
  5
9478
  8
0
 10
45.53908639623887
 20
204.2275662700029
 30
0.0
 11
45.53908639623887
 21
204.5615511200029
 31
0.0
  0
LINE
  5
9479
  8
0
 10
45.53908639623887
 20
204.5615511200029
 30
0.0
 11
45.20510154623886
 21
204.5615511200029
 31
0.0
  0
LINE
  5
947A
  8
0
 10
45.20510154623886
 20
204.5615511200029
 30
0.0
 11
45.20510154623886
 21
204.2275662700029
 31
0.0
  0
LINE
  5
947B
  8
0
 10
46.20592654623886
 20
204.2275662700029
 30
0.0
 11
46.53991044623888
 21
204.2275662700029
 31
0.0
  0
LINE
  5
947C
  8
0
 10
46.53991044623888
 20
204.2275662700029
 30
0.0
 11
46.53991044623888
 21
204.5615511200029
 31
0.0
  0
LINE
  5
947D
  8
0
 10
46.53991044623888
 20
204.5615511200029
 30
0.0
 11
46.20592654623886
 21
204.5615511200029
 31
0.0
  0
LINE
  5
947E
  8
0
 10
46.20592654623886
 20
204.5615511200029
 30
0.0
 11
46.20592654623886
 21
204.2275662700029
 31
0.0
  0
LINE
  5
947F
  8
0
 10
46.87349154623885
 20
204.2275662700029
 30
0.0
 11
47.20747639623886
 21
204.2275662700029
 31
0.0
  0
LINE
  5
9480
  8
0
 10
47.20747639623886
 20
204.2275662700029
 30
0.0
 11
47.20747639623886
 21
204.5615511200029
 31
0.0
  0
LINE
  5
9481
  8
0
 10
47.20747639623886
 20
204.5615511200029
 30
0.0
 11
46.87349154623885
 21
204.5615511200029
 31
0.0
  0
LINE
  5
9482
  8
0
 10
46.87349154623885
 20
204.5615511200029
 30
0.0
 11
46.87349154623885
 21
204.2275662700029
 31
0.0
  0
LINE
  5
9483
  8
0
 10
47.54153154623887
 20
204.2275662700029
 30
0.0
 11
47.87588689623888
 21
204.2275662700029
 31
0.0
  0
LINE
  5
9484
  8
0
 10
47.87588689623888
 20
204.2275662700029
 30
0.0
 11
47.87588689623888
 21
204.5615511200029
 31
0.0
  0
LINE
  5
9485
  8
0
 10
47.87588689623888
 20
204.5615511200029
 30
0.0
 11
47.54153154623887
 21
204.5615511200029
 31
0.0
  0
LINE
  5
9486
  8
0
 10
47.54153154623887
 20
204.5615511200029
 30
0.0
 11
47.54153154623887
 21
204.2275662700029
 31
0.0
  0
LINE
  5
9487
  8
0
 10
48.54273654623887
 20
204.2275662700029
 30
0.0
 11
49.54395104623887
 21
204.2275662700029
 31
0.0
  0
LINE
  5
9488
  8
0
 10
49.54395104623887
 20
204.2275662700029
 30
0.0
 11
49.54395104623887
 21
204.5615511200029
 31
0.0
  0
LINE
  5
9489
  8
0
 10
49.54395104623887
 20
204.5615511200029
 30
0.0
 11
48.54273654623887
 21
204.5615511200029
 31
0.0
  0
LINE
  5
948A
  8
0
 10
48.54273654623887
 20
204.5615511200029
 30
0.0
 11
48.54273654623887
 21
204.2275662700029
 31
0.0
  0
LINE
  5
948B
  8
0
 10
49.87748654623886
 20
204.2275662700029
 30
0.0
 11
50.87907154623886
 21
204.2275662700029
 31
0.0
  0
LINE
  5
948C
  8
0
 10
50.87907154623886
 20
204.2275662700029
 30
0.0
 11
50.87907154623886
 21
204.5615511200029
 31
0.0
  0
LINE
  5
948D
  8
0
 10
50.87907154623886
 20
204.5615511200029
 30
0.0
 11
49.87748654623886
 21
204.5615511200029
 31
0.0
  0
LINE
  5
948E
  8
0
 10
49.87748654623886
 20
204.5615511200029
 30
0.0
 11
49.87748654623886
 21
204.2275662700029
 31
0.0
  0
LINE
  5
948F
  8
0
 10
51.88065654623887
 20
204.2275662700029
 30
0.0
 11
52.21464139623885
 21
204.2275662700029
 31
0.0
  0
LINE
  5
9490
  8
0
 10
52.21464139623885
 20
204.2275662700029
 30
0.0
 11
52.21464139623885
 21
204.5615511200029
 31
0.0
  0
LINE
  5
9491
  8
0
 10
52.21464139623885
 20
204.5615511200029
 30
0.0
 11
51.88065654623887
 21
204.5615511200029
 31
0.0
  0
LINE
  5
9492
  8
0
 10
51.88065654623887
 20
204.5615511200029
 30
0.0
 11
51.88065654623887
 21
204.2275662700029
 31
0.0
  0
LINE
  5
9493
  8
0
 10
52.54831654623885
 20
204.2275662700029
 30
0.0
 11
53.54990154623886
 21
204.2275662700029
 31
0.0
  0
LINE
  5
9494
  8
0
 10
53.54990154623886
 20
204.2275662700029
 30
0.0
 11
53.54990154623886
 21
204.5615511200029
 31
0.0
  0
LINE
  5
9495
  8
0
 10
53.54990154623886
 20
204.5615511200029
 30
0.0
 11
52.54831654623885
 21
204.5615511200029
 31
0.0
  0
LINE
  5
9496
  8
0
 10
52.54831654623885
 20
204.5615511200029
 30
0.0
 11
52.54831654623885
 21
204.2275662700029
 31
0.0
  0
LINE
  5
9497
  8
0
 10
42.53436654623886
 20
203.8935462700029
 30
0.0
 11
44.87114804623889
 21
203.8935462700029
 31
0.0
  0
LINE
  5
9498
  8
0
 10
44.87114804623889
 20
203.8935462700029
 30
0.0
 11
44.87114804623889
 21
204.2275301700029
 31
0.0
  0
LINE
  5
9499
  8
0
 10
44.87114804623889
 20
204.2275301700029
 30
0.0
 11
42.53436654623886
 21
204.2275301700029
 31
0.0
  0
LINE
  5
949A
  8
0
 10
42.53436654623886
 20
204.2275301700029
 30
0.0
 11
42.53436654623886
 21
203.8935462700029
 31
0.0
  0
LINE
  5
949B
  8
0
 10
46.20592654623886
 20
203.8935462700029
 30
0.0
 11
47.20751154623886
 21
203.8935462700029
 31
0.0
  0
LINE
  5
949C
  8
0
 10
47.20751154623886
 20
203.8935462700029
 30
0.0
 11
47.20751154623886
 21
204.2275301700029
 31
0.0
  0
LINE
  5
949D
  8
0
 10
47.20751154623886
 20
204.2275301700029
 30
0.0
 11
46.20592654623886
 21
204.2275301700029
 31
0.0
  0
LINE
  5
949E
  8
0
 10
46.20592654623886
 20
204.2275301700029
 30
0.0
 11
46.20592654623886
 21
203.8935462700029
 31
0.0
  0
LINE
  5
949F
  8
0
 10
47.54153154623887
 20
203.8935462700029
 30
0.0
 11
48.20912979623884
 21
203.8935462700029
 31
0.0
  0
LINE
  5
94A0
  8
0
 10
48.20912979623884
 20
203.8935462700029
 30
0.0
 11
48.20912979623884
 21
204.2275301700029
 31
0.0
  0
LINE
  5
94A1
  8
0
 10
48.20912979623884
 20
204.2275301700029
 30
0.0
 11
47.54153154623887
 21
204.2275301700029
 31
0.0
  0
LINE
  5
94A2
  8
0
 10
47.54153154623887
 20
204.2275301700029
 30
0.0
 11
47.54153154623887
 21
203.8935462700029
 31
0.0
  0
LINE
  5
94A3
  8
0
 10
48.54273654623887
 20
203.8935462700029
 30
0.0
 11
48.87672139623885
 21
203.8935462700029
 31
0.0
  0
LINE
  5
94A4
  8
0
 10
48.87672139623885
 20
203.8935462700029
 30
0.0
 11
48.87672139623885
 21
204.2275301700029
 31
0.0
  0
LINE
  5
94A5
  8
0
 10
48.87672139623885
 20
204.2275301700029
 30
0.0
 11
48.54273654623887
 21
204.2275301700029
 31
0.0
  0
LINE
  5
94A6
  8
0
 10
48.54273654623887
 20
204.2275301700029
 30
0.0
 11
48.54273654623887
 21
203.8935462700029
 31
0.0
  0
LINE
  5
94A7
  8
0
 10
49.20992154623886
 20
203.8935462700029
 30
0.0
 11
49.87751979623886
 21
203.8935462700029
 31
0.0
  0
LINE
  5
94A8
  8
0
 10
49.87751979623886
 20
203.8935462700029
 30
0.0
 11
49.87751979623886
 21
204.2275301700029
 31
0.0
  0
LINE
  5
94A9
  8
0
 10
49.87751979623886
 20
204.2275301700029
 30
0.0
 11
49.20992154623886
 21
204.2275301700029
 31
0.0
  0
LINE
  5
94AA
  8
0
 10
49.20992154623886
 20
204.2275301700029
 30
0.0
 11
49.20992154623886
 21
203.8935462700029
 31
0.0
  0
LINE
  5
94AB
  8
0
 10
50.21150654623887
 20
203.8935462700029
 30
0.0
 11
50.87910384623885
 21
203.8935462700029
 31
0.0
  0
LINE
  5
94AC
  8
0
 10
50.87910384623885
 20
203.8935462700029
 30
0.0
 11
50.87910384623885
 21
204.2275301700029
 31
0.0
  0
LINE
  5
94AD
  8
0
 10
50.87910384623885
 20
204.2275301700029
 30
0.0
 11
50.21150654623887
 21
204.2275301700029
 31
0.0
  0
LINE
  5
94AE
  8
0
 10
50.21150654623887
 20
204.2275301700029
 30
0.0
 11
50.21150654623887
 21
203.8935462700029
 31
0.0
  0
LINE
  5
94AF
  8
0
 10
51.21309154623887
 20
203.8935462700029
 30
0.0
 11
51.54707544623886
 21
203.8935462700029
 31
0.0
  0
LINE
  5
94B0
  8
0
 10
51.54707544623886
 20
203.8935462700029
 30
0.0
 11
51.54707544623886
 21
204.2275301700029
 31
0.0
  0
LINE
  5
94B1
  8
0
 10
51.54707544623886
 20
204.2275301700029
 30
0.0
 11
51.21309154623887
 21
204.2275301700029
 31
0.0
  0
LINE
  5
94B2
  8
0
 10
51.21309154623887
 20
204.2275301700029
 30
0.0
 11
51.21309154623887
 21
203.8935462700029
 31
0.0
  0
LINE
  5
94B3
  8
0
 10
51.88065654623887
 20
203.8935462700029
 30
0.0
 11
52.21464139623885
 21
203.8935462700029
 31
0.0
  0
LINE
  5
94B4
  8
0
 10
52.21464139623885
 20
203.8935462700029
 30
0.0
 11
52.21464139623885
 21
204.2275301700029
 31
0.0
  0
LINE
  5
94B5
  8
0
 10
52.21464139623885
 20
204.2275301700029
 30
0.0
 11
51.88065654623887
 21
204.2275301700029
 31
0.0
  0
LINE
  5
94B6
  8
0
 10
51.88065654623887
 20
204.2275301700029
 30
0.0
 11
51.88065654623887
 21
203.8935462700029
 31
0.0
  0
LINE
  5
94B7
  8
0
 10
52.54831654623885
 20
203.8935462700029
 30
0.0
 11
53.21554239623887
 21
203.8935462700029
 31
0.0
  0
LINE
  5
94B8
  8
0
 10
53.21554239623887
 20
203.8935462700029
 30
0.0
 11
53.21554239623887
 21
204.2275301700029
 31
0.0
  0
LINE
  5
94B9
  8
0
 10
53.21554239623887
 20
204.2275301700029
 30
0.0
 11
52.54831654623885
 21
204.2275301700029
 31
0.0
  0
LINE
  5
94BA
  8
0
 10
52.54831654623885
 20
204.2275301700029
 30
0.0
 11
52.54831654623885
 21
203.8935462700029
 31
0.0
  0
LINE
  5
94BB
  8
0
 10
42.53436654623886
 20
203.5602862700029
 30
0.0
 11
42.86872189623887
 21
203.5602862700029
 31
0.0
  0
LINE
  5
94BC
  8
0
 10
42.86872189623887
 20
203.5602862700029
 30
0.0
 11
42.86872189623887
 21
203.8942701700029
 31
0.0
  0
LINE
  5
94BD
  8
0
 10
42.86872189623887
 20
203.8942701700029
 30
0.0
 11
42.53436654623886
 21
203.8942701700029
 31
0.0
  0
LINE
  5
94BE
  8
0
 10
42.53436654623886
 20
203.8942701700029
 30
0.0
 11
42.53436654623886
 21
203.5602862700029
 31
0.0
  0
LINE
  5
94BF
  8
0
 10
44.53744154623885
 20
203.5602862700029
 30
0.0
 11
44.87142544623885
 21
203.5602862700029
 31
0.0
  0
LINE
  5
94C0
  8
0
 10
44.87142544623885
 20
203.5602862700029
 30
0.0
 11
44.87142544623885
 21
203.8942701700029
 31
0.0
  0
LINE
  5
94C1
  8
0
 10
44.87142544623885
 20
203.8942701700029
 30
0.0
 11
44.53744154623885
 21
203.8942701700029
 31
0.0
  0
LINE
  5
94C2
  8
0
 10
44.53744154623885
 20
203.8942701700029
 30
0.0
 11
44.53744154623885
 21
203.5602862700029
 31
0.0
  0
LINE
  5
94C3
  8
0
 10
45.53874154623884
 20
203.5602862700029
 30
0.0
 11
46.53995604623884
 21
203.5602862700029
 31
0.0
  0
LINE
  5
94C4
  8
0
 10
46.53995604623884
 20
203.5602862700029
 30
0.0
 11
46.53995604623884
 21
203.8942701700029
 31
0.0
  0
LINE
  5
94C5
  8
0
 10
46.53995604623884
 20
203.8942701700029
 30
0.0
 11
45.53874154623884
 21
203.8942701700029
 31
0.0
  0
LINE
  5
94C6
  8
0
 10
45.53874154623884
 20
203.8942701700029
 30
0.0
 11
45.53874154623884
 21
203.5602862700029
 31
0.0
  0
LINE
  5
94C7
  8
0
 10
47.54153154623887
 20
203.5602862700029
 30
0.0
 11
47.87588689623888
 21
203.5602862700029
 31
0.0
  0
LINE
  5
94C8
  8
0
 10
47.87588689623888
 20
203.5602862700029
 30
0.0
 11
47.87588689623888
 21
203.8942701700029
 31
0.0
  0
LINE
  5
94C9
  8
0
 10
47.87588689623888
 20
203.8942701700029
 30
0.0
 11
47.54153154623887
 21
203.8942701700029
 31
0.0
  0
LINE
  5
94CA
  8
0
 10
47.54153154623887
 20
203.8942701700029
 30
0.0
 11
47.54153154623887
 21
203.5602862700029
 31
0.0
  0
LINE
  5
94CB
  8
0
 10
49.20992154623886
 20
203.5602862700029
 30
0.0
 11
49.54427689623887
 21
203.5602862700029
 31
0.0
  0
LINE
  5
94CC
  8
0
 10
49.54427689623887
 20
203.5602862700029
 30
0.0
 11
49.54427689623887
 21
203.8942701700029
 31
0.0
  0
LINE
  5
94CD
  8
0
 10
49.54427689623887
 20
203.8942701700029
 30
0.0
 11
49.20992154623886
 21
203.8942701700029
 31
0.0
  0
LINE
  5
94CE
  8
0
 10
49.20992154623886
 20
203.8942701700029
 30
0.0
 11
49.20992154623886
 21
203.5602862700029
 31
0.0
  0
LINE
  5
94CF
  8
0
 10
50.21150654623887
 20
203.5602862700029
 30
0.0
 11
50.87910384623885
 21
203.5602862700029
 31
0.0
  0
LINE
  5
94D0
  8
0
 10
50.87910384623885
 20
203.5602862700029
 30
0.0
 11
50.87910384623885
 21
203.8942701700029
 31
0.0
  0
LINE
  5
94D1
  8
0
 10
50.87910384623885
 20
203.8942701700029
 30
0.0
 11
50.21150654623887
 21
203.8942701700029
 31
0.0
  0
LINE
  5
94D2
  8
0
 10
50.21150654623887
 20
203.8942701700029
 30
0.0
 11
50.21150654623887
 21
203.5602862700029
 31
0.0
  0
LINE
  5
94D3
  8
0
 10
51.88065654623887
 20
203.5602862700029
 30
0.0
 11
52.88224154623884
 21
203.5602862700029
 31
0.0
  0
LINE
  5
94D4
  8
0
 10
52.88224154623884
 20
203.5602862700029
 30
0.0
 11
52.88224154623884
 21
203.8942701700029
 31
0.0
  0
LINE
  5
94D5
  8
0
 10
52.88224154623884
 20
203.8942701700029
 30
0.0
 11
51.88065654623887
 21
203.8942701700029
 31
0.0
  0
LINE
  5
94D6
  8
0
 10
51.88065654623887
 20
203.8942701700029
 30
0.0
 11
51.88065654623887
 21
203.5602862700029
 31
0.0
  0
LINE
  5
94D7
  8
0
 10
53.21550154623887
 20
203.5602862700029
 30
0.0
 11
53.54985784623887
 21
203.5602862700029
 31
0.0
  0
LINE
  5
94D8
  8
0
 10
53.54985784623887
 20
203.5602862700029
 30
0.0
 11
53.54985784623887
 21
203.8942701700029
 31
0.0
  0
LINE
  5
94D9
  8
0
 10
53.54985784623887
 20
203.8942701700029
 30
0.0
 11
53.21550154623887
 21
203.8942701700029
 31
0.0
  0
LINE
  5
94DA
  8
0
 10
53.21550154623887
 20
203.8942701700029
 30
0.0
 11
53.21550154623887
 21
203.5602862700029
 31
0.0
  0
LINE
  5
94DB
  8
0
 10
42.53436654623886
 20
203.2262662700029
 30
0.0
 11
42.86872189623887
 21
203.2262662700029
 31
0.0
  0
LINE
  5
94DC
  8
0
 10
42.86872189623887
 20
203.2262662700029
 30
0.0
 11
42.86872189623887
 21
203.5602511200029
 31
0.0
  0
LINE
  5
94DD
  8
0
 10
42.86872189623887
 20
203.5602511200029
 30
0.0
 11
42.53436654623886
 21
203.5602511200029
 31
0.0
  0
LINE
  5
94DE
  8
0
 10
42.53436654623886
 20
203.5602511200029
 30
0.0
 11
42.53436654623886
 21
203.2262662700029
 31
0.0
  0
LINE
  5
94DF
  8
0
 10
43.20193154623885
 20
203.2262662700029
 30
0.0
 11
44.20351654623886
 21
203.2262662700029
 31
0.0
  0
LINE
  5
94E0
  8
0
 10
44.20351654623886
 20
203.2262662700029
 30
0.0
 11
44.20351654623886
 21
203.5602511200029
 31
0.0
  0
LINE
  5
94E1
  8
0
 10
44.20351654623886
 20
203.5602511200029
 30
0.0
 11
43.20193154623885
 21
203.5602511200029
 31
0.0
  0
LINE
  5
94E2
  8
0
 10
43.20193154623885
 20
203.5602511200029
 30
0.0
 11
43.20193154623885
 21
203.2262662700029
 31
0.0
  0
LINE
  5
94E3
  8
0
 10
44.53744154623885
 20
203.2262662700029
 30
0.0
 11
44.87142544623885
 21
203.2262662700029
 31
0.0
  0
LINE
  5
94E4
  8
0
 10
44.87142544623885
 20
203.2262662700029
 30
0.0
 11
44.87142544623885
 21
203.5602511200029
 31
0.0
  0
LINE
  5
94E5
  8
0
 10
44.87142544623885
 20
203.5602511200029
 30
0.0
 11
44.53744154623885
 21
203.5602511200029
 31
0.0
  0
LINE
  5
94E6
  8
0
 10
44.53744154623885
 20
203.5602511200029
 30
0.0
 11
44.53744154623885
 21
203.2262662700029
 31
0.0
  0
LINE
  5
94E7
  8
0
 10
45.87266654623886
 20
203.2262662700029
 30
0.0
 11
46.53989239623886
 21
203.2262662700029
 31
0.0
  0
LINE
  5
94E8
  8
0
 10
46.53989239623886
 20
203.2262662700029
 30
0.0
 11
46.53989239623886
 21
203.5602511200029
 31
0.0
  0
LINE
  5
94E9
  8
0
 10
46.53989239623886
 20
203.5602511200029
 30
0.0
 11
45.87266654623886
 21
203.5602511200029
 31
0.0
  0
LINE
  5
94EA
  8
0
 10
45.87266654623886
 20
203.5602511200029
 30
0.0
 11
45.87266654623886
 21
203.2262662700029
 31
0.0
  0
LINE
  5
94EB
  8
0
 10
46.87349154623885
 20
203.2262662700029
 30
0.0
 11
47.54108979623888
 21
203.2262662700029
 31
0.0
  0
LINE
  5
94EC
  8
0
 10
47.54108979623888
 20
203.2262662700029
 30
0.0
 11
47.54108979623888
 21
203.5602511200029
 31
0.0
  0
LINE
  5
94ED
  8
0
 10
47.54108979623888
 20
203.5602511200029
 30
0.0
 11
46.87349154623885
 21
203.5602511200029
 31
0.0
  0
LINE
  5
94EE
  8
0
 10
46.87349154623885
 20
203.5602511200029
 30
0.0
 11
46.87349154623885
 21
203.2262662700029
 31
0.0
  0
LINE
  5
94EF
  8
0
 10
48.54273654623887
 20
203.2262662700029
 30
0.0
 11
49.20996334623888
 21
203.2262662700029
 31
0.0
  0
LINE
  5
94F0
  8
0
 10
49.20996334623888
 20
203.2262662700029
 30
0.0
 11
49.20996334623888
 21
203.5602511200029
 31
0.0
  0
LINE
  5
94F1
  8
0
 10
49.20996334623888
 20
203.5602511200029
 30
0.0
 11
48.54273654623887
 21
203.5602511200029
 31
0.0
  0
LINE
  5
94F2
  8
0
 10
48.54273654623887
 20
203.5602511200029
 30
0.0
 11
48.54273654623887
 21
203.2262662700029
 31
0.0
  0
LINE
  5
94F3
  8
0
 10
49.54432154623885
 20
203.2262662700029
 30
0.0
 11
49.87830639623886
 21
203.2262662700029
 31
0.0
  0
LINE
  5
94F4
  8
0
 10
49.87830639623886
 20
203.2262662700029
 30
0.0
 11
49.87830639623886
 21
203.5602511200029
 31
0.0
  0
LINE
  5
94F5
  8
0
 10
49.87830639623886
 20
203.5602511200029
 30
0.0
 11
49.54432154623885
 21
203.5602511200029
 31
0.0
  0
LINE
  5
94F6
  8
0
 10
49.54432154623885
 20
203.5602511200029
 30
0.0
 11
49.54432154623885
 21
203.2262662700029
 31
0.0
  0
LINE
  5
94F7
  8
0
 10
50.54590654623885
 20
203.2262662700029
 30
0.0
 11
52.54832604623886
 21
203.2262662700029
 31
0.0
  0
LINE
  5
94F8
  8
0
 10
52.54832604623886
 20
203.2262662700029
 30
0.0
 11
52.54832604623886
 21
203.5602511200029
 31
0.0
  0
LINE
  5
94F9
  8
0
 10
52.54832604623886
 20
203.5602511200029
 30
0.0
 11
50.54590654623885
 21
203.5602511200029
 31
0.0
  0
LINE
  5
94FA
  8
0
 10
50.54590654623885
 20
203.5602511200029
 30
0.0
 11
50.54590654623885
 21
203.2262662700029
 31
0.0
  0
LINE
  5
94FB
  8
0
 10
42.53436654623886
 20
202.8919612700029
 30
0.0
 11
42.86872189623887
 21
202.8919612700029
 31
0.0
  0
LINE
  5
94FC
  8
0
 10
42.86872189623887
 20
202.8919612700029
 30
0.0
 11
42.86872189623887
 21
203.2263166200029
 31
0.0
  0
LINE
  5
94FD
  8
0
 10
42.86872189623887
 20
203.2263166200029
 30
0.0
 11
42.53436654623886
 21
203.2263166200029
 31
0.0
  0
LINE
  5
94FE
  8
0
 10
42.53436654623886
 20
203.2263166200029
 30
0.0
 11
42.53436654623886
 21
202.8919612700029
 31
0.0
  0
LINE
  5
94FF
  8
0
 10
43.20193154623885
 20
202.8919612700029
 30
0.0
 11
44.20351654623886
 21
202.8919612700029
 31
0.0
  0
LINE
  5
9500
  8
0
 10
44.20351654623886
 20
202.8919612700029
 30
0.0
 11
44.20351654623886
 21
203.2263166200029
 31
0.0
  0
LINE
  5
9501
  8
0
 10
44.20351654623886
 20
203.2263166200029
 30
0.0
 11
43.20193154623885
 21
203.2263166200029
 31
0.0
  0
LINE
  5
9502
  8
0
 10
43.20193154623885
 20
203.2263166200029
 30
0.0
 11
43.20193154623885
 21
202.8919612700029
 31
0.0
  0
LINE
  5
9503
  8
0
 10
44.53744154623885
 20
202.8919612700029
 30
0.0
 11
44.87142544623885
 21
202.8919612700029
 31
0.0
  0
LINE
  5
9504
  8
0
 10
44.87142544623885
 20
202.8919612700029
 30
0.0
 11
44.87142544623885
 21
203.2263166200029
 31
0.0
  0
LINE
  5
9505
  8
0
 10
44.87142544623885
 20
203.2263166200029
 30
0.0
 11
44.53744154623885
 21
203.2263166200029
 31
0.0
  0
LINE
  5
9506
  8
0
 10
44.53744154623885
 20
203.2263166200029
 30
0.0
 11
44.53744154623885
 21
202.8919612700029
 31
0.0
  0
LINE
  5
9507
  8
0
 10
45.53874154623884
 20
202.8919612700029
 30
0.0
 11
46.87356754623886
 21
202.8919612700029
 31
0.0
  0
LINE
  5
9508
  8
0
 10
46.87356754623886
 20
202.8919612700029
 30
0.0
 11
46.87356754623886
 21
203.2263166200029
 31
0.0
  0
LINE
  5
9509
  8
0
 10
46.87356754623886
 20
203.2263166200029
 30
0.0
 11
45.53874154623884
 21
203.2263166200029
 31
0.0
  0
LINE
  5
950A
  8
0
 10
45.53874154623884
 20
203.2263166200029
 30
0.0
 11
45.53874154623884
 21
202.8919612700029
 31
0.0
  0
LINE
  5
950B
  8
0
 10
47.20751154623886
 20
202.8919612700029
 30
0.0
 11
47.54149544623888
 21
202.8919612700029
 31
0.0
  0
LINE
  5
950C
  8
0
 10
47.54149544623888
 20
202.8919612700029
 30
0.0
 11
47.54149544623888
 21
203.2263166200029
 31
0.0
  0
LINE
  5
950D
  8
0
 10
47.54149544623888
 20
203.2263166200029
 30
0.0
 11
47.20751154623886
 21
203.2263166200029
 31
0.0
  0
LINE
  5
950E
  8
0
 10
47.20751154623886
 20
203.2263166200029
 30
0.0
 11
47.20751154623886
 21
202.8919612700029
 31
0.0
  0
LINE
  5
950F
  8
0
 10
47.87507654623886
 20
202.8919612700029
 30
0.0
 11
48.20906139623887
 21
202.8919612700029
 31
0.0
  0
LINE
  5
9510
  8
0
 10
48.20906139623887
 20
202.8919612700029
 30
0.0
 11
48.20906139623887
 21
203.2263166200029
 31
0.0
  0
LINE
  5
9511
  8
0
 10
48.20906139623887
 20
203.2263166200029
 30
0.0
 11
47.87507654623886
 21
203.2263166200029
 31
0.0
  0
LINE
  5
9512
  8
0
 10
47.87507654623886
 20
203.2263166200029
 30
0.0
 11
47.87507654623886
 21
202.8919612700029
 31
0.0
  0
LINE
  5
9513
  8
0
 10
49.20992154623886
 20
202.8919612700029
 30
0.0
 11
49.54427689623887
 21
202.8919612700029
 31
0.0
  0
LINE
  5
9514
  8
0
 10
49.54427689623887
 20
202.8919612700029
 30
0.0
 11
49.54427689623887
 21
203.2263166200029
 31
0.0
  0
LINE
  5
9515
  8
0
 10
49.54427689623887
 20
203.2263166200029
 30
0.0
 11
49.20992154623886
 21
203.2263166200029
 31
0.0
  0
LINE
  5
9516
  8
0
 10
49.20992154623886
 20
203.2263166200029
 30
0.0
 11
49.20992154623886
 21
202.8919612700029
 31
0.0
  0
LINE
  5
9517
  8
0
 10
49.87748654623886
 20
202.8919612700029
 30
0.0
 11
50.54508384623887
 21
202.8919612700029
 31
0.0
  0
LINE
  5
9518
  8
0
 10
50.54508384623887
 20
202.8919612700029
 30
0.0
 11
50.54508384623887
 21
203.2263166200029
 31
0.0
  0
LINE
  5
9519
  8
0
 10
50.54508384623887
 20
203.2263166200029
 30
0.0
 11
49.87748654623886
 21
203.2263166200029
 31
0.0
  0
LINE
  5
951A
  8
0
 10
49.87748654623886
 20
203.2263166200029
 30
0.0
 11
49.87748654623886
 21
202.8919612700029
 31
0.0
  0
LINE
  5
951B
  8
0
 10
50.87907154623886
 20
202.8919612700029
 30
0.0
 11
51.21305639623887
 21
202.8919612700029
 31
0.0
  0
LINE
  5
951C
  8
0
 10
51.21305639623887
 20
202.8919612700029
 30
0.0
 11
51.21305639623887
 21
203.2263166200029
 31
0.0
  0
LINE
  5
951D
  8
0
 10
51.21305639623887
 20
203.2263166200029
 30
0.0
 11
50.87907154623886
 21
203.2263166200029
 31
0.0
  0
LINE
  5
951E
  8
0
 10
50.87907154623886
 20
203.2263166200029
 30
0.0
 11
50.87907154623886
 21
202.8919612700029
 31
0.0
  0
LINE
  5
951F
  8
0
 10
51.54673154623885
 20
202.8919612700029
 30
0.0
 11
52.21395834623888
 21
202.8919612700029
 31
0.0
  0
LINE
  5
9520
  8
0
 10
52.21395834623888
 20
202.8919612700029
 30
0.0
 11
52.21395834623888
 21
203.2263166200029
 31
0.0
  0
LINE
  5
9521
  8
0
 10
52.21395834623888
 20
203.2263166200029
 30
0.0
 11
51.54673154623885
 21
203.2263166200029
 31
0.0
  0
LINE
  5
9522
  8
0
 10
51.54673154623885
 20
203.2263166200029
 30
0.0
 11
51.54673154623885
 21
202.8919612700029
 31
0.0
  0
LINE
  5
9523
  8
0
 10
52.54831654623885
 20
202.8919612700029
 30
0.0
 11
52.88230044623884
 21
202.8919612700029
 31
0.0
  0
LINE
  5
9524
  8
0
 10
52.88230044623884
 20
202.8919612700029
 30
0.0
 11
52.88230044623884
 21
203.2263166200029
 31
0.0
  0
LINE
  5
9525
  8
0
 10
52.88230044623884
 20
203.2263166200029
 30
0.0
 11
52.54831654623885
 21
203.2263166200029
 31
0.0
  0
LINE
  5
9526
  8
0
 10
52.54831654623885
 20
203.2263166200029
 30
0.0
 11
52.54831654623885
 21
202.8919612700029
 31
0.0
  0
LINE
  5
9527
  8
0
 10
53.21550154623887
 20
202.8919612700029
 30
0.0
 11
53.54985784623887
 21
202.8919612700029
 31
0.0
  0
LINE
  5
9528
  8
0
 10
53.54985784623887
 20
202.8919612700029
 30
0.0
 11
53.54985784623887
 21
203.2263166200029
 31
0.0
  0
LINE
  5
9529
  8
0
 10
53.54985784623887
 20
203.2263166200029
 30
0.0
 11
53.21550154623887
 21
203.2263166200029
 31
0.0
  0
LINE
  5
952A
  8
0
 10
53.21550154623887
 20
203.2263166200029
 30
0.0
 11
53.21550154623887
 21
202.8919612700029
 31
0.0
  0
LINE
  5
952B
  8
0
 10
42.53436654623886
 20
202.5587012700029
 30
0.0
 11
42.86872189623887
 21
202.5587012700029
 31
0.0
  0
LINE
  5
952C
  8
0
 10
42.86872189623887
 20
202.5587012700029
 30
0.0
 11
42.86872189623887
 21
202.8926851700029
 31
0.0
  0
LINE
  5
952D
  8
0
 10
42.86872189623887
 20
202.8926851700029
 30
0.0
 11
42.53436654623886
 21
202.8926851700029
 31
0.0
  0
LINE
  5
952E
  8
0
 10
42.53436654623886
 20
202.8926851700029
 30
0.0
 11
42.53436654623886
 21
202.5587012700029
 31
0.0
  0
LINE
  5
952F
  8
0
 10
43.20193154623885
 20
202.5587012700029
 30
0.0
 11
44.20351654623886
 21
202.5587012700029
 31
0.0
  0
LINE
  5
9530
  8
0
 10
44.20351654623886
 20
202.5587012700029
 30
0.0
 11
44.20351654623886
 21
202.8926851700029
 31
0.0
  0
LINE
  5
9531
  8
0
 10
44.20351654623886
 20
202.8926851700029
 30
0.0
 11
43.20193154623885
 21
202.8926851700029
 31
0.0
  0
LINE
  5
9532
  8
0
 10
43.20193154623885
 20
202.8926851700029
 30
0.0
 11
43.20193154623885
 21
202.5587012700029
 31
0.0
  0
LINE
  5
9533
  8
0
 10
44.53744154623885
 20
202.5587012700029
 30
0.0
 11
44.87142544623885
 21
202.5587012700029
 31
0.0
  0
LINE
  5
9534
  8
0
 10
44.87142544623885
 20
202.5587012700029
 30
0.0
 11
44.87142544623885
 21
202.8926851700029
 31
0.0
  0
LINE
  5
9535
  8
0
 10
44.87142544623885
 20
202.8926851700029
 30
0.0
 11
44.53744154623885
 21
202.8926851700029
 31
0.0
  0
LINE
  5
9536
  8
0
 10
44.53744154623885
 20
202.8926851700029
 30
0.0
 11
44.53744154623885
 21
202.5587012700029
 31
0.0
  0
LINE
  5
9537
  8
0
 10
45.87266654623886
 20
202.5587012700029
 30
0.0
 11
47.20749254623885
 21
202.5587012700029
 31
0.0
  0
LINE
  5
9538
  8
0
 10
47.20749254623885
 20
202.5587012700029
 30
0.0
 11
47.20749254623885
 21
202.8926851700029
 31
0.0
  0
LINE
  5
9539
  8
0
 10
47.20749254623885
 20
202.8926851700029
 30
0.0
 11
45.87266654623886
 21
202.8926851700029
 31
0.0
  0
LINE
  5
953A
  8
0
 10
45.87266654623886
 20
202.8926851700029
 30
0.0
 11
45.87266654623886
 21
202.5587012700029
 31
0.0
  0
LINE
  5
953B
  8
0
 10
47.87507654623886
 20
202.5587012700029
 30
0.0
 11
48.20906139623887
 21
202.5587012700029
 31
0.0
  0
LINE
  5
953C
  8
0
 10
48.20906139623887
 20
202.5587012700029
 30
0.0
 11
48.20906139623887
 21
202.8926851700029
 31
0.0
  0
LINE
  5
953D
  8
0
 10
48.20906139623887
 20
202.8926851700029
 30
0.0
 11
47.87507654623886
 21
202.8926851700029
 31
0.0
  0
LINE
  5
953E
  8
0
 10
47.87507654623886
 20
202.8926851700029
 30
0.0
 11
47.87507654623886
 21
202.5587012700029
 31
0.0
  0
LINE
  5
953F
  8
0
 10
48.54273654623887
 20
202.5587012700029
 30
0.0
 11
48.87672139623885
 21
202.5587012700029
 31
0.0
  0
LINE
  5
9540
  8
0
 10
48.87672139623885
 20
202.5587012700029
 30
0.0
 11
48.87672139623885
 21
202.8926851700029
 31
0.0
  0
LINE
  5
9541
  8
0
 10
48.87672139623885
 20
202.8926851700029
 30
0.0
 11
48.54273654623887
 21
202.8926851700029
 31
0.0
  0
LINE
  5
9542
  8
0
 10
48.54273654623887
 20
202.8926851700029
 30
0.0
 11
48.54273654623887
 21
202.5587012700029
 31
0.0
  0
LINE
  5
9543
  8
0
 10
49.20992154623886
 20
202.5587012700029
 30
0.0
 11
49.54427689623887
 21
202.5587012700029
 31
0.0
  0
LINE
  5
9544
  8
0
 10
49.54427689623887
 20
202.5587012700029
 30
0.0
 11
49.54427689623887
 21
202.8926851700029
 31
0.0
  0
LINE
  5
9545
  8
0
 10
49.54427689623887
 20
202.8926851700029
 30
0.0
 11
49.20992154623886
 21
202.8926851700029
 31
0.0
  0
LINE
  5
9546
  8
0
 10
49.20992154623886
 20
202.8926851700029
 30
0.0
 11
49.20992154623886
 21
202.5587012700029
 31
0.0
  0
LINE
  5
9547
  8
0
 10
49.87748654623886
 20
202.5587012700029
 30
0.0
 11
50.21147044623888
 21
202.5587012700029
 31
0.0
  0
LINE
  5
9548
  8
0
 10
50.21147044623888
 20
202.5587012700029
 30
0.0
 11
50.21147044623888
 21
202.8926851700029
 31
0.0
  0
LINE
  5
9549
  8
0
 10
50.21147044623888
 20
202.8926851700029
 30
0.0
 11
49.87748654623886
 21
202.8926851700029
 31
0.0
  0
LINE
  5
954A
  8
0
 10
49.87748654623886
 20
202.8926851700029
 30
0.0
 11
49.87748654623886
 21
202.5587012700029
 31
0.0
  0
LINE
  5
954B
  8
0
 10
50.54590654623885
 20
202.5587012700029
 30
0.0
 11
50.87989139623886
 21
202.5587012700029
 31
0.0
  0
LINE
  5
954C
  8
0
 10
50.87989139623886
 20
202.5587012700029
 30
0.0
 11
50.87989139623886
 21
202.8926851700029
 31
0.0
  0
LINE
  5
954D
  8
0
 10
50.87989139623886
 20
202.8926851700029
 30
0.0
 11
50.54590654623885
 21
202.8926851700029
 31
0.0
  0
LINE
  5
954E
  8
0
 10
50.54590654623885
 20
202.8926851700029
 30
0.0
 11
50.54590654623885
 21
202.5587012700029
 31
0.0
  0
LINE
  5
954F
  8
0
 10
51.54673154623885
 20
202.5587012700029
 30
0.0
 11
52.21395834623888
 21
202.5587012700029
 31
0.0
  0
LINE
  5
9550
  8
0
 10
52.21395834623888
 20
202.5587012700029
 30
0.0
 11
52.21395834623888
 21
202.8926851700029
 31
0.0
  0
LINE
  5
9551
  8
0
 10
52.21395834623888
 20
202.8926851700029
 30
0.0
 11
51.54673154623885
 21
202.8926851700029
 31
0.0
  0
LINE
  5
9552
  8
0
 10
51.54673154623885
 20
202.8926851700029
 30
0.0
 11
51.54673154623885
 21
202.5587012700029
 31
0.0
  0
LINE
  5
9553
  8
0
 10
52.88157654623888
 20
202.5587012700029
 30
0.0
 11
53.54917384623886
 21
202.5587012700029
 31
0.0
  0
LINE
  5
9554
  8
0
 10
53.54917384623886
 20
202.5587012700029
 30
0.0
 11
53.54917384623886
 21
202.8926851700029
 31
0.0
  0
LINE
  5
9555
  8
0
 10
53.54917384623886
 20
202.8926851700029
 30
0.0
 11
52.88157654623888
 21
202.8926851700029
 31
0.0
  0
LINE
  5
9556
  8
0
 10
52.88157654623888
 20
202.8926851700029
 30
0.0
 11
52.88157654623888
 21
202.5587012700029
 31
0.0
  0
LINE
  5
9557
  8
0
 10
42.53436654623886
 20
202.2247762700029
 30
0.0
 11
42.86872189623887
 21
202.2247762700029
 31
0.0
  0
LINE
  5
9558
  8
0
 10
42.86872189623887
 20
202.2247762700029
 30
0.0
 11
42.86872189623887
 21
202.5587611200029
 31
0.0
  0
LINE
  5
9559
  8
0
 10
42.86872189623887
 20
202.5587611200029
 30
0.0
 11
42.53436654623886
 21
202.5587611200029
 31
0.0
  0
LINE
  5
955A
  8
0
 10
42.53436654623886
 20
202.5587611200029
 30
0.0
 11
42.53436654623886
 21
202.2247762700029
 31
0.0
  0
LINE
  5
955B
  8
0
 10
44.53744154623885
 20
202.2247762700029
 30
0.0
 11
44.87142544623885
 21
202.2247762700029
 31
0.0
  0
LINE
  5
955C
  8
0
 10
44.87142544623885
 20
202.2247762700029
 30
0.0
 11
44.87142544623885
 21
202.5587611200029
 31
0.0
  0
LINE
  5
955D
  8
0
 10
44.87142544623885
 20
202.5587611200029
 30
0.0
 11
44.53744154623885
 21
202.5587611200029
 31
0.0
  0
LINE
  5
955E
  8
0
 10
44.53744154623885
 20
202.5587611200029
 30
0.0
 11
44.53744154623885
 21
202.2247762700029
 31
0.0
  0
LINE
  5
955F
  8
0
 10
45.87266654623886
 20
202.2247762700029
 30
0.0
 11
46.53989239623886
 21
202.2247762700029
 31
0.0
  0
LINE
  5
9560
  8
0
 10
46.53989239623886
 20
202.2247762700029
 30
0.0
 11
46.53989239623886
 21
202.5587611200029
 31
0.0
  0
LINE
  5
9561
  8
0
 10
46.53989239623886
 20
202.5587611200029
 30
0.0
 11
45.87266654623886
 21
202.5587611200029
 31
0.0
  0
LINE
  5
9562
  8
0
 10
45.87266654623886
 20
202.5587611200029
 30
0.0
 11
45.87266654623886
 21
202.2247762700029
 31
0.0
  0
LINE
  5
9563
  8
0
 10
47.20751154623886
 20
202.2247762700029
 30
0.0
 11
48.20909654623887
 21
202.2247762700029
 31
0.0
  0
LINE
  5
9564
  8
0
 10
48.20909654623887
 20
202.2247762700029
 30
0.0
 11
48.20909654623887
 21
202.5587611200029
 31
0.0
  0
LINE
  5
9565
  8
0
 10
48.20909654623887
 20
202.5587611200029
 30
0.0
 11
47.20751154623886
 21
202.5587611200029
 31
0.0
  0
LINE
  5
9566
  8
0
 10
47.20751154623886
 20
202.5587611200029
 30
0.0
 11
47.20751154623886
 21
202.2247762700029
 31
0.0
  0
LINE
  5
9567
  8
0
 10
48.87666154623886
 20
202.2247762700029
 30
0.0
 11
49.54425884623885
 21
202.2247762700029
 31
0.0
  0
LINE
  5
9568
  8
0
 10
49.54425884623885
 20
202.2247762700029
 30
0.0
 11
49.54425884623885
 21
202.5587611200029
 31
0.0
  0
LINE
  5
9569
  8
0
 10
49.54425884623885
 20
202.5587611200029
 30
0.0
 11
48.87666154623886
 21
202.5587611200029
 31
0.0
  0
LINE
  5
956A
  8
0
 10
48.87666154623886
 20
202.5587611200029
 30
0.0
 11
48.87666154623886
 21
202.2247762700029
 31
0.0
  0
LINE
  5
956B
  8
0
 10
51.54673154623885
 20
202.2247762700029
 30
0.0
 11
52.88155754623887
 21
202.2247762700029
 31
0.0
  0
LINE
  5
956C
  8
0
 10
52.88155754623887
 20
202.2247762700029
 30
0.0
 11
52.88155754623887
 21
202.5587611200029
 31
0.0
  0
LINE
  5
956D
  8
0
 10
52.88155754623887
 20
202.5587611200029
 30
0.0
 11
51.54673154623885
 21
202.5587611200029
 31
0.0
  0
LINE
  5
956E
  8
0
 10
51.54673154623885
 20
202.5587611200029
 30
0.0
 11
51.54673154623885
 21
202.2247762700029
 31
0.0
  0
LINE
  5
956F
  8
0
 10
42.53436654623886
 20
201.8911362700029
 30
0.0
 11
44.87114804623889
 21
201.8911362700029
 31
0.0
  0
LINE
  5
9570
  8
0
 10
44.87114804623889
 20
201.8911362700029
 30
0.0
 11
44.87114804623889
 21
202.2251211200029
 31
0.0
  0
LINE
  5
9571
  8
0
 10
44.87114804623889
 20
202.2251211200029
 30
0.0
 11
42.53436654623886
 21
202.2251211200029
 31
0.0
  0
LINE
  5
9572
  8
0
 10
42.53436654623886
 20
202.2251211200029
 30
0.0
 11
42.53436654623886
 21
201.8911362700029
 31
0.0
  0
LINE
  5
9573
  8
0
 10
45.20510154623886
 20
201.8911362700029
 30
0.0
 11
45.53908639623887
 21
201.8911362700029
 31
0.0
  0
LINE
  5
9574
  8
0
 10
45.53908639623887
 20
201.8911362700029
 30
0.0
 11
45.53908639623887
 21
202.2251211200029
 31
0.0
  0
LINE
  5
9575
  8
0
 10
45.53908639623887
 20
202.2251211200029
 30
0.0
 11
45.20510154623886
 21
202.2251211200029
 31
0.0
  0
LINE
  5
9576
  8
0
 10
45.20510154623886
 20
202.2251211200029
 30
0.0
 11
45.20510154623886
 21
201.8911362700029
 31
0.0
  0
LINE
  5
9577
  8
0
 10
46.20592654623886
 20
201.8911362700029
 30
0.0
 11
46.53991044623888
 21
201.8911362700029
 31
0.0
  0
LINE
  5
9578
  8
0
 10
46.53991044623888
 20
201.8911362700029
 30
0.0
 11
46.53991044623888
 21
202.2251211200029
 31
0.0
  0
LINE
  5
9579
  8
0
 10
46.53991044623888
 20
202.2251211200029
 30
0.0
 11
46.20592654623886
 21
202.2251211200029
 31
0.0
  0
LINE
  5
957A
  8
0
 10
46.20592654623886
 20
202.2251211200029
 30
0.0
 11
46.20592654623886
 21
201.8911362700029
 31
0.0
  0
LINE
  5
957B
  8
0
 10
47.20751154623886
 20
201.8911362700029
 30
0.0
 11
47.54149544623888
 21
201.8911362700029
 31
0.0
  0
LINE
  5
957C
  8
0
 10
47.54149544623888
 20
201.8911362700029
 30
0.0
 11
47.54149544623888
 21
202.2251211200029
 31
0.0
  0
LINE
  5
957D
  8
0
 10
47.54149544623888
 20
202.2251211200029
 30
0.0
 11
47.20751154623886
 21
202.2251211200029
 31
0.0
  0
LINE
  5
957E
  8
0
 10
47.20751154623886
 20
202.2251211200029
 30
0.0
 11
47.20751154623886
 21
201.8911362700029
 31
0.0
  0
LINE
  5
957F
  8
0
 10
48.20909654623887
 20
201.8911362700029
 30
0.0
 11
48.54308044623886
 21
201.8911362700029
 31
0.0
  0
LINE
  5
9580
  8
0
 10
48.54308044623886
 20
201.8911362700029
 30
0.0
 11
48.54308044623886
 21
202.2251211200029
 31
0.0
  0
LINE
  5
9581
  8
0
 10
48.54308044623886
 20
202.2251211200029
 30
0.0
 11
48.20909654623887
 21
202.2251211200029
 31
0.0
  0
LINE
  5
9582
  8
0
 10
48.20909654623887
 20
202.2251211200029
 30
0.0
 11
48.20909654623887
 21
201.8911362700029
 31
0.0
  0
LINE
  5
9583
  8
0
 10
48.87666154623886
 20
201.8911362700029
 30
0.0
 11
49.21064544623886
 21
201.8911362700029
 31
0.0
  0
LINE
  5
9584
  8
0
 10
49.21064544623886
 20
201.8911362700029
 30
0.0
 11
49.21064544623886
 21
202.2251211200029
 31
0.0
  0
LINE
  5
9585
  8
0
 10
49.21064544623886
 20
202.2251211200029
 30
0.0
 11
48.87666154623886
 21
202.2251211200029
 31
0.0
  0
LINE
  5
9586
  8
0
 10
48.87666154623886
 20
202.2251211200029
 30
0.0
 11
48.87666154623886
 21
201.8911362700029
 31
0.0
  0
LINE
  5
9587
  8
0
 10
49.87748654623886
 20
201.8911362700029
 30
0.0
 11
51.21231254623885
 21
201.8911362700029
 31
0.0
  0
LINE
  5
9588
  8
0
 10
51.21231254623885
 20
201.8911362700029
 30
0.0
 11
51.21231254623885
 21
202.2251211200029
 31
0.0
  0
LINE
  5
9589
  8
0
 10
51.21231254623885
 20
202.2251211200029
 30
0.0
 11
49.87748654623886
 21
202.2251211200029
 31
0.0
  0
LINE
  5
958A
  8
0
 10
49.87748654623886
 20
202.2251211200029
 30
0.0
 11
49.87748654623886
 21
201.8911362700029
 31
0.0
  0
LINE
  5
958B
  8
0
 10
51.54673154623885
 20
201.8911362700029
 30
0.0
 11
51.88071544623887
 21
201.8911362700029
 31
0.0
  0
LINE
  5
958C
  8
0
 10
51.88071544623887
 20
201.8911362700029
 30
0.0
 11
51.88071544623887
 21
202.2251211200029
 31
0.0
  0
LINE
  5
958D
  8
0
 10
51.88071544623887
 20
202.2251211200029
 30
0.0
 11
51.54673154623885
 21
202.2251211200029
 31
0.0
  0
LINE
  5
958E
  8
0
 10
51.54673154623885
 20
202.2251211200029
 30
0.0
 11
51.54673154623885
 21
201.8911362700029
 31
0.0
  0
LINE
  5
958F
  8
0
 10
52.21391654623886
 20
201.8911362700029
 30
0.0
 11
52.54827189623887
 21
201.8911362700029
 31
0.0
  0
LINE
  5
9590
  8
0
 10
52.54827189623887
 20
201.8911362700029
 30
0.0
 11
52.54827189623887
 21
202.2251211200029
 31
0.0
  0
LINE
  5
9591
  8
0
 10
52.54827189623887
 20
202.2251211200029
 30
0.0
 11
52.21391654623886
 21
202.2251211200029
 31
0.0
  0
LINE
  5
9592
  8
0
 10
52.21391654623886
 20
202.2251211200029
 30
0.0
 11
52.21391654623886
 21
201.8911362700029
 31
0.0
  0
LINE
  5
9593
  8
0
 10
52.88157654623888
 20
201.8911362700029
 30
0.0
 11
53.21556044623887
 21
201.8911362700029
 31
0.0
  0
LINE
  5
9594
  8
0
 10
53.21556044623887
 20
201.8911362700029
 30
0.0
 11
53.21556044623887
 21
202.2251211200029
 31
0.0
  0
LINE
  5
9595
  8
0
 10
53.21556044623887
 20
202.2251211200029
 30
0.0
 11
52.88157654623888
 21
202.2251211200029
 31
0.0
  0
LINE
  5
9596
  8
0
 10
52.88157654623888
 20
202.2251211200029
 30
0.0
 11
52.88157654623888
 21
201.8911362700029
 31
0.0
  0
CIRCLE
  5
976C
  8
0
 10
63.5218561517737
 20
209.8911362700031
 30
0.0
 40
1.5
  0
TEXT
  5
976D
  8
0
 10
44.47302297808394
 20
198.5567190563594
 30
0.0
 40
1.3
  1
冬期以外(凍結の心配がない期間)や長期間使用しないときは電源をOFFにしてください
  0
CIRCLE
  5
9770
  8
0
 10
42.83879182817861
 20
198.5903705977995
 30
0.0
 40
0.1
  0
LINE
  5
9771
  8
0
 10
42.73879182817871
 20
199.5903705977995
 30
0.0
 11
42.78923430605471
 21
198.833733429659
 31
0.0
  0
LINE
  5
9772
  8
0
 10
42.93879182817898
 20
199.5903705977995
 30
0.0
 11
42.88834935030252
 21
198.8337334296572
 31
0.0
  0
ARC
  5
9773
  8
0
 10
42.83879182817861
 20
199.5903705977995
 30
0.0
 40
0.1
 50
0.0
 51
180.0
  0
ARC
  5
9774
  8
0
 10
42.83879182817861
 20
198.8403705977995
 30
0.0
 40
0.05
 50
187.6281496673324
 51
352.3718503305627
  0
CIRCLE
  5
9778
  8
0
 10
82.52185615177376
 20
213.8911362700031
 30
0.0
 40
1.5
  0
CIRCLE
  5
9779
  8
0
 10
82.52185615177376
 20
205.8911362700031
 30
0.0
 40
1.5
  0
LINE
  5
977C
  8
0
 10
77.32346969118834
 20
202.7911362700032
 30
0.0
 11
77.32346969118834
 21
203.33758287941
 31
0.0
1001
GENIUS_GENODEF_13
1002
{
1000
HIER
1070
     0
1002
}
1002
{
1000
MANEDIT
1070
     0
1002
}
1002
{
1000
NOSEL
1070
     0
1002
}
1002
{
1000
BEHIND
1070
     0
1002
}
1002
{
1000
OTHER
1070
     0
1002
}
1002
{
1000
REACTOR
1002
}
1001
GENIUS_GENOBJ-N-CEN_13
1002
{
1000
OWNER
1000
GEN
1002
}
1001
GENIUS_GENCEN_19
1002
{
1040
3.0
1002
}
  0
LINE
  5
977D
  8
0
 10
77.62346969118852
 20
202.7911362700032
 30
0.0
 11
77.62346969118852
 21
203.33758287941
 31
0.0
1001
GENIUS_GENODEF_13
1002
{
1000
HIER
1070
     0
1002
}
1002
{
1000
MANEDIT
1070
     0
1002
}
1002
{
1000
NOSEL
1070
     0
1002
}
1002
{
1000
BEHIND
1070
     0
1002
}
1002
{
1000
OTHER
1070
     0
1002
}
1002
{
1000
REACTOR
1002
}
1001
GENIUS_GENOBJ-N-CEN_13
1002
{
1000
OWNER
1000
GEN
1002
}
1001
GENIUS_GENCEN_19
1002
{
1040
3.0
1002
}
  0
LINE
  5
977E
  8
0
 10
77.62346969118852
 20
206.8911362700034
 30
0.0
 11
78.26929649613538
 21
207.5369630749503
 31
0.0
  0
LINE
  5
977F
  8
0
 10
77.62346969118852
 20
207.3911362700034
 30
0.0
 11
78.01929649613538
 21
207.7869630749503
 31
0.0
  0
ARC
  5
9780
  8
0
 10
77.47346969118843
 20
208.9911362700033
 30
0.0
 40
0.1499999999999773
 50
0.0
 51
180.0
  0
ARC
  5
9781
  8
0
 10
78.14429649613538
 20
207.6619630749503
 30
0.0
 40
0.1767766952966168
 50
315.0000000000326
 51
135.0000000000065
  0
LINE
  5
9782
  8
0
 10
77.32346969118834
 20
206.8911362700034
 30
0.0
 11
76.67764288624147
 21
207.5369630749503
 31
0.0
  0
LINE
  5
9783
  8
0
 10
77.32346969118834
 20
207.3911362700034
 30
0.0
 11
76.92764288624147
 21
207.7869630749503
 31
0.0
  0
ARC
  5
9784
  8
0
 10
76.80264288624147
 20
207.6619630749503
 30
0.0
 40
0.1767766952966168
 50
44.99999999999348
 51
224.9999999999674
  0
LINE
  5
9785
  8
0
 10
77.62346969118852
 20
208.0911362700033
 30
0.0
 11
78.0222555884099
 21
208.4899221672247
 31
0.0
  0
LINE
  5
9786
  8
0
 10
77.62346969118852
 20
208.4446896605965
 30
0.0
 11
77.84547889311324
 21
208.6666988625212
 31
0.0
  0
ARC
  5
9787
  8
0
 10
77.93386724076134
 20
208.5783105148731
 30
0.0
 40
0.1249999999999206
 50
314.9999999998987
 51
134.9999999999355
  0
LINE
  5
9788
  8
0
 10
79.30372557951426
 20
204.6612324594357
 30
0.0
 11
79.44969134856814
 21
204.1164807931603
 31
0.0
  0
LINE
  5
9789
  8
0
 10
79.60991179736214
 20
204.4844557641391
 30
0.0
 11
79.69117280514041
 21
204.1811855544361
 31
0.0
  0
ARC
  5
978A
  8
0
 10
80.03082962642742
 20
204.9462651213388
 30
0.0
 40
0.1249999999999206
 50
285.0000000000046
 51
105.0000000000046
  0
LINE
  5
978B
  8
0
 10
77.62346969118852
 20
204.8911362700034
 30
0.0
 11
77.62346969118852
 21
205.283619434614
 31
0.0
1001
GENIUS_GENODEF_13
1002
{
1000
HIER
1070
     0
1002
}
1002
{
1000
MANEDIT
1070
     0
1002
}
1002
{
1000
NOSEL
1070
     0
1002
}
1002
{
1000
BEHIND
1070
     0
1002
}
1002
{
1000
OTHER
1070
     0
1002
}
1002
{
1000
REACTOR
1002
}
1001
GENIUS_GENOBJ-N-CEN_13
1002
{
1000
OWNER
1000
GEN
1002
}
1001
GENIUS_GENCEN_19
1002
{
1040
3.0
1002
}
  0
LINE
  5
978C
  8
0
 10
79.75991179736201
 20
204.7442633852744
 30
0.0
 11
80.06318200706522
 21
204.8255243930528
 31
0.0
  0
ARC
  5
978D
  8
0
 10
79.5704320768545
 20
204.1488331737982
 30
0.0
 40
0.1249999999999206
 50
194.9999999999509
 51
14.99999999999029
  0
LINE
  5
978E
  8
0
 10
79.45372557951413
 20
204.9210400805711
 30
0.0
 11
79.99847724578962
 21
205.067005849625
 31
0.0
  0
LINE
  5
978F
  8
0
 10
77.62346969118852
 20
203.6911362700033
 30
0.0
 11
77.62346969118852
 21
204.3911362700034
 31
0.0
1001
GENIUS_GENODEF_13
1002
{
1000
HIER
1070
     0
1002
}
1002
{
1000
MANEDIT
1070
     0
1002
}
1002
{
1000
NOSEL
1070
     0
1002
}
1002
{
1000
BEHIND
1070
     0
1002
}
1002
{
1000
OTHER
1070
     0
1002
}
1002
{
1000
REACTOR
1002
}
1001
GENIUS_GENOBJ-N-CEN_13
1002
{
1000
OWNER
1000
GEN
1002
}
1001
GENIUS_GENCEN_19
1002
{
1040
3.0
1002
}
  0
LINE
  5
9790
  8
0
 10
77.32346969118834
 20
203.6911362700033
 30
0.0
 11
77.32346969118834
 21
204.3911362700034
 31
0.0
1001
GENIUS_GENODEF_13
1002
{
1000
HIER
1070
     0
1002
}
1002
{
1000
MANEDIT
1070
     0
1002
}
1002
{
1000
NOSEL
1070
     0
1002
}
1002
{
1000
BEHIND
1070
     0
1002
}
1002
{
1000
OTHER
1070
     0
1002
}
1002
{
1000
REACTOR
1002
}
1001
GENIUS_GENOBJ-N-CEN_13
1002
{
1000
OWNER
1000
GEN
1002
}
1001
GENIUS_GENCEN_19
1002
{
1040
3.0
1002
}
  0
LINE
  5
9791
  8
0
 10
77.32346969118834
 20
208.4446896605965
 30
0.0
 11
77.32346969118834
 21
208.9911362700033
 31
0.0
1001
GENIUS_GENODEF_13
1002
{
1000
HIER
1070
     0
1002
}
1002
{
1000
MANEDIT
1070
     0
1002
}
1002
{
1000
NOSEL
1070
     0
1002
}
1002
{
1000
BEHIND
1070
     0
1002
}
1002
{
1000
OTHER
1070
     0
1002
}
1002
{
1000
REACTOR
1002
}
1001
GENIUS_GENOBJ-N-CEN_13
1002
{
1000
OWNER
1000
GEN
1002
}
1001
GENIUS_GENCEN_19
1002
{
1040
3.0
1002
}
  0
LINE
  5
9792
  8
0
 10
77.62346969118852
 20
208.4446896605965
 30
0.0
 11
77.62346969118852
 21
208.9911362700033
 31
0.0
1001
GENIUS_GENODEF_13
1002
{
1000
HIER
1070
     0
1002
}
1002
{
1000
MANEDIT
1070
     0
1002
}
1002
{
1000
NOSEL
1070
     0
1002
}
1002
{
1000
BEHIND
1070
     0
1002
}
1002
{
1000
OTHER
1070
     0
1002
}
1002
{
1000
REACTOR
1002
}
1001
GENIUS_GENOBJ-N-CEN_13
1002
{
1000
OWNER
1000
GEN
1002
}
1001
GENIUS_GENCEN_19
1002
{
1040
3.0
1002
}
  0
ARC
  5
9793
  8
0
 10
77.01307214161551
 20
208.5783105148731
 30
0.0
 40
0.1249999999999206
 50
45.00000000006448
 51
224.999999999954
  0
LINE
  5
9794
  8
0
 10
77.32346969118834
 20
208.4446896605965
 30
0.0
 11
77.10146048926362
 21
208.6666988625212
 31
0.0
  0
LINE
  5
9795
  8
0
 10
77.32346969118834
 20
208.0911362700033
 30
0.0
 11
76.92468379396695
 21
208.4899221672247
 31
0.0
  0
LINE
  5
9796
  8
0
 10
77.62346969118852
 20
207.3911362700034
 30
0.0
 11
77.62346969118852
 21
208.0911362700033
 31
0.0
1001
GENIUS_GENODEF_13
1002
{
1000
HIER
1070
     0
1002
}
1002
{
1000
MANEDIT
1070
     0
1002
}
1002
{
1000
NOSEL
1070
     0
1002
}
1002
{
1000
BEHIND
1070
     0
1002
}
1002
{
1000
OTHER
1070
     0
1002
}
1002
{
1000
REACTOR
1002
}
1001
GENIUS_GENOBJ-N-CEN_13
1002
{
1000
OWNER
1000
GEN
1002
}
1001
GENIUS_GENCEN_19
1002
{
1040
3.0
1002
}
  0
LINE
  5
9797
  8
0
 10
77.32346969118834
 20
207.3911362700034
 30
0.0
 11
77.32346969118834
 21
208.0911362700033
 31
0.0
1001
GENIUS_GENODEF_13
1002
{
1000
HIER
1070
     0
1002
}
1002
{
1000
MANEDIT
1070
     0
1002
}
1002
{
1000
NOSEL
1070
     0
1002
}
1002
{
1000
BEHIND
1070
     0
1002
}
1002
{
1000
OTHER
1070
     0
1002
}
1002
{
1000
REACTOR
1002
}
1001
GENIUS_GENOBJ-N-CEN_13
1002
{
1000
OWNER
1000
GEN
1002
}
1001
GENIUS_GENCEN_19
1002
{
1040
3.0
1002
}
  0
LINE
  5
9798
  8
0
 10
77.62346969118852
 20
203.33758287941
 30
0.0
 11
77.84547889311324
 21
203.1155736774853
 31
0.0
  0
LINE
  5
9799
  8
0
 10
77.32346969118834
 20
204.3911362700034
 30
0.0
 11
76.92764288624147
 21
203.9953094650563
 31
0.0
  0
ARC
  5
979A
  8
0
 10
77.47346969118843
 20
202.7911362700032
 30
0.0
 40
0.1499999999999773
 50
180.0
 51
0.0
  0
ARC
  5
979B
  8
0
 10
78.14429649613538
 20
204.1203094650563
 30
0.0
 40
0.1767766952966168
 50
224.9999999999935
 51
44.99999999999348
  0
ARC
  5
979C
  8
0
 10
76.80264288624147
 20
204.1203094650563
 30
0.0
 40
0.1767766952966168
 50
135.0000000000065
 51
315.0000000000065
  0
LINE
  5
979D
  8
0
 10
77.62346969118852
 20
204.3911362700034
 30
0.0
 11
78.01929649613538
 21
203.9953094650563
 31
0.0
  0
LINE
  5
979E
  8
0
 10
77.32346969118834
 20
204.8911362700034
 30
0.0
 11
76.67764288624147
 21
204.2453094650563
 31
0.0
  0
ARC
  5
979F
  8
0
 10
77.93386724076134
 20
203.2039620251335
 30
0.0
 40
0.1249999999999206
 50
225.0000000000645
 51
44.99999999995394
  0
LINE
  5
97A0
  8
0
 10
77.32346969118834
 20
203.6911362700033
 30
0.0
 11
76.92468379396695
 21
203.2923503727819
 31
0.0
  0
LINE
  5
97A1
  8
0
 10
77.62346969118852
 20
203.6911362700033
 30
0.0
 11
78.0222555884099
 21
203.2923503727819
 31
0.0
  0
LINE
  5
97A2
  8
0
 10
77.62346969118852
 20
204.8911362700034
 30
0.0
 11
78.26929649613538
 21
204.2453094650563
 31
0.0
  0
ARC
  5
97A3
  8
0
 10
77.01307214161551
 20
203.2039620251335
 30
0.0
 40
0.1249999999999206
 50
134.9999999998987
 51
314.9999999998987
  0
LINE
  5
97A4
  8
0
 10
77.32346969118834
 20
203.33758287941
 30
0.0
 11
77.10146048926362
 21
203.1155736774853
 31
0.0
  0
LINE
  5
97A5
  8
0
 10
78.69750779686518
 20
206.771040080571
 30
0.0
 11
78.8423904629746
 21
207.3117495516274
 31
0.0
  0
ARC
  5
97A6
  8
0
 10
78.6716372875016
 20
207.3575027271005
 30
0.0
 40
0.1767766952966168
 50
344.9999999999747
 51
164.9999999999747
  0
LINE
  5
97A7
  8
0
 10
75.33702758501471
 20
204.4844557641391
 30
0.0
 11
74.86379093945669
 21
204.2112324594357
 31
0.0
1001
GENIUS_GENODEF_13
1002
{
1000
HIER
1070
     0
1002
}
1002
{
1000
MANEDIT
1070
     0
1002
}
1002
{
1000
NOSEL
1070
     0
1002
}
1002
{
1000
BEHIND
1070
     0
1002
}
1002
{
1000
OTHER
1070
     0
1002
}
1002
{
1000
REACTOR
1002
}
1001
GENIUS_GENOBJ-N-CEN_13
1002
{
1000
OWNER
1000
GEN
1002
}
1001
GENIUS_GENCEN_19
1002
{
1040
3.0
1002
}
  0
LINE
  5
97A8
  8
0
 10
78.41449509497278
 20
206.2612324594356
 30
0.0
 11
79.29671091697554
 21
206.0248434423801
 31
0.0
  0
LINE
  5
97A9
  8
0
 10
79.45372557951413
 20
206.8612324594357
 30
0.0
 11
79.99847724578962
 21
206.7152666903817
 31
0.0
  0
LINE
  5
97AA
  8
0
 10
79.75991179736201
 20
207.0380091547323
 30
0.0
 11
80.06318200706522
 21
206.9567481469539
 31
0.0
  0
ARC
  5
97AB
  8
0
 10
80.03082962642742
 20
206.8360074186679
 30
0.0
 40
0.1249999999999206
 50
254.9999999999954
 51
74.99999999999544
  0
LINE
  5
97AC
  8
0
 10
79.30372557951426
 20
207.121040080571
 30
0.0
 11
79.44969134856814
 21
207.6657917468464
 31
0.0
  0
LINE
  5
97AD
  8
0
 10
76.09943158551181
 20
205.271040080571
 30
0.0
 11
75.49321380286273
 21
204.9210400805709
 31
0.0
1001
GENIUS_GENODEF_13
1002
{
1000
HIER
1070
     0
1002
}
1002
{
1000
MANEDIT
1070
     0
1002
}
1002
{
1000
NOSEL
1070
     0
1002
}
1002
{
1000
BEHIND
1070
     0
1002
}
1002
{
1000
OTHER
1070
     0
1002
}
1002
{
1000
REACTOR
1002
}
1001
GENIUS_GENOBJ-N-CEN_13
1002
{
1000
OWNER
1000
GEN
1002
}
1001
GENIUS_GENCEN_19
1002
{
1040
3.0
1002
}
  0
ARC
  5
97AE
  8
0
 10
76.27530209487526
 20
204.4247698129061
 30
0.0
 40
0.1767766952966168
 50
164.9999999999747
 51
345.0000000000139
  0
LINE
  5
97AF
  8
0
 10
76.09943158551181
 20
205.271040080571
 30
0.0
 11
75.55872211445529
 21
205.4159227466804
 31
0.0
  0
ARC
  5
97B0
  8
0
 10
80.15814844292021
 20
207.4411362700033
 30
0.0
 40
0.1499999999999773
 50
300.0000000000254
 51
120.0000000000254
  0
LINE
  5
97B1
  8
0
 10
78.41449509497278
 20
206.2612324594356
 30
0.0
 11
78.07459470386215
 21
206.0649908771302
 31
0.0
1001
GENIUS_GENODEF_13
1002
{
1000
HIER
1070
     0
1002
}
1002
{
1000
MANEDIT
1070
     0
1002
}
1002
{
1000
NOSEL
1070
     0
1002
}
1002
{
1000
BEHIND
1070
     0
1002
}
1002
{
1000
OTHER
1070
     0
1002
}
1002
{
1000
REACTOR
1002
}
1001
GENIUS_GENOBJ-N-CEN_13
1002
{
1000
OWNER
1000
GEN
1002
}
1001
GENIUS_GENCEN_19
1002
{
1040
3.0
1002
}
  0
LINE
  5
97B2
  8
0
 10
78.26449509497292
 20
206.521040080571
 30
0.0
 11
77.92459470386228
 21
206.3247984982655
 31
0.0
1001
GENIUS_GENODEF_13
1002
{
1000
HIER
1070
     0
1002
}
1002
{
1000
MANEDIT
1070
     0
1002
}
1002
{
1000
NOSEL
1070
     0
1002
}
1002
{
1000
BEHIND
1070
     0
1002
}
1002
{
1000
OTHER
1070
     0
1002
}
1002
{
1000
REACTOR
1002
}
1001
GENIUS_GENOBJ-N-CEN_13
1002
{
1000
OWNER
1000
GEN
1002
}
1001
GENIUS_GENCEN_19
1002
{
1040
3.0
1002
}
  0
LINE
  5
97B3
  8
0
 10
76.24943158551167
 20
205.0112324594356
 30
0.0
 11
76.10454891940225
 21
204.4705229883792
 31
0.0
  0
LINE
  5
97B4
  8
0
 10
76.68244428740394
 20
205.2612324594356
 30
0.0
 11
76.4460552703485
 21
204.3790166374331
 31
0.0
  0
LINE
  5
97B5
  8
0
 10
80.23314844292025
 20
207.3112324594357
 30
0.0
 11
79.75991179736201
 21
207.0380091547323
 31
0.0
1001
GENIUS_GENODEF_13
1002
{
1000
HIER
1070
     0
1002
}
1002
{
1000
MANEDIT
1070
     0
1002
}
1002
{
1000
NOSEL
1070
     0
1002
}
1002
{
1000
BEHIND
1070
     0
1002
}
1002
{
1000
OTHER
1070
     0
1002
}
1002
{
1000
REACTOR
1002
}
1001
GENIUS_GENOBJ-N-CEN_13
1002
{
1000
OWNER
1000
GEN
1002
}
1001
GENIUS_GENCEN_19
1002
{
1040
3.0
1002
}
  0
ARC
  5
97B6
  8
0
 10
74.78879093945665
 20
204.3411362700033
 30
0.0
 40
0.1499999999999773
 50
120.0000000000254
 51
300.0000000000254
  0
ARC
  5
97B7
  8
0
 10
75.6044752899283
 20
205.5866759221534
 30
0.0
 40
0.1767766952966168
 50
75.0000000000127
 51
255.0000000000127
  0
LINE
  5
97B8
  8
0
 10
80.08314844292016
 20
207.571040080571
 30
0.0
 11
79.60991179736214
 21
207.2978167758677
 31
0.0
1001
GENIUS_GENODEF_13
1002
{
1000
HIER
1070
     0
1002
}
1002
{
1000
MANEDIT
1070
     0
1002
}
1002
{
1000
NOSEL
1070
     0
1002
}
1002
{
1000
BEHIND
1070
     0
1002
}
1002
{
1000
OTHER
1070
     0
1002
}
1002
{
1000
REACTOR
1002
}
1001
GENIUS_GENOBJ-N-CEN_13
1002
{
1000
OWNER
1000
GEN
1002
}
1001
GENIUS_GENCEN_19
1002
{
1040
3.0
1002
}
  0
LINE
  5
97B9
  8
0
 10
79.30372557951426
 20
207.121040080571
 30
0.0
 11
78.69750779686518
 21
206.771040080571
 31
0.0
1001
GENIUS_GENODEF_13
1002
{
1000
HIER
1070
     0
1002
}
1002
{
1000
MANEDIT
1070
     0
1002
}
1002
{
1000
NOSEL
1070
     0
1002
}
1002
{
1000
BEHIND
1070
     0
1002
}
1002
{
1000
OTHER
1070
     0
1002
}
1002
{
1000
REACTOR
1002
}
1001
GENIUS_GENOBJ-N-CEN_13
1002
{
1000
OWNER
1000
GEN
1002
}
1001
GENIUS_GENCEN_19
1002
{
1040
3.0
1002
}
  0
LINE
  5
97BA
  8
0
 10
75.18702758501485
 20
204.7442633852744
 30
0.0
 11
74.7137909394566
 21
204.471040080571
 31
0.0
1001
GENIUS_GENODEF_13
1002
{
1000
HIER
1070
     0
1002
}
1002
{
1000
MANEDIT
1070
     0
1002
}
1002
{
1000
NOSEL
1070
     0
1002
}
1002
{
1000
BEHIND
1070
     0
1002
}
1002
{
1000
OTHER
1070
     0
1002
}
1002
{
1000
REACTOR
1002
}
1001
GENIUS_GENOBJ-N-CEN_13
1002
{
1000
OWNER
1000
GEN
1002
}
1001
GENIUS_GENCEN_19
1002
{
1040
3.0
1002
}
  0
LINE
  5
97BB
  8
0
 10
79.45372557951413
 20
206.8612324594357
 30
0.0
 11
78.84750779686505
 21
206.5112324594356
 31
0.0
1001
GENIUS_GENODEF_13
1002
{
1000
HIER
1070
     0
1002
}
1002
{
1000
MANEDIT
1070
     0
1002
}
1002
{
1000
NOSEL
1070
     0
1002
}
1002
{
1000
BEHIND
1070
     0
1002
}
1002
{
1000
OTHER
1070
     0
1002
}
1002
{
1000
REACTOR
1002
}
1001
GENIUS_GENOBJ-N-CEN_13
1002
{
1000
OWNER
1000
GEN
1002
}
1001
GENIUS_GENCEN_19
1002
{
1040
3.0
1002
}
  0
LINE
  5
97BC
  8
0
 10
75.64321380286259
 20
204.6612324594356
 30
0.0
 11
75.49724803380872
 21
204.1164807931602
 31
0.0
  0
LINE
  5
97BD
  8
0
 10
75.33702758501471
 20
204.4844557641391
 30
0.0
 11
75.25576657723644
 21
204.181185554436
 31
0.0
  0
ARC
  5
97BE
  8
0
 10
75.37650730552235
 20
204.148833173798
 30
0.0
 40
0.1249999999999206
 50
165.0000000000097
 51
345.0000000001045
  0
LINE
  5
97BF
  8
0
 10
75.49321380286273
 20
204.9210400805709
 30
0.0
 11
74.94846213658724
 21
205.0670058496249
 31
0.0
  0
LINE
  5
97C0
  8
0
 10
75.18702758501485
 20
204.7442633852744
 30
0.0
 11
74.88375737531163
 21
204.8255243930527
 31
0.0
  0
LINE
  5
97C1
  8
0
 10
76.24943158551167
 20
205.0112324594356
 30
0.0
 11
75.64321380286259
 21
204.6612324594356
 31
0.0
1001
GENIUS_GENODEF_13
1002
{
1000
HIER
1070
     0
1002
}
1002
{
1000
MANEDIT
1070
     0
1002
}
1002
{
1000
NOSEL
1070
     0
1002
}
1002
{
1000
BEHIND
1070
     0
1002
}
1002
{
1000
OTHER
1070
     0
1002
}
1002
{
1000
REACTOR
1002
}
1001
GENIUS_GENOBJ-N-CEN_13
1002
{
1000
OWNER
1000
GEN
1002
}
1001
GENIUS_GENCEN_19
1002
{
1040
3.0
1002
}
  0
LINE
  5
97C2
  8
0
 10
76.53244428740408
 20
205.521040080571
 30
0.0
 11
75.65022846540131
 21
205.7574290976265
 31
0.0
  0
ARC
  5
97C3
  8
0
 10
74.91610975594944
 20
204.9462651213387
 30
0.0
 40
0.1249999999999206
 50
74.99999999999544
 51
254.9999999999954
  0
LINE
  5
97C4
  8
0
 10
78.84750779686505
 20
206.5112324594356
 30
0.0
 11
79.38821726792156
 21
206.3663497933262
 31
0.0
  0
ARC
  5
97C5
  8
0
 10
79.34246409244855
 20
206.1955966178532
 30
0.0
 40
0.1767766952966168
 50
255.0000000000127
 51
75.0000000000127
  0
LINE
  5
97C6
  8
0
 10
78.26449509497292
 20
206.521040080571
 30
0.0
 11
78.50088411202859
 21
207.4032559025735
 31
0.0
  0
LINE
  5
97C7
  8
0
 10
77.32346969118834
 20
204.8911362700034
 30
0.0
 11
77.32346969118834
 21
205.283619434614
 31
0.0
1001
GENIUS_GENODEF_13
1002
{
1000
HIER
1070
     0
1002
}
1002
{
1000
MANEDIT
1070
     0
1002
}
1002
{
1000
NOSEL
1070
     0
1002
}
1002
{
1000
BEHIND
1070
     0
1002
}
1002
{
1000
OTHER
1070
     0
1002
}
1002
{
1000
REACTOR
1002
}
1001
GENIUS_GENOBJ-N-CEN_13
1002
{
1000
OWNER
1000
GEN
1002
}
1001
GENIUS_GENCEN_19
1002
{
1040
3.0
1002
}
  0
LINE
  5
97C8
  8
0
 10
79.60991179736214
 20
207.2978167758677
 30
0.0
 11
79.69117280514041
 21
207.6010869855706
 31
0.0
  0
ARC
  5
97C9
  8
0
 10
79.5704320768545
 20
207.6334393662086
 30
0.0
 40
0.1249999999999206
 50
345.0000000000097
 51
165.0000000001046
  0
LINE
  5
97CA
  8
0
 10
75.33702758501471
 20
207.2978167758677
 30
0.0
 11
75.25576657723644
 21
207.6010869855708
 31
0.0
  0
LINE
  5
97CB
  8
0
 10
75.49321380286273
 20
206.8612324594357
 30
0.0
 11
74.94846213658724
 21
206.7152666903817
 31
0.0
  0
LINE
  5
97CC
  8
0
 10
75.18702758501485
 20
207.0380091547323
 30
0.0
 11
74.88375737531163
 21
206.9567481469541
 31
0.0
  0
LINE
  5
97CD
  8
0
 10
79.30372557951426
 20
204.6612324594357
 30
0.0
 11
78.69750779686518
 21
205.0112324594357
 31
0.0
1001
GENIUS_GENODEF_13
1002
{
1000
HIER
1070
     0
1002
}
1002
{
1000
MANEDIT
1070
     0
1002
}
1002
{
1000
NOSEL
1070
     0
1002
}
1002
{
1000
BEHIND
1070
     0
1002
}
1002
{
1000
OTHER
1070
     0
1002
}
1002
{
1000
REACTOR
1002
}
1001
GENIUS_GENOBJ-N-CEN_13
1002
{
1000
OWNER
1000
GEN
1002
}
1001
GENIUS_GENCEN_19
1002
{
1040
3.0
1002
}
  0
LINE
  5
97CE
  8
0
 10
79.45372557951413
 20
204.9210400805711
 30
0.0
 11
78.84750779686505
 21
205.2710400805711
 31
0.0
1001
GENIUS_GENODEF_13
1002
{
1000
HIER
1070
     0
1002
}
1002
{
1000
MANEDIT
1070
     0
1002
}
1002
{
1000
NOSEL
1070
     0
1002
}
1002
{
1000
BEHIND
1070
     0
1002
}
1002
{
1000
OTHER
1070
     0
1002
}
1002
{
1000
REACTOR
1002
}
1001
GENIUS_GENOBJ-N-CEN_13
1002
{
1000
OWNER
1000
GEN
1002
}
1001
GENIUS_GENCEN_19
1002
{
1040
3.0
1002
}
  0
ARC
  5
97CF
  8
0
 10
75.37650730552235
 20
207.6334393662086
 30
0.0
 40
0.1249999999999206
 50
14.99999999995087
 51
194.9999999999509
  0
ARC
  5
97D0
  8
0
 10
74.91610975594944
 20
206.8360074186679
 30
0.0
 40
0.1249999999999206
 50
105.0000000000046
 51
285.0000000000046
  0
LINE
  5
97D1
  8
0
 10
78.26449509497292
 20
205.2612324594357
 30
0.0
 11
77.92459470386228
 21
205.4574740417411
 31
0.0
1001
GENIUS_GENODEF_13
1002
{
1000
HIER
1070
     0
1002
}
1002
{
1000
MANEDIT
1070
     0
1002
}
1002
{
1000
NOSEL
1070
     0
1002
}
1002
{
1000
BEHIND
1070
     0
1002
}
1002
{
1000
OTHER
1070
     0
1002
}
1002
{
1000
REACTOR
1002
}
1001
GENIUS_GENOBJ-N-CEN_13
1002
{
1000
OWNER
1000
GEN
1002
}
1001
GENIUS_GENCEN_19
1002
{
1040
3.0
1002
}
  0
LINE
  5
97D2
  8
0
 10
75.33702758501471
 20
207.2978167758677
 30
0.0
 11
74.86379093945669
 21
207.571040080571
 31
0.0
1001
GENIUS_GENODEF_13
1002
{
1000
HIER
1070
     0
1002
}
1002
{
1000
MANEDIT
1070
     0
1002
}
1002
{
1000
NOSEL
1070
     0
1002
}
1002
{
1000
BEHIND
1070
     0
1002
}
1002
{
1000
OTHER
1070
     0
1002
}
1002
{
1000
REACTOR
1002
}
1001
GENIUS_GENOBJ-N-CEN_13
1002
{
1000
OWNER
1000
GEN
1002
}
1001
GENIUS_GENCEN_19
1002
{
1040
3.0
1002
}
  0
LINE
  5
97D3
  8
0
 10
76.24943158551167
 20
206.7710400805711
 30
0.0
 11
76.10454891940225
 21
207.3117495516275
 31
0.0
  0
LINE
  5
97D4
  8
0
 10
78.41449509497278
 20
205.5210400805711
 30
0.0
 11
79.29671091697554
 21
205.7574290976265
 31
0.0
  0
ARC
  5
97D5
  8
0
 10
76.27530209487526
 20
207.3575027271005
 30
0.0
 40
0.1767766952966168
 50
15.00000000002528
 51
194.9999999999861
  0
LINE
  5
97D6
  8
0
 10
80.08314844292016
 20
204.2112324594357
 30
0.0
 11
79.60991179736214
 21
204.4844557641391
 31
0.0
1001
GENIUS_GENODEF_13
1002
{
1000
HIER
1070
     0
1002
}
1002
{
1000
MANEDIT
1070
     0
1002
}
1002
{
1000
NOSEL
1070
     0
1002
}
1002
{
1000
BEHIND
1070
     0
1002
}
1002
{
1000
OTHER
1070
     0
1002
}
1002
{
1000
REACTOR
1002
}
1001
GENIUS_GENOBJ-N-CEN_13
1002
{
1000
OWNER
1000
GEN
1002
}
1001
GENIUS_GENCEN_19
1002
{
1040
3.0
1002
}
  0
LINE
  5
97D7
  8
0
 10
76.53244428740408
 20
206.2612324594357
 30
0.0
 11
75.65022846540131
 21
206.0248434423802
 31
0.0
  0
LINE
  5
97D8
  8
0
 10
78.41449509497278
 20
205.5210400805711
 30
0.0
 11
78.07459470386215
 21
205.7172816628764
 31
0.0
1001
GENIUS_GENODEF_13
1002
{
1000
HIER
1070
     0
1002
}
1002
{
1000
MANEDIT
1070
     0
1002
}
1002
{
1000
NOSEL
1070
     0
1002
}
1002
{
1000
BEHIND
1070
     0
1002
}
1002
{
1000
OTHER
1070
     0
1002
}
1002
{
1000
REACTOR
1002
}
1001
GENIUS_GENOBJ-N-CEN_13
1002
{
1000
OWNER
1000
GEN
1002
}
1001
GENIUS_GENCEN_19
1002
{
1040
3.0
1002
}
  0
LINE
  5
97D9
  8
0
 10
80.23314844292025
 20
204.471040080571
 30
0.0
 11
79.75991179736201
 21
204.7442633852744
 31
0.0
1001
GENIUS_GENODEF_13
1002
{
1000
HIER
1070
     0
1002
}
1002
{
1000
MANEDIT
1070
     0
1002
}
1002
{
1000
NOSEL
1070
     0
1002
}
1002
{
1000
BEHIND
1070
     0
1002
}
1002
{
1000
OTHER
1070
     0
1002
}
1002
{
1000
REACTOR
1002
}
1001
GENIUS_GENOBJ-N-CEN_13
1002
{
1000
OWNER
1000
GEN
1002
}
1001
GENIUS_GENCEN_19
1002
{
1040
3.0
1002
}
  0
LINE
  5
97DA
  8
0
 10
75.64321380286259
 20
207.121040080571
 30
0.0
 11
75.49724803380872
 21
207.6657917468464
 31
0.0
  0
ARC
  5
97DB
  8
0
 10
75.6044752899283
 20
206.1955966178532
 30
0.0
 40
0.1767766952966168
 50
104.9999999999873
 51
284.9999999999873
  0
ARC
  5
97DC
  8
0
 10
74.78879093945665
 20
207.4411362700034
 30
0.0
 40
0.1499999999999773
 50
59.99999999997465
 51
239.9999999999746
  0
LINE
  5
97DD
  8
0
 10
78.84750779686505
 20
205.2710400805711
 30
0.0
 11
79.38821726792156
 21
205.4159227466804
 31
0.0
  0
LINE
  5
97DE
  8
0
 10
76.24943158551167
 20
206.7710400805711
 30
0.0
 11
75.64321380286259
 21
207.121040080571
 31
0.0
1001
GENIUS_GENODEF_13
1002
{
1000
HIER
1070
     0
1002
}
1002
{
1000
MANEDIT
1070
     0
1002
}
1002
{
1000
NOSEL
1070
     0
1002
}
1002
{
1000
BEHIND
1070
     0
1002
}
1002
{
1000
OTHER
1070
     0
1002
}
1002
{
1000
REACTOR
1002
}
1001
GENIUS_GENOBJ-N-CEN_13
1002
{
1000
OWNER
1000
GEN
1002
}
1001
GENIUS_GENCEN_19
1002
{
1040
3.0
1002
}
  0
ARC
  5
97DF
  8
0
 10
80.15814844292021
 20
204.3411362700034
 30
0.0
 40
0.1499999999999773
 50
239.9999999999746
 51
59.99999999997465
  0
ARC
  5
97E0
  8
0
 10
79.34246409244855
 20
205.5866759221535
 30
0.0
 40
0.1767766952966168
 50
284.9999999999873
 51
104.9999999999873
  0
LINE
  5
97E1
  8
0
 10
78.26449509497292
 20
205.2612324594357
 30
0.0
 11
78.50088411202859
 21
204.3790166374331
 31
0.0
  0
LINE
  5
97E2
  8
0
 10
75.18702758501485
 20
207.0380091547323
 30
0.0
 11
74.7137909394566
 21
207.3112324594357
 31
0.0
1001
GENIUS_GENODEF_13
1002
{
1000
HIER
1070
     0
1002
}
1002
{
1000
MANEDIT
1070
     0
1002
}
1002
{
1000
NOSEL
1070
     0
1002
}
1002
{
1000
BEHIND
1070
     0
1002
}
1002
{
1000
OTHER
1070
     0
1002
}
1002
{
1000
REACTOR
1002
}
1001
GENIUS_GENOBJ-N-CEN_13
1002
{
1000
OWNER
1000
GEN
1002
}
1001
GENIUS_GENCEN_19
1002
{
1040
3.0
1002
}
  0
LINE
  5
97E3
  8
0
 10
78.69750779686518
 20
205.0112324594357
 30
0.0
 11
78.8423904629746
 21
204.4705229883792
 31
0.0
  0
LINE
  5
97E4
  8
0
 10
76.09943158551181
 20
206.5112324594357
 30
0.0
 11
75.55872211445529
 21
206.3663497933263
 31
0.0
  0
LINE
  5
97E5
  8
0
 10
76.68244428740394
 20
206.5210400805711
 30
0.0
 11
76.4460552703485
 21
207.4032559025736
 31
0.0
  0
ARC
  5
97E6
  8
0
 10
78.6716372875016
 20
204.4247698129062
 30
0.0
 40
0.1767766952966168
 50
195.0000000000253
 51
14.99999999998613
  0
LINE
  5
97E7
  8
0
 10
76.09943158551181
 20
206.5112324594357
 30
0.0
 11
75.49321380286273
 21
206.8612324594357
 31
0.0
1001
GENIUS_GENODEF_13
1002
{
1000
HIER
1070
     0
1002
}
1002
{
1000
MANEDIT
1070
     0
1002
}
1002
{
1000
NOSEL
1070
     0
1002
}
1002
{
1000
BEHIND
1070
     0
1002
}
1002
{
1000
OTHER
1070
     0
1002
}
1002
{
1000
REACTOR
1002
}
1001
GENIUS_GENOBJ-N-CEN_13
1002
{
1000
OWNER
1000
GEN
1002
}
1001
GENIUS_GENCEN_19
1002
{
1040
3.0
1002
}
  0
LINE
  5
97ED
  8
0
 10
76.87234467851471
 20
206.0649908771303
 30
0.0
 11
76.53244428740408
 21
206.2612324594357
 31
0.0
1001
GENIUS_GENODEF_13
1002
{
1000
HIER
1070
     0
1002
}
1002
{
1000
MANEDIT
1070
     0
1002
}
1002
{
1000
NOSEL
1070
     0
1002
}
1002
{
1000
BEHIND
1070
     0
1002
}
1002
{
1000
OTHER
1070
     0
1002
}
1002
{
1000
REACTOR
1002
}
1001
GENIUS_GENOBJ-N-CEN_13
1002
{
1000
OWNER
1000
GEN
1002
}
1001
GENIUS_GENCEN_19
1002
{
1040
3.0
1002
}
  0
LINE
  5
97EE
  8
0
 10
77.02234467851457
 20
205.457474041741
 30
0.0
 11
76.68244428740394
 21
205.2612324594356
 31
0.0
1001
GENIUS_GENODEF_13
1002
{
1000
HIER
1070
     0
1002
}
1002
{
1000
MANEDIT
1070
     0
1002
}
1002
{
1000
NOSEL
1070
     0
1002
}
1002
{
1000
BEHIND
1070
     0
1002
}
1002
{
1000
OTHER
1070
     0
1002
}
1002
{
1000
REACTOR
1002
}
1001
GENIUS_GENOBJ-N-CEN_13
1002
{
1000
OWNER
1000
GEN
1002
}
1001
GENIUS_GENCEN_19
1002
{
1040
3.0
1002
}
  0
LINE
  5
97EF
  8
0
 10
77.62346969118852
 20
206.4986531053926
 30
0.0
 11
77.62346969118852
 21
206.8911362700034
 31
0.0
1001
GENIUS_GENODEF_13
1002
{
1000
HIER
1070
     0
1002
}
1002
{
1000
MANEDIT
1070
     0
1002
}
1002
{
1000
NOSEL
1070
     0
1002
}
1002
{
1000
BEHIND
1070
     0
1002
}
1002
{
1000
OTHER
1070
     0
1002
}
1002
{
1000
REACTOR
1002
}
1001
GENIUS_GENOBJ-N-CEN_13
1002
{
1000
OWNER
1000
GEN
1002
}
1001
GENIUS_GENCEN_19
1002
{
1040
3.0
1002
}
  0
LINE
  5
97F0
  8
0
 10
76.87234467851471
 20
205.7172816628763
 30
0.0
 11
76.53244428740408
 21
205.521040080571
 31
0.0
1001
GENIUS_GENODEF_13
1002
{
1000
HIER
1070
     0
1002
}
1002
{
1000
MANEDIT
1070
     0
1002
}
1002
{
1000
NOSEL
1070
     0
1002
}
1002
{
1000
BEHIND
1070
     0
1002
}
1002
{
1000
OTHER
1070
     0
1002
}
1002
{
1000
REACTOR
1002
}
1001
GENIUS_GENOBJ-N-CEN_13
1002
{
1000
OWNER
1000
GEN
1002
}
1001
GENIUS_GENCEN_19
1002
{
1040
3.0
1002
}
  0
LINE
  5
97F1
  8
0
 10
77.0223446785148
 20
206.3247984982656
 30
0.0
 11
76.68244428740394
 21
206.5210400805711
 31
0.0
1001
GENIUS_GENODEF_13
1002
{
1000
HIER
1070
     0
1002
}
1002
{
1000
MANEDIT
1070
     0
1002
}
1002
{
1000
NOSEL
1070
     0
1002
}
1002
{
1000
BEHIND
1070
     0
1002
}
1002
{
1000
OTHER
1070
     0
1002
}
1002
{
1000
REACTOR
1002
}
1001
GENIUS_GENOBJ-N-CEN_13
1002
{
1000
OWNER
1000
GEN
1002
}
1001
GENIUS_GENCEN_19
1002
{
1040
3.0
1002
}
  0
LINE
  5
97F2
  8
0
 10
77.32346969118834
 20
206.4986531053926
 30
0.0
 11
77.32346969118834
 21
206.8911362700034
 31
0.0
1001
GENIUS_GENODEF_13
1002
{
1000
HIER
1070
     0
1002
}
1002
{
1000
MANEDIT
1070
     0
1002
}
1002
{
1000
NOSEL
1070
     0
1002
}
1002
{
1000
BEHIND
1070
     0
1002
}
1002
{
1000
OTHER
1070
     0
1002
}
1002
{
1000
REACTOR
1002
}
1001
GENIUS_GENOBJ-N-CEN_13
1002
{
1000
OWNER
1000
GEN
1002
}
1001
GENIUS_GENCEN_19
1002
{
1040
3.0
1002
}
  0
POINT
  5
97F3
  8
0
 10
77.47346969118843
 20
205.8911362700034
 30
0.0
  0
LINE
  5
97F5
  8
0
 10
68.27185615177376
 20
223.8911362700026
 30
0.0
 11
68.27185615177376
 21
227.8911362700026
 31
0.0
  0
ARC
  5
97F6
  8
0
 10
70.27185615177376
 20
227.8911362700026
 30
0.0
 40
2.0
 50
90.0
 51
180.0
1001
GENIUS_GENODEF_13
1002
{
1000
HIER
1070
     0
1002
}
1002
{
1000
MANEDIT
1070
     0
1002
}
1002
{
1000
NOSEL
1070
     0
1002
}
1002
{
1000
BEHIND
1070
     0
1002
}
1002
{
1000
OTHER
1070
     0
1002
}
1002
{
1000
REACTOR
1002
}
1001
GENIUS_GENOBJ-N-FIL_13
1002
{
1000
OWNER
1000
GEN
1002
}
  0
ARC
  5
97F7
  8
0
 10
70.27185615177376
 20
223.8911362700026
 30
0.0
 40
2.0
 50
180.0
 51
270.0
1001
GENIUS_GENOBJ-N-FIL_13
1002
{
1000
OWNER
1000
GEN
1002
}
1001
GENIUS_GENODEF_13
1002
{
1000
HIER
1070
     0
1002
}
1002
{
1000
MANEDIT
1070
     0
1002
}
1002
{
1000
NOSEL
1070
     0
1002
}
1002
{
1000
BEHIND
1070
     0
1002
}
1002
{
1000
OTHER
1070
     0
1002
}
1002
{
1000
REACTOR
1002
}
  0
LINE
  5
97F8
  8
0
 10
86.27185615177285
 20
223.8911362700026
 30
0.0
 11
86.27185615177285
 21
227.8911362700026
 31
0.0
  0
TEXT
  5
97F9
  8
0
 10
69.2292977514901
 20
224.9202024419264
 30
0.0
 40
2.0
  1
低温
  0
LINE
  5
97FA
  8
0
 10
84.27185615177285
 20
229.8911362700026
 30
0.0
 11
70.27185615177376
 21
229.8911362700026
 31
0.0
  0
ARC
  5
97FB
  8
0
 10
84.27185615177285
 20
227.8911362700026
 30
0.0
 40
2.0
 50
0.0
 51
90.0
1001
GENIUS_GENOBJ-N-FIL_13
1002
{
1000
OWNER
1000
GEN
1002
}
1001
GENIUS_GENODEF_13
1002
{
1000
HIER
1070
     0
1002
}
1002
{
1000
MANEDIT
1070
     0
1002
}
1002
{
1000
NOSEL
1070
     0
1002
}
1002
{
1000
BEHIND
1070
     0
1002
}
1002
{
1000
OTHER
1070
     0
1002
}
1002
{
1000
REACTOR
1002
}
  0
LINE
  5
97FC
  8
0
 10
84.27185615177285
 20
221.8911362700026
 30
0.0
 11
70.27185615177376
 21
221.8911362700026
 31
0.0
  0
ARC
  5
97FD
  8
0
 10
84.27185615177285
 20
223.8911362700026
 30
0.0
 40
2.0
 50
270.0
 51
0.0
1001
GENIUS_GENODEF_13
1002
{
1000
HIER
1070
     0
1002
}
1002
{
1000
MANEDIT
1070
     0
1002
}
1002
{
1000
NOSEL
1070
     0
1002
}
1002
{
1000
BEHIND
1070
     0
1002
}
1002
{
1000
OTHER
1070
     0
1002
}
1002
{
1000
REACTOR
1002
}
1001
GENIUS_GENOBJ-N-FIL_13
1002
{
1000
OWNER
1000
GEN
1002
}
  0
LINE
  5
97FE
  8
0
 10
75.80241849536304
 20
224.7035314268167
 30
0.0
 11
79.14452088701381
 21
224.7035314268167
 31
0.0
  0
LINE
  5
9800
  8
0
 10
75.80241849536304
 20
224.7035314268167
 30
0.0
 11
76.06935287587083
 21
227.1631658097479
 31
0.0
  0
LINE
  5
9801
  8
0
 10
76.24817759642855
 20
225.1035314268168
 30
0.0
 11
76.4670179012798
 21
227.1200087991186
 31
0.0
  0
LINE
  5
9802
  8
0
 10
76.56643415763227
 20
227.609219546462
 30
0.0
 11
78.38050522474458
 21
227.609219546462
 31
0.0
  0
ARC
  5
9803
  8
0
 10
76.56643415763227
 20
227.109219546462
 30
0.0
 40
0.5
 50
90.0
 51
173.8061568343395
1001
GENIUS_GENODEF_13
1002
{
1000
HIER
1070
     0
1002
}
1002
{
1000
MANEDIT
1070
     0
1002
}
1002
{
1000
NOSEL
1070
     0
1002
}
1002
{
1000
BEHIND
1070
     0
1002
}
1002
{
1000
OTHER
1070
     0
1002
}
1002
{
1000
REACTOR
1002
}
1001
GENIUS_GENOBJ-N-FIL_13
1002
{
1000
OWNER
1000
GEN
1002
}
  0
ARC
  5
9804
  8
0
 10
76.56643415763227
 20
227.109219546462
 30
0.0
 40
0.1
 50
90.0
 51
173.8061568343948
1001
GENIUS_GENODEF_13
1002
{
1000
HIER
1070
     0
1002
}
1002
{
1000
MANEDIT
1070
     0
1002
}
1002
{
1000
NOSEL
1070
     0
1002
}
1002
{
1000
BEHIND
1070
     0
1002
}
1002
{
1000
OTHER
1070
     0
1002
}
1002
{
1000
REACTOR
1002
}
1001
GENIUS_GENOBJ-N-FIL_13
1002
{
1000
OWNER
1000
GEN
1002
}
  0
LINE
  5
9805
  8
0
 10
79.14452088701381
 20
224.7035314268167
 30
0.0
 11
78.87758650650602
 21
227.1631658097479
 31
0.0
  0
ARC
  5
9806
  8
0
 10
78.38050522474458
 20
227.109219546462
 30
0.0
 40
0.5
 50
6.19384316566055
 51
90.0
1001
GENIUS_GENOBJ-N-FIL_13
1002
{
1000
OWNER
1000
GEN
1002
}
1001
GENIUS_GENODEF_13
1002
{
1000
HIER
1070
     0
1002
}
1002
{
1000
MANEDIT
1070
     0
1002
}
1002
{
1000
NOSEL
1070
     0
1002
}
1002
{
1000
BEHIND
1070
     0
1002
}
1002
{
1000
OTHER
1070
     0
1002
}
1002
{
1000
REACTOR
1002
}
  0
LINE
  5
9807
  8
0
 10
76.93454262980703
 20
225.1035314268168
 30
0.0
 11
77.05994937217719
 21
227.2092195464614
 31
0.0
  0
LINE
  5
9808
  8
0
 10
76.24817759642855
 20
225.1035314268168
 30
0.0
 11
76.93454262980703
 21
225.1035314268168
 31
0.0
  0
LINE
  5
9809
  8
0
 10
76.56643415763227
 20
227.2092195464614
 30
0.0
 11
77.05994937217719
 21
227.2092195464614
 31
0.0
  0
CIRCLE
  5
980F
  8
0
 10
82.52185615177376
 20
225.8911362700032
 30
0.0
 40
1.5
  0
LINE
  5
9816
  8
0
 10
41.7718561517737
 20
219.6387443773091
 30
0.0
 11
41.7718561517737
 21
217.1012443773085
 31
0.0
  0
ARC
  5
9850
  8
0
 10
57.65747357530615
 20
237.9020914956456
 30
0.0
 40
2.818784487207035
 50
42.10643774613646
 51
72.54963860556856
  0
ARC
  5
9851
  8
0
 10
57.66204042009621
 20
237.8940184650368
 30
0.0
 40
2.825124600724308
 50
72.68709389380213
 51
114.8350808121767
  0
ARC
  5
9852
  8
0
 10
57.66886519956015
 20
237.8951235512718
 30
0.0
 40
2.82699601279636
 50
114.9700164788602
 51
159.7658782060655
  0
ARC
  5
9853
  8
0
 10
57.67023802492448
 20
237.90194023687
 30
0.0
 40
2.825934871198894
 50
159.9051839004264
 51
208.1033156220135
  0
ARC
  5
9854
  8
0
 10
57.66700786976547
 20
237.9059759101542
 30
0.0
 40
2.824991178843034
 50
208.2063768521142
 51
252.9917058831044
  0
ARC
  5
9855
  8
0
 10
57.66113741822078
 20
237.8985074809179
 30
0.0
 40
2.816134321775382
 50
253.0614728184792
 51
303.6104044070926
  0
ARC
  5
9856
  8
0
 10
57.65197731125325
 20
237.9078113586301
 30
0.0
 40
2.828954381084524
 50
303.6606050060736
 51
336.6888212394869
  0
ARC
  5
9857
  8
0
 10
57.67302204206248
 20
237.896200094243
 30
0.0
 40
2.805033656979198
 50
336.7365264644542
 51
352.0115546408769
  0
ARC
  5
9858
  8
0
 10
60.88196512445791
 20
237.4395123198008
 30
0.0
 40
0.4362831274249897
 50
124.9417661980001
 51
171.184373347612
  0
ARC
  5
9859
  8
0
 10
60.95858726098099
 20
237.3812910034432
 30
0.0
 40
0.5287156028486799
 50
68.49894250646855
 51
128.1363643025119
  0
ARC
  5
985A
  8
0
 10
60.95744437000734
 20
237.3781526040212
 30
0.0
 40
0.5320545012467646
 50
21.17868457593492
 51
68.50830305575766
  0
ARC
  5
985B
  8
0
 10
60.90062769955997
 20
237.3654657811651
 30
0.0
 40
0.589681274627146
 50
351.3677592453813
 51
20.33365155063489
  0
ARC
  5
985C
  8
0
 10
57.68343705213394
 20
237.8923712411109
 30
0.0
 40
3.849700154783129
 50
329.2955579547439
 51
350.8012500119641
  0
ARC
  5
985D
  8
0
 10
57.66066851953252
 20
237.9020138808741
 30
0.0
 40
3.874201887614873
 50
272.110292872708
 51
329.3448789643533
  0
ARC
  5
985E
  8
0
 10
57.65755494499695
 20
237.8871204130522
 30
0.0
 40
3.859434907830362
 50
228.1538869054162
 51
272.1646262877287
  0
ARC
  5
985F
  8
0
 10
57.65900386452172
 20
237.9001832887902
 30
0.0
 40
3.870140110233152
 50
191.6688789272142
 51
228.2669244735646
  0
ARC
  5
9860
  8
0
 10
54.43289767128093
 20
239.2068393856963
 30
0.0
 40
2.164208178393929
 50
198.7239634759418
 51
254.8927875963119
  0
ARC
  5
9861
  8
0
 10
52.35567876398036
 20
239.7876061665915
 30
0.0
 40
1.275794832121307
 50
159.5889286416703
 51
271.2373210171075
  0
ARC
  5
9862
  8
0
 10
52.35551363530649
 20
239.7874611460516
 30
0.0
 40
1.27569066216106
 50
56.35876753652676
 51
159.5802376694596
  0
ARC
  5
9863
  8
0
 10
52.35508848122108
 20
239.7872864095598
 30
0.0
 40
1.27607169163755
 50
300.8474340774557
 51
56.3472215566168
  0
ARC
  5
9864
  8
0
 10
54.43269053159633
 20
239.205765042976
 30
0.0
 40
1.513270340059136
 50
199.8575424768336
 51
244.8702054099206
  0
ARC
  5
9865
  8
0
 10
57.65322924019236
 20
237.9057736786124
 30
0.0
 40
3.863814594731709
 50
128.8924189419203
 51
181.0387416655358
  0
ARC
  5
9866
  8
0
 10
57.65982246991548
 20
237.9092492700549
 30
0.0
 40
3.865255996170545
 50
64.08752047055657
 51
129.0008345454504
  0
ARC
  5
9867
  8
0
 10
57.63603020600075
 20
237.8813352334233
 30
0.0
 40
3.900771647075106
 50
41.93148962721736
 51
63.95236016528539
  0
ARC
  5
9868
  8
0
 10
60.132924938241
 20
240.1416108209399
 30
0.0
 40
0.5329691384397407
 50
326.9391245431074
 51
40.53482220835667
  0
ARC
  5
9869
  8
0
 10
60.13437214279057
 20
240.1420787958308
 30
0.0
 40
0.532012855346209
 50
288.8262582044628
 51
326.8118599153581
  0
ARC
  5
986A
  8
0
 10
60.13890334140646
 20
240.1199636986919
 30
0.0
 40
0.5096266244015553
 50
220.0392534532336
 51
289.1464231932406
  0
ARC
  5
986B
  8
0
 10
52.35555897674926
 20
239.7874950974249
 30
0.0
 40
0.5333610920542913
 50
358.2903179254307
 51
182.8871640299807
  0
ARC
  5
986C
  8
0
 10
52.35556125442254
 20
239.7872734439678
 30
0.0
 40
0.533352248318835
 50
182.8633706346262
 51
358.3141113207852
  0
ARC
  5
986D
  8
0
 10
56.41442408629561
 20
238.3677768329366
 30
0.0
 40
0.6197235851139764
 50
269.9860909562865
 51
92.215844524471
  0
ARC
  5
986E
  8
0
 10
56.4145474101523
 20
238.3677792029587
 30
0.0
 40
0.619725997344469
 50
92.2272460800958
 51
269.9746892990934
  0
ARC
  5
986F
  8
0
 10
58.91025527816765
 20
238.3677698894344
 30
0.0
 40
0.6197167624590886
 50
269.9616101028838
 51
89.98977670141691
  0
ARC
  5
9870
  8
0
 10
58.90992044989144
 20
238.3677700314787
 30
0.0
 40
0.6197167706109338
 50
89.95882022245952
 51
269.9925665818412
  0
ARC
  5
9871
  8
0
 10
57.66213579924941
 20
238.3884323049967
 30
0.0
 40
1.621966970399848
 50
233.6417470358286
 51
306.8838773871497
  0
ARC
  5
9872
  8
0
 10
58.78581951004276
 20
236.8818313823178
 30
0.0
 40
0.2575808481740123
 50
48.75225273408849
 51
125.6665677964219
  0
ARC
  5
9873
  8
0
 10
58.78543677085528
 20
236.8815695259125
 30
0.0
 40
0.2580301008803177
 50
350.2089239138109
 51
48.72668974043867
  0
ARC
  5
9874
  8
0
 10
58.78228387416652
 20
236.8818129154588
 30
0.0
 40
0.2611786316846578
 50
302.7722891929776
 51
350.2739298216707
  0
ARC
  5
9875
  8
0
 10
57.65846606407204
 20
238.3944656030777
 30
0.0
 40
2.145096291517153
 50
279.580629416799
 51
306.1433603622953
  0
ARC
  5
9876
  8
0
 10
57.66204946286889
 20
238.3876029978719
 30
0.0
 40
2.137734336466047
 50
255.4417152635177
 51
279.5165392426291
  0
ARC
  5
9877
  8
0
 10
57.66299912160271
 20
238.3854033398214
 30
0.0
 40
2.135844522087935
 50
232.8702473643658
 51
255.4022254017397
  0
ARC
  5
9878
  8
0
 10
56.53944883532802
 20
236.8814617303095
 30
0.0
 40
0.25887643170293
 50
155.1529278431511
 51
230.2048092005884
  0
ARC
  5
9879
  8
0
 10
56.53824733876187
 20
236.8819013041917
 30
0.0
 40
0.2576014684421306
 50
103.7622011258928
 51
155.1293551933568
  0
ARC
  5
987A
  8
0
 10
56.53857260243942
 20
236.8821414920207
 30
0.0
 40
0.2574458242313935
 50
51.00202248787202
 51
103.845228473221
  0
ARC
  5
987B
  8
0
 10
49.6780952065205
 20
234.8564000173179
 30
0.0
 40
0.9091768622367206
 50
133.222959671733
 51
270.18947341995
  0
ARC
  5
987C
  8
0
 10
49.67852055412767
 20
234.8560163283229
 30
0.0
 40
0.9087918676904274
 50
270.1627370543721
 51
50.19893912908903
  0
ARC
  5
987D
  8
0
 10
49.65784207733947
 20
241.2524864839436
 30
0.0
 40
0.6024320394943272
 50
2.835526177204861
 51
174.3732816204309
  0
ARC
  5
987E
  8
0
 10
49.65787804371784
 20
241.2524083949783
 30
0.0
 40
0.2295028634559424
 50
358.9188453068246
 51
179.9730971000893
  0
ARC
  5
987F
  8
0
 10
46.78493243185769
 20
235.9457516378568
 30
0.0
 40
0.0873768611613766
 50
87.47256260673397
 51
234.0891406317488
  0
ARC
  5
9880
  8
0
 10
48.19601220484167
 20
235.9466651185608
 30
0.0
 40
0.0863646317370953
 50
317.9031549580241
 51
87.18148688827208
  0
ARC
  5
9881
  8
0
 10
47.49016881076269
 20
235.2405667494089
 30
0.0
 40
0.086253216996548
 50
226.0322552542306
 51
315.2107938570716
  0
LINE
  5
9882
  8
0
 10
49.42837520556134
 20
241.2525161567086
 30
0.0
 11
49.42837520556134
 21
237.7288052192083
 31
0.0
  0
LINE
  5
9883
  8
0
 10
49.42837520556134
 20
237.7288052192083
 30
0.0
 11
49.88734004931177
 21
237.7288052192083
 31
0.0
  0
LINE
  5
9884
  8
0
 10
49.88734004931177
 20
237.7288052192083
 30
0.0
 11
49.88734004931177
 21
241.2480779996979
 31
0.0
  0
LINE
  5
9885
  8
0
 10
50.25953653284308
 20
241.2822882359981
 30
0.0
 11
50.26025997118643
 21
235.5542153754581
 31
0.0
  0
LINE
  5
9886
  8
0
 10
49.05545528368668
 20
235.5189119744327
 30
0.0
 11
49.05545528368668
 21
237.4994106879579
 31
0.0
  0
LINE
  5
9887
  8
0
 10
49.05545528368668
 20
237.4994106879579
 30
0.0
 11
46.59223262743637
 21
237.4994106879579
 31
0.0
  0
LINE
  5
9888
  8
0
 10
46.59223262743637
 20
237.4994106879579
 30
0.0
 11
46.59223262743637
 21
237.7287212756018
 31
0.0
  0
LINE
  5
9889
  8
0
 10
46.59223262743637
 20
237.7287212756018
 30
0.0
 11
49.05545528368668
 21
237.7288052192083
 31
0.0
  0
LINE
  5
988A
  8
0
 10
49.05545528368668
 20
237.7288052192083
 30
0.0
 11
49.05831268399742
 21
241.3115531304389
 31
0.0
  0
LINE
  5
988B
  8
0
 10
46.733683641928
 20
235.8749824539053
 30
0.0
 11
47.43028723017628
 21
235.1784876567229
 31
0.0
  0
LINE
  5
988C
  8
0
 10
47.55138301806176
 20
235.1798013129586
 30
0.0
 11
48.26009586330049
 21
235.8887674991484
 31
0.0
  0
LINE
  5
988D
  8
0
 10
48.20025896937101
 20
236.0329252750997
 30
0.0
 11
47.81909786181143
 21
236.0330435004583
 31
0.0
  0
LINE
  5
988E
  8
0
 10
47.81909786181143
 20
236.0330435004583
 30
0.0
 11
47.81909786181143
 21
237.0471735697229
 31
0.0
  0
LINE
  5
988F
  8
0
 10
47.81909786181143
 20
237.0471735697229
 30
0.0
 11
47.16114864306167
 21
237.047301312958
 31
0.0
  0
LINE
  5
9890
  8
0
 10
47.16114864306167
 20
237.047301312958
 30
0.0
 11
47.16114864306167
 21
236.0330435004583
 31
0.0
  0
LINE
  5
9891
  8
0
 10
47.16114864306167
 20
236.0330435004583
 30
0.0
 11
46.78878555915474
 21
236.0330435004583
 31
0.0
  0
LINE
  5
9892
  8
0
 10
48.38810176806157
 20
239.6239028754584
 30
0.0
 11
48.18735958056152
 21
239.7397427192085
 31
0.0
  0
LINE
  5
9893
  8
0
 10
48.18735958056152
 20
239.7397427192085
 30
0.0
 11
47.69104122118654
 21
239.4532192817081
 31
0.0
  0
LINE
  5
9894
  8
0
 10
47.69104122118654
 20
239.4532192817081
 30
0.0
 11
47.69095333056168
 21
240.0264419379586
 31
0.0
  0
LINE
  5
9895
  8
0
 10
47.69095333056168
 20
240.0264419379586
 30
0.0
 11
47.49021114306163
 21
240.1422817817082
 31
0.0
  0
LINE
  5
9896
  8
0
 10
47.49021114306163
 20
240.1422817817082
 30
0.0
 11
47.28938106493672
 21
240.0264419379586
 31
0.0
  0
LINE
  5
9897
  8
0
 10
47.28938106493672
 20
240.0264419379586
 30
0.0
 11
47.28938106493672
 21
239.4532192817081
 31
0.0
  0
LINE
  5
9898
  8
0
 10
47.28938106493672
 20
239.4532192817081
 30
0.0
 11
46.79297481493643
 21
239.7397427192085
 31
0.0
  0
LINE
  5
9899
  8
0
 10
46.79297481493643
 20
239.7397427192085
 30
0.0
 11
46.59223262743637
 21
239.6239028754584
 31
0.0
  0
LINE
  5
989A
  8
0
 10
46.59223262743637
 20
239.6239028754584
 30
0.0
 11
46.59223262743637
 21
239.3920474067085
 31
0.0
  0
LINE
  5
989B
  8
0
 10
46.59223262743637
 20
239.3920474067085
 30
0.0
 11
47.08863887743667
 21
239.1055239692081
 31
0.0
  0
LINE
  5
989C
  8
0
 10
47.08863887743667
 20
239.1055239692081
 30
0.0
 11
46.59223262743637
 21
238.818824750458
 31
0.0
  0
LINE
  5
989D
  8
0
 10
46.59223262743637
 20
238.818824750458
 30
0.0
 11
46.59223262743637
 21
238.5869692817081
 31
0.0
  0
LINE
  5
989E
  8
0
 10
46.59223262743637
 20
238.5869692817081
 30
0.0
 11
46.79297481493643
 21
238.471129437958
 31
0.0
  0
LINE
  5
989F
  8
0
 10
46.79297481493643
 20
238.471129437958
 30
0.0
 11
47.28938106493672
 21
238.7576528754583
 31
0.0
  0
LINE
  5
98A0
  8
0
 10
47.28938106493672
 20
238.7576528754583
 30
0.0
 11
47.28946895556157
 21
238.1844302192084
 31
0.0
  0
LINE
  5
98A1
  8
0
 10
47.28946895556157
 20
238.1844302192084
 30
0.0
 11
47.49021114306163
 21
238.0685903754583
 31
0.0
  0
LINE
  5
98A2
  8
0
 10
47.49021114306163
 20
238.0685903754583
 30
0.0
 11
47.69104122118654
 21
238.1844302192084
 31
0.0
  0
LINE
  5
98A3
  8
0
 10
47.69104122118654
 20
238.1844302192084
 30
0.0
 11
47.69095333056168
 21
238.7576528754583
 31
0.0
  0
LINE
  5
98A4
  8
0
 10
47.69095333056168
 20
238.7576528754583
 30
0.0
 11
48.18735958056152
 21
238.471129437958
 31
0.0
  0
LINE
  5
98A5
  8
0
 10
48.18735958056152
 20
238.471129437958
 30
0.0
 11
48.38810176806157
 21
238.5869692817081
 31
0.0
  0
LINE
  5
98A6
  8
0
 10
48.38810176806157
 20
238.5869692817081
 30
0.0
 11
48.38810176806157
 21
238.818824750458
 31
0.0
  0
LINE
  5
98A7
  8
0
 10
48.38810176806157
 20
238.818824750458
 30
0.0
 11
47.89178340868659
 21
239.1055239692081
 31
0.0
  0
LINE
  5
98A8
  8
0
 10
47.89178340868659
 20
239.1055239692081
 30
0.0
 11
48.38810176806157
 21
239.3920474067085
 31
0.0
  0
LINE
  5
98A9
  8
0
 10
48.38810176806157
 20
239.3920474067085
 30
0.0
 11
48.38810176806157
 21
239.6239028754584
 31
0.0
  0
ARC
  5
9906
  8
0
 10
43.12195934609605
 20
230.2040444927601
 30
0.0
 40
0.3670849884844836
 50
88.43595018400158
 51
181.5907611346588
  0
ARC
  5
9907
  8
0
 10
43.1163583312879
 20
230.1781494181699
 30
0.0
 40
0.3616836161732613
 50
177.5113831094954
 51
272.4752596742406
  0
ARC
  5
9908
  8
0
 10
47.84987986345526
 20
228.8144635001158
 30
0.0
 40
1.757421872517575
 50
58.63205765538114
 51
91.82624667791217
  0
ARC
  5
9909
  8
0
 10
48.03110437421941
 20
229.1539891739395
 30
0.0
 40
1.373363550070809
 50
357.364690570101
 51
57.714325410695
  0
ARC
  5
990A
  8
0
 10
47.37222606000259
 20
229.1492406359235
 30
0.0
 40
2.031628876196131
 50
312.3580077297276
 51
358.3528725601312
  0
ARC
  5
990B
  8
0
 10
46.53428715551023
 20
230.283400311517
 30
0.0
 40
3.437343882281632
 50
279.6428930056555
 51
309.9410387066555
  0
ARC
  5
990C
  8
0
 10
45.82933059788157
 20
233.0638045672426
 30
0.0
 40
6.30072093565917
 50
275.4117803201626
 51
281.7281302859269
  0
ARC
  5
990D
  8
0
 10
46.41897769867553
 20
226.6870089836852
 30
0.0
 40
0.104260725704256
 50
87.4752300347481
 51
163.7199139015242
  0
ARC
  5
990E
  8
0
 10
46.61712834302548
 20
226.6564071862454
 30
0.0
 40
0.3041729537229
 50
168.656197874844
 51
200.088964877841
  0
ARC
  5
990F
  8
0
 10
46.25955381345911
 20
225.9016441229747
 30
0.0
 40
0.2537512839947012
 50
261.3372320245579
 51
20.62119432797277
  0
ARC
  5
9910
  8
0
 10
45.89216037940265
 20
227.3439461614107
 30
0.0
 40
1.693196324176135
 50
200.7119394462078
 51
269.6171287198742
  0
ARC
  5
9911
  8
0
 10
44.01207273051709
 20
228.5589436716235
 30
0.0
 40
0.2418104089398966
 50
78.56434552526532
 51
205.2442294015796
  0
ARC
  5
9912
  8
0
 10
45.20963082066846
 20
228.2511766206353
 30
0.0
 40
0.5454708950328662
 50
22.03436718337224
 51
87.10976279916945
  0
ARC
  5
9913
  8
0
 10
46.42807187546437
 20
228.0722198414663
 30
0.0
 40
0.5575982287956304
 50
198.5615711856641
 51
231.4697421334256
  0
ARC
  5
9914
  8
0
 10
46.27522808336162
 20
227.907972052194
 30
0.0
 40
0.3343453227859988
 50
234.4274826077689
 51
282.9237961332864
  0
ARC
  5
9915
  8
0
 10
45.96412109231609
 20
228.9255396532349
 30
0.0
 40
1.397765155718417
 50
286.0259576150772
 51
322.7723331413756
  0
ARC
  5
9916
  8
0
 10
45.45650265127802
 20
229.3733428326811
 30
0.0
 40
2.073453716718684
 50
321.4055578566587
 51
357.0055140470176
  0
ARC
  5
9918
  8
0
 10
46.98166557240882
 20
229.3036545650752
 30
0.0
 40
0.5468257340680802
 50
355.949160792519
 51
43.98614270712526
  0
ARC
  5
9919
  8
0
 10
46.98970571345929
 20
229.2031052007006
 30
0.0
 40
0.6158215084356161
 50
51.2561918984424
 51
94.75943482914414
  0
ARC
  5
991A
  8
0
 10
50.95033516609477
 20
228.1107977044554
 30
0.0
 40
0.9170993127764647
 50
90.00286747961208
 51
268.2497146487425
  0
ARC
  5
991B
  8
0
 10
50.95025858474791
 20
228.1107988723423
 30
0.0
 40
0.9170981442542538
 50
268.2544990708273
 51
89.99808305752735
  0
ARC
  5
9969
  8
0
 10
53.00544743993553
 20
230.1893383547604
 30
0.0
 40
0.3770840596473977
 50
89.9884213680942
 51
178.6192995487075
  0
ARC
  5
996A
  8
0
 10
54.17349042306687
 20
230.1893383341401
 30
0.0
 40
0.3770841082509337
 50
1.380703407345114
 51
90.02492579868495
  0
ARC
  5
996B
  8
0
 10
54.1735677262576
 20
227.6231634337476
 30
0.0
 40
0.3768973543141036
 50
269.9633102497762
 51
0.0233356470994525
  0
ARC
  5
996C
  8
0
 10
53.00537010634604
 20
227.623163401243
 30
0.0
 40
0.3768972758079303
 50
179.976659406698
 51
270.0233405932998
  0
ARC
  5
996D
  8
0
 10
56.67348593965109
 20
230.1899701726946
 30
0.0
 40
0.3765533069000618
 50
91.32755171042443
 51
178.7135156246359
  0
ARC
  5
996E
  8
0
 10
57.84184585275505
 20
230.189252947647
 30
0.0
 40
0.3772853742403397
 50
1.392937584176936
 51
88.57968746194244
  0
ARC
  5
996F
  8
0
 10
55.35470066232927
 20
227.3334150909444
 30
0.0
 40
0.9424222807007966
 50
270.2596160298706
 51
359.1847732707225
  0
ARC
  5
9970
  8
0
 10
55.08760860399901
 20
226.0185659613957
 30
0.0
 40
0.3724651062386549
 50
89.29017710179693
 51
270.7098228982031
  0
ARC
  5
9971
  8
0
 10
56.02878113638248
 20
227.7815154006749
 30
0.0
 40
2.135678174171317
 50
269.0521856153052
 51
304.9431031995392
  0
ARC
  5
9972
  8
0
 10
55.98388093546907
 20
227.8864444386098
 30
0.0
 40
2.247528607778139
 50
304.349268769131
 51
342.033607398782
  0
ARC
  5
9973
  8
0
 10
55.96985022703167
 20
227.8474206272889
 30
0.0
 40
2.249219839620582
 50
343.0895187182535
 51
0.3832968636576209
  0
ARC
  5
9974
  8
0
 10
59.44663312707431
 20
230.203038617646
 30
0.0
 40
0.3724661917305334
 50
89.27682506750826
 51
270.7231749324918
  0
ARC
  5
9975
  8
0
 10
59.21692130887219
 20
228.5260854926456
 30
0.0
 40
0.3541906372867973
 50
86.29944766479187
 51
273.7005523352082
  0
ARC
  5
9976
  8
0
 10
60.42079770475293
 20
229.2378784300174
 30
0.0
 40
0.358803858625055
 50
267.0887535299613
 51
356.4733133196502
  0
ARC
  5
9977
  8
0
 10
60.44140533907068
 20
229.4931598824767
 30
0.0
 40
0.3396690833730922
 50
354.8685998202262
 51
96.56439594170057
  0
ARC
  5
9978
  8
0
 10
64.74309688524876
 20
230.203038617646
 30
0.0
 40
0.3724651062386495
 50
269.2901771018636
 51
90.70982289813644
  0
ARC
  5
9979
  8
0
 10
63.0788662000955
 20
229.4537048496745
 30
0.0
 40
0.3768972758071489
 50
89.97665940658239
 51
180.0233405934878
  0
ARC
  5
997A
  8
0
 10
63.03671043351217
 20
229.2116209207244
 30
0.0
 40
0.3347676534002981
 50
179.2835006658341
 51
277.2606919210987
  0
ARC
  5
997C
  8
0
 10
63.06765651134693
 20
227.8065108745469
 30
0.0
 40
0.3662987656052747
 50
88.22229995736356
 51
176.6896381244135
  0
ARC
  5
997D
  8
0
 10
63.61358972471138
 20
227.2567673821567
 30
0.0
 40
0.9125541393853733
 50
182.5916258786893
 51
271.6600393676819
  0
ARC
  5
997E
  8
0
 10
64.76530104827305
 20
225.9953628363959
 30
0.0
 40
0.3502616083451314
 50
265.608746066266
 51
94.39125393373399
  0
ARC
  5
997F
  8
0
 10
62.96167971981945
 20
227.8729619743557
 30
0.0
 40
2.227259321723195
 50
225.0349285396396
 51
271.1216669202527
  0
ARC
  5
9980
  8
0
 10
62.70746166970258
 20
227.7024378593893
 30
0.0
 40
1.927871578424823
 50
179.3527648258316
 51
226.7994771726993
  0
ARC
  5
9981
  8
0
 10
60.60008253863446
 20
227.9573485821016
 30
0.0
 40
0.1798521029892861
 50
357.1558279388275
 51
48.6570089060411
  0
ARC
  5
9982
  8
0
 10
60.52984032741144
 20
227.8613056341727
 30
0.0
 40
0.2985497565163959
 50
50.71226424714973
 51
78.58034235835028
  0
ARC
  5
9983
  8
0
 10
60.4150339510925
 20
227.3581845571969
 30
0.0
 40
0.8145440850389851
 50
77.67158325142975
 51
90.87644874463575
  0
ARC
  5
9984
  8
0
 10
64.94827264105774
 20
228.5523490683123
 30
0.0
 40
0.3797198155434018
 50
270.2659772238895
 51
356.0405792706869
  0
ARC
  5
9985
  8
0
 10
64.96166616666908
 20
228.5141049215293
 30
0.0
 40
0.365617762344841
 50
1.88469591189923
 51
91.82296525308814
  0
LINE
  5
998F
  8
0
 10
43.13197872118656
 20
230.5709927192082
 30
0.0
 11
47.79387325243681
 21
230.5709927192082
 31
0.0
  0
LINE
  5
9990
  8
0
 10
46.93860958056177
 20
229.8168032660836
 30
0.0
 11
43.13197872118656
 21
229.8168032660836
 31
0.0
  0
LINE
  5
9991
  8
0
 10
44.06001583056161
 20
228.7959536567081
 30
0.0
 11
45.23713497118626
 21
228.7959536567081
 31
0.0
  0
LINE
  5
9992
  8
0
 10
45.71525997118681
 20
228.4558169379583
 30
0.0
 11
45.89947872118648
 21
227.8947231879582
 31
0.0
  0
LINE
  5
9993
  8
0
 10
43.79335567431154
 20
228.4558169379583
 30
0.0
 11
44.30839473681192
 21
226.7451138129585
 31
0.0
  0
LINE
  5
9994
  8
0
 10
45.88084590868641
 20
225.6507876410836
 30
0.0
 11
46.22133418993656
 21
225.6507876410836
 31
0.0
  0
LINE
  5
9995
  8
0
 10
46.49704708056163
 20
225.9910122504583
 30
0.0
 11
46.33146114306158
 21
226.5519302192082
 31
0.0
  0
LINE
  5
9996
  8
0
 10
52.62847286181125
 20
230.198424359833
 30
0.0
 11
52.62847286181125
 21
227.6233169379583
 31
0.0
  0
LINE
  5
9997
  8
0
 10
53.00552364306134
 20
227.2462661567082
 30
0.0
 11
54.17332637743641
 21
227.2462661567082
 31
0.0
  0
LINE
  5
9998
  8
0
 10
54.55046504931181
 20
227.6233169379583
 30
0.0
 11
54.55046504931181
 21
230.198424359833
 31
0.0
  0
LINE
  5
9999
  8
0
 10
54.17332637743641
 20
230.5664224067081
 30
0.0
 11
53.00552364306134
 21
230.5664224067081
 31
0.0
  0
LINE
  5
999A
  8
0
 10
56.29702754931134
 20
230.198424359833
 30
0.0
 11
56.29702754931134
 21
227.320006391083
 31
0.0
  0
LINE
  5
999B
  8
0
 10
55.3589709086865
 20
226.3910024848332
 30
0.0
 11
55.09222286181159
 21
226.3910024848332
 31
0.0
  0
LINE
  5
999C
  8
0
 10
55.09222286181159
 20
225.6461294379582
 30
0.0
 11
55.99345333056192
 21
225.6461294379582
 31
0.0
  0
LINE
  5
999D
  8
0
 10
58.21901973681145
 20
227.8624673285834
 30
0.0
 11
58.21901973681145
 21
230.198424359833
 31
0.0
  0
LINE
  5
999E
  8
0
 10
57.85119747118654
 20
230.5664224067081
 30
0.0
 11
56.66476192431185
 21
230.5664224067081
 31
0.0
  0
LINE
  5
999F
  8
0
 10
59.45133418993657
 20
230.5754751410835
 30
0.0
 11
64.73848262743661
 21
230.5754751410835
 31
0.0
  0
LINE
  5
99A0
  8
0
 10
64.73848262743661
 20
229.8306020942085
 30
0.0
 11
63.07901973681157
 21
229.8306020942085
 31
0.0
  0
LINE
  5
99A1
  8
0
 10
62.70196895556149
 20
229.453551312958
 30
0.0
 11
62.70196895556148
 21
229.2158071723333
 31
0.0
  0
LINE
  5
99A2
  8
0
 10
63.07901973681157
 20
228.8795376410829
 30
0.0
 11
64.9500353618115
 21
228.8795376410829
 31
0.0
  0
LINE
  5
99A3
  8
0
 10
64.9500353618115
 20
228.1726333442083
 30
0.0
 11
63.07901973681157
 21
228.1726333442083
 31
0.0
  0
LINE
  5
99A4
  8
0
 10
62.70196895556148
 20
227.8276626410833
 30
0.0
 11
62.70196895556148
 21
227.2155044379582
 31
0.0
  0
LINE
  5
99A5
  8
0
 10
63.64002559618677
 20
226.3445962348336
 30
0.0
 11
64.73848262743661
 21
226.3445962348336
 31
0.0
  0
LINE
  5
99A6
  8
0
 10
64.73848262743661
 20
225.6461294379582
 30
0.0
 11
63.00527950243634
 21
225.6461294379582
 31
0.0
  0
LINE
  5
99A7
  8
0
 10
60.77971309618681
 20
227.7242153754581
 30
0.0
 11
60.77971309618681
 21
227.948424359833
 31
0.0
  0
LINE
  5
99A8
  8
0
 10
60.40257442431141
 20
228.1726333442083
 30
0.0
 11
59.23978145556168
 21
228.1726333442083
 31
0.0
  0
LINE
  5
99A9
  8
0
 10
59.23978145556168
 20
228.8795376410829
 30
0.0
 11
60.40257442431141
 21
228.8795376410829
 31
0.0
  0
LINE
  5
99AA
  8
0
 10
60.77892208056176
 20
229.2158071723333
 30
0.0
 11
60.77971309618681
 21
229.4627798285832
 31
0.0
  0
LINE
  5
99AB
  8
0
 10
60.40257442431141
 20
229.8306020942085
 30
0.0
 11
59.45133418993657
 21
229.8306020942085
 31
0.0
  0
LINE
  5
9A0B
  8
0
 10
44.90033809618637
 20
232.4509731879583
 30
0.0
 11
44.01844356493677
 21
232.4509731879583
 31
0.0
  0
LINE
  5
9A0C
  8
0
 10
44.01844356493677
 20
232.4509731879583
 30
0.0
 11
44.01844356493677
 21
232.6163833442082
 31
0.0
  0
LINE
  5
9A0D
  8
0
 10
44.01844356493677
 20
232.6163833442082
 30
0.0
 11
45.09387325243654
 21
232.6163833442082
 31
0.0
  0
LINE
  5
9A0E
  8
0
 10
45.09387325243654
 20
232.6163833442082
 30
0.0
 11
45.09387325243654
 21
232.4509731879583
 31
0.0
  0
LINE
  5
9A0F
  8
0
 10
44.47477168993657
 20
232.0305923285836
 30
0.0
 11
44.32403926806148
 21
232.2360806098335
 31
0.0
  0
LINE
  5
9A10
  8
0
 10
44.32403926806148
 20
232.2360806098335
 30
0.0
 11
44.17058223681181
 21
232.1334243598334
 31
0.0
  0
LINE
  5
9A12
  8
0
 10
44.57083614306168
 20
231.5636294379586
 30
0.0
 11
44.72824825243663
 21
231.662330609833
 31
0.0
  0
LINE
  5
9A13
  8
0
 10
44.72824825243663
 20
231.662330609833
 30
0.0
 11
44.58015254931126
 21
231.8811782660836
 31
0.0
  0
ARC
  5
9A14
  8
0
 10
34.35775638356566
 20
224.8149024842405
 30
0.0
 40
12.24141795992888
 50
33.45643062216233
 51
36.71601240395394
  0
ARC
  5
9A15
  8
0
 10
44.07174330386157
 20
232.8641906016551
 30
0.0
 40
0.9259146617534648
 50
295.8028544447355
 51
333.4947229782732
  0
ARC
  5
9A16
  8
0
 10
44.14461749811943
 20
232.7903316469814
 30
0.0
 40
1.008092580477948
 50
295.5970136290768
 51
340.3280553328837
  0
LINE
  5
9A21
  8
0
 10
45.86775020556126
 20
232.1560122504583
 30
0.0
 11
45.86775020556126
 21
231.5796255317085
 31
0.0
  0
LINE
  5
9A22
  8
0
 10
45.86775020556126
 20
231.5796255317085
 30
0.0
 11
46.05987911181148
 21
231.5796255317085
 31
0.0
  0
LINE
  5
9A23
  8
0
 10
46.05987911181148
 20
231.5796255317085
 30
0.0
 11
46.05987911181148
 21
232.2481216254586
 31
0.0
  0
LINE
  5
9A24
  8
0
 10
46.44545528368656
 20
232.5283169379585
 30
0.0
 11
46.33603145556174
 21
232.6537368598332
 31
0.0
  0
LINE
  5
9A25
  8
0
 10
45.33803340868656
 20
232.1800942817084
 30
0.0
 11
45.36607051806152
 21
232.0160024848332
 31
0.0
  0
ARC
  5
9A26
  8
0
 10
45.09474995630639
 20
233.9809566754293
 30
0.0
 40
1.817221010036674
 50
277.6936667564446
 51
313.0836814663463
  0
ARC
  5
9A27
  8
0
 10
45.27396661180987
 20
233.7350070704311
 30
0.0
 40
1.681810567258462
 50
297.8592692614835
 51
314.1519780416261
  0
ARC
  5
9A28
  8
0
 10
45.08145891948336
 20
234.0046243373904
 30
0.0
 40
2.008885420952019
 50
278.1448623061172
 51
293.0420589932965
  0
LINE
  5
9A39
  8
0
 10
47.17529903368643
 20
232.246803266083
 30
0.0
 11
47.17529903368643
 21
232.2774770942082
 31
0.0
  0
LINE
  5
9A3A
  8
0
 10
47.17529903368643
 20
232.2774770942082
 30
0.0
 11
46.66025997118652
 21
232.2774770942082
 31
0.0
  0
LINE
  5
9A3B
  8
0
 10
46.66025997118652
 20
232.2774770942082
 30
0.0
 11
46.66025997118652
 21
232.4469302192086
 31
0.0
  0
LINE
  5
9A3C
  8
0
 10
46.66025997118652
 20
232.4469302192086
 30
0.0
 11
47.17529903368643
 21
232.4469302192086
 31
0.0
  0
LINE
  5
9A3D
  8
0
 10
47.17529903368643
 20
232.4469302192086
 30
0.0
 11
47.17529903368643
 21
232.6963638129586
 31
0.0
  0
LINE
  5
9A3E
  8
0
 10
47.17529903368643
 20
232.6963638129586
 30
0.0
 11
47.36206661181143
 21
232.6963638129586
 31
0.0
  0
LINE
  5
9A3F
  8
0
 10
47.36206661181143
 20
232.6963638129586
 30
0.0
 11
47.36206661181143
 21
232.4469302192086
 31
0.0
  0
LINE
  5
9A40
  8
0
 10
47.36206661181143
 20
232.4469302192086
 30
0.0
 11
47.78903926806163
 21
232.4469302192086
 31
0.0
  0
LINE
  5
9A41
  8
0
 10
47.78903926806163
 20
232.4469302192086
 30
0.0
 11
47.78903926806163
 21
232.2774770942082
 31
0.0
  0
LINE
  5
9A42
  8
0
 10
47.78903926806163
 20
232.2774770942082
 30
0.0
 11
47.36206661181143
 21
232.2774770942082
 31
0.0
  0
LINE
  5
9A43
  8
0
 10
47.36206661181143
 20
232.2774770942082
 30
0.0
 11
47.36206661181143
 21
232.246803266083
 31
0.0
  0
LINE
  5
9A44
  8
0
 10
46.82971309618654
 20
231.5835806098333
 30
0.0
 11
46.77363887743661
 21
231.7490786567081
 31
0.0
  0
ARC
  5
9A45
  8
0
 10
46.40237051412215
 20
232.2322977343747
 30
0.0
 40
0.7730646200712835
 50
342.2910204567376
 51
1.075142363624482
  0
ARC
  5
9A46
  8
0
 10
46.84883908709914
 20
232.0961127714908
 30
0.0
 40
0.3063876798952075
 50
304.2370088981633
 51
341.1546735930867
  0
ARC
  5
9A47
  8
0
 10
46.67687034067117
 20
232.3784817005783
 30
0.0
 40
0.6367985092080606
 50
278.740586398685
 51
302.7346045229107
  0
ARC
  5
9A48
  8
0
 10
46.70441931145885
 20
232.3594372770196
 30
0.0
 40
0.7859084555523594
 50
279.1735470624589
 51
305.3414915022702
  0
ARC
  5
9A49
  8
0
 10
46.85359934897006
 20
232.1064541334252
 30
0.0
 40
0.4938678410143298
 50
308.2022886499791
 51
350.729606218371
  0
ARC
  5
9A4A
  8
0
 10
46.30947755310315
 20
232.2365963541187
 30
0.0
 40
1.05263854554364
 50
348.5089467324644
 51
0.555577357971081
  0
LINE
  5
9A57
  8
0
 10
48.78712520556167
 20
232.4602895942083
 30
0.0
 11
48.13198848681134
 21
232.4602895942083
 31
0.0
  0
LINE
  5
9A58
  8
0
 10
48.13198848681134
 20
232.4602895942083
 30
0.0
 11
48.13198848681134
 21
232.6243813910836
 31
0.0
  0
LINE
  5
9A59
  8
0
 10
48.13198848681134
 20
232.6243813910836
 30
0.0
 11
48.98584590868643
 21
232.6243813910836
 31
0.0
  0
LINE
  5
9A5A
  8
0
 10
48.98584590868643
 20
232.6243813910836
 30
0.0
 11
48.98584590868643
 21
232.4602895942083
 31
0.0
  0
LINE
  5
9A5B
  8
0
 10
49.10063106493692
 20
231.7156802192084
 30
0.0
 11
48.97784786181148
 21
231.5943032660833
 31
0.0
  0
LINE
  5
9A5D
  8
0
 10
48.09454708056148
 20
231.6023013129583
 30
0.0
 11
48.01447872118626
 21
231.7490786567081
 31
0.0
  0
ARC
  5
9A5E
  8
0
 10
47.31555533298877
 20
233.2836761086366
 30
0.0
 40
1.686263099876902
 50
294.4866134087317
 51
330.7717068869535
  0
ARC
  5
9A5F
  8
0
 10
47.24978877546867
 20
233.4126733885639
 30
0.0
 40
1.997764662355422
 50
295.0147624386644
 51
312.8436054073337
  0
ARC
  5
9A60
  8
0
 10
41.37531573621828
 20
224.0177754785407
 30
0.0
 40
10.73323194737177
 50
44.90184257982878
 51
47.63246263973681
  0
ARC
  5
9A61
  8
0
 10
42.14617892478323
 20
224.7138588745834
 30
0.0
 40
9.868632464113261
 50
45.19446774917372
 51
48.17612407225276
  0
ARC
  5
9A62
  8
0
 10
47.61264821767291
 20
233.084666197275
 30
0.0
 40
1.508482032064661
 50
317.623279394925
 51
335.5492736743404
  0
LINE
  5
9A69
  8
0
 10
49.64766231493661
 20
232.6590981879584
 30
0.0
 11
49.47284786181137
 21
232.6790493598331
 31
0.0
  0
LINE
  5
9A6A
  8
0
 10
49.47284786181137
 20
231.5742642035833
 30
0.0
 11
49.64766231493661
 21
231.5943032660833
 31
0.0
  0
ARC
  5
9A6B
  8
0
 10
51.82399673873407
 20
232.1267007270209
 30
0.0
 40
2.24050855401593
 50
166.2536808747335
 51
193.7463191252665
  0
ARC
  5
9A6C
  8
0
 10
51.72627309725141
 20
232.1266567817082
 30
0.0
 40
2.320142851654927
 50
166.2264222050919
 51
193.7735777949081
  0
LINE
  5
9A7C
  8
0
 10
49.85578731493672
 20
232.4202114692083
 30
0.0
 11
49.85578731493672
 21
232.5763052192082
 31
0.0
  0
LINE
  5
9A7D
  8
0
 10
49.85578731493672
 20
232.5763052192082
 30
0.0
 11
50.42953731493674
 21
232.5763052192082
 31
0.0
  0
LINE
  5
9A7E
  8
0
 10
50.42953731493674
 20
232.5763052192082
 30
0.0
 11
50.42953731493674
 21
232.4202114692083
 31
0.0
  0
LINE
  5
9A7F
  8
0
 10
50.42953731493674
 20
232.4202114692083
 30
0.0
 11
49.85578731493672
 21
232.4202114692083
 31
0.0
  0
LINE
  5
9A80
  8
0
 10
50.03596309618626
 20
232.0827114692082
 30
0.0
 11
49.91045528368625
 21
232.1828188910835
 31
0.0
  0
LINE
  5
9A81
  8
0
 10
50.4414904399365
 20
231.8238735785829
 30
0.0
 11
50.46557247118665
 21
231.6690981879586
 31
0.0
  0
ARC
  5
9A82
  8
0
 10
50.27006351224581
 20
231.764857063998
 30
0.0
 40
0.5513711698559726
 50
130.708220238404
 51
157.703625479385
  0
ARC
  5
9A83
  8
0
 10
49.96061856925147
 20
231.8917187371514
 30
0.0
 40
0.2169312572480087
 50
157.6967650917142
 51
205.3984993646984
  0
ARC
  5
9A84
  8
0
 10
50.02698863958538
 20
231.9460160730316
 30
0.0
 40
0.3008800009813904
 50
209.3210192654115
 51
257.5935048122166
  0
ARC
  5
9A85
  8
0
 10
50.15961532795603
 20
232.4579992862089
 30
0.0
 40
0.8296316180790294
 50
256.2444659394052
 51
275.2215523672215
  0
ARC
  5
9A86
  8
0
 10
50.15724436771699
 20
232.8439021216934
 30
0.0
 40
1.214590672657983
 50
273.6760364924777
 51
284.7056607611161
  0
ARC
  5
9A87
  8
0
 10
50.14568430461726
 20
233.0665376882006
 30
0.0
 40
1.277386143272562
 50
270.1640623199838
 51
283.3896060448867
  0
ARC
  5
9A88
  8
0
 10
50.12692642604723
 20
232.1592062150324
 30
0.0
 40
0.3707277183708511
 50
242.6706422703857
 51
273.4664302047653
  0
ARC
  5
9A89
  8
0
 10
50.00640184778214
 20
231.900892771564
 30
0.0
 40
0.0866823147437489
 50
154.885456063079
 51
235.0327799996414
  0
ARC
  5
9A8A
  8
0
 10
50.34545015413548
 20
231.7393745716054
 30
0.0
 40
0.4622363727478137
 50
132.0317914832223
 51
154.5946083240115
  0
LINE
  5
9AAE
  8
0
 10
50.90186153368643
 20
232.3976235785834
 30
0.0
 11
50.71641231493652
 21
232.3976235785834
 31
0.0
  0
LINE
  5
9AAF
  8
0
 10
50.71641231493652
 20
232.3976235785834
 30
0.0
 11
50.71641231493652
 21
232.5496743598336
 31
0.0
  0
LINE
  5
9AB0
  8
0
 10
50.71641231493652
 20
232.5496743598336
 30
0.0
 11
50.94457637743665
 21
232.5496743598336
 31
0.0
  0
LINE
  5
9AB1
  8
0
 10
50.99124629931168
 20
232.7378481879581
 30
0.0
 11
51.15138301806167
 21
232.716490766083
 31
0.0
  0
LINE
  5
9AB2
  8
0
 10
51.11130489306163
 20
232.5496743598336
 30
0.0
 11
51.33419551806185
 21
232.5496743598336
 31
0.0
  0
LINE
  5
9AB3
  8
0
 10
51.33419551806185
 20
232.5496743598336
 30
0.0
 11
51.33419551806185
 21
232.3976235785834
 31
0.0
  0
LINE
  5
9AB4
  8
0
 10
51.33419551806185
 20
232.3976235785834
 30
0.0
 11
51.07131465868645
 21
232.3976235785834
 31
0.0
  0
LINE
  5
9AB5
  8
0
 10
50.84042598681174
 20
231.7291274848334
 30
0.0
 11
50.68573848681137
 21
231.7811587348336
 31
0.0
  0
LINE
  5
9AB6
  8
0
 10
51.46893184618659
 20
232.5496743598336
 30
0.0
 11
51.46893184618659
 21
232.0479946723329
 31
0.0
  0
LINE
  5
9AB7
  8
0
 10
51.63838497118661
 20
232.393492719208
 30
0.0
 11
51.63838497118661
 21
231.9652017035836
 31
0.0
  0
LINE
  5
9AB8
  8
0
 10
51.88790645556185
 20
232.5229556098333
 30
0.0
 11
51.86786739306137
 21
232.3708169379582
 31
0.0
  0
LINE
  5
9AB9
  8
0
 10
51.89449825243685
 20
231.765074750458
 30
0.0
 11
51.78911739306125
 21
231.6477407660835
 31
0.0
  0
LINE
  5
9ABA
  8
0
 10
51.78911739306125
 20
231.6477407660835
 30
0.0
 11
51.63038692431167
 21
231.7798403754581
 31
0.0
  0
ARC
  5
9ABB
  8
0
 10
42.92107959564657
 20
234.639495816355
 30
0.0
 40
8.291191369612257
 50
345.4009556896892
 51
346.7407469548672
  0
ARC
  5
9ABC
  8
0
 10
44.37678254768493
 20
234.3390983053335
 30
0.0
 40
6.807788178855744
 50
337.9301136346511
 51
343.4301309136032
  0
ARC
  5
9ABD
  8
0
 10
45.15534858739845
 20
234.0667900201051
 30
0.0
 40
6.146931849803847
 50
337.647891114247
 51
344.2437969395151
  0
ARC
  5
9ABE
  8
0
 10
48.22945414164474
 20
233.3302699998166
 30
0.0
 40
2.985698127172701
 50
344.8441834964499
 51
348.1369498948575
  0
ARC
  5
9ABF
  8
0
 10
51.49143897058536
 20
229.6042935393513
 30
0.0
 40
2.945466813310544
 50
82.26435931630415
 51
90.4378171164357
  0
ARC
  5
9AC0
  8
0
 10
51.58570134588836
 20
230.6877895285082
 30
0.0
 40
1.706516609687102
 50
80.48265313058977
 51
88.23088210500026
  0
ARC
  5
9AC1
  8
0
 10
50.67111454107279
 20
230.4633889586298
 30
0.0
 40
1.786352038619028
 50
46.7761655705322
 51
57.2156866531281
  0
ARC
  5
9AC2
  8
0
 10
51.40025390213555
 20
231.8102664552212
 30
0.0
 40
0.2321356375605922
 50
300.4982959066422
 51
352.4685567395019
  0
ARC
  5
9AC3
  8
0
 10
51.329849516839
 20
232.0140076628747
 30
0.0
 40
0.4454740180557357
 50
260.8493170262734
 51
294.9930070723751
  0
ARC
  5
9AC4
  8
0
 10
51.27329405189619
 20
231.8483553603995
 30
0.0
 40
0.274524516799522
 50
210.6191600754503
 51
267.0164240300838
  0
ARC
  5
9AC5
  8
0
 10
51.27264975303364
 20
231.8216997768573
 30
0.0
 40
0.2613734309622749
 50
147.2334581988945
 51
205.6564160796881
  0
ARC
  5
9AC6
  8
0
 10
51.27761829581475
 20
231.7829361429523
 30
0.0
 40
0.2880874616600608
 50
91.03111037243933
 51
141.2747978514546
  0
ARC
  5
9AC7
  8
0
 10
51.32024310807728
 20
231.628226710479
 30
0.0
 40
0.4453240198322287
 50
70.49501453936284
 51
96.16302987731919
  0
ARC
  5
9AC8
  8
0
 10
51.32306317960333
 20
231.6381934842058
 30
0.0
 40
0.2902930385304879
 50
59.83528150936944
 51
103.2201440558038
  0
ARC
  5
9AC9
  8
0
 10
51.27816164637246
 20
231.824326825839
 30
0.0
 40
0.0988304488869036
 50
102.5568170755454
 51
180.2627656372238
  0
ARC
  5
9ACA
  8
0
 10
51.28045616725635
 20
231.8211071013837
 30
0.0
 40
0.1011617650333014
 50
178.4329333203435
 51
256.0701828760615
  0
ARC
  5
9ACB
  8
0
 10
51.32722201670435
 20
231.9739760330209
 30
0.0
 40
0.2609345439815814
 50
254.1836782918791
 51
287.6043484841652
  0
ARC
  5
9ACC
  8
0
 10
51.37699042447242
 20
231.8044070712588
 30
0.0
 40
0.0843426031298885
 50
290.2187264653073
 51
350.7581622463892
  0
ARC
  5
9ACD
  8
0
 10
51.10227097165198
 20
231.8720571065837
 30
0.0
 40
0.3670603004158596
 50
347.2201738930314
 51
2.673168984877173
  0
LINE
  5
9AD8
  8
0
 10
52.20941036181159
 20
232.1573306098334
 30
0.0
 11
52.17741817431181
 21
232.3095571723333
 31
0.0
  0
LINE
  5
9AD9
  8
0
 10
52.36550411181145
 20
231.7638442817082
 30
0.0
 11
52.37754512743652
 21
231.6116177192083
 31
0.0
  0
ARC
  5
9ADA
  8
0
 10
52.79608475219865
 20
229.9765940715341
 30
0.0
 40
2.413600042319521
 50
93.0330778001963
 51
104.8521252483089
  0
ARC
  5
9ADB
  8
0
 10
52.69343224161628
 20
231.8599952435592
 30
0.0
 40
0.5274133454568837
 50
60.91960556757768
 51
92.72310713201314
  0
ARC
  5
9ADC
  8
0
 10
52.79619597207162
 20
232.08836539966
 30
0.0
 40
0.2786914630822537
 50
9.671194361807427
 51
56.55959162043254
  0
ARC
  5
9ADD
  8
0
 10
52.63619650665375
 20
232.0478783300956
 30
0.0
 40
0.4434101722744036
 50
333.9597813248168
 51
11.35547973601136
  0
ARC
  5
9ADE
  8
0
 10
52.70757506049454
 20
232.0389247752052
 30
0.0
 40
0.3760688166287614
 50
291.9740011095572
 51
330.4090690351099
  0
ARC
  5
9ADF
  8
0
 10
52.5220331521007
 20
232.4326067504139
 30
0.0
 40
0.8109562744615367
 50
277.5911083880271
 51
293.7231081887235
  0
ARC
  5
9AE0
  8
0
 10
52.38885013573412
 20
233.3011233789042
 30
0.0
 40
1.689543481937406
 50
269.6166218252729
 51
278.1772037059889
  0
ARC
  5
9AE1
  8
0
 10
52.40409914763733
 20
232.9172540981559
 30
0.0
 40
1.154055363259622
 50
268.0835017580471
 51
287.3544714703422
  0
ARC
  5
9AE2
  8
0
 10
52.68169839822287
 20
232.0315310309275
 30
0.0
 40
0.2258508101221847
 50
287.1599817388422
 51
352.3121354184229
  0
ARC
  5
9AE3
  8
0
 10
52.7075774912614
 20
232.0373213980948
 30
0.0
 40
0.2011894179017752
 50
349.6911030936221
 51
46.31820342357727
  0
ARC
  5
9AE4
  8
0
 10
52.67569695710583
 20
231.9157940204252
 30
0.0
 40
0.3169953313446048
 50
57.39040451094958
 51
96.72424011120121
  0
ARC
  5
9AE5
  8
0
 10
52.85523187775942
 20
229.6683394030175
 30
0.0
 40
2.571412580288827
 50
94.8331371896795
 51
104.5458325788215
  0
LINE
  5
9B01
  8
0
 10
53.61038692431168
 20
232.4202114692083
 30
0.0
 11
53.42889278368659
 21
232.4202114692083
 31
0.0
  0
LINE
  5
9B02
  8
0
 10
53.42889278368659
 20
232.4202114692083
 30
0.0
 11
53.42889278368659
 21
232.5710317817083
 31
0.0
  0
LINE
  5
9B03
  8
0
 10
53.42889278368659
 20
232.5710317817083
 30
0.0
 11
53.64106075243637
 21
232.5710317817083
 31
0.0
  0
LINE
  5
9B04
  8
0
 10
53.64106075243637
 20
232.5710317817083
 30
0.0
 11
53.66909786181134
 21
232.7324868598333
 31
0.0
  0
LINE
  5
9B05
  8
0
 10
53.66909786181134
 20
232.7324868598333
 30
0.0
 11
53.83863887743667
 21
232.7177212348332
 31
0.0
  0
LINE
  5
9B06
  8
0
 10
53.83863887743667
 20
232.7177212348332
 30
0.0
 11
53.81323848681143
 21
232.5710317817083
 31
0.0
  0
LINE
  5
9B07
  8
0
 10
53.81323848681143
 20
232.5710317817083
 30
0.0
 11
54.27897090868657
 21
232.5710317817083
 31
0.0
  0
LINE
  5
9B08
  8
0
 10
54.27897090868657
 20
232.5710317817083
 30
0.0
 11
54.27897090868657
 21
232.4202114692083
 31
0.0
  0
LINE
  5
9B09
  8
0
 10
54.27897090868657
 20
232.4202114692083
 30
0.0
 11
53.78397090868668
 21
232.4202114692083
 31
0.0
  0
LINE
  5
9B0A
  8
0
 10
53.55703731493634
 20
231.5689907660829
 30
0.0
 11
53.38890254931141
 21
231.6076626410835
 31
0.0
  0
LINE
  5
9B0B
  8
0
 10
53.94129512743677
 20
232.1334243598334
 30
0.0
 11
53.93066036181165
 21
232.2827505317085
 31
0.0
  0
LINE
  5
9B0C
  8
0
 10
54.48032833056152
 20
232.3135122504585
 30
0.0
 11
54.48032833056152
 21
232.1640981879585
 31
0.0
  0
LINE
  5
9B0D
  8
0
 10
54.08007442431165
 20
231.9626528754583
 30
0.0
 11
53.95869747118661
 21
232.0399087348336
 31
0.0
  0
LINE
  5
9B0E
  8
0
 10
54.4910509868115
 20
231.7704360785832
 30
0.0
 11
54.51109004931152
 21
231.6197036567086
 31
0.0
  0
ARC
  5
9B0F
  8
0
 10
47.01143885224894
 20
233.7824907413678
 30
0.0
 40
6.738094721294446
 50
341.1697144444025
 51
348.3357808241415
  0
ARC
  5
9B10
  8
0
 10
47.03051474647866
 20
233.764807884946
 30
0.0
 40
6.886008252687487
 50
341.4047346856015
 51
348.7397953124072
  0
ARC
  5
9B11
  8
0
 10
54.46814351763327
 20
227.6049659104339
 30
0.0
 40
4.708562105975219
 50
89.85172986605279
 51
96.5546104840503
  0
ARC
  5
9B12
  8
0
 10
54.46915602137195
 20
227.6088599984418
 30
0.0
 40
4.555251890260736
 50
89.85947499256585
 51
96.65436322543627
  0
ARC
  5
9B13
  8
0
 10
54.18685431908101
 20
231.725275279798
 30
0.0
 40
0.3886512038689388
 50
125.9477923082806
 51
153.9456213275426
  0
ARC
  5
9B14
  8
0
 10
53.99978889060169
 20
231.831297073022
 30
0.0
 40
0.1745196541164178
 50
158.2451995748749
 51
211.9377387908493
  0
ARC
  5
9B15
  8
0
 10
54.10853904793882
 20
231.9254040928797
 30
0.0
 40
0.3173766808952333
 50
215.9728103304898
 51
258.577083270988
  0
ARC
  5
9B16
  8
0
 10
54.22196071284172
 20
232.3136885368768
 30
0.0
 40
0.7212479843673572
 50
255.8532185042195
 51
272.6578213791558
  0
ARC
  5
9B17
  8
0
 10
54.22575990582918
 20
233.1267090069056
 30
0.0
 40
1.533779128917274
 50
271.1075186277241
 51
280.7212356446171
  0
ARC
  5
9B18
  8
0
 10
54.21305002584175
 20
233.2109144974256
 30
0.0
 40
1.467059170398629
 50
270.0695624886666
 51
280.923337658684
  0
ARC
  5
9B19
  8
0
 10
54.20865017539042
 20
232.1111543271695
 30
0.0
 40
0.3680274217404644
 50
240.6869572496387
 51
273.2459162436448
  0
ARC
  5
9B1A
  8
0
 10
54.06797053583714
 20
231.8536654286653
 30
0.0
 40
0.074711058388821
 50
182.4248820533393
 51
238.0824827210163
  0
ARC
  5
9B1B
  8
0
 10
54.07651269374487
 20
231.845539232905
 30
0.0
 40
0.0833343655532817
 50
131.1757227927974
 51
176.5841957139146
  0
ARC
  5
9B1C
  8
0
 10
54.53985796740226
 20
231.4101545476026
 30
0.0
 40
0.7187873877436253
 50
129.7668863169349
 51
136.1330162188036
  0
LINE
  5
9B33
  8
0
 10
54.99941036181156
 20
232.6604165473331
 30
0.0
 11
54.98077754931148
 21
232.5095962348336
 31
0.0
  0
LINE
  5
9B34
  8
0
 10
55.63450801806141
 20
232.620338422333
 30
0.0
 11
55.63450801806141
 21
232.4695181098335
 31
0.0
  0
LINE
  5
9B35
  8
0
 10
55.05267208056159
 20
232.393492719208
 30
0.0
 11
54.87935176806161
 21
232.4069399848335
 31
0.0
  0
LINE
  5
9B36
  8
0
 10
54.87935176806161
 20
232.4069399848335
 30
0.0
 11
54.81255489306125
 21
231.9892837348333
 31
0.0
  0
LINE
  5
9B37
  8
0
 10
54.81255489306125
 20
231.9892837348333
 30
0.0
 11
54.97146114306145
 21
231.954566937958
 31
0.0
  0
LINE
  5
9B38
  8
0
 10
55.01813106493648
 20
232.1373794379582
 30
0.0
 11
55.05267208056159
 21
232.393492719208
 31
0.0
  0
LINE
  5
9B39
  8
0
 10
54.92602168993665
 20
231.7503970160836
 30
0.0
 11
54.91406856493643
 21
231.5970278754584
 31
0.0
  0
ARC
  5
9B3A
  8
0
 10
55.43399971825436
 20
231.5431207045056
 30
0.0
 40
0.725320742221686
 50
82.73839553073114
 51
124.9847424284259
  0
ARC
  5
9B3B
  8
0
 10
55.51424843690607
 20
231.9691579214143
 30
0.0
 40
0.2936885684487056
 50
25.47750666320868
 51
87.76921556057754
  0
ARC
  5
9B3C
  8
0
 10
55.4463888622768
 20
231.9625844952596
 30
0.0
 40
0.3585317338785675
 50
321.3543299701645
 51
21.75842031571868
  0
ARC
  5
9B3D
  8
0
 10
55.37076651704894
 20
232.0944506020615
 30
0.0
 40
0.5030455772132802
 50
274.963649974099
 51
314.9898391517525
  0
ARC
  5
9B3E
  8
0
 10
55.17878747626958
 20
233.5507945644136
 30
0.0
 40
1.971618719957279
 50
262.2838934043663
 51
276.8602022226234
  0
ARC
  5
9B3F
  8
0
 10
55.23959338752327
 20
234.4587405868122
 30
0.0
 40
2.726435788097946
 50
263.3957068302939
 51
271.0732963894559
  0
ARC
  5
9B45
  8
0
 10
55.29777609091057
 20
232.1218427902625
 30
0.0
 40
0.3891246493399197
 50
268.9526659567916
 51
311.9026700510423
  0
ARC
  5
9B46
  8
0
 10
55.42184816720477
 20
231.9532974279925
 30
0.0
 40
0.1819431806139916
 50
318.2838146029565
 51
32.76134975179693
  0
ARC
  5
9B47
  8
0
 10
55.42043164783968
 20
231.9029154163703
 30
0.0
 40
0.2144715613892272
 50
43.94597849544128
 51
93.25534829105034
  0
ARC
  5
9B48
  8
0
 10
55.39829567840513
 20
231.5990258480599
 30
0.0
 40
0.518110737832
 50
88.89882867160388
 51
112.7433476052045
  0
ARC
  5
9B49
  8
0
 10
55.64190501428759
 20
230.9835403678065
 30
0.0
 40
1.179994739142887
 50
112.0984440204122
 51
124.62308201549
  0
ARC
  5
9B4A
  8
0
 10
55.63247403871709
 20
237.6401807683592
 30
0.0
 40
5.019842758098118
 50
262.7550085222148
 51
270.023215555127
  0
ARC
  5
9B4B
  8
0
 10
55.63385476779293
 20
237.8105324744895
 30
0.0
 40
5.341014404604963
 50
262.9765318468749
 51
270.0070077480808
  0
LINE
  5
9B58
  8
0
 10
56.20025997118648
 20
232.0559927192083
 30
0.0
 11
56.20025997118648
 21
232.6563735785834
 31
0.0
  0
LINE
  5
9B59
  8
0
 10
56.20025997118648
 20
232.6563735785834
 30
0.0
 11
56.38702754931148
 21
232.6563735785834
 31
0.0
  0
LINE
  5
9B5A
  8
0
 10
56.38702754931148
 20
232.6563735785834
 30
0.0
 11
56.38702754931148
 21
232.0559927192083
 31
0.0
  0
LINE
  5
9B5B
  8
0
 10
56.38702754931148
 20
232.0559927192083
 30
0.0
 11
56.20025997118648
 21
232.0559927192083
 31
0.0
  0
LINE
  5
9B5C
  8
0
 10
56.87130489306185
 20
232.2868813910831
 30
0.0
 11
56.87130489306185
 21
232.6563735785834
 31
0.0
  0
LINE
  5
9B5D
  8
0
 10
56.87130489306185
 20
232.6563735785834
 30
0.0
 11
57.06220333056137
 21
232.6563735785834
 31
0.0
  0
LINE
  5
9B5E
  8
0
 10
57.06220333056137
 20
232.6563735785834
 30
0.0
 11
57.06220333056137
 21
232.2908364692083
 31
0.0
  0
LINE
  5
9B5F
  8
0
 10
56.36567012743637
 20
231.5663540473332
 30
0.0
 11
56.32831661181137
 21
231.730445844208
 31
0.0
  0
LINE
  5
9B76
  8
0
 10
57.76128536181125
 20
231.9304849067083
 30
0.0
 11
57.76128536181125
 21
232.0733071723333
 31
0.0
  0
LINE
  5
9B77
  8
0
 10
57.76128536181125
 20
232.0733071723333
 30
0.0
 11
57.39179317431137
 21
232.0733071723333
 31
0.0
  0
LINE
  5
9B78
  8
0
 10
57.39179317431137
 20
232.0733071723333
 30
0.0
 11
57.39179317431137
 21
232.2334438910833
 31
0.0
  0
LINE
  5
9B79
  8
0
 10
57.39179317431137
 20
232.2334438910833
 30
0.0
 11
57.76128536181125
 21
232.2334438910833
 31
0.0
  0
LINE
  5
9B7A
  8
0
 10
57.76128536181125
 20
232.2334438910833
 30
0.0
 11
57.76128536181125
 21
232.4695181098335
 31
0.0
  0
LINE
  5
9B7B
  8
0
 10
57.76128536181125
 20
232.4695181098335
 30
0.0
 11
57.50772090868634
 21
232.4695181098335
 31
0.0
  0
LINE
  5
9B7C
  8
0
 10
57.50772090868634
 20
232.4695181098335
 30
0.0
 11
57.50772090868634
 21
232.6337856879585
 31
0.0
  0
LINE
  5
9B7D
  8
0
 10
57.50772090868634
 20
232.6337856879585
 30
0.0
 11
58.42310176806143
 21
232.6337856879585
 31
0.0
  0
LINE
  5
9B7E
  8
0
 10
58.42310176806143
 20
232.6337856879585
 30
0.0
 11
58.42310176806143
 21
232.4695181098335
 31
0.0
  0
LINE
  5
9B7F
  8
0
 10
58.42310176806143
 20
232.4695181098335
 30
0.0
 11
57.9561388774365
 21
232.4695181098335
 31
0.0
  0
LINE
  5
9B80
  8
0
 10
57.9561388774365
 20
232.4695181098335
 30
0.0
 11
57.9561388774365
 21
232.2334438910833
 31
0.0
  0
LINE
  5
9B81
  8
0
 10
57.9561388774365
 20
232.2334438910833
 30
0.0
 11
58.53920528368656
 21
232.2334438910833
 31
0.0
  0
LINE
  5
9B82
  8
0
 10
58.53920528368656
 20
232.2334438910833
 30
0.0
 11
58.53920528368656
 21
232.0733071723333
 31
0.0
  0
LINE
  5
9B83
  8
0
 10
58.53920528368656
 20
232.0733071723333
 30
0.0
 11
57.9561388774365
 21
232.0733071723333
 31
0.0
  0
LINE
  5
9B84
  8
0
 10
57.9561388774365
 20
232.0733071723333
 30
0.0
 11
57.9561388774365
 21
231.9358462348331
 31
0.0
  0
LINE
  5
9B85
  8
0
 10
58.43646114306159
 20
231.7757095160836
 30
0.0
 11
58.4417345805615
 21
231.6103872504585
 31
0.0
  0
ARC
  5
9B86
  8
0
 10
56.0660330026844
 20
232.2696593231697
 30
0.0
 40
0.8054560304915982
 50
340.9437882329744
 51
1.225178000020296
  0
ARC
  5
9B87
  8
0
 10
56.5033136997443
 20
232.1275822978383
 30
0.0
 40
0.345855307889423
 50
291.670576553406
 51
339.5389467977706
  0
ARC
  5
9B88
  8
0
 10
56.22617633258478
 20
232.7816533031492
 30
0.0
 40
1.056158017710445
 50
275.5497072742328
 51
292.5397602820191
  0
ARC
  5
9B89
  8
0
 10
56.293524951023
 20
232.6144548045461
 30
0.0
 40
1.050580850648829
 50
273.9376978144313
 51
296.3652409231697
  0
ARC
  5
9B8A
  8
0
 10
56.50691325681849
 20
232.1494239734552
 30
0.0
 40
0.5393756653461665
 50
297.9933108679118
 51
349.297395904717
  0
ARC
  5
9B8B
  8
0
 10
56.01234402685586
 20
232.2786580057568
 30
0.0
 40
1.049929936971548
 50
347.3794742886816
 51
0.6646064465847908
  0
ARC
  5
9B8C
  8
0
 10
58.25061254406256
 20
231.9008951906341
 30
0.0
 40
0.4902210140205808
 50
176.539526148283
 51
206.0121964930217
  0
ARC
  5
9B8D
  8
0
 10
57.99301301416091
 20
231.8380174273143
 30
0.0
 40
0.2379373016522034
 50
219.7400975832132
 51
273.8636407009168
  0
ARC
  5
9B8E
  8
0
 10
58.14657881403468
 20
235.0971656669997
 30
0.0
 40
3.499248583992225
 50
267.747489334722
 51
274.8385522250587
  0
ARC
  5
9B8F
  8
0
 10
58.13313627712603
 20
235.2947690525413
 30
0.0
 40
3.532107868600457
 50
269.5594493554569
 51
274.926425743971
  0
ARC
  5
9B90
  8
0
 10
58.10685295089348
 20
232.0980321915845
 30
0.0
 40
0.3352677379612373
 50
252.6101303751348
 51
269.8504673977251
  0
ARC
  5
9B91
  8
0
 10
58.03117260889052
 20
231.838878614486
 30
0.0
 40
0.0655496828836007
 50
188.1794661638446
 51
248.0315991587105
  0
ARC
  5
9B92
  8
0
 10
58.41283809890562
 20
231.925828731608
 30
0.0
 40
0.4568090730928223
 50
178.7434429434828
 51
192.1667740459251
  0
LINE
  5
9B97
  8
0
 10
58.74864864306176
 20
232.0372720160834
 30
0.0
 11
58.74864864306176
 21
232.216041547333
 31
0.0
  0
LINE
  5
9B98
  8
0
 10
58.74864864306176
 20
232.216041547333
 30
0.0
 11
59.85070918993654
 21
232.216041547333
 31
0.0
  0
LINE
  5
9B99
  8
0
 10
59.85070918993654
 20
232.216041547333
 30
0.0
 11
59.85070918993654
 21
232.0372720160834
 31
0.0
  0
LINE
  5
9B9A
  8
0
 10
59.85070918993654
 20
232.0372720160834
 30
0.0
 11
58.74864864306176
 21
232.0372720160834
 31
0.0
  0
LINE
  5
9BA3
  8
0
 10
60.45645137743634
 20
232.1213833442083
 30
0.0
 11
60.45645137743634
 21
231.5756704535833
 31
0.0
  0
LINE
  5
9BA4
  8
0
 10
60.45645137743634
 20
231.5756704535833
 30
0.0
 11
60.26968379931134
 21
231.5756704535833
 31
0.0
  0
LINE
  5
9BA5
  8
0
 10
60.26968379931134
 20
231.5756704535833
 30
0.0
 11
60.26968379931134
 21
232.6778188910833
 31
0.0
  0
LINE
  5
9BA6
  8
0
 10
60.26968379931134
 20
232.6778188910833
 30
0.0
 11
60.45645137743634
 21
232.6778188910833
 31
0.0
  0
LINE
  5
9BA7
  8
0
 10
60.45645137743634
 20
232.6778188910833
 30
0.0
 11
60.45645137743634
 21
232.3041079535836
 31
0.0
  0
LINE
  5
9BA8
  8
0
 10
61.18225215868654
 20
232.0813052192083
 30
0.0
 11
61.12626583056192
 21
231.9132583442082
 31
0.0
  0
ARC
  5
9BA9
  8
0
 10
58.86105535365117
 20
225.8133725468778
 30
0.0
 40
6.683931073296139
 50
69.67895110286418
 51
76.19068882595863
  0
ARC
  5
9BAA
  8
0
 10
58.9133041008666
 20
225.9731260095997
 30
0.0
 40
6.338956678330691
 50
69.5674148178311
 51
75.9104163881585
  0
LINE
  5
9BF8
  8
0
 10
61.52379512743676
 20
231.730445844208
 30
0.0
 11
61.52379512743676
 21
231.9065786567083
 31
0.0
  0
LINE
  5
9BF9
  8
0
 10
61.52379512743676
 20
231.9065786567083
 30
0.0
 11
61.41850215868692
 21
231.8839028754586
 31
0.0
  0
LINE
  5
9BFA
  8
0
 10
61.41850215868692
 20
231.8839028754586
 30
0.0
 11
61.40646114306185
 21
232.0399087348336
 31
0.0
  0
LINE
  5
9BFB
  8
0
 10
61.40646114306185
 20
232.0399087348336
 30
0.0
 11
61.52379512743676
 21
232.0639907660833
 31
0.0
  0
LINE
  5
9BFC
  8
0
 10
61.52379512743676
 20
232.0639907660833
 30
0.0
 11
61.52379512743676
 21
232.3535903754586
 31
0.0
  0
LINE
  5
9BFD
  8
0
 10
61.52379512743676
 20
232.3535903754586
 30
0.0
 11
61.40786739306134
 21
232.3535903754586
 31
0.0
  0
LINE
  5
9BFE
  8
0
 10
61.40786739306134
 20
232.3535903754586
 30
0.0
 11
61.40786739306134
 21
232.5002798285835
 31
0.0
  0
LINE
  5
9BFF
  8
0
 10
61.40786739306134
 20
232.5002798285835
 30
0.0
 11
61.52379512743676
 21
232.5002798285835
 31
0.0
  0
LINE
  5
9C00
  8
0
 10
61.52379512743676
 20
232.5002798285835
 30
0.0
 11
61.52379512743676
 21
232.7310806098334
 31
0.0
  0
LINE
  5
9C01
  8
0
 10
61.52379512743676
 20
232.7310806098334
 30
0.0
 11
61.69201778368654
 21
232.7310806098334
 31
0.0
  0
LINE
  5
9C02
  8
0
 10
61.69201778368654
 20
232.7310806098334
 30
0.0
 11
61.69201778368654
 21
232.5002798285835
 31
0.0
  0
LINE
  5
9C03
  8
0
 10
61.69201778368654
 20
232.5002798285835
 30
0.0
 11
61.80407833056154
 21
232.5002798285835
 31
0.0
  0
LINE
  5
9C04
  8
0
 10
61.80407833056154
 20
232.5002798285835
 30
0.0
 11
61.80407833056154
 21
232.3695864692085
 31
0.0
  0
LINE
  5
9C05
  8
0
 10
61.80407833056154
 20
232.3695864692085
 30
0.0
 11
62.19237911181165
 21
232.3695864692085
 31
0.0
  0
LINE
  5
9C06
  8
0
 10
62.19237911181165
 20
232.3695864692085
 30
0.0
 11
62.19237911181165
 21
232.0866665473335
 31
0.0
  0
LINE
  5
9C07
  8
0
 10
62.19237911181165
 20
232.0866665473335
 30
0.0
 11
62.23236934618637
 21
232.0866665473335
 31
0.0
  0
LINE
  5
9C08
  8
0
 10
62.23236934618637
 20
232.0866665473335
 30
0.0
 11
62.23236934618637
 21
232.3695864692085
 31
0.0
  0
LINE
  5
9C09
  8
0
 10
62.23236934618637
 20
232.3695864692085
 30
0.0
 11
62.63525997118643
 21
232.3695864692085
 31
0.0
  0
LINE
  5
9C0A
  8
0
 10
62.63525997118643
 20
232.3695864692085
 30
0.0
 11
62.63525997118643
 21
232.0532681098333
 31
0.0
  0
LINE
  5
9C0B
  8
0
 10
62.63525997118643
 20
232.0532681098333
 30
0.0
 11
62.29644161181125
 21
232.0532681098333
 31
0.0
  0
LINE
  5
9C0C
  8
0
 10
62.29644161181125
 20
232.0532681098333
 30
0.0
 11
62.29644161181125
 21
232.0039614692081
 31
0.0
  0
LINE
  5
9C0D
  8
0
 10
62.29644161181125
 20
232.0039614692081
 30
0.0
 11
62.65793575243663
 21
232.0039614692081
 31
0.0
  0
LINE
  5
9C0E
  8
0
 10
62.65793575243663
 20
232.0039614692081
 30
0.0
 11
62.65793575243663
 21
231.8665005317083
 31
0.0
  0
LINE
  5
9C0F
  8
0
 10
62.65793575243663
 20
231.8665005317083
 30
0.0
 11
62.38986934618663
 21
231.8665005317083
 31
0.0
  0
LINE
  5
9C10
  8
0
 10
62.03224239306167
 20
231.8665005317083
 30
0.0
 11
61.75872676806159
 21
231.8665005317083
 31
0.0
  0
LINE
  5
9C11
  8
0
 10
61.75872676806159
 20
231.8665005317083
 30
0.0
 11
61.75872676806159
 21
231.9745181098336
 31
0.0
  0
LINE
  5
9C12
  8
0
 10
61.75872676806159
 20
231.9745181098336
 30
0.0
 11
61.69201778368654
 21
231.9532485785834
 31
0.0
  0
LINE
  5
9C13
  8
0
 10
61.69201778368654
 20
231.9532485785834
 30
0.0
 11
61.69201778368654
 21
231.7437173285833
 31
0.0
  0
LINE
  5
9C14
  8
0
 10
61.7200548930615
 20
231.6797329535833
 30
0.0
 11
61.79608028368659
 21
231.5449087348333
 31
0.0
  0
LINE
  5
9C15
  8
0
 10
62.12303340868641
 20
231.7784341254586
 30
0.0
 11
62.12303340868641
 21
231.5289126410834
 31
0.0
  0
LINE
  5
9C16
  8
0
 10
62.12303340868641
 20
231.5289126410834
 30
0.0
 11
62.29644161181125
 21
231.5289126410834
 31
0.0
  0
LINE
  5
9C17
  8
0
 10
62.29644161181125
 20
231.5289126410834
 30
0.0
 11
62.29644161181125
 21
231.7811587348336
 31
0.0
  0
LINE
  5
9C18
  8
0
 10
62.67929317431174
 20
231.6797329535833
 30
0.0
 11
62.59931270556137
 21
231.5449087348333
 31
0.0
  0
LINE
  5
9C19
  8
0
 10
61.86815059618641
 20
232.7177212348332
 30
0.0
 11
62.57531856493654
 21
232.7177212348332
 31
0.0
  0
LINE
  5
9C1A
  8
0
 10
62.57531856493654
 20
232.7177212348332
 30
0.0
 11
62.57531856493654
 21
232.4055337348331
 31
0.0
  0
LINE
  5
9C1B
  8
0
 10
62.57531856493654
 20
232.4055337348331
 30
0.0
 11
61.86815059618641
 21
232.4055337348331
 31
0.0
  0
LINE
  5
9C1C
  8
0
 10
61.86815059618641
 20
232.4055337348331
 30
0.0
 11
61.86815059618641
 21
232.7177212348332
 31
0.0
  0
LINE
  5
9C1D
  8
0
 10
62.03083614306172
 20
232.582984906708
 30
0.0
 11
62.03083614306172
 21
232.5242739692084
 31
0.0
  0
LINE
  5
9C1E
  8
0
 10
62.03083614306172
 20
232.5242739692084
 30
0.0
 11
62.40577754931167
 21
232.5242739692084
 31
0.0
  0
LINE
  5
9C1F
  8
0
 10
62.40577754931167
 20
232.5242739692084
 30
0.0
 11
62.40577754931167
 21
232.582984906708
 31
0.0
  0
LINE
  5
9C20
  8
0
 10
62.40577754931167
 20
232.582984906708
 30
0.0
 11
62.03083614306172
 21
232.582984906708
 31
0.0
  0
LINE
  5
9C21
  8
0
 10
61.69201778368654
 20
232.1080239692086
 30
0.0
 11
61.69201778368654
 21
232.3535903754586
 31
0.0
  0
LINE
  5
9C22
  8
0
 10
61.69201778368654
 20
232.3535903754586
 30
0.0
 11
61.79071895556137
 21
232.3535903754586
 31
0.0
  0
LINE
  5
9C23
  8
0
 10
61.79071895556137
 20
232.3535903754586
 30
0.0
 11
61.79071895556137
 21
232.1400161567084
 31
0.0
  0
LINE
  5
9C24
  8
0
 10
61.79071895556137
 20
232.1400161567084
 30
0.0
 11
61.69201778370263
 21
232.1080239692136
 31
0.0
  0
LINE
  5
9C25
  8
0
 10
62.12303340868641
 20
232.0039614692081
 30
0.0
 11
61.80548458056148
 21
232.0039614692081
 31
0.0
  0
LINE
  5
9C26
  8
0
 10
61.80548458056148
 20
232.0039614692081
 30
0.0
 11
61.80275997118645
 21
232.0532681098333
 31
0.0
  0
LINE
  5
9C27
  8
0
 10
61.80275997118645
 20
232.0532681098333
 30
0.0
 11
62.12303340868641
 21
232.0532681098333
 31
0.0
  0
LINE
  5
9C28
  8
0
 10
62.12303340868641
 20
232.0532681098333
 30
0.0
 11
62.12303340868641
 21
232.0039614692081
 31
0.0
  0
LINE
  5
9C29
  8
0
 10
62.05351192431147
 20
232.1734145942086
 30
0.0
 11
61.93617793993656
 21
232.1734145942086
 31
0.0
  0
LINE
  5
9C2A
  8
0
 10
61.93617793993656
 20
232.1734145942086
 30
0.0
 11
61.93617793993656
 21
232.2453970160835
 31
0.0
  0
LINE
  5
9C2B
  8
0
 10
61.93617793993656
 20
232.2453970160835
 30
0.0
 11
62.05351192431147
 21
232.2453970160835
 31
0.0
  0
LINE
  5
9C2C
  8
0
 10
62.05351192431147
 20
232.2453970160835
 30
0.0
 11
62.05351192431147
 21
232.1734145942086
 31
0.0
  0
LINE
  5
9C2D
  8
0
 10
62.36842403368667
 20
232.1734145942086
 30
0.0
 11
62.36842403368667
 21
232.2453970160835
 31
0.0
  0
LINE
  5
9C2E
  8
0
 10
62.36842403368667
 20
232.2453970160835
 30
0.0
 11
62.48452754931134
 21
232.2453970160835
 31
0.0
  0
LINE
  5
9C2F
  8
0
 10
62.48452754931134
 20
232.2453970160835
 30
0.0
 11
62.48452754931134
 21
232.1734145942086
 31
0.0
  0
LINE
  5
9C30
  8
0
 10
62.48452754931134
 20
232.1734145942086
 30
0.0
 11
62.36842403368667
 21
232.1734145942086
 31
0.0
  0
LINE
  5
9C31
  8
0
 10
61.41314083056125
 20
231.6757778754585
 30
0.0
 11
61.4212267680615
 21
231.5329556098335
 31
0.0
  0
ARC
  5
9C32
  8
0
 10
61.62535261721469
 20
233.9382242334287
 30
0.0
 40
2.272377029695415
 50
264.6414777738622
 51
266.9348152461827
  0
ARC
  5
9C33
  8
0
 10
61.50617972700476
 20
231.6914529673173
 30
0.0
 40
0.022476476334337
 50
264.03501221812
 51
306.5640674473047
  0
ARC
  5
9C34
  8
0
 10
61.50749320566506
 20
231.6820234348381
 30
0.0
 40
0.014839073681366
 50
324.4701988857918
 51
4.421974038850042
  0
ARC
  5
9C35
  8
0
 10
61.01692946217369
 20
231.7229392839175
 30
0.0
 40
0.5069212474043316
 50
355.5000960438241
 51
0.8484748777873121
  0
ARC
  5
9C36
  8
0
 10
61.63483598799712
 20
234.066656047828
 30
0.0
 40
2.542688893344043
 50
265.1809484774698
 51
267.520801462453
  0
ARC
  5
9C37
  8
0
 10
61.53231194556484
 20
232.2737672822845
 30
0.0
 40
0.7474574208886295
 50
269.4278258300275
 51
274.7828769779775
  0
ARC
  5
9C38
  8
0
 10
61.58194420662679
 20
231.6700939420972
 30
0.0
 40
0.1417505388387061
 50
275.1365035074422
 51
297.894765149848
  0
ARC
  5
9C39
  8
0
 10
61.61222055856118
 20
231.6042047421022
 30
0.0
 40
0.0694715375261978
 50
301.2514755256726
 51
351.339722505815
  0
ARC
  5
9C3A
  8
0
 10
61.37097983889965
 20
231.6740146044469
 30
0.0
 40
0.3201466567477245
 50
345.4792488797706
 51
359.0668339659442
  0
ARC
  5
9C3B
  8
0
 10
59.49868979905715
 20
231.7335904344875
 30
0.0
 40
2.193351363129598
 50
358.3072842196236
 51
0.2645405394416374
  0
ARC
  5
9C3C
  8
0
 10
61.25338018083375
 20
232.814092543999
 30
0.0
 40
1.226603834737866
 50
292.3622304129851
 51
309.4180965652807
  0
ARC
  5
9C3D
  8
0
 10
61.17970216562068
 20
232.7535266848215
 30
0.0
 40
1.356716379153855
 50
297.0209406626477
 51
314.0515009572343
  0
ARC
  5
9C3E
  8
0
 10
63.25416393633073
 20
232.6966885844584
 30
0.0
 40
1.324925264474462
 50
223.7097081622024
 51
240.3793491799933
  0
ARC
  5
9C3F
  8
0
 10
63.27546236360394
 20
232.9212209653979
 30
0.0
 40
1.377211017143197
 50
229.981595629291
 51
244.349432299083
  0
LINE
  5
9C5D
  8
0
 10
63.23968379931159
 20
232.7044497504584
 30
0.0
 11
63.07559200243634
 21
232.7364419379586
 31
0.0
  0
LINE
  5
9C5E
  8
0
 10
62.80075801806163
 20
232.1520571723335
 30
0.0
 11
62.87019161181126
 21
231.9732876410829
 31
0.0
  0
LINE
  5
9C5F
  8
0
 10
62.96616817431152
 20
232.1026626410834
 30
0.0
 11
62.96616817431152
 21
231.5223208442084
 31
0.0
  0
LINE
  5
9C60
  8
0
 10
62.96616817431152
 20
231.5223208442084
 30
0.0
 11
63.14502559618643
 21
231.5223208442084
 31
0.0
  0
LINE
  5
9C61
  8
0
 10
63.14502559618643
 20
231.5223208442084
 30
0.0
 11
63.14502559618643
 21
232.3882192817085
 31
0.0
  0
LINE
  5
9C62
  8
0
 10
63.15829708056174
 20
232.2187661567081
 30
0.0
 11
63.29980098681165
 21
232.1107485785836
 31
0.0
  0
LINE
  5
9C63
  8
0
 10
63.50651973681181
 20
232.4736489692081
 30
0.0
 11
63.50651973681181
 21
231.5223208442084
 31
0.0
  0
LINE
  5
9C64
  8
0
 10
63.50651973681181
 20
231.5223208442084
 30
0.0
 11
63.68933223681154
 21
231.5223208442084
 31
0.0
  0
LINE
  5
9C65
  8
0
 10
63.68933223681154
 20
231.5223208442084
 30
0.0
 11
63.68933223681154
 21
231.7837954535834
 31
0.0
  0
LINE
  5
9C66
  8
0
 10
63.68933223681154
 20
231.7837954535834
 30
0.0
 11
64.02287715868681
 21
231.7837954535834
 31
0.0
  0
LINE
  5
9C67
  8
0
 10
64.02287715868681
 20
231.7837954535834
 30
0.0
 11
64.02287715868681
 21
231.9358462348331
 31
0.0
  0
LINE
  5
9C68
  8
0
 10
64.02287715868681
 20
231.9358462348331
 30
0.0
 11
63.68933223681154
 21
231.9358462348331
 31
0.0
  0
LINE
  5
9C69
  8
0
 10
63.68933223681154
 20
231.9358462348331
 30
0.0
 11
63.68933223681154
 21
232.1334243598334
 31
0.0
  0
LINE
  5
9C6A
  8
0
 10
63.68933223681154
 20
232.1334243598334
 30
0.0
 11
64.02287715868681
 21
232.1334243598334
 31
0.0
  0
LINE
  5
9C6B
  8
0
 10
64.02287715868681
 20
232.1334243598334
 30
0.0
 11
64.02287715868681
 21
232.2801138129583
 31
0.0
  0
LINE
  5
9C6C
  8
0
 10
64.02287715868681
 20
232.2801138129583
 30
0.0
 11
63.68933223681154
 21
232.2801138129583
 31
0.0
  0
LINE
  5
9C6D
  8
0
 10
63.68933223681154
 20
232.2801138129583
 30
0.0
 11
63.68933223681154
 21
232.4736489692081
 31
0.0
  0
LINE
  5
9C6E
  8
0
 10
63.68933223681154
 20
232.4736489692081
 30
0.0
 11
64.06295528368685
 21
232.4736489692081
 31
0.0
  0
LINE
  5
9C6F
  8
0
 10
64.06295528368685
 20
232.4736489692081
 30
0.0
 11
64.06295528368685
 21
232.620338422333
 31
0.0
  0
LINE
  5
9C70
  8
0
 10
64.06295528368685
 20
232.620338422333
 30
0.0
 11
63.54527950243676
 21
232.620338422333
 31
0.0
  0
LINE
  5
9C71
  8
0
 10
63.57604122118676
 20
232.716490766083
 30
0.0
 11
63.40650020556143
 21
232.7511196723329
 31
0.0
  0
ARC
  5
9C72
  8
0
 10
61.59772252786788
 20
233.042331513425
 30
0.0
 40
1.509194028694409
 50
335.5457096686311
 51
348.3060403035889
  0
ARC
  5
9C73
  8
0
 10
61.88909118811173
 20
232.9260847954463
 30
0.0
 40
1.195932761560066
 50
319.6679218269052
 51
334.8367065032426
  0
ARC
  5
9C74
  8
0
 10
62.10095993385146
 20
232.6442279911671
 30
0.0
 40
1.020724413232922
 50
318.9043658670728
 51
327.9560510819899
  0
ARC
  5
9C75
  8
0
 10
61.96384773900762
 20
232.914067143812
 30
0.0
 40
1.292941260989209
 50
336.0018785125645
 51
350.6697714262823
  0
ARC
  5
9C76
  8
0
 10
61.43628519640516
 20
233.3456700687804
 30
0.0
 40
2.057969231116068
 50
326.7988139724891
 51
343.207798180194
  0
ARC
  5
9C77
  8
0
 10
61.22811460479032
 20
233.4228762461989
 30
0.0
 40
2.452256813952018
 50
327.6513795623699
 51
337.2268745923157
  0
LINE
  5
9C78
  8
0
 10
63.48920528368637
 20
232.4736489692081
 30
0.0
 11
63.50651973681181
 21
232.4736489692081
 31
0.0
  0
LINE
  5
9C79
  8
0
 10
63.57604122118676
 20
232.716490766083
 30
0.0
 11
63.56090449122636
 21
232.6679122694958
 31
0.0
  0
LINE
  5
9C7A
  8
0
 10
63.56090449122636
 20
232.6679122694958
 30
0.0
 11
63.54527950243676
 21
232.620338422333
 31
0.0
  0
LINE
  5
9C87
  8
0
 10
42.75218928780021
 20
200.4403705977999
 30
0.0
 11
41.53975372250204
 21
198.3403705977995
 31
0.0
  0
ARC
  5
9C88
  8
0
 10
41.62635626288036
 20
198.2903705977997
 30
0.0
 40
0.0999999999998077
 50
150.0000000000498
 51
270.0000000000499
  0
LINE
  5
9C89
  8
0
 10
41.62635626288045
 20
198.1903705977999
 30
0.0
 11
44.05122739347678
 21
198.1903705977999
 31
0.0
  0
ARC
  5
9C8A
  8
0
 10
44.05122739347686
 20
198.2903705977997
 30
0.0
 40
0.0999999999998075
 50
269.9999999999499
 51
29.9999999999503
  0
LINE
  5
9C8B
  8
0
 10
44.13782993385519
 20
198.3403705977995
 30
0.0
 11
42.92539436855702
 21
200.4403705977999
 31
0.0
  0
ARC
  5
9C8C
  8
0
 10
42.83879182817861
 20
200.3903705977999
 30
0.0
 40
0.0999999999999585
 50
29.99999999999998
 51
150.0
  0
LINE
  5
9C8D
  8
0
 10
42.79549055868472
 20
200.3153705977999
 30
0.0
 11
41.66965753310194
 21
198.365370597811
 31
0.0
  0
ARC
  5
9C8E
  8
0
 10
41.71295880328489
 20
198.3403705977996
 30
0.0
 40
0.0500000000002611
 50
149.9999999851142
 51
269.9999999998677
  0
LINE
  5
9C8F
  8
0
 10
41.71295880328478
 20
198.2903705977993
 30
0.0
 11
43.96462485312429
 21
198.2903705977993
 31
0.0
  0
ARC
  5
9C90
  8
0
 10
43.96462485312423
 20
198.3403705977993
 30
0.0
 40
0.0500000000000013
 50
270.0000000000688
 51
29.99999998531542
  0
LINE
  5
9C91
  8
0
 10
44.00792612331986
 20
198.3653705977882
 30
0.0
 11
42.88209309906313
 21
200.3153705977999
 31
0.0
  0
ARC
  5
9C92
  8
0
 10
42.83879182887392
 20
200.2903705977999
 30
0.0
 40
0.0499999999999793
 50
30.00000000000012
 51
149.9999999999999
  0
LINE
  5
9C93
  8
0
 10
77.47346969118843
 20
206.2010027188036
 30
0.0
 11
77.20511747474683
 21
206.0460694944035
 31
0.0
  0
LINE
  5
9C94
  8
0
 10
77.20511747474683
 20
206.0460694944035
 30
0.0
 11
77.20511747474683
 21
205.7362030456031
 31
0.0
  0
LINE
  5
9C95
  8
0
 10
77.20511747474683
 20
205.7362030456031
 30
0.0
 11
77.47346969118843
 21
205.581269821203
 31
0.0
  0
LINE
  5
9C96
  8
0
 10
77.47346969118843
 20
205.581269821203
 30
0.0
 11
77.74182190763003
 21
205.7362030456031
 31
0.0
  0
LINE
  5
9C97
  8
0
 10
77.74182190763003
 20
205.7362030456031
 30
0.0
 11
77.74182190763003
 21
206.0460694944035
 31
0.0
  0
LINE
  5
9C98
  8
0
 10
77.74182190763003
 20
206.0460694944035
 30
0.0
 11
77.47346969118843
 21
206.2010027188036
 31
0.0
  0
LINE
  5
9C99
  8
0
 10
77.32346969118834
 20
206.4986531053926
 30
0.0
 11
77.0223446785148
 21
206.3247984982656
 31
0.0
  0
LINE
  5
9C9A
  8
0
 10
77.92459470386228
 20
206.3247984982655
 30
0.0
 11
77.62346969118852
 21
206.4986531053926
 31
0.0
  0
LINE
  5
9C9B
  8
0
 10
77.02234467851457
 20
205.457474041741
 30
0.0
 11
77.32346969118834
 21
205.283619434614
 31
0.0
  0
LINE
  5
9C9C
  8
0
 10
77.62346969118852
 20
205.283619434614
 30
0.0
 11
77.92459470386228
 21
205.4574740417411
 31
0.0
  0
LINE
  5
9C9D
  8
0
 10
78.07459470386215
 20
205.7172816628764
 30
0.0
 11
78.07459470386215
 21
206.0649908771302
 31
0.0
  0
LINE
  5
9C9E
  8
0
 10
76.87234467851471
 20
206.0649908771303
 30
0.0
 11
76.87234467851471
 21
205.7172816628763
 31
0.0
  0
LINE
  5
9C9F
  8
0
 10
75.60089259386785
 20
224.2830188732872
 30
0.0
 11
79.346046788509
 21
224.2830188732872
 31
0.0
1001
GENIUS_GENREC_14
1002
{
1000
PYDIR
1011
75.60089259386785
1021
223.3227241892058
1031
0.0
1021
223.3227241892058
1031
0.0
1002
}
1002
{
1000
PXDIR
1011
79.346046788509
1021
224.7035314268167
1031
0.0
1021
224.7035314268167
1031
0.0
1002
}
1002
{
1000
PORI
1011
75.60089259386785
1021
224.7035314268167
1031
0.0
1021
224.7035314268167
1031
0.0
1002
}
1002
{
1000
PINS
1011
77.47346969118843
1021
224.2830188732872
1031
0.0
1021
224.2830188732872
1031
0.0
1002
}
1002
{
1000
PINS2
1011
79.346046788509
1021
223.3227241892058
1031
0.0
1021
223.3227241892058
1031
0.0
1002
}
1002
{
1000
C
1070
     1
1002
}
1001
GENIUS_GENODEF_13
1002
{
1000
HIER
1070
     0
1002
}
1002
{
1000
MANEDIT
1070
     0
1002
}
1002
{
1000
NOSEL
1070
     0
1002
}
1002
{
1000
BEHIND
1070
     0
1002
}
1002
{
1000
OTHER
1070
     0
1002
}
1002
{
1000
REACTOR
1002
}
1001
GENIUS_GENOBJ-N-REC_13
1002
{
1000
OWNER
1000
GEN
1002
}
  0
LINE
  5
9CA0
  8
0
 10
79.346046788509
 20
224.2830188732872
 30
0.0
 11
79.346046788509
 21
223.3227241892058
 31
0.0
1001
GENIUS_GENREC_14
1002
{
1000
PYDIR
1011
75.60089259386785
1021
223.3227241892058
1031
0.0
1021
223.3227241892058
1031
0.0
1002
}
1002
{
1000
PXDIR
1011
79.346046788509
1021
224.7035314268167
1031
0.0
1021
224.7035314268167
1031
0.0
1002
}
1002
{
1000
PORI
1011
75.60089259386785
1021
224.7035314268167
1031
0.0
1021
224.7035314268167
1031
0.0
1002
}
1002
{
1000
PINS
1011
77.47346969118843
1021
224.2830188732872
1031
0.0
1021
224.2830188732872
1031
0.0
1002
}
1002
{
1000
PINS2
1011
79.346046788509
1021
223.3227241892058
1031
0.0
1021
223.3227241892058
1031
0.0
1002
}
1002
{
1000
C
1070
     1
1002
}
1001
GENIUS_GENODEF_13
1002
{
1000
HIER
1070
     0
1002
}
1002
{
1000
MANEDIT
1070
     0
1002
}
1002
{
1000
NOSEL
1070
     0
1002
}
1002
{
1000
BEHIND
1070
     0
1002
}
1002
{
1000
OTHER
1070
     0
1002
}
1002
{
1000
REACTOR
1002
}
1001
GENIUS_GENOBJ-N-REC_13
1002
{
1000
OWNER
1000
GEN
1002
}
  0
LINE
  5
9CA1
  8
0
 10
79.346046788509
 20
223.3227241892058
 30
0.0
 11
75.60089259386785
 21
223.3227241892058
 31
0.0
1001
GENIUS_GENREC_14
1002
{
1000
PYDIR
1011
75.60089259386785
1021
223.3227241892058
1031
0.0
1021
223.3227241892058
1031
0.0
1002
}
1002
{
1000
PXDIR
1011
79.346046788509
1021
224.7035314268167
1031
0.0
1021
224.7035314268167
1031
0.0
1002
}
1002
{
1000
PORI
1011
75.60089259386785
1021
224.7035314268167
1031
0.0
1021
224.7035314268167
1031
0.0
1002
}
1002
{
1000
PINS
1011
77.47346969118843
1021
224.2830188732872
1031
0.0
1021
224.2830188732872
1031
0.0
1002
}
1002
{
1000
PINS2
1011
79.346046788509
1021
223.3227241892058
1031
0.0
1021
223.3227241892058
1031
0.0
1002
}
1002
{
1000
C
1070
     1
1002
}
1001
GENIUS_GENODEF_13
1002
{
1000
HIER
1070
     0
1002
}
1002
{
1000
MANEDIT
1070
     0
1002
}
1002
{
1000
NOSEL
1070
     0
1002
}
1002
{
1000
BEHIND
1070
     0
1002
}
1002
{
1000
OTHER
1070
     0
1002
}
1002
{
1000
REACTOR
1002
}
1001
GENIUS_GENOBJ-N-REC_13
1002
{
1000
OWNER
1000
GEN
1002
}
  0
LINE
  5
9CA2
  8
0
 10
75.60089259386785
 20
223.3227241892058
 30
0.0
 11
75.60089259386785
 21
224.2830188732872
 31
0.0
1001
GENIUS_GENREC_14
1002
{
1000
PYDIR
1011
75.60089259386785
1021
223.3227241892058
1031
0.0
1021
223.3227241892058
1031
0.0
1002
}
1002
{
1000
PXDIR
1011
79.346046788509
1021
224.7035314268167
1031
0.0
1021
224.7035314268167
1031
0.0
1002
}
1002
{
1000
PORI
1011
75.60089259386785
1021
224.7035314268167
1031
0.0
1021
224.7035314268167
1031
0.0
1002
}
1002
{
1000
PINS
1011
77.47346969118843
1021
224.2830188732872
1031
0.0
1021
224.2830188732872
1031
0.0
1002
}
1002
{
1000
PINS2
1011
79.346046788509
1021
223.3227241892058
1031
0.0
1021
223.3227241892058
1031
0.0
1002
}
1002
{
1000
C
1070
     1
1002
}
1001
GENIUS_GENODEF_13
1002
{
1000
HIER
1070
     0
1002
}
1002
{
1000
MANEDIT
1070
     0
1002
}
1002
{
1000
NOSEL
1070
     0
1002
}
1002
{
1000
BEHIND
1070
     0
1002
}
1002
{
1000
OTHER
1070
     0
1002
}
1002
{
1000
REACTOR
1002
}
1001
GENIUS_GENOBJ-N-REC_13
1002
{
1000
OWNER
1000
GEN
1002
}
  0
LINE
  5
9CA3
  8
0
 10
77.2844832255816
 20
228.3657886163313
 30
0.0
 11
77.66245615679526
 21
228.3657886163313
 31
0.0
1001
GENIUS_GENREC_14
1002
{
1000
PYDIR
1011
77.2844832255816
1021
229.3200870375188
1031
0.0
1021
229.3200870375188
1031
0.0
1002
}
1002
{
1000
PXDIR
1011
77.66245615679526
1021
228.3657886163313
1031
0.0
1021
228.3657886163313
1031
0.0
1002
}
1002
{
1000
PORI
1011
77.2844832255816
1021
228.3657886163313
1031
0.0
1021
228.3657886163313
1031
0.0
1002
}
1002
{
1000
PINS
1011
77.47346969118843
1021
228.8429378269251
1031
0.0
1021
228.8429378269251
1031
0.0
1002
}
1002
{
1000
PINS2
1011
77.66245615679526
1021
229.3200870375188
1031
0.0
1021
229.3200870375188
1031
0.0
1002
}
1002
{
1000
C
1070
     1
1002
}
1001
GENIUS_GENODEF_13
1002
{
1000
HIER
1070
     0
1002
}
1002
{
1000
MANEDIT
1070
     0
1002
}
1002
{
1000
NOSEL
1070
     0
1002
}
1002
{
1000
BEHIND
1070
     0
1002
}
1002
{
1000
OTHER
1070
     0
1002
}
1002
{
1000
REACTOR
1002
}
1001
GENIUS_GENOBJ-N-REC_13
1002
{
1000
OWNER
1000
GEN
1002
}
  0
LINE
  5
9CA4
  8
0
 10
77.66245615679526
 20
228.3657886163313
 30
0.0
 11
77.66245615679526
 21
229.3200870375188
 31
0.0
1001
GENIUS_GENREC_14
1002
{
1000
PYDIR
1011
77.2844832255816
1021
229.3200870375188
1031
0.0
1021
229.3200870375188
1031
0.0
1002
}
1002
{
1000
PXDIR
1011
77.66245615679526
1021
228.3657886163313
1031
0.0
1021
228.3657886163313
1031
0.0
1002
}
1002
{
1000
PORI
1011
77.2844832255816
1021
228.3657886163313
1031
0.0
1021
228.3657886163313
1031
0.0
1002
}
1002
{
1000
PINS
1011
77.47346969118843
1021
228.8429378269251
1031
0.0
1021
228.8429378269251
1031
0.0
1002
}
1002
{
1000
PINS2
1011
77.66245615679526
1021
229.3200870375188
1031
0.0
1021
229.3200870375188
1031
0.0
1002
}
1002
{
1000
C
1070
     1
1002
}
1001
GENIUS_GENODEF_13
1002
{
1000
HIER
1070
     0
1002
}
1002
{
1000
MANEDIT
1070
     0
1002
}
1002
{
1000
NOSEL
1070
     0
1002
}
1002
{
1000
BEHIND
1070
     0
1002
}
1002
{
1000
OTHER
1070
     0
1002
}
1002
{
1000
REACTOR
1002
}
1001
GENIUS_GENOBJ-N-REC_13
1002
{
1000
OWNER
1000
GEN
1002
}
  0
LINE
  5
9CA5
  8
0
 10
77.66245615679526
 20
229.3200870375188
 30
0.0
 11
77.2844832255816
 21
229.3200870375188
 31
0.0
1001
GENIUS_GENREC_14
1002
{
1000
PYDIR
1011
77.2844832255816
1021
229.3200870375188
1031
0.0
1021
229.3200870375188
1031
0.0
1002
}
1002
{
1000
PXDIR
1011
77.66245615679526
1021
228.3657886163313
1031
0.0
1021
228.3657886163313
1031
0.0
1002
}
1002
{
1000
PORI
1011
77.2844832255816
1021
228.3657886163313
1031
0.0
1021
228.3657886163313
1031
0.0
1002
}
1002
{
1000
PINS
1011
77.47346969118843
1021
228.8429378269251
1031
0.0
1021
228.8429378269251
1031
0.0
1002
}
1002
{
1000
PINS2
1011
77.66245615679526
1021
229.3200870375188
1031
0.0
1021
229.3200870375188
1031
0.0
1002
}
1002
{
1000
C
1070
     1
1002
}
1001
GENIUS_GENODEF_13
1002
{
1000
HIER
1070
     0
1002
}
1002
{
1000
MANEDIT
1070
     0
1002
}
1002
{
1000
NOSEL
1070
     0
1002
}
1002
{
1000
BEHIND
1070
     0
1002
}
1002
{
1000
OTHER
1070
     0
1002
}
1002
{
1000
REACTOR
1002
}
1001
GENIUS_GENOBJ-N-REC_13
1002
{
1000
OWNER
1000
GEN
1002
}
  0
LINE
  5
9CA6
  8
0
 10
77.2844832255816
 20
229.3200870375188
 30
0.0
 11
77.2844832255816
 21
228.3657886163313
 31
0.0
1001
GENIUS_GENREC_14
1002
{
1000
PYDIR
1011
77.2844832255816
1021
229.3200870375188
1031
0.0
1021
229.3200870375188
1031
0.0
1002
}
1002
{
1000
PXDIR
1011
77.66245615679526
1021
228.3657886163313
1031
0.0
1021
228.3657886163313
1031
0.0
1002
}
1002
{
1000
PORI
1011
77.2844832255816
1021
228.3657886163313
1031
0.0
1021
228.3657886163313
1031
0.0
1002
}
1002
{
1000
PINS
1011
77.47346969118843
1021
228.8429378269251
1031
0.0
1021
228.8429378269251
1031
0.0
1002
}
1002
{
1000
PINS2
1011
77.66245615679526
1021
229.3200870375188
1031
0.0
1021
229.3200870375188
1031
0.0
1002
}
1002
{
1000
C
1070
     1
1002
}
1001
GENIUS_GENODEF_13
1002
{
1000
HIER
1070
     0
1002
}
1002
{
1000
MANEDIT
1070
     0
1002
}
1002
{
1000
NOSEL
1070
     0
1002
}
1002
{
1000
BEHIND
1070
     0
1002
}
1002
{
1000
OTHER
1070
     0
1002
}
1002
{
1000
REACTOR
1002
}
1001
GENIUS_GENOBJ-N-REC_13
1002
{
1000
OWNER
1000
GEN
1002
}
  0
LINE
  5
9CA7
  8
0
 10
78.54712878416575
 20
228.1287413002613
 30
0.0
 11
78.87446294453974
 21
227.9397548346545
 31
0.0
1001
GENIUS_GENREC_14
1002
{
1000
PYDIR
1011
79.02427799475907
1021
228.9551879758013
1031
0.0
1021
228.9551879758013
1031
0.0
1002
}
1002
{
1000
PXDIR
1011
78.87446294453974
1021
227.9397548346545
1031
0.0
1021
227.9397548346545
1031
0.0
1002
}
1002
{
1000
PORI
1011
78.54712878416575
1021
228.1287413002613
1031
0.0
1021
228.1287413002613
1031
0.0
1002
}
1002
{
1000
PINS
1011
78.94937046964941
1021
228.4474714052279
1031
0.0
1021
228.4474714052279
1031
0.0
1002
}
1002
{
1000
PINS2
1011
79.35161215513307
1021
228.7662015101945
1031
0.0
1021
228.7662015101945
1031
0.0
1002
}
1002
{
1000
C
1070
     1
1002
}
1001
GENIUS_GENODEF_13
1002
{
1000
HIER
1070
     0
1002
}
1002
{
1000
MANEDIT
1070
     0
1002
}
1002
{
1000
NOSEL
1070
     0
1002
}
1002
{
1000
BEHIND
1070
     0
1002
}
1002
{
1000
OTHER
1070
     0
1002
}
1002
{
1000
REACTOR
1002
}
1001
GENIUS_GENOBJ-N-REC_13
1002
{
1000
OWNER
1000
GEN
1002
}
  0
LINE
  5
9CA8
  8
0
 10
78.87446294453974
 20
227.9397548346545
 30
0.0
 11
79.35161215513307
 21
228.7662015101945
 31
0.0
1001
GENIUS_GENREC_14
1002
{
1000
PYDIR
1011
79.02427799475907
1021
228.9551879758013
1031
0.0
1021
228.9551879758013
1031
0.0
1002
}
1002
{
1000
PXDIR
1011
78.87446294453974
1021
227.9397548346545
1031
0.0
1021
227.9397548346545
1031
0.0
1002
}
1002
{
1000
PORI
1011
78.54712878416575
1021
228.1287413002613
1031
0.0
1021
228.1287413002613
1031
0.0
1002
}
1002
{
1000
PINS
1011
78.94937046964941
1021
228.4474714052279
1031
0.0
1021
228.4474714052279
1031
0.0
1002
}
1002
{
1000
PINS2
1011
79.35161215513307
1021
228.7662015101945
1031
0.0
1021
228.7662015101945
1031
0.0
1002
}
1002
{
1000
C
1070
     1
1002
}
1001
GENIUS_GENODEF_13
1002
{
1000
HIER
1070
     0
1002
}
1002
{
1000
MANEDIT
1070
     0
1002
}
1002
{
1000
NOSEL
1070
     0
1002
}
1002
{
1000
BEHIND
1070
     0
1002
}
1002
{
1000
OTHER
1070
     0
1002
}
1002
{
1000
REACTOR
1002
}
1001
GENIUS_GENOBJ-N-REC_13
1002
{
1000
OWNER
1000
GEN
1002
}
  0
LINE
  5
9CA9
  8
0
 10
79.35161215513307
 20
228.7662015101945
 30
0.0
 11
79.02427799475907
 21
228.9551879758013
 31
0.0
1001
GENIUS_GENREC_14
1002
{
1000
PYDIR
1011
79.02427799475907
1021
228.9551879758013
1031
0.0
1021
228.9551879758013
1031
0.0
1002
}
1002
{
1000
PXDIR
1011
78.87446294453974
1021
227.9397548346545
1031
0.0
1021
227.9397548346545
1031
0.0
1002
}
1002
{
1000
PORI
1011
78.54712878416575
1021
228.1287413002613
1031
0.0
1021
228.1287413002613
1031
0.0
1002
}
1002
{
1000
PINS
1011
78.94937046964941
1021
228.4474714052279
1031
0.0
1021
228.4474714052279
1031
0.0
1002
}
1002
{
1000
PINS2
1011
79.35161215513307
1021
228.7662015101945
1031
0.0
1021
228.7662015101945
1031
0.0
1002
}
1002
{
1000
C
1070
     1
1002
}
1001
GENIUS_GENODEF_13
1002
{
1000
HIER
1070
     0
1002
}
1002
{
1000
MANEDIT
1070
     0
1002
}
1002
{
1000
NOSEL
1070
     0
1002
}
1002
{
1000
BEHIND
1070
     0
1002
}
1002
{
1000
OTHER
1070
     0
1002
}
1002
{
1000
REACTOR
1002
}
1001
GENIUS_GENOBJ-N-REC_13
1002
{
1000
OWNER
1000
GEN
1002
}
  0
LINE
  5
9CAA
  8
0
 10
79.02427799475907
 20
228.9551879758013
 30
0.0
 11
78.54712878416575
 21
228.1287413002613
 31
0.0
1001
GENIUS_GENREC_14
1002
{
1000
PYDIR
1011
79.02427799475907
1021
228.9551879758013
1031
0.0
1021
228.9551879758013
1031
0.0
1002
}
1002
{
1000
PXDIR
1011
78.87446294453974
1021
227.9397548346545
1031
0.0
1021
227.9397548346545
1031
0.0
1002
}
1002
{
1000
PORI
1011
78.54712878416575
1021
228.1287413002613
1031
0.0
1021
228.1287413002613
1031
0.0
1002
}
1002
{
1000
PINS
1011
78.94937046964941
1021
228.4474714052279
1031
0.0
1021
228.4474714052279
1031
0.0
1002
}
1002
{
1000
PINS2
1011
79.35161215513307
1021
228.7662015101945
1031
0.0
1021
228.7662015101945
1031
0.0
1002
}
1002
{
1000
C
1070
     1
1002
}
1001
GENIUS_GENODEF_13
1002
{
1000
HIER
1070
     0
1002
}
1002
{
1000
MANEDIT
1070
     0
1002
}
1002
{
1000
NOSEL
1070
     0
1002
}
1002
{
1000
BEHIND
1070
     0
1002
}
1002
{
1000
OTHER
1070
     0
1002
}
1002
{
1000
REACTOR
1002
}
1001
GENIUS_GENOBJ-N-REC_13
1002
{
1000
OWNER
1000
GEN
1002
}
  0
LINE
  5
9CAB
  8
0
 10
79.52208825583983
 20
227.292129523354
 30
0.0
 11
79.71107472144666
 21
226.9647953629804
 31
0.0
1001
GENIUS_GENREC_14
1002
{
1000
PYDIR
1011
80.34853493137979
1021
227.7692787339477
1031
0.0
1021
227.7692787339477
1031
0.0
1002
}
1002
{
1000
PXDIR
1011
79.71107472144666
1021
226.9647953629804
1031
0.0
1021
226.9647953629804
1031
0.0
1002
}
1002
{
1000
PORI
1011
79.52208825583983
1021
227.292129523354
1031
0.0
1021
227.292129523354
1031
0.0
1002
}
1002
{
1000
PINS
1011
80.02980482641323
1021
227.3670370484645
1031
0.0
1021
227.3670370484645
1031
0.0
1002
}
1002
{
1000
PINS2
1011
80.53752139698662
1021
227.4419445735742
1031
0.0
1021
227.4419445735742
1031
0.0
1002
}
1002
{
1000
C
1070
     1
1002
}
1001
GENIUS_GENODEF_13
1002
{
1000
HIER
1070
     0
1002
}
1002
{
1000
MANEDIT
1070
     0
1002
}
1002
{
1000
NOSEL
1070
     0
1002
}
1002
{
1000
BEHIND
1070
     0
1002
}
1002
{
1000
OTHER
1070
     0
1002
}
1002
{
1000
REACTOR
1002
}
1001
GENIUS_GENOBJ-N-REC_13
1002
{
1000
OWNER
1000
GEN
1002
}
  0
LINE
  5
9CAC
  8
0
 10
79.71107472144666
 20
226.9647953629804
 30
0.0
 11
80.53752139698662
 21
227.4419445735742
 31
0.0
1001
GENIUS_GENREC_14
1002
{
1000
PYDIR
1011
80.34853493137979
1021
227.7692787339477
1031
0.0
1021
227.7692787339477
1031
0.0
1002
}
1002
{
1000
PXDIR
1011
79.71107472144666
1021
226.9647953629804
1031
0.0
1021
226.9647953629804
1031
0.0
1002
}
1002
{
1000
PORI
1011
79.52208825583983
1021
227.292129523354
1031
0.0
1021
227.292129523354
1031
0.0
1002
}
1002
{
1000
PINS
1011
80.02980482641323
1021
227.3670370484645
1031
0.0
1021
227.3670370484645
1031
0.0
1002
}
1002
{
1000
PINS2
1011
80.53752139698662
1021
227.4419445735742
1031
0.0
1021
227.4419445735742
1031
0.0
1002
}
1002
{
1000
C
1070
     1
1002
}
1001
GENIUS_GENODEF_13
1002
{
1000
HIER
1070
     0
1002
}
1002
{
1000
MANEDIT
1070
     0
1002
}
1002
{
1000
NOSEL
1070
     0
1002
}
1002
{
1000
BEHIND
1070
     0
1002
}
1002
{
1000
OTHER
1070
     0
1002
}
1002
{
1000
REACTOR
1002
}
1001
GENIUS_GENOBJ-N-REC_13
1002
{
1000
OWNER
1000
GEN
1002
}
  0
LINE
  5
9CAD
  8
0
 10
80.53752139698662
 20
227.4419445735742
 30
0.0
 11
80.34853493137979
 21
227.7692787339477
 31
0.0
1001
GENIUS_GENREC_14
1002
{
1000
PYDIR
1011
80.34853493137979
1021
227.7692787339477
1031
0.0
1021
227.7692787339477
1031
0.0
1002
}
1002
{
1000
PXDIR
1011
79.71107472144666
1021
226.9647953629804
1031
0.0
1021
226.9647953629804
1031
0.0
1002
}
1002
{
1000
PORI
1011
79.52208825583983
1021
227.292129523354
1031
0.0
1021
227.292129523354
1031
0.0
1002
}
1002
{
1000
PINS
1011
80.02980482641323
1021
227.3670370484645
1031
0.0
1021
227.3670370484645
1031
0.0
1002
}
1002
{
1000
PINS2
1011
80.53752139698662
1021
227.4419445735742
1031
0.0
1021
227.4419445735742
1031
0.0
1002
}
1002
{
1000
C
1070
     1
1002
}
1001
GENIUS_GENODEF_13
1002
{
1000
HIER
1070
     0
1002
}
1002
{
1000
MANEDIT
1070
     0
1002
}
1002
{
1000
NOSEL
1070
     0
1002
}
1002
{
1000
BEHIND
1070
     0
1002
}
1002
{
1000
OTHER
1070
     0
1002
}
1002
{
1000
REACTOR
1002
}
1001
GENIUS_GENOBJ-N-REC_13
1002
{
1000
OWNER
1000
GEN
1002
}
  0
LINE
  5
9CAE
  8
0
 10
80.34853493137979
 20
227.7692787339477
 30
0.0
 11
79.52208825583983
 21
227.292129523354
 31
0.0
1001
GENIUS_GENREC_14
1002
{
1000
PYDIR
1011
80.34853493137979
1021
227.7692787339477
1031
0.0
1021
227.7692787339477
1031
0.0
1002
}
1002
{
1000
PXDIR
1011
79.71107472144666
1021
226.9647953629804
1031
0.0
1021
226.9647953629804
1031
0.0
1002
}
1002
{
1000
PORI
1011
79.52208825583983
1021
227.292129523354
1031
0.0
1021
227.292129523354
1031
0.0
1002
}
1002
{
1000
PINS
1011
80.02980482641323
1021
227.3670370484645
1031
0.0
1021
227.3670370484645
1031
0.0
1002
}
1002
{
1000
PINS2
1011
80.53752139698662
1021
227.4419445735742
1031
0.0
1021
227.4419445735742
1031
0.0
1002
}
1002
{
1000
C
1070
     1
1002
}
1001
GENIUS_GENODEF_13
1002
{
1000
HIER
1070
     0
1002
}
1002
{
1000
MANEDIT
1070
     0
1002
}
1002
{
1000
NOSEL
1070
     0
1002
}
1002
{
1000
BEHIND
1070
     0
1002
}
1002
{
1000
OTHER
1070
     0
1002
}
1002
{
1000
REACTOR
1002
}
1001
GENIUS_GENOBJ-N-REC_13
1002
{
1000
OWNER
1000
GEN
1002
}
  0
LINE
  5
9CAF
  8
0
 10
76.16521625718514
 20
228.0001865472103
 30
0.0
 11
76.50065162004165
 21
228.1743894578516
 31
0.0
1001
GENIUS_GENREC_14
1002
{
1000
PYDIR
1011
75.72539226752286
1021
228.847086975123
1031
0.0
1021
228.847086975123
1031
0.0
1002
}
1002
{
1000
PXDIR
1011
76.50065162004165
1021
228.1743894578516
1031
0.0
1021
228.1743894578516
1031
0.0
1002
}
1002
{
1000
PORI
1011
76.16521625718514
1021
228.0001865472103
1031
0.0
1021
228.0001865472103
1031
0.0
1002
}
1002
{
1000
PINS
1011
76.11302194378158
1021
228.5107382164873
1031
0.0
1021
228.5107382164873
1031
0.0
1002
}
1002
{
1000
PINS2
1011
76.06082763037892
1021
229.0212898857638
1031
0.0
1021
229.0212898857638
1031
0.0
1002
}
1002
{
1000
C
1070
     1
1002
}
1001
GENIUS_GENODEF_13
1002
{
1000
HIER
1070
     0
1002
}
1002
{
1000
MANEDIT
1070
     0
1002
}
1002
{
1000
NOSEL
1070
     0
1002
}
1002
{
1000
BEHIND
1070
     0
1002
}
1002
{
1000
OTHER
1070
     0
1002
}
1002
{
1000
REACTOR
1002
}
1001
GENIUS_GENOBJ-N-REC_13
1002
{
1000
OWNER
1000
GEN
1002
}
  0
LINE
  5
9CB0
  8
0
 10
76.50065162004165
 20
228.1743894578516
 30
0.0
 11
76.06082763037892
 21
229.0212898857638
 31
0.0
1001
GENIUS_GENREC_14
1002
{
1000
PYDIR
1011
75.72539226752286
1021
228.847086975123
1031
0.0
1021
228.847086975123
1031
0.0
1002
}
1002
{
1000
PXDIR
1011
76.50065162004165
1021
228.1743894578516
1031
0.0
1021
228.1743894578516
1031
0.0
1002
}
1002
{
1000
PORI
1011
76.16521625718514
1021
228.0001865472103
1031
0.0
1021
228.0001865472103
1031
0.0
1002
}
1002
{
1000
PINS
1011
76.11302194378158
1021
228.5107382164873
1031
0.0
1021
228.5107382164873
1031
0.0
1002
}
1002
{
1000
PINS2
1011
76.06082763037892
1021
229.0212898857638
1031
0.0
1021
229.0212898857638
1031
0.0
1002
}
1002
{
1000
C
1070
     1
1002
}
1001
GENIUS_GENODEF_13
1002
{
1000
HIER
1070
     0
1002
}
1002
{
1000
MANEDIT
1070
     0
1002
}
1002
{
1000
NOSEL
1070
     0
1002
}
1002
{
1000
BEHIND
1070
     0
1002
}
1002
{
1000
OTHER
1070
     0
1002
}
1002
{
1000
REACTOR
1002
}
1001
GENIUS_GENOBJ-N-REC_13
1002
{
1000
OWNER
1000
GEN
1002
}
  0
LINE
  5
9CB1
  8
0
 10
76.06082763037892
 20
229.0212898857638
 30
0.0
 11
75.72539226752286
 21
228.847086975123
 31
0.0
1001
GENIUS_GENREC_14
1002
{
1000
PYDIR
1011
75.72539226752286
1021
228.847086975123
1031
0.0
1021
228.847086975123
1031
0.0
1002
}
1002
{
1000
PXDIR
1011
76.50065162004165
1021
228.1743894578516
1031
0.0
1021
228.1743894578516
1031
0.0
1002
}
1002
{
1000
PORI
1011
76.16521625718514
1021
228.0001865472103
1031
0.0
1021
228.0001865472103
1031
0.0
1002
}
1002
{
1000
PINS
1011
76.11302194378158
1021
228.5107382164873
1031
0.0
1021
228.5107382164873
1031
0.0
1002
}
1002
{
1000
PINS2
1011
76.06082763037892
1021
229.0212898857638
1031
0.0
1021
229.0212898857638
1031
0.0
1002
}
1002
{
1000
C
1070
     1
1002
}
1001
GENIUS_GENODEF_13
1002
{
1000
HIER
1070
     0
1002
}
1002
{
1000
MANEDIT
1070
     0
1002
}
1002
{
1000
NOSEL
1070
     0
1002
}
1002
{
1000
BEHIND
1070
     0
1002
}
1002
{
1000
OTHER
1070
     0
1002
}
1002
{
1000
REACTOR
1002
}
1001
GENIUS_GENOBJ-N-REC_13
1002
{
1000
OWNER
1000
GEN
1002
}
  0
LINE
  5
9CB2
  8
0
 10
75.72539226752286
 20
228.847086975123
 30
0.0
 11
76.16521625718514
 21
228.0001865472103
 31
0.0
1001
GENIUS_GENREC_14
1002
{
1000
PYDIR
1011
75.72539226752286
1021
228.847086975123
1031
0.0
1021
228.847086975123
1031
0.0
1002
}
1002
{
1000
PXDIR
1011
76.50065162004165
1021
228.1743894578516
1031
0.0
1021
228.1743894578516
1031
0.0
1002
}
1002
{
1000
PORI
1011
76.16521625718514
1021
228.0001865472103
1031
0.0
1021
228.0001865472103
1031
0.0
1002
}
1002
{
1000
PINS
1011
76.11302194378158
1021
228.5107382164873
1031
0.0
1021
228.5107382164873
1031
0.0
1002
}
1002
{
1000
PINS2
1011
76.06082763037892
1021
229.0212898857638
1031
0.0
1021
229.0212898857638
1031
0.0
1002
}
1002
{
1000
C
1070
     1
1002
}
1001
GENIUS_GENODEF_13
1002
{
1000
HIER
1070
     0
1002
}
1002
{
1000
MANEDIT
1070
     0
1002
}
1002
{
1000
NOSEL
1070
     0
1002
}
1002
{
1000
BEHIND
1070
     0
1002
}
1002
{
1000
OTHER
1070
     0
1002
}
1002
{
1000
REACTOR
1002
}
1001
GENIUS_GENOBJ-N-REC_13
1002
{
1000
OWNER
1000
GEN
1002
}
  0
LINE
  5
9CB3
  8
0
 10
75.2512129189833
 20
226.9962131712899
 30
0.0
 11
75.44479225615413
 21
227.3208523201164
 31
0.0
1001
GENIUS_GENREC_14
1002
{
1000
PYDIR
1011
74.43157055415594
1021
227.4849583712265
1031
0.0
1021
227.4849583712265
1031
0.0
1002
}
1002
{
1000
PXDIR
1011
75.44479225615413
1021
227.3208523201164
1031
0.0
1021
227.3208523201164
1031
0.0
1002
}
1002
{
1000
PORI
1011
75.2512129189833
1021
226.9962131712899
1031
0.0
1021
226.9962131712899
1031
0.0
1002
}
1002
{
1000
PINS
1011
74.93818140515504
1021
227.4029053456714
1031
0.0
1021
227.4029053456714
1031
0.0
1002
}
1002
{
1000
PINS2
1011
74.62514989132677
1021
227.809597520053
1031
0.0
1021
227.809597520053
1031
0.0
1002
}
1002
{
1000
C
1070
     1
1002
}
1001
GENIUS_GENODEF_13
1002
{
1000
HIER
1070
     0
1002
}
1002
{
1000
MANEDIT
1070
     0
1002
}
1002
{
1000
NOSEL
1070
     0
1002
}
1002
{
1000
BEHIND
1070
     0
1002
}
1002
{
1000
OTHER
1070
     0
1002
}
1002
{
1000
REACTOR
1002
}
1001
GENIUS_GENOBJ-N-REC_13
1002
{
1000
OWNER
1000
GEN
1002
}
  0
LINE
  5
9CB4
  8
0
 10
75.44479225615413
 20
227.3208523201164
 30
0.0
 11
74.62514989132677
 21
227.809597520053
 31
0.0
1001
GENIUS_GENREC_14
1002
{
1000
PYDIR
1011
74.43157055415594
1021
227.4849583712265
1031
0.0
1021
227.4849583712265
1031
0.0
1002
}
1002
{
1000
PXDIR
1011
75.44479225615413
1021
227.3208523201164
1031
0.0
1021
227.3208523201164
1031
0.0
1002
}
1002
{
1000
PORI
1011
75.2512129189833
1021
226.9962131712899
1031
0.0
1021
226.9962131712899
1031
0.0
1002
}
1002
{
1000
PINS
1011
74.93818140515504
1021
227.4029053456714
1031
0.0
1021
227.4029053456714
1031
0.0
1002
}
1002
{
1000
PINS2
1011
74.62514989132677
1021
227.809597520053
1031
0.0
1021
227.809597520053
1031
0.0
1002
}
1002
{
1000
C
1070
     1
1002
}
1001
GENIUS_GENODEF_13
1002
{
1000
HIER
1070
     0
1002
}
1002
{
1000
MANEDIT
1070
     0
1002
}
1002
{
1000
NOSEL
1070
     0
1002
}
1002
{
1000
BEHIND
1070
     0
1002
}
1002
{
1000
OTHER
1070
     0
1002
}
1002
{
1000
REACTOR
1002
}
1001
GENIUS_GENOBJ-N-REC_13
1002
{
1000
OWNER
1000
GEN
1002
}
  0
LINE
  5
9CB5
  8
0
 10
74.62514989132677
 20
227.809597520053
 30
0.0
 11
74.43157055415594
 21
227.4849583712265
 31
0.0
1001
GENIUS_GENREC_14
1002
{
1000
PYDIR
1011
74.43157055415594
1021
227.4849583712265
1031
0.0
1021
227.4849583712265
1031
0.0
1002
}
1002
{
1000
PXDIR
1011
75.44479225615413
1021
227.3208523201164
1031
0.0
1021
227.3208523201164
1031
0.0
1002
}
1002
{
1000
PORI
1011
75.2512129189833
1021
226.9962131712899
1031
0.0
1021
226.9962131712899
1031
0.0
1002
}
1002
{
1000
PINS
1011
74.93818140515504
1021
227.4029053456714
1031
0.0
1021
227.4029053456714
1031
0.0
1002
}
1002
{
1000
PINS2
1011
74.62514989132677
1021
227.809597520053
1031
0.0
1021
227.809597520053
1031
0.0
1002
}
1002
{
1000
C
1070
     1
1002
}
1001
GENIUS_GENODEF_13
1002
{
1000
HIER
1070
     0
1002
}
1002
{
1000
MANEDIT
1070
     0
1002
}
1002
{
1000
NOSEL
1070
     0
1002
}
1002
{
1000
BEHIND
1070
     0
1002
}
1002
{
1000
OTHER
1070
     0
1002
}
1002
{
1000
REACTOR
1002
}
1001
GENIUS_GENOBJ-N-REC_13
1002
{
1000
OWNER
1000
GEN
1002
}
  0
LINE
  5
9CB6
  8
0
 10
74.43157055415594
 20
227.4849583712265
 30
0.0
 11
75.2512129189833
 21
226.9962131712899
 31
0.0
1001
GENIUS_GENREC_14
1002
{
1000
PYDIR
1011
74.43157055415594
1021
227.4849583712265
1031
0.0
1021
227.4849583712265
1031
0.0
1002
}
1002
{
1000
PXDIR
1011
75.44479225615413
1021
227.3208523201164
1031
0.0
1021
227.3208523201164
1031
0.0
1002
}
1002
{
1000
PORI
1011
75.2512129189833
1021
226.9962131712899
1031
0.0
1021
226.9962131712899
1031
0.0
1002
}
1002
{
1000
PINS
1011
74.93818140515504
1021
227.4029053456714
1031
0.0
1021
227.4029053456714
1031
0.0
1002
}
1002
{
1000
PINS2
1011
74.62514989132677
1021
227.809597520053
1031
0.0
1021
227.809597520053
1031
0.0
1002
}
1002
{
1000
C
1070
     1
1002
}
1001
GENIUS_GENODEF_13
1002
{
1000
HIER
1070
     0
1002
}
1002
{
1000
MANEDIT
1070
     0
1002
}
1002
{
1000
NOSEL
1070
     0
1002
}
1002
{
1000
BEHIND
1070
     0
1002
}
1002
{
1000
OTHER
1070
     0
1002
}
1002
{
1000
REACTOR
1002
}
1001
GENIUS_GENOBJ-N-REC_13
1002
{
1000
OWNER
1000
GEN
1002
}
  0
VIEWPORT
  5
22
 67
     1
  8
0
 10
5.269134197284911
 20
5.545311567251436
 30
0.0
 40
11.13808705479925
 41
12.32365374410561
 68
     1
 69
     1
1001
GENIUS_GENSCREG_15
1000
PF
1040
1.0
1000
DF
1040
1.0
1000
MIN
1011
-0.2999093301147138
1021
-0.6165153048013714
1031
0.0
1021
-0.6165153048013714
1031
0.0
1000
MAX
1011
10.83817772468454
1021
11.70713843930424
1031
0.0
1021
11.70713843930424
1031
0.0
1000
FLAGS
1070
     4
1001
GENIUS_GENODEF_13
1002
{
1000
HIER
1070
     0
1002
}
1002
{
1000
MANEDIT
1070
     0
1002
}
1002
{
1000
NOSEL
1070
     0
1002
}
1002
{
1000
BEHIND
1070
     0
1002
}
1002
{
1000
OTHER
1070
     0
1002
}
1002
{
1000
REACTOR
1002
}
1001
GENIUS_GENOBJ-N-SDF_13
1002
{
1000
OWNER
1000
GEN
1002
}
1001
ACAD
1000
MVIEW
1002
{
1070
    16
1010
0.0
1020
0.0
1030
0.0
1020
0.0
1030
0.0
1010
0.0
1020
0.0
1030
1.0
1020
0.0
1030
1.0
1040
0.0
1040
12.32365374410561
1040
5.269134197284911
1040
5.545311567251436
1040
50.0
1040
0.0
1040
0.0
1070
     0
1070
   100
1070
     0
1070
     1
1070
     0
1070
     0
1070
     0
1070
     0
1040
0.0
1040
0.0
1040
0.0
1040
1.0
1040
1.0
1040
10.0
1040
10.0
1070
     0
1002
{
1002
}
1002
}
  0
ENDSEC
  0
EOF
