  0
SECTION
  2
HEADER
  9
$ACADVER
  1
AC1009
  9
$DWGCODEPAGE
  3
ansi_932
  9
$INSBASE
 10
0.0
 20
0.0
 30
0.0
  9
$EXTMIN
 10
0.0000019319777493
 20
-0.4999949264979549
 30
0.0
  9
$EXTMAX
 10
235.1103317283133
 20
294.6851362700035
 30
0.0
  9
$LIMMIN
 10
0.0
 20
0.0
  9
$LIMMAX
 10
420.0
 20
420.0
  9
$ORTHOMODE
 70
     1
  9
$REGENMODE
 70
     1
  9
$FILLMODE
 70
     1
  9
$QTEXTMODE
 70
     0
  9
$MIRRTEXT
 70
     0
  9
$DRAGMODE
 70
     2
  9
$LTSCALE
 40
10.0
  9
$OSMODE
 70
   549
  9
$ATTMODE
 70
     1
  9
$TEXTSIZE
 40
1.0
  9
$TRACEWID
 40
1.0
  9
$TEXTSTYLE
  7
STANDARD
  9
$CLAYER
  8
0
  9
$CELTYPE
  6
BYLAYER
  9
$CECOLOR
 62
   256
  9
$DIMSCALE
 40
1.0
  9
$DIMASZ
 40
2.5
  9
$DIMEXO
 40
1.0
  9
$DIMDLI
 40
7.0
  9
$DIMRND
 40
0.0
  9
$DIMDLE
 40
0.0
  9
$DIMEXE
 40
1.0
  9
$DIMTP
 40
0.1
  9
$DIMTM
 40
0.1
  9
$DIMTXT
 40
3.0
  9
$DIMCEN
 40
0.0
  9
$DIMTSZ
 40
0.0
  9
$DIMTOL
 70
     0
  9
$DIMLIM
 70
     0
  9
$DIMTIH
 70
     0
  9
$DIMTOH
 70
     0
  9
$DIMSE1
 70
     0
  9
$DIMSE2
 70
     0
  9
$DIMTAD
 70
     3
  9
$DIMZIN
 70
     8
  9
$DIMBLK
  1
OPEN
  9
$DIMASO
 70
     1
  9
$DIMSHO
 70
     1
  9
$DIMPOST
  1

  9
$DIMAPOST
  1
"
  9
$DIMALT
 70
     0
  9
$DIMALTD
 70
     2
  9
$DIMALTF
 40
0.0393701
  9
$DIMLFAC
 40
1.0
  9
$DIMTOFL
 70
     1
  9
$DIMTVP
 40
0.0
  9
$DIMTIX
 70
     0
  9
$DIMSOXD
 70
     0
  9
$DIMSAH
 70
     0
  9
$DIMBLK1
  1

  9
$DIMBLK2
  1

  9
$DIMSTYLE
  2
AM_JIS
  9
$DIMCLRD
 70
   256
  9
$DIMCLRE
 70
   256
  9
$DIMCLRT
 70
     2
  9
$DIMTFAC
 40
0.71
  9
$DIMGAP
 40
1.0
  9
$LUNITS
 70
     2
  9
$LUPREC
 70
     2
  9
$SKETCHINC
 40
1.0
  9
$FILLETRAD
 40
2.5
  9
$AUNITS
 70
     0
  9
$AUPREC
 70
     0
  9
$MENU
  1
.
  9
$ELEVATION
 40
0.0
  9
$PELEVATION
 40
0.0
  9
$THICKNESS
 40
0.0
  9
$LIMCHECK
 70
     0
  9
$CHAMFERA
 40
2.5
  9
$CHAMFERB
 40
2.5
  9
$SKPOLY
 70
     1
  9
$TDCREATE
 40
2457177.654148542
  9
$TDUPDATE
 40
2460346.654068113
  9
$TDINDWG
 40
0.0796774306
  9
$TDUSRTIMER
 40
0.0796726273
  9
$USRTIMER
 70
     1
  9
$ANGBASE
 50
0.0
  9
$ANGDIR
 70
     0
  9
$PDMODE
 70
     0
  9
$PDSIZE
 40
0.0
  9
$PLINEWID
 40
0.0
  9
$COORDS
 70
     0
  9
$SPLFRAME
 70
     0
  9
$SPLINETYPE
 70
     6
  9
$SPLINESEGS
 70
     8
  9
$ATTDIA
 70
     1
  9
$ATTREQ
 70
     1
  9
$HANDLING
 70
     1
  9
$HANDSEED
  5
A317
  9
$SURFTAB1
 70
     6
  9
$SURFTAB2
 70
     6
  9
$SURFTYPE
 70
     6
  9
$SURFU
 70
     6
  9
$SURFV
 70
     6
  9
$UCSNAME
  2

  9
$UCSORG
 10
0.0
 20
0.0
 30
0.0
  9
$UCSXDIR
 10
1.0
 20
0.0
 30
0.0
  9
$UCSYDIR
 10
0.0
 20
1.0
 30
0.0
  9
$PUCSNAME
  2

  9
$PUCSORG
 10
0.0
 20
0.0
 30
0.0
  9
$PUCSXDIR
 10
1.0
 20
0.0
 30
0.0
  9
$PUCSYDIR
 10
0.0
 20
1.0
 30
0.0
  9
$USERI1
 70
     0
  9
$USERI2
 70
     0
  9
$USERI3
 70
     0
  9
$USERI4
 70
     0
  9
$USERI5
 70
     0
  9
$USERR1
 40
0.0
  9
$USERR2
 40
0.0
  9
$USERR3
 40
0.0
  9
$USERR4
 40
0.0
  9
$USERR5
 40
0.0
  9
$WORLDVIEW
 70
     1
  9
$SHADEDGE
 70
     3
  9
$SHADEDIF
 70
    70
  9
$TILEMODE
 70
     1
  9
$MAXACTVP
 70
    48
  9
$PLIMCHECK
 70
     0
  9
$PEXTMIN
 10
1.000000000000000E+20
 20
1.000000000000000E+20
 30
1.000000000000000E+20
  9
$PEXTMAX
 10
-1.000000000000000E+20
 20
-1.000000000000000E+20
 30
-1.000000000000000E+20
  9
$PLIMMIN
 10
-0.2500002402958907
 20
-0.2499999962453767
  9
$PLIMMAX
 10
10.74999951940822
 20
8.249999763458732
  9
$UNITMODE
 70
     0
  9
$VISRETAIN
 70
     1
  9
$PLINEGEN
 70
     0
  9
$PSLTSCALE
 70
     1
  0
ENDSEC
  0
SECTION
  2
TABLES
  0
TABLE
  2
VPORT
 70
     1
  0
VPORT
  2
*ACTIVE
 70
     0
 10
0.0
 20
0.0
 11
1.0
 21
1.0
 12
210.0
 22
209.750002536751
 13
0.0
 23
0.0
 14
2.5
 24
2.5
 15
10.0
 25
10.0
 16
0.0
 26
0.0
 36
1.0
 17
0.0
 27
0.0
 37
0.0
 40
423.7628464875184
 41
2.05293551491819
 42
50.0
 43
0.0
 44
0.0
 50
0.0
 51
0.0
 71
     0
 72
   100
 73
     1
 74
     3
 75
     0
 76
     0
 77
     0
 78
     0
  0
ENDTAB
  0
TABLE
  2
LTYPE
 70
    22
  0
LTYPE
  2
CONTINUOUS
 70
     0
  3
Solid line
 72
    65
 73
     0
 40
0.0
  0
LTYPE
  2
HIDDEN
 70
     0
  3
__ __ __ __ __ __ __ __ __ __ __ __ __ __ __ __
 72
    65
 73
     2
 40
0.375
 49
0.25
 49
-0.125
  0
LTYPE
  2
PHANTOM2
 70
     0
  3
___ _ _ ___ _ _ ___ _ _ ___ _ _ ___ _ _ ___ _ _
 72
    65
 73
     6
 40
1.25
 49
0.625
 49
-0.125
 49
0.125
 49
-0.125
 49
0.125
 49
-0.125
  0
LTYPE
  2
CENTER
 70
     0
  3
____ _ ____ _ ____ _ ____ _ ____ _ ____ _ ____ 
 72
    65
 73
     4
 40
2.0
 49
1.25
 49
-0.25
 49
0.25
 49
-0.25
  0
LTYPE
  2
ACJISTGB
 70
     0
  3
__ . . __ . .
 72
    65
 73
     6
 40
9.0
 49
4.0
 49
-1.0
 49
1.0
 49
-1.0
 49
1.0
 49
-1.0
  0
LTYPE
  2
ACJISTGL
 70
     0
  3
_ _ _ _ _
 72
    65
 73
     2
 40
3.0
 49
2.0
 49
-1.0
  0
LTYPE
  2
ACISOWELD
 70
     0
  3
_ _ _ _ _
 72
    65
 73
     2
 40
2.0
 49
2.0
 49
-1.0
  0
LTYPE
  2
ACISOTGB
 70
     0
  3
__ . . __ . .
 72
    65
 73
     6
 40
9.0
 49
4.0
 49
-1.0
 49
1.0
 49
-1.0
 49
1.0
 49
-1.0
  0
LTYPE
  2
ACISOTGL
 70
     0
  3
_ _ _ _ _
 72
    65
 73
     2
 40
3.0
 49
2.0
 49
-1.0
  0
LTYPE
  2
AM_ISO02W050
 70
     0
  3
__ __ __ __ __ __ __ __ __ __ __ __ __ __ __
 72
    65
 73
     2
 40
7.5
 49
6.0
 49
-1.5
  0
LTYPE
  2
AM_ISO08W050
 70
     0
  3
____ . ____ . ____ . ____ . ____ . ____ . ____
 72
    65
 73
     4
 40
18.0
 49
12.0
 49
-1.5
 49
3.0
 49
-1.5
  0
LTYPE
  2
AM_ISO09W050
 70
     0
  3
_____ . . _____ . . _____ . . ____ .. ____
 72
    65
 73
     6
 40
22.5
 49
12.0
 49
-1.5
 49
3.0
 49
-1.5
 49
3.0
 49
-1.5
  0
LTYPE
  2
AM_ISO02W050X2
 70
     0
  3
 _ _ _ _ _ _ _ _ _ _ _ _
 72
    65
 73
     2
 40
3.75
 49
3.0
 49
-0.75
  0
LTYPE
  2
AM_ISO08W050X2
 70
     0
  3
__ . __ . __ . __ . __ . __
 72
    65
 73
     4
 40
9.0
 49
6.0
 49
-0.75
 49
1.5
 49
-0.75
  0
LTYPE
  2
AMZIGZAG
 70
     0
  3
/\/-/\/-/\/-/\/-/\/-/\/
 72
    65
 73
     2
 40
11.0001
 49
0.0001
 49
-11.0
  0
LTYPE
  2
AMCONSTR
 70
     0
  3
_______________________
 72
    65
 73
     2
 40
9999.0
 49
9999.0
 49
0.0
  0
LTYPE
  2
CENTER2
 70
     0
  3
Center (.5x) ___ _ ___ _ ___ _ ___ _ ___ _ ___
 72
    65
 73
     4
 40
1.125
 49
0.75
 49
-0.125
 49
0.125
 49
-0.125
  0
LTYPE
  2
HIDDEN2
 70
     0
  3
Hidden (.5x) _ _ _ _ _ _ _ _ _ _ _ _ _ _ _ _ _
 72
    65
 73
     2
 40
0.1875
 49
0.125
 49
-0.0625
  0
LTYPE
  2
ACJISWELD
 70
     0
  3
_ _ _ _ _
 72
    65
 73
     2
 40
2.0
 49
2.0
 49
-1.0
  0
LTYPE
  2
AMZIGZAG2
 70
     0
  3
/\/-/\/-/\/-/\/-/\/-/\/
 72
    65
 73
     2
 40
0.4401
 49
0.0001
 49
-0.44
  0
LTYPE
  2
ACANSTGB
 70
     0
  3
__ . . __ . .
 72
    65
 73
     6
 40
0.35433070866
 49
0.15748031496
 49
-0.03937007874
 49
0.03937007874
 49
-0.03937007874
 49
0.03937007874
 49
-0.03937007874
  0
LTYPE
  2
ACANSTGL
 70
     0
  3
_ _ _ _ _
 72
    65
 73
     2
 40
0.11811023622
 49
0.07874015748
 49
-0.03937007874
  0
ENDTAB
  0
TABLE
  2
LAYER
 70
     5
  0
LAYER
  2
0
 70
     0
 62
     7
  6
CONTINUOUS
  0
LAYER
  2
7
 70
     0
 62
     4
  6
CENTER2
  0
LAYER
  2
10
 70
     0
 62
     2
  6
CONTINUOUS
  0
LAYER
  2
DEFPOINTS
 70
     0
 62
     7
  6
CONTINUOUS
  0
LAYER
  2
AM_0
 70
     0
 62
     7
  6
CONTINUOUS
  0
ENDTAB
  0
TABLE
  2
STYLE
 70
     8
  0
STYLE
  2
STANDARD
 70
     0
 40
0.0
 41
1.0
 50
0.0
 71
     0
 42
1.0
  3
ISOCP.SHX
  4
EXTFONT.SHX
  0
STYLE
  2
ACJISTS
 70
     0
 40
1.0
 41
1.0
 50
0.0
 71
     0
 42
3.5
  3
isocp.shx
  4
extfont.shx
  0
STYLE
  2
ACJISGDT
 70
     0
 40
0.0
 41
1.0
 50
0.0
 71
     0
 42
3.5
  3
amgdt.shx
  4
extfont.shx
  0
STYLE
  2
ACISOTS
 70
     0
 40
1.0
 41
1.0
 50
0.0
 71
     0
 42
1.0
  3
isocp.shx
  4
extfont.shx
  0
STYLE
  2
ACISOGDT
 70
     0
 40
0.0
 41
1.0
 50
0.0
 71
     0
 42
3.5
  3
amgdt.shx
  4
extfont.shx
  0
STYLE
  2

 70
     1
 40
0.0
 41
1.0
 50
0.0
 71
     0
 42
3.5
  3
ltypeshp.shx
  4

  0
STYLE
  2

 70
     1
 40
0.0
 41
1.0
 50
0.0
 71
     0
 42
4.0
  3
genltshp.shx
  4

  0
STYLE
  2
ACANSGDT
 70
     0
 40
0.0
 41
1.0
 50
0.0
 71
     0
 42
4.0
  3
amgdt.shx
  4

  0
ENDTAB
  0
TABLE
  2
VIEW
 70
     3
  0
VIEW
  2
AMDTVIEW1
 70
     0
 40
329.0721649484536
 10
210.0
 20
164.5360824742268
 41
420.0
 11
0.0
 21
0.0
 31
1.0
 12
0.0
 22
0.0
 32
0.0
 42
50.0
 43
0.0
 44
0.0
 50
0.0
 71
     0
  0
VIEW
  2
AMDTVIEW2
 70
     0
 40
329.0721649484536
 10
210.0
 20
164.5360824742268
 41
420.0
 11
0.0
 21
0.0
 31
1.0
 12
0.0
 22
0.0
 32
0.0
 42
50.0
 43
0.0
 44
0.0
 50
0.0
 71
     0
  0
VIEW
  2
AMDTVIEW3
 70
     0
 40
329.0721649484536
 10
210.0
 20
164.5360824742268
 41
420.0
 11
0.0
 21
0.0
 31
1.0
 12
0.0
 22
0.0
 32
0.0
 42
50.0
 43
0.0
 44
0.0
 50
0.0
 71
     0
  0
ENDTAB
  0
TABLE
  2
UCS
 70
     0
  0
ENDTAB
  0
TABLE
  2
APPID
 70
    67
  0
APPID
  2
ACAD
 70
     0
  0
APPID
  2
AD_DRAW
 70
     0
  0
APPID
  2
DESIGNERASSEMBLIES
 70
     0
  0
APPID
  2
MCAD_NO_VIS
 70
     0
  0
APPID
  2
ASURF_PCURVE_APPNAME
 70
     0
  0
APPID
  2
ACAD_TEMP_GRAPHIC
 70
     0
  0
APPID
  2
ACATTRIBSERVICES
 70
     0
  0
APPID
  2
ACADM_DIM_EDIT
 70
     0
  0
APPID
  2
GENIUS_GENDIM_13
 70
     0
  0
APPID
  2
GENIUS_GENDTOL_13
 70
     0
  0
APPID
  2
GENIUS_GE3DTOL_13
 70
     0
  0
APPID
  2
AMG_3D2D_5_0
 70
     0
  0
APPID
  2
AMDT_DM_ADJ
 70
     0
  0
APPID
  2
ACAD_PSEXT
 70
     0
  0
APPID
  2
ACAD_DSTYLE_DIMTEXT_FILL
 70
     0
  0
APPID
  2
ACAECLAYERSTANDARD
 70
     0
  0
APPID
  2
GENIUS_GENREC_14
 70
     0
  0
APPID
  2
GENIUS_GENODEF_13
 70
     0
  0
APPID
  2
GENIUS_GENOBJ-N-REC_13
 70
     0
  0
APPID
  2
DCO15
 70
     0
  0
APPID
  2
ACAD_DSTYLE_DIMJAG
 70
     0
  0
APPID
  2
ACAD_DSTYLE_DIMTALN
 70
     0
  0
APPID
  2
ACAD_MLEADERVER
 70
     0
  0
APPID
  2
GENIUS_GENSCREG_15
 70
     0
  0
APPID
  2
GENIUS_GENOBJ-N-SDF_13
 70
     0
  0
APPID
  2
ACAD_NAV_VCDISPLAY
 70
     0
  0
APPID
  2
ACAD_EXEMPT_FROM_CAD_STAND
 70
     0
  0
APPID
  2
ACCMTRANSPARENCY
 70
     0
  0
APPID
  2
GENIUS_GENOBJ-N-CEN_13
 70
     0
  0
APPID
  2
GENIUS_GENOBJ-N-FIL_13
 70
     0
  0
APPID
  2
GENIUS_GENCEN_19
 70
     0
  0
APPID
  2
ACAD_DSTYLE_DIMBREAK
 70
     0
  0
APPID
  2
PLOTTRANSPARENCY
 70
     0
  0
APPID
  2
ACAD_SPLINE_DATA
 70
     0
  0
APPID
  2
ACAD_SPLINE_DATA2
 70
     0
  0
APPID
  2
GENIUS_GENOLIS_13
 70
     0
  0
APPID
  2
GENIUS_GENOENT_13
 70
     0
  0
APPID
  2
GENIUS_GENOBJ-N-CRS_13
 70
     0
  0
APPID
  2
GENIUS_GENOREF_13
 70
     0
  0
APPID
  2
HC_SUPERPART
 70
     0
  0
APPID
  2
HC_SP4BLOCK
 70
     0
  0
APPID
  2
HC_XDATA_SPRING
 70
     0
  0
APPID
  2
HCCAD_FRAME
 70
     0
  0
APPID
  2
GENIUS_GENOBJ-N-TIT_13
 70
     0
  0
APPID
  2
GENIUS_GENOBJ-N-ZOO_13
 70
     0
  0
APPID
  2
GENIUS_GENTITLE_13
 70
     0
  0
APPID
  2
GENIUS_GENSYMENT_13
 70
     0
  0
APPID
  2
GENIUS_GENSCSYM_13
 70
     0
  0
APPID
  2
GENIUS_GENOBJ-N-REV_13
 70
     0
  0
APPID
  2
GENIUS_GENOBJ-N-RSSYM_13
 70
     0
  0
APPID
  2
GENIUS_GENREV_15
 70
     0
  0
APPID
  2
HRA
 70
     0
  0
APPID
  2
HTIT
 70
     0
  0
APPID
  2
GENIUS_GENZOO_17
 70
     0
  0
APPID
  2
GENIUS_GENCRS_20
 70
     0
  0
APPID
  2
GENIUS_GENOBJ-N-CRC_13
 70
     0
  0
APPID
  2
GENIUS_GENCRC_14
 70
     0
  0
APPID
  2
GENIUS_GENFIL_13
 70
     0
  0
APPID
  2
GENIUS_GENOBJ-N-CHA_13
 70
     0
  0
APPID
  2
GENIUS_GENHATCH_13
 70
     0
  0
APPID
  2
GENIUS_GENOBJ-N-HTC_13
 70
     0
  0
APPID
  2
GENIUS_GENOBJ-N-DIM_13
 70
     0
  0
APPID
  2
GENIUS_GENOBJ-N-DIMLI_13
 70
     0
  0
APPID
  2
GENIUS_GENOBJ-N-FITL_13
 70
     0
  0
APPID
  2
GENIUS_GENFITL_13
 70
     0
  0
APPID
  2
GENLAYCOLOR
 70
     0
  0
APPID
  2
ACADANNOTATIVE
 70
     0
  0
ENDTAB
  0
TABLE
  2
DIMSTYLE
 70
    23
  0
DIMSTYLE
  2
STANDARD
 70
     0
  3

  4

  5

  6

  7

 40
1.0
 41
2.5
 42
0.625
 43
3.75
 44
1.25
 45
0.0
 46
0.0
 47
0.0
 48
0.0
140
2.5
141
2.5
142
0.0
143
0.0394
144
1.0
145
0.0
146
1.0
147
0.625
 71
     0
 72
     0
 73
     0
 74
     0
 75
     0
 76
     0
 77
     1
 78
     8
170
     0
171
     4
172
     1
173
     0
174
     0
175
     0
176
     0
177
     0
178
     0
  0
DIMSTYLE
  2
AM_JIS
 70
     0
  3

  4
"
  5
OPEN
  6

  7

 40
1.0
 41
2.5
 42
1.0
 43
7.0
 44
1.0
 45
0.0
 46
0.0
 47
0.1
 48
0.1
140
3.0
141
0.0
142
0.0
143
0.0393701
144
1.0
145
0.0
146
0.71
147
1.0
 71
     0
 72
     0
 73
     0
 74
     0
 75
     0
 76
     0
 77
     3
 78
     8
170
     0
171
     2
172
     1
173
     0
174
     0
175
     0
176
   256
177
   256
178
     2
  0
DIMSTYLE
  2
AM_JIS$3
 70
     0
  3

  4
"
  5
OPEN
  6

  7

 40
1.0
 41
2.5
 42
1.0
 43
10.0
 44
1.0
 45
0.0
 46
0.0
 47
0.1
 48
0.1
140
3.0
141
0.0
142
0.0
143
0.0393701
144
1.0
145
0.0
146
0.71
147
1.0
 71
     0
 72
     0
 73
     0
 74
     0
 75
     0
 76
     0
 77
     3
 78
     8
170
     0
171
     2
172
     1
173
     0
174
     0
175
     0
176
   256
177
   256
178
     2
  0
DIMSTYLE
  2
AM_JIS$4
 70
     0
  3

  4
"
  5

  6
OPEN30
  7
OPEN
 40
1.0
 41
2.5
 42
1.0
 43
10.0
 44
1.0
 45
0.0
 46
0.0
 47
0.1
 48
0.1
140
3.0
141
0.0
142
0.0
143
0.0393701
144
1.0
145
0.0
146
0.71
147
1.0
 71
     0
 72
     0
 73
     0
 74
     0
 75
     0
 76
     0
 77
     3
 78
     8
170
     0
171
     2
172
     1
173
     1
174
     0
175
     0
176
   256
177
   256
178
     2
  0
DIMSTYLE
  2
AM_JIS$6
 70
     0
  3

  4
"
  5
OPEN30
  6
OPEN30
  7
OPEN30
 40
1.0
 41
2.5
 42
1.0
 43
10.0
 44
1.0
 45
0.0
 46
0.0
 47
0.1
 48
0.1
140
3.5
141
0.0
142
0.0
143
0.0393701
144
1.0
145
0.0
146
0.71
147
1.5
 71
     0
 72
     0
 73
     0
 74
     0
 75
     0
 76
     0
 77
     0
 78
     8
170
     0
171
     2
172
     1
173
     0
174
     0
175
     0
176
   256
177
   256
178
     2
  0
DIMSTYLE
  2
AM_JIS$7
 70
     0
  3

  4
"
  5
OPEN30
  6

  7

 40
1.0
 41
2.5
 42
1.0
 43
10.0
 44
1.0
 45
0.0
 46
0.0
 47
0.1
 48
0.1
140
3.0
141
0.0
142
0.0
143
0.0393701
144
1.0
145
0.0
146
0.71
147
1.0
 71
     0
 72
     0
 73
     0
 74
     0
 75
     0
 76
     0
 77
     3
 78
     8
170
     0
171
     2
172
     1
173
     0
174
     0
175
     0
176
   256
177
   256
178
     2
  0
DIMSTYLE
  2
AM_JIS$SF
 70
     0
  3

  4
"
  5
OPEN
  6

  7

 40
1.0
 41
2.5
 42
1.0
 43
7.0
 44
1.0
 45
0.0
 46
0.0
 47
0.1
 48
0.1
140
3.5
141
0.0
142
0.0
143
0.0393701
144
1.0
145
0.0
146
0.71
147
1.5
 71
     0
 72
     0
 73
     0
 74
     0
 75
     1
 76
     1
 77
     3
 78
     8
170
     0
171
     2
172
     1
173
     0
174
     0
175
     0
176
   256
177
   256
178
     2
  0
DIMSTYLE
  2
AM_JIS$SH
 70
     0
  3

  4
"
  5

  6
GENAXEH
  7
OPEN
 40
1.0
 41
2.5
 42
1.0
 43
7.0
 44
1.0
 45
0.0
 46
0.0
 47
0.1
 48
0.1
140
3.5
141
0.0
142
0.0
143
0.0393701
144
2.0
145
0.0
146
0.71
147
1.5
 71
     0
 72
     0
 73
     0
 74
     0
 75
     1
 76
     1
 77
     3
 78
     8
170
     0
171
     2
172
     1
173
     1
174
     0
175
     0
176
   256
177
   256
178
     2
  0
DIMSTYLE
  2
AM_ISO
 70
     0
  3

  4
"
  5

  6

  7

 40
1.0
 41
2.5
 42
1.0
 43
10.0
 44
1.0
 45
0.0
 46
0.0
 47
0.1
 48
0.1
140
3.5
141
0.0
142
0.0
143
0.0393701
144
1.0
145
0.0
146
0.71
147
1.5
 71
     0
 72
     0
 73
     0
 74
     0
 75
     0
 76
     0
 77
     1
 78
     8
170
     0
171
     2
172
     1
173
     0
174
     0
175
     0
176
   256
177
   256
178
     2
  0
DIMSTYLE
  2
AM_ISO$3
 70
     0
  3

  4
"
  5

  6

  7

 40
1.0
 41
2.5
 42
1.0
 43
10.0
 44
1.0
 45
0.0
 46
0.0
 47
0.1
 48
0.1
140
3.5
141
0.0
142
0.0
143
0.0393701
144
1.0
145
0.0
146
0.71
147
1.5
 71
     0
 72
     0
 73
     0
 74
     1
 75
     0
 76
     0
 77
     1
 78
     8
170
     0
171
     2
172
     0
173
     0
174
     0
175
     0
176
   256
177
   256
178
     2
  0
DIMSTYLE
  2
AM_ISO$4
 70
     0
  3

  4
"
  5

  6

  7

 40
1.0
 41
2.5
 42
1.0
 43
10.0
 44
1.0
 45
0.0
 46
0.0
 47
0.1
 48
0.1
140
3.5
141
0.0
142
0.0
143
0.0393701
144
1.0
145
0.0
146
0.71
147
1.5
 71
     0
 72
     0
 73
     0
 74
     1
 75
     0
 76
     0
 77
     1
 78
     8
170
     0
171
     2
172
     0
173
     0
174
     0
175
     0
176
   256
177
   256
178
     2
  0
DIMSTYLE
  2
AM_ISO$6
 70
     0
  3

  4
"
  5

  6

  7

 40
1.0
 41
2.5
 42
1.0
 43
10.0
 44
1.0
 45
0.0
 46
0.0
 47
0.1
 48
0.1
140
3.5
141
0.0
142
0.0
143
0.0393701
144
1.0
145
0.0
146
0.71
147
1.5
 71
     0
 72
     0
 73
     0
 74
     0
 75
     0
 76
     0
 77
     0
 78
     8
170
     0
171
     2
172
     1
173
     0
174
     0
175
     0
176
   256
177
   256
178
     2
  0
DIMSTYLE
  2
AM_ISO$7
 70
     0
  3

  4
"
  5

  6

  7

 40
1.0
 41
2.5
 42
1.0
 43
10.0
 44
1.0
 45
0.0
 46
0.0
 47
0.1
 48
0.1
140
5.0
141
0.0
142
0.0
143
0.0393701
144
1.0
145
0.0
146
0.71
147
1.5
 71
     0
 72
     0
 73
     0
 74
     0
 75
     0
 76
     0
 77
     1
 78
     8
170
     0
171
     2
172
     1
173
     0
174
     0
175
     0
176
   256
177
   256
178
     2
  0
DIMSTYLE
  2
AM_ISO$SF
 70
     0
  3

  4
"
  5

  6

  7

 40
1.0
 41
2.5
 42
1.0
 43
10.0
 44
1.0
 45
0.0
 46
0.0
 47
0.1
 48
0.1
140
3.5
141
0.0
142
0.0
143
0.0393701
144
1.0
145
0.0
146
0.71
147
1.5
 71
     0
 72
     0
 73
     0
 74
     0
 75
     1
 76
     1
 77
     1
 78
     8
170
     0
171
     2
172
     1
173
     0
174
     0
175
     0
176
   256
177
   256
178
     2
  0
DIMSTYLE
  2
AM_ISO$SH
 70
     0
  3

  4
"
  5

  6
GENAXEH
  7

 40
1.0
 41
2.5
 42
1.0
 43
10.0
 44
1.0
 45
0.0
 46
0.0
 47
0.1
 48
0.1
140
3.5
141
0.0
142
0.0
143
0.0393701
144
2.0
145
0.0
146
0.71
147
1.5
 71
     0
 72
     0
 73
     0
 74
     0
 75
     1
 76
     1
 77
     1
 78
     8
170
     0
171
     2
172
     1
173
     1
174
     0
175
     0
176
   256
177
   256
178
     2
  0
DIMSTYLE
  2
AM_JIS$2
 70
     0
  3

  4
"
  5
OPEN
  6

  7

 40
1.0
 41
2.5
 42
1.0
 43
7.0
 44
1.0
 45
0.0
 46
0.0
 47
0.1
 48
0.1
140
3.0
141
0.0
142
0.0
143
0.0393701
144
1.0
145
0.0
146
0.71
147
1.0
 71
     0
 72
     0
 73
     0
 74
     0
 75
     0
 76
     0
 77
     3
 78
     8
170
     0
171
     2
172
     1
173
     0
174
     0
175
     0
176
   256
177
   256
178
     2
  0
DIMSTYLE
  2
AM_JIS$0
 70
     0
  3

  4
"
  5
OPEN
  6

  7

 40
1.0
 41
2.5
 42
1.0
 43
7.0
 44
1.0
 45
0.0
 46
0.0
 47
0.1
 48
0.1
140
3.0
141
0.0
142
0.0
143
0.0393701
144
1.0
145
0.0
146
0.71
147
1.0
 71
     0
 72
     0
 73
     0
 74
     0
 75
     0
 76
     0
 77
     3
 78
     8
170
     0
171
     2
172
     1
173
     0
174
     0
175
     0
176
   256
177
   256
178
     2
  0
DIMSTYLE
  2
AM_ANSI
 70
     0
  3

  4
mm
  5

  6

  7

 40
1.0
 41
0.12
 42
0.05
 43
0.5
 44
0.1
 45
0.0
 46
0.0
 47
0.1
 48
0.1
140
0.12
141
0.0
142
0.0
143
25.4
144
1.0
145
0.0
146
0.71
147
0.06
 71
     0
 72
     0
 73
     1
 74
     1
 75
     0
 76
     0
 77
     0
 78
     7
170
     0
171
     2
172
     0
173
     0
174
     0
175
     0
176
   256
177
   256
178
     2
  0
DIMSTYLE
  2
AM_ANSI$3
 70
     0
  3

  4
mm
  5

  6

  7

 40
1.0
 41
0.12
 42
0.05
 43
0.5
 44
0.1
 45
0.0
 46
0.0
 47
0.1
 48
0.1
140
0.12
141
0.0
142
0.0
143
25.4
144
1.0
145
0.0
146
0.71
147
0.06
 71
     0
 72
     0
 73
     1
 74
     1
 75
     0
 76
     0
 77
     0
 78
     7
170
     0
171
     2
172
     0
173
     0
174
     0
175
     0
176
   256
177
   256
178
     2
  0
DIMSTYLE
  2
AM_ANSI$4
 70
     0
  3

  4
mm
  5

  6

  7

 40
1.0
 41
0.12
 42
0.05
 43
0.5
 44
0.1
 45
0.0
 46
0.0
 47
0.1
 48
0.1
140
0.12
141
0.0
142
0.0
143
25.4
144
1.0
145
0.0
146
0.71
147
0.06
 71
     0
 72
     0
 73
     1
 74
     1
 75
     0
 76
     0
 77
     0
 78
     7
170
     0
171
     2
172
     0
173
     0
174
     0
175
     0
176
   256
177
   256
178
     2
  0
DIMSTYLE
  2
AM_ANSI$7
 70
     0
  3

  4
mm
  5

  6

  7

 40
1.0
 41
0.12
 42
0.05
 43
0.5
 44
0.1
 45
0.0
 46
0.0
 47
0.1
 48
0.1
140
0.12
141
0.0
142
0.0
143
25.4
144
1.0
145
0.0
146
0.71
147
0.06
 71
     0
 72
     0
 73
     1
 74
     1
 75
     0
 76
     0
 77
     0
 78
     7
170
     0
171
     2
172
     0
173
     0
174
     0
175
     0
176
   256
177
   256
178
     2
  0
DIMSTYLE
  2
AM_ANSI$SF
 70
     0
  3

  4
mm
  5

  6

  7

 40
1.0
 41
0.12
 42
0.05
 43
0.5
 44
0.1
 45
0.0
 46
0.0
 47
0.1
 48
0.1
140
0.12
141
0.0
142
0.0
143
25.4
144
1.0
145
0.0
146
0.71
147
0.06
 71
     0
 72
     0
 73
     1
 74
     1
 75
     1
 76
     1
 77
     0
 78
     7
170
     0
171
     2
172
     0
173
     0
174
     0
175
     0
176
   256
177
   256
178
     2
  0
DIMSTYLE
  2
AM_ANSI$SH
 70
     0
  3

  4
mm
  5

  6
GENAXEH
  7

 40
1.0
 41
0.12
 42
0.05
 43
0.5
 44
0.1
 45
0.0
 46
0.0
 47
0.1
 48
0.1
140
0.12
141
0.0
142
0.0
143
25.4
144
1.0
145
0.0
146
0.71
147
0.06
 71
     0
 72
     0
 73
     1
 74
     1
 75
     1
 76
     1
 77
     0
 78
     7
170
     0
171
     2
172
     0
173
     1
174
     0
175
     0
176
   256
177
   256
178
     2
  0
ENDTAB
  0
ENDSEC
  0
SECTION
  2
BLOCKS
  0
BLOCK
  8
0
  2
$MODEL_SPACE
 70
     0
 10
0.0
 20
0.0
 30
0.0
  3
$MODEL_SPACE
  1

  0
ENDBLK
  5
1C
  8
0
  0
BLOCK
 67
     1
  8
0
  2
$PAPER_SPACE
 70
     0
 10
0.0
 20
0.0
 30
0.0
  3
$PAPER_SPACE
  1

  0
ENDBLK
  5
19
 67
     1
  8
0
  0
BLOCK
  8
0
  2
_OPEN30
 70
     0
 10
0.0
 20
0.0
 30
0.0
  3
_OPEN30
  1

  0
LINE
  5
2EF
  8
0
  6
BYBLOCK
 62
     0
 10
-1.0
 20
0.26794919
 30
0.0
 11
0.0
 21
0.0
 31
0.0
  0
LINE
  5
2F0
  8
0
  6
BYBLOCK
 62
     0
 10
0.0
 20
0.0
 30
0.0
 11
-1.0
 21
-0.26794919
 31
0.0
  0
LINE
  5
2F1
  8
0
  6
BYBLOCK
 62
     0
 10
0.0
 20
0.0
 30
0.0
 11
-1.0
 21
0.0
 31
0.0
  0
ENDBLK
  5
2F3
  8
0
  0
BLOCK
  8
0
  2
GENAXEH
 70
     0
 10
0.0
 20
0.0
 30
0.0
  3
GENAXEH
  1

  0
LINE
  5
2F5
  8
0
 10
-1.0
 20
0.0
 30
0.0
 11
1.0
 21
0.0
 31
0.0
  0
ENDBLK
  5
2F7
  8
0
  0
BLOCK
  8
0
  2
_OPEN
 70
     0
 10
0.0
 20
0.0
 30
0.0
  3
_OPEN
  1

  0
LINE
  5
597
  8
0
  6
BYBLOCK
 62
     0
 10
-1.0
 20
0.1666666666666667
 30
0.0
 11
0.0
 21
0.0
 31
0.0
  0
LINE
  5
598
  8
0
  6
BYBLOCK
 62
     0
 10
-1.0
 20
-0.1666666666666667
 30
0.0
 11
0.0
 21
0.0
 31
0.0
  0
LINE
  5
599
  8
0
  6
BYBLOCK
 62
     0
 10
0.0
 20
0.0
 30
0.0
 11
-1.0
 21
0.0
 31
0.0
  0
ENDBLK
  5
59B
  8
0
  0
BLOCK
  8
0
  2
_TAGCIRCLE
 70
     2
 10
0.0
 20
0.0
 30
0.0
  3
_TAGCIRCLE
  1

  0
CIRCLE
  5
1151
  8
0
  6
BYBLOCK
 62
     0
 10
0.0
 20
0.0
 30
0.0
 40
4.0
  0
ATTDEF
  5
1152
  8
0
 62
     0
 10
-7.1
 20
-1.5
 30
0.0
 40
3.0
  1
タグ番号
 72
     1
 11
0.0
 21
-1.5
 31
0.0
  3
タグ番号を入力
  2
タグ番号
 70
     0
  0
ENDBLK
  5
1154
  8
0
  0
BLOCK
  8
0
  2
_ACMFILLED15
 70
     0
 10
0.0
 20
0.0
 30
0.0
  3
_ACMFILLED15
  1
Acad:XRef
  0
TRACE
  5
7B9D
  8
AM_0
 62
     0
 10
-1.0
 20
0.1316524975873958
 30
0.0
 11
-1.0
 21
-0.1316524975873958
 31
0.0
 12
0.0
 22
0.0
 32
0.0
 13
0.0
 23
0.0
 33
0.0
  0
ENDBLK
  5
7B9B
  8
0
  0
BLOCK
  8
0
  2
_ACMOPEN30
 70
     0
 10
0.0
 20
0.0
 30
0.0
  3
_ACMOPEN30
  1
Acad:XRef
  0
LINE
  5
7BA7
  8
AM_0
 62
     0
 10
-1.0
 20
0.0
 30
0.0
 11
0.0
 21
0.0
 31
0.0
  0
LINE
  5
7BA8
  8
AM_0
 62
     0
 10
-1.0
 20
-0.2679491924311227
 30
0.0
 11
0.0
 21
0.0
 31
0.0
  0
LINE
  5
7BA9
  8
AM_0
 62
     0
 10
-1.0
 20
0.2679491924311227
 30
0.0
 11
0.0
 21
0.0
 31
0.0
  0
ENDBLK
  5
7BA6
  8
0
  0
BLOCK
  8
0
  2
_ACMFILLEDHALF
 70
     0
 10
0.0
 20
0.0
 30
0.0
  3
_ACMFILLEDHALF
  1

  0
TRACE
  5
7BB2
  8
0
 62
     0
 10
-0.8
 20
0.0
 30
0.0
 11
-1.0
 21
0.166666666
 31
0.0
 12
0.0
 22
0.0
 32
0.0
 13
0.0
 23
0.0
 33
0.0
  0
LINE
  5
7BB3
  8
0
 62
     0
 10
-1.0
 20
0.0
 30
0.0
 11
-0.8
 21
0.0
 31
0.0
  0
ENDBLK
  5
7BB4
  8
0
  0
BLOCK
  8
0
  2
_ACMOPEN15
 70
     0
 10
0.0
 20
0.0
 30
0.0
  3
_ACMOPEN15
  1
Acad:XRef
  0
LINE
  5
7BC1
  8
AM_0
 62
     0
 10
-1.0
 20
0.0
 30
0.0
 11
0.0
 21
0.0
 31
0.0
  0
LINE
  5
7BC2
  8
AM_0
 62
     0
 10
-1.0
 20
-0.1316524975873958
 30
0.0
 11
0.0
 21
0.0
 31
0.0
  0
LINE
  5
7BC3
  8
AM_0
 62
     0
 10
-1.0
 20
0.1316524975873958
 30
0.0
 11
0.0
 21
0.0
 31
0.0
  0
ENDBLK
  5
7BC0
  8
0
  0
BLOCK
  8
0
  2
*X9
 70
     1
 10
0.0
 20
0.0
 30
0.0
  3
*X9
  1
Acad:XRef
  0
TEXT
  5
A2EB
  8
0
 62
     7
 10
69.35712706503368
 20
206.6384461030276
 30
0.0
 40
1.9
  1
凍結
  0
TEXT
  5
A2EC
  8
0
 62
     7
 10
69.34302687950493
 20
203.3143273646231
 30
0.0
 40
1.9
  1
予防
  0
ENDBLK
  5
A30C
  8
0
  0
ENDSEC
  0
SECTION
  2
ENTITIES
  0
TEXT
  5
1802
  8
10
 10
-1.499998068022251
 20
0.0000050735020523
 30
0.0
 40
10.0
  1
2024.02.01 EV1K 1台単独(子機対応)
 11
-1.499998068022251
 21
0.0000050735020523
 31
0.0
 73
     1
  0
LINE
  5
460A
  8
0
 10
25.5218561517737
 20
289.8911362700035
 30
0.0
 11
125.5218561517737
 21
289.8911362700032
 31
0.0
  0
LINE
  5
460B
  8
0
 10
25.5218561517737
 20
169.8911362700033
 30
0.0
 11
125.5218561517737
 21
169.8911362700033
 31
0.0
  0
ARC
  5
460D
  8
0
 10
25.5218561517737
 20
281.8911362700035
 30
0.0
 40
8.0
 50
90.0
 51
180.0
  0
LINE
  5
460E
  8
0
 10
21.27921546465438
 20
286.1337769571226
 30
0.0
 11
29.5218561517737
 21
277.8911362700035
 31
0.0
  0
LINE
  5
460F
  8
0
 10
31.5218561517737
 20
181.8911362700033
 30
0.0
 11
119.5218561517737
 21
181.8911362700035
 31
0.0
  0
LINE
  5
4610
  8
0
 10
31.5218561517737
 20
277.8911362700035
 30
0.0
 11
119.5218561517737
 21
277.8911362700034
 31
0.0
  0
LINE
  5
4613
  8
0
 10
29.5218561517737
 20
275.8911362700035
 30
0.0
 11
29.5218561517737
 21
183.8911362700033
 31
0.0
  0
LINE
  5
4615
  8
0
 10
17.5218561517737
 20
281.8911362700035
 30
0.0
 11
17.5218561517737
 21
177.8911362700033
 31
0.0
  0
LINE
  5
4616
  8
0
 10
21.27921546465461
 20
173.648495582884
 30
0.0
 11
29.5218561517737
 21
181.8911362700033
 31
0.0
  0
ARC
  5
4617
  8
0
 10
25.5218561517737
 20
177.8911362700033
 30
0.0
 40
8.0
 50
180.0
 51
270.0
  0
ARC
  5
461D
  8
0
 10
125.5218561517737
 20
281.8911362700032
 30
0.0
 40
8.0
 50
0.0
 51
90.0
  0
LINE
  5
461E
  8
0
 10
129.764496838893
 20
286.1337769571226
 30
0.0
 11
121.5218561517737
 21
277.8911362700032
 31
0.0
  0
LINE
  5
4620
  8
0
 10
121.5218561517737
 20
275.8911362700034
 30
0.0
 11
121.5218561517737
 21
183.8911362700035
 31
0.0
  0
LINE
  5
4621
  8
0
 10
133.5218561517737
 20
281.8911362700032
 30
0.0
 11
133.5218561517737
 21
177.8911362700033
 31
0.0
  0
LINE
  5
4622
  8
0
 10
121.5218561517737
 20
181.8911362700034
 30
0.0
 11
129.764496838893
 21
173.6484955828839
 31
0.0
  0
ARC
  5
4623
  8
0
 10
125.5218561517737
 20
177.8911362700033
 30
0.0
 40
8.0
 50
270.0
 51
0.0
  0
LINE
  5
7574
  8
0
 10
189.5660993381843
 20
280.475921694233
 30
0.0
 11
190.8619853924649
 21
287.8252567141703
 31
0.0
  0
LINE
  5
7575
  8
0
 10
194.6103319285505
 20
169.8911362700033
 30
0.0
 11
194.6103319285506
 21
289.8911362700032
 31
0.0
  0
LINE
  5
7578
  8
0
 10
189.1103319285506
 20
184.5157961757808
 30
0.0
 11
189.1103319285506
 21
275.2664763642251
 31
0.0
  0
LINE
  5
757D
  8
0
 10
189.5660993381843
 20
179.306350845773
 30
0.0
 11
190.8619853924649
 21
171.9570158258361
 31
0.0
  0
ARC
  5
757E
  8
0
 10
193.3240047749954
 20
172.3911362700034
 30
0.0
 40
2.5
 50
190.0000000000002
 51
270.0
  0
LINE
  5
757F
  8
0
 10
194.6103319285506
 20
169.8911362700034
 30
0.0
 11
193.3240047749954
 21
169.8911362700034
 31
0.0
  0
ARC
  5
7580
  8
0
 10
219.1103319285507
 20
184.5157961757808
 30
0.0
 40
30.0
 50
180.0
 51
190.0000000000002
  0
ARC
  5
7581
  8
0
 10
219.1103319285507
 20
275.2664763642251
 30
0.0
 40
30.0
 50
169.9999999999998
 51
180.0
  0
ARC
  5
7582
  8
0
 10
193.3240047749954
 20
287.391136270003
 30
0.0
 40
2.5
 50
90.0
 51
169.9999999999998
  0
LINE
  5
7583
  8
0
 10
194.610331928544
 20
289.8911362700032
 30
0.0
 11
193.3240047749889
 21
289.8911362700032
 31
0.0
  0
ARC
  5
7584
  8
0
 10
186.4103320747654
 20
259.6911362700033
 30
0.0
 40
1.0
 50
90.0
 51
180.0
  0
LINE
  5
7585
  8
0
 10
186.4103320747654
 20
260.6911362700033
 30
0.0
 11
189.1103320747653
 21
260.6911362700033
 31
0.0
  0
LINE
  5
7586
  8
0
 10
186.4103320747654
 20
253.6911362700033
 30
0.0
 11
189.1103320747653
 21
253.6911362700033
 31
0.0
  0
LINE
  5
7587
  8
0
 10
185.4103320747654
 20
259.6911362700033
 30
0.0
 11
185.4103320747654
 21
254.6911362700033
 31
0.0
  0
ARC
  5
7588
  8
0
 10
186.4103320747654
 20
254.6911362700033
 30
0.0
 40
1.0
 50
180.0
 51
270.0
  0
LINE
  5
75A7
  8
0
 10
125.5218568968318
 20
144.5475054339941
 30
0.0
 11
25.5218554067157
 21
144.5475054339941
 31
0.0
  0
LINE
  5
75A8
  8
0
 10
125.5218568968318
 20
140.5475055932502
 30
0.0
 11
25.5218554067157
 21
140.5475055932502
 31
0.0
  0
LINE
  5
75A9
  8
0
 10
17.52185782070381
 20
140.5475055932502
 30
0.0
 11
17.52185782070381
 21
144.5475054339941
 31
0.0
  0
LINE
  5
75AA
  8
0
 10
25.5218554067157
 20
144.5475054339941
 30
0.0
 11
17.52185782070381
 21
144.5475054339941
 31
0.0
  0
LINE
  5
75AB
  8
0
 10
25.5218554067157
 20
140.5475055932502
 30
0.0
 11
17.52185782070381
 21
140.5475055932502
 31
0.0
  0
LINE
  5
75AC
  8
0
 10
133.5218544828437
 20
140.5475055932502
 30
0.0
 11
133.5218544828437
 21
144.5475054339941
 31
0.0
  0
LINE
  5
75AD
  8
0
 10
133.5218544828437
 20
144.5475054339941
 30
0.0
 11
125.5218568968318
 21
144.5475054339941
 31
0.0
  0
LINE
  5
75AE
  8
0
 10
133.5218544828437
 20
140.5475055932502
 30
0.0
 11
125.5218568968318
 21
140.5475055932502
 31
0.0
  0
LINE
  5
75AF
  8
0
 10
18.62185781474335
 20
144.5475054339941
 30
0.0
 11
18.62185781474335
 21
145.0475054339912
 31
0.0
  0
LINE
  5
75B0
  8
0
 10
132.4218544888042
 20
144.5475054339941
 30
0.0
 11
132.4218544888042
 21
145.0475054339912
 31
0.0
  0
LINE
  5
75B1
  8
0
 10
118.5218576120876
 20
138.0475056491296
 30
0.0
 11
32.52185469145996
 21
138.0475056491296
 31
0.0
  0
LINE
  5
75B2
  8
0
 10
120.5218579399131
 20
140.5475055932502
 30
0.0
 11
120.5218579399131
 21
138.0475056491296
 31
0.0
  0
LINE
  5
75B3
  8
0
 10
120.5218579399131
 20
138.0475056491296
 30
0.0
 11
118.5218576120876
 21
138.0475056491296
 31
0.0
  0
LINE
  5
75B4
  8
0
 10
30.52185436363442
 20
138.0475056491296
 30
0.0
 11
30.52185436363442
 21
140.5475055932502
 31
0.0
  0
LINE
  5
75B5
  8
0
 10
32.52185469145996
 20
138.0475056491296
 30
0.0
 11
30.52185436363442
 21
138.0475056491296
 31
0.0
  0
LINE
  5
75B6
  8
0
 10
39.02185668821556
 20
150.5475053697328
 30
0.0
 11
112.021855615332
 21
150.5475053697328
 31
0.0
  0
LINE
  5
75B7
  8
0
 10
118.521857612088
 20
118.5475052467982
 30
0.0
 11
50.02185662861137
 21
118.5475052467982
 31
0.0
  0
LINE
  5
75B8
  8
0
 10
50.02185662861137
 20
118.5475052467982
 30
0.0
 11
40.15028437252312
 21
118.5475052467982
 31
0.0
  0
LINE
  5
75B9
  8
0
 10
38.73607104296951
 20
119.1332922450702
 30
0.0
 11
33.52185671801834
 21
124.3475047073762
 31
0.0
  0
LINE
  5
75BA
  8
0
 10
33.52185671801834
 20
124.3475047073762
 30
0.0
 11
33.10764168973236
 21
124.7617197356622
 31
0.0
  0
ARC
  5
75BB
  8
0
 10
118.5218561517742
 20
120.5475054554145
 30
0.0
 40
2.000000000000028
 50
270.0
 51
0.0
  0
ARC
  5
75BC
  8
0
 10
40.15028327652016
 20
120.5475054554145
 30
0.0
 40
2.0
 50
224.9999999999945
 51
270.0
  0
LINE
  5
75BD
  8
0
 10
118.521857612088
 20
137.5475055671732
 30
0.0
 11
32.52185469146042
 21
137.5475055671732
 31
0.0
  0
LINE
  5
75BE
  8
0
 10
120.5218579399136
 20
137.5475055671732
 30
0.0
 11
118.521857612088
 21
137.5475055671732
 31
0.0
  0
LINE
  5
75BF
  8
0
 10
120.5218579399136
 20
137.5475055671732
 30
0.0
 11
120.5218579399136
 21
120.5475055746238
 31
0.0
  0
ARC
  5
75C0
  8
0
 10
34.52185615177422
 20
126.1759325801607
 30
0.0
 40
2.0
 50
180.0
 51
224.9999999999945
  0
LINE
  5
75C1
  8
0
 10
32.52185469146042
 20
126.1759330652158
 30
0.0
 11
32.52185469146042
 21
135.0475056230526
 31
0.0
  0
LINE
  5
75C2
  8
0
 10
30.52185436363487
 20
135.0475056230526
 30
0.0
 11
30.52185436363487
 21
137.5475055671732
 31
0.0
  0
LINE
  5
75C3
  8
0
 10
32.52185469146042
 20
137.5475055671732
 30
0.0
 11
30.52185436363487
 21
137.5475055671732
 31
0.0
  0
LINE
  5
75C4
  8
0
 10
32.52185469146042
 20
135.0475056230526
 30
0.0
 11
30.52185436363487
 21
135.0475056230526
 31
0.0
  0
LINE
  5
75C5
  8
0
 10
31.62185435767441
 20
137.5475055671732
 30
0.0
 11
31.62185435767441
 21
138.0475056491296
 31
0.0
  0
LINE
  5
75C6
  8
0
 10
119.421857945874
 20
137.5475055671732
 30
0.0
 11
119.421857945874
 21
138.0475056491296
 31
0.0
  0
ARC
  5
75C7
  8
0
 10
114.721856151774
 20
118.3475054554144
 30
0.0
 40
0.2000000000000171
 50
90.0
 51
180.0
  0
LINE
  5
75C8
  8
0
 10
48.52185545141964
 20
118.5475052467982
 30
0.0
 11
48.52185545141964
 21
118.3475055865447
 31
0.0
  0
LINE
  5
75C9
  8
0
 10
50.02185662861137
 20
118.3475055865447
 30
0.0
 11
50.02185662861137
 21
118.5475052467982
 31
0.0
  0
LINE
  5
75CA
  8
0
 10
49.82185696835785
 20
109.6934550575415
 30
0.0
 11
48.40028246517448
 21
109.6934550575415
 31
0.0
  0
LINE
  5
75CB
  8
0
 10
50.02185662861137
 20
110.5792583100001
 30
0.0
 11
48.59898199911385
 21
110.5792583100001
 31
0.0
  0
LINE
  5
75CC
  8
0
 10
112.5218566286114
 20
109.5475056342284
 30
0.0
 11
50.02185662861137
 21
109.5475056342284
 31
0.0
  0
LINE
  5
75CD
  8
0
 10
50.02185662861137
 20
110.5792583100001
 30
0.0
 11
50.02185662861137
 21
111.5475059620539
 31
0.0
  0
LINE
  5
75CE
  8
0
 10
50.02185662861137
 20
109.5475056342284
 30
0.0
 11
50.02185662861137
 21
109.6246154181163
 31
0.0
  0
LINE
  5
75CF
  8
0
 10
47.73606879289417
 20
110.1332926325003
 30
0.0
 11
38.91496320839195
 21
118.9544000796477
 31
0.0
  0
LINE
  5
75D0
  8
0
 10
48.52185545141964
 20
111.9695273361604
 30
0.0
 11
48.52185545141964
 21
110.9190792910258
 31
0.0
  0
ARC
  5
75D1
  8
0
 10
112.5218561517742
 20
111.5475054554145
 30
0.0
 40
2.0
 50
270.0
 51
0.0
  0
LINE
  5
75D2
  8
0
 10
48.52185545141964
 20
111.9695273361604
 30
0.0
 11
48.52185545141964
 21
118.3475055865447
 31
0.0
  0
LINE
  5
75D3
  8
0
 10
114.5218569564369
 20
118.3475055865447
 30
0.0
 11
114.5218569564369
 21
111.5475059620539
 31
0.0
  0
LINE
  5
75D4
  8
0
 10
50.02185662861137
 20
118.3475055865447
 30
0.0
 11
50.02185662861137
 21
111.5475059620539
 31
0.0
  0
ARC
  5
75D5
  8
0
 10
49.15028327652016
 20
111.5475054554145
 30
0.0
 40
1.114196214777944
 50
235.6658476036726
 51
240.3436094009312
  0
ARC
  5
75D6
  8
0
 10
49.15028327652016
 20
111.5475054554145
 30
0.0
 40
2.000000000000035
 50
224.9999999999945
 51
247.9756871629578
  0
ARC
  5
75D7
  8
0
 10
48.72185615177403
 20
111.2475054554145
 30
0.0
 40
0.2000000000000171
 50
180.0
 51
270.0
  0
LINE
  5
75D8
  8
0
 10
48.72185697431831
 20
111.047504948775
 30
0.0
 11
49.82185696835785
 21
111.047504948775
 31
0.0
  0
ARC
  5
75D9
  8
0
 10
49.8218561517744
 20
111.2475054554145
 30
0.0
 40
0.1999999999999886
 50
270.0
 51
0.0
  0
ARC
  5
75DA
  8
0
 10
49.15028327652016
 20
111.5475054554145
 30
0.0
 40
2.000000000000035
 50
247.9756871629578
 51
270.0
  0
LINE
  5
75DB
  8
0
 10
49.15028398509293
 20
109.5475056342284
 30
0.0
 11
50.02185662861137
 21
109.5475056342284
 31
0.0
  0
LINE
  5
75DC
  8
0
 10
48.52185545141964
 20
112.1759326330821
 30
0.0
 11
49.09170379514961
 21
111.6060842893521
 31
0.0
  0
LINE
  5
75DD
  8
0
 10
49.23312512810497
 20
111.5475059620539
 30
0.0
 11
50.02185662861137
 21
111.5475059620539
 31
0.0
  0
ARC
  5
75DE
  8
0
 10
49.23312598899446
 20
111.7475054554145
 30
0.0
 40
0.1999999999999895
 50
224.9999999999945
 51
270.0
  0
LINE
  5
75DF
  8
0
 10
32.52185615177422
 20
126.1759325801607
 30
0.0
 11
32.52185469146042
 21
125.3475063767091
 31
0.0
  0
LINE
  5
75E0
  8
0
 10
32.52185469146042
 20
125.3475063767091
 30
0.0
 11
33.10760135571871
 21
124.7616794071774
 31
0.0
  0
LINE
  5
75E1
  8
0
 10
52.96668634991823
 20
153.747138105097
 30
0.0
 11
51.96668634991846
 21
153.747138105097
 31
0.0
  0
LINE
  5
75E2
  8
0
 10
53.96668634991846
 20
154.247138105097
 30
0.0
 11
52.96668634991846
 21
154.247138105097
 31
0.0
  0
LINE
  5
75E3
  8
0
 10
51.96668634991846
 20
154.247138105097
 30
0.0
 11
50.96668634991846
 21
154.247138105097
 31
0.0
  0
LINE
  5
75E4
  8
0
 10
51.96668634991846
 20
154.247138105097
 30
0.0
 11
51.96668634991846
 21
153.747138105097
 31
0.0
  0
LINE
  5
75E5
  8
0
 10
54.96668634991846
 20
154.247138105097
 30
0.0
 11
54.96668634991846
 21
153.747138105097
 31
0.0
  0
LINE
  5
75E6
  8
0
 10
52.96668634991846
 20
154.247138105097
 30
0.0
 11
52.96668634991823
 21
153.747138105097
 31
0.0
  0
LINE
  5
75E7
  8
0
 10
53.96668634991846
 20
154.247138105097
 30
0.0
 11
53.96668634991846
 21
153.747138105097
 31
0.0
  0
LINE
  5
75E8
  8
0
 10
54.96668634991846
 20
153.747138105097
 30
0.0
 11
53.96668634991846
 21
153.747138105097
 31
0.0
  0
LINE
  5
75E9
  8
0
 10
56.9666863499184
 20
150.5475053697328
 30
0.0
 11
56.96668634991823
 21
153.247138105097
 31
0.0
  0
ARC
  5
75EA
  8
0
 10
55.96668634991823
 20
153.247138105097
 30
0.0
 40
1.0
 50
0.0
 51
90.0
  0
LINE
  5
75EB
  8
0
 10
55.96668634991823
 20
154.247138105097
 30
0.0
 11
54.96668634991846
 21
154.247138105097
 31
0.0
  0
LINE
  5
75EC
  8
0
 10
49.96668634991846
 20
150.5475053697328
 30
0.0
 11
49.96668634991846
 21
153.247138105097
 31
0.0
  0
ARC
  5
75ED
  8
0
 10
50.96668634991846
 20
153.247138105097
 30
0.0
 40
1.0
 50
90.0
 51
180.0
  0
ARC
  5
75EE
  8
0
 10
40.32184852237873
 20
117.5475167449059
 30
0.0
 40
0.3000000119209
 50
179.9980552173233
 51
314.9996865396516
  0
LINE
  5
75EF
  8
0
 10
40.02185691471294
 20
117.5475167449059
 30
0.0
 11
33.52186072941066
 21
124.047512930209
 31
0.0
  0
LINE
  5
75F0
  8
0
 10
35.50176490421489
 20
119.2391823943209
 30
0.0
 11
36.91597617740871
 21
120.6533974822109
 31
0.0
  0
LINE
  5
75F1
  8
0
 10
36.91597617740871
 20
117.8249711211269
 30
0.0
 11
38.33019126529888
 21
119.2391823943209
 31
0.0
  0
LINE
  5
75F2
  8
0
 10
36.63312400455669
 20
117.8249787505219
 30
0.0
 11
35.50176108951763
 21
118.9563416655609
 31
0.0
  0
ARC
  5
75F3
  8
0
 10
35.64318336124683
 20
119.0977677519869
 30
0.0
 40
0.2000000029802
 50
135.0000039841164
 51
224.9999996583493
  0
ARC
  5
75F4
  8
0
 10
36.77455390567974
 20
117.9664010222499
 30
0.0
 40
0.2000000029802
 50
224.9999996583493
 51
314.9999987478129
  0
LINE
  5
75F5
  8
0
 10
33.52185310001568
 20
124.0475053008149
 30
0.0
 11
33.52185310001568
 21
124.3475083253789
 31
0.0
  0
LINE
  5
75F6
  8
0
 10
133.5218561517734
 20
145.0475054339912
 30
0.0
 11
17.52185615177331
 21
145.0475054339912
 31
0.0
  0
ARC
  5
75F7
  8
0
 10
118.897196245996
 20
120.5475054339912
 30
0.0
 40
30.0
 50
80.00000000000146
 51
90.0
  0
LINE
  5
75F8
  8
0
 10
118.897196245996
 20
150.5475054339912
 30
0.0
 11
32.14651605755142
 21
150.5475054339912
 31
0.0
  0
ARC
  5
75F9
  8
0
 10
131.0218561517734
 20
146.3338325875464
 30
0.0
 40
2.5
 50
0.0
 51
80.00000000000146
  0
LINE
  5
75FA
  8
0
 10
133.5218561517734
 20
145.0475054339912
 30
0.0
 11
133.5218561517734
 21
146.3338325875464
 31
0.0
  0
LINE
  5
75FB
  8
0
 10
124.1066415760038
 20
150.0917380243574
 30
0.0
 11
131.4559765959407
 21
148.7958519700769
 31
0.0
  0
ARC
  5
75FC
  8
0
 10
32.14651605755142
 20
120.5475054339912
 30
0.0
 40
30.0
 50
90.0
 51
99.99999999999855
  0
ARC
  5
75FD
  8
0
 10
20.02185615177353
 20
146.3338325875463
 30
0.0
 40
2.5
 50
99.99999999999855
 51
180.0
  0
LINE
  5
75FE
  8
0
 10
26.93707072754358
 20
150.0917380243574
 30
0.0
 11
19.58773570760621
 21
148.7958519700768
 31
0.0
  0
LINE
  5
75FF
  8
0
 10
17.52185615177331
 20
145.0475054339978
 30
0.0
 11
17.52185615177331
 21
146.333832587553
 31
0.0
  0
LINE
  5
7600
  8
0
 10
202.1103317953686
 20
263.0161354131874
 30
0.0
 11
202.1103317953686
 21
197.0161357708152
 31
0.0
  0
LINE
  5
7601
  8
0
 10
202.1103317953686
 20
265.0161357410129
 30
0.0
 11
202.1103317953686
 21
263.0161354131874
 31
0.0
  0
LINE
  5
7602
  8
0
 10
202.1103317953686
 20
265.0161357410129
 30
0.0
 11
204.6103317394892
 21
265.0161357410129
 31
0.0
  0
LINE
  5
7603
  8
0
 10
204.6103317394892
 20
195.0161354429897
 30
0.0
 11
202.1103317953686
 21
195.0161354429897
 31
0.0
  0
LINE
  5
7604
  8
0
 10
202.1103317953686
 20
197.0161357708152
 30
0.0
 11
202.1103317953686
 21
195.0161354429897
 31
0.0
  0
LINE
  5
7605
  8
0
 10
202.1103317953686
 20
263.9161357469734
 30
0.0
 11
201.6103317953686
 21
263.9161357469734
 31
0.0
  0
LINE
  5
7606
  8
0
 10
202.1103317953686
 20
196.1161354370292
 30
0.0
 11
201.6103317953686
 21
196.1161354370292
 31
0.0
  0
LINE
  5
7607
  8
0
 10
204.6103317394892
 20
265.0161357410129
 30
0.0
 11
213.481904297326
 21
265.0161357410129
 31
0.0
  0
LINE
  5
7608
  8
0
 10
213.481904297326
 20
195.0161354429897
 30
0.0
 11
204.6103317394892
 21
195.0161354429897
 31
0.0
  0
LINE
  5
7609
  8
0
 10
213.481904297326
 20
265.0161357410129
 30
0.0
 11
219.110331787918
 21
265.0161357410129
 31
0.0
  0
LINE
  5
760A
  8
0
 10
219.110331787918
 20
195.0161354429897
 30
0.0
 11
213.481904297326
 21
195.0161354429897
 31
0.0
  0
LINE
  5
760B
  8
0
 10
228.1103314004878
 20
201.7661360837396
 30
0.0
 11
221.310331775997
 21
201.7661360837396
 31
0.0
  0
ARC
  5
760C
  8
0
 10
219.1103319071273
 20
197.0161355920013
 30
0.0
 40
2.0
 50
270.0
 51
0.0
  0
LINE
  5
760D
  8
0
 10
221.1103321157435
 20
230.0161355920013
 30
0.0
 11
221.1103321157435
 21
197.0161357708152
 31
0.0
  0
ARC
  5
760E
  8
0
 10
219.1103319071273
 20
263.0161355920013
 30
0.0
 40
2.0
 50
0.0
 51
90.0
  0
LINE
  5
760F
  8
0
 10
221.1103321157435
 20
262.0161371119198
 30
0.0
 11
221.1103321157435
 21
230.0161355920013
 31
0.0
  0
LINE
  5
7610
  8
0
 10
221.310331775997
 20
258.266135100263
 30
0.0
 11
228.1103317283133
 21
258.266135100263
 31
0.0
  0
ARC
  5
7611
  8
0
 10
221.3103319071271
 20
201.5661355920013
 30
0.0
 40
0.1999999999999957
 50
90.0
 51
180.0
  0
ARC
  5
7612
  8
0
 10
221.3103319071271
 20
258.4661355920013
 30
0.0
 40
0.2000000000000171
 50
180.0
 51
270.0
  0
LINE
  5
7613
  8
0
 10
230.1103317283133
 20
256.2661351002631
 30
0.0
 11
230.1103317283133
 21
203.7661364115652
 31
0.0
  0
ARC
  5
7614
  8
0
 10
228.1103319071273
 20
203.7661355920013
 30
0.0
 40
2.0
 50
270.0
 51
0.0
  0
LINE
  5
7615
  8
0
 10
221.1103321157435
 20
263.0161354131874
 30
0.0
 11
221.1103321157435
 21
262.0161371119198
 31
0.0
  0
POLYLINE
  5
7616
  8
0
 66
     1
 10
0.0
 20
0.0
 30
0.0
  0
VERTEX
  5
A2C9
  8
0
 10
229.1399830125312
 20
202.0516721345361
 30
0.0
  0
VERTEX
  5
A2CA
  8
0
 10
229.137922028537
 20
202.0504483285254
 30
0.0
  0
VERTEX
  5
A2CB
  8
0
 10
229.1358678499564
 20
202.0492285657383
 30
0.0
  0
VERTEX
  5
A2CC
  8
0
 10
229.1338272822032
 20
202.0480168893986
 30
0.0
  0
VERTEX
  5
A2CD
  8
0
 10
229.131807130691
 20
202.0468173427298
 30
0.0
  0
VERTEX
  5
A2CE
  8
0
 10
229.1298142008336
 20
202.0456339689558
 30
0.0
  0
VERTEX
  5
A2CF
  8
0
 10
229.1278552980447
 20
202.0444708113003
 30
0.0
  0
VERTEX
  5
A2D0
  8
0
 10
229.1259372277378
 20
202.0433319129868
 30
0.0
  0
VERTEX
  5
A2D1
  8
0
 10
229.1240667953267
 20
202.042221317239
 30
0.0
  0
VERTEX
  5
A2D2
  8
0
 10
229.122250806225
 20
202.0411430672808
 30
0.0
  0
VERTEX
  5
A2D3
  8
0
 10
229.1204960658465
 20
202.0401012063356
 30
0.0
  0
VERTEX
  5
A2D4
  8
0
 10
229.1188093796049
 20
202.0390997776273
 30
0.0
  0
VERTEX
  5
A2D5
  8
0
 10
229.1171975529137
 20
202.0381428243793
 30
0.0
  0
VERTEX
  5
A2D6
  8
0
 10
229.1156673911867
 20
202.0372343898156
 30
0.0
  0
VERTEX
  5
A2D7
  8
0
 10
229.1142256998377
 20
202.0363785171597
 30
0.0
  0
VERTEX
  5
A2D8
  8
0
 10
229.1128792842802
 20
202.0355792496354
 30
0.0
  0
VERTEX
  5
A2D9
  8
0
 10
229.1116349499279
 20
202.0348406304662
 30
0.0
  0
VERTEX
  5
A2DA
  8
0
 10
229.1104995021946
 20
202.034166702876
 30
0.0
  0
VERTEX
  5
A2DB
  8
0
 10
229.1094797464939
 20
202.0335615100884
 30
0.0
  0
VERTEX
  5
A2DC
  8
0
 10
229.1085824882395
 20
202.0330290953269
 30
0.0
  0
VERTEX
  5
A2DD
  8
0
 10
229.1078145328451
 20
202.0325735018153
 30
0.0
  0
VERTEX
  5
A2DE
  8
0
 10
229.1071826857244
 20
202.0321987727774
 30
0.0
  0
VERTEX
  5
A2DF
  8
0
 10
229.106693752291
 20
202.0319089514368
 30
0.0
  0
VERTEX
  5
A2E0
  8
0
 10
229.1063545379586
 20
202.0317080810171
 30
0.0
  0
VERTEX
  5
A2E1
  8
0
 10
229.106171848141
 20
202.0316002047421
 30
0.0
  0
VERTEX
  5
A2E2
  8
0
 10
229.1061524882518
 20
202.0315893658354
 30
0.0
  0
VERTEX
  5
A2E3
  8
0
 10
229.1063032637046
 20
202.0316796075207
 30
0.0
  0
VERTEX
  5
A2E4
  8
0
 10
229.1066309799133
 20
202.0318749730217
 30
0.0
  0
VERTEX
  5
A2E5
  8
0
 10
229.1071424422913
 20
202.0321795055621
 30
0.0
  0
VERTEX
  5
A2E6
  8
0
 10
229.1078444562525
 20
202.0325972483655
 30
0.0
  0
VERTEX
  5
A2E7
  8
0
 10
229.1087438272106
 20
202.0331322446556
 30
0.0
  0
VERTEX
  5
A2E8
  8
0
 10
229.1098473605791
 20
202.0337885376562
 30
0.0
  0
VERTEX
  5
A2E9
  8
0
 10
229.111160441492
 20
202.0345693267759
 30
0.0
  0
SEQEND
  5
A30D
  8
0
  0
LINE
  5
7617
  8
0
 10
199.1103318512479
 20
290.0161342508968
 30
0.0
 11
195.1103320105041
 21
290.0161342508968
 31
0.0
  0
LINE
  5
7618
  8
0
 10
195.1103320105041
 20
290.0161342508968
 30
0.0
 11
195.1103320105041
 21
282.0161366648849
 31
0.0
  0
LINE
  5
7619
  8
0
 10
199.1103318512479
 20
290.0161342508968
 30
0.0
 11
199.1103318512479
 21
282.0161366648849
 31
0.0
  0
LINE
  5
761A
  8
0
 10
195.1103320105041
 20
282.0161366648849
 30
0.0
 11
195.1103320105041
 21
178.0161345191177
 31
0.0
  0
LINE
  5
761B
  8
0
 10
199.1103318512479
 20
282.0161366648849
 30
0.0
 11
199.1103318512479
 21
178.0161345191177
 31
0.0
  0
LINE
  5
761C
  8
0
 10
199.1103318512479
 20
170.0161369331058
 30
0.0
 11
195.1103320105041
 21
170.0161369331058
 31
0.0
  0
LINE
  5
761D
  8
0
 10
195.1103320105041
 20
178.0161345191177
 30
0.0
 11
195.1103320105041
 21
170.0161369331058
 31
0.0
  0
LINE
  5
761E
  8
0
 10
199.1103318512479
 20
178.0161345191177
 30
0.0
 11
199.1103318512479
 21
170.0161369331058
 31
0.0
  0
LINE
  5
761F
  8
0
 10
195.1103320105041
 20
171.1161369271453
 30
0.0
 11
194.6103319285504
 21
171.1161369271453
 31
0.0
  0
LINE
  5
7620
  8
0
 10
195.1103320105041
 20
288.9161342568573
 30
0.0
 11
194.6103319285506
 21
288.9161342568573
 31
0.0
  0
LINE
  5
7621
  8
0
 10
201.6103317953686
 20
263.0161354131874
 30
0.0
 11
201.6103317953686
 21
197.0161357708152
 31
0.0
  0
LINE
  5
7622
  8
0
 10
201.6103317953686
 20
195.0161354429897
 30
0.0
 11
199.1103318512479
 21
195.0161354429897
 31
0.0
  0
LINE
  5
7623
  8
0
 10
201.6103317953686
 20
197.0161357708152
 30
0.0
 11
201.6103317953686
 21
195.0161354429897
 31
0.0
  0
LINE
  5
7624
  8
0
 10
199.1103318512479
 20
265.0161357410129
 30
0.0
 11
201.6103317953686
 21
265.0161357410129
 31
0.0
  0
LINE
  5
7625
  8
0
 10
201.6103317953686
 20
265.0161357410129
 30
0.0
 11
201.6103317953686
 21
263.0161354131874
 31
0.0
  0
LINE
  5
7626
  8
0
 10
201.6103317953686
 20
263.0161354131874
 30
0.0
 11
201.6103317953686
 21
197.0161357708152
 31
0.0
  0
LINE
  5
77C3
  8
7
 10
12.72785615177361
 20
229.8911362700034
 30
0.0
 11
138.3158561517736
 21
229.8911362700031
 31
0.0
1001
GENIUS_GENOBJ-N-CEN_13
1002
{
1000
OWNER
1000
GEN
1002
}
1001
GENIUS_GENODEF_13
1002
{
1000
HIER
1070
     0
1002
}
1002
{
1000
MANEDIT
1070
     0
1002
}
1002
{
1000
NOSEL
1070
     0
1002
}
1002
{
1000
BEHIND
1070
     0
1002
}
1002
{
1000
OTHER
1070
     0
1002
}
1002
{
1000
REACTOR
1002
}
1001
GENIUS_GENCEN_19
1002
{
1040
2.794
1002
}
  0
LINE
  5
77C4
  8
7
 10
75.5218561517737
 20
294.6851362700035
 30
0.0
 11
75.5218561517737
 21
165.0971362700033
 31
0.0
1001
GENIUS_GENOBJ-N-CEN_13
1002
{
1000
OWNER
1000
GEN
1002
}
1001
GENIUS_GENODEF_13
1002
{
1000
HIER
1070
     0
1002
}
1002
{
1000
MANEDIT
1070
     0
1002
}
1002
{
1000
NOSEL
1070
     0
1002
}
1002
{
1000
BEHIND
1070
     0
1002
}
1002
{
1000
OTHER
1070
     0
1002
}
1002
{
1000
REACTOR
1002
}
1001
GENIUS_GENCEN_19
1002
{
1040
2.794
1002
}
  0
LINE
  5
77DD
  8
7
 10
235.1103317283133
 20
230.0161355920013
 30
0.0
 11
184.1103319285506
 21
230.0161355920013
 31
0.0
1001
GENIUS_GENOBJ-N-CEN_13
1002
{
1000
OWNER
1000
GEN
1002
}
1001
GENIUS_GENODEF_13
1002
{
1000
HIER
1070
     0
1002
}
1002
{
1000
MANEDIT
1070
     0
1002
}
1002
{
1000
NOSEL
1070
     0
1002
}
1002
{
1000
BEHIND
1070
     0
1002
}
1002
{
1000
OTHER
1070
     0
1002
}
1002
{
1000
REACTOR
1002
}
1001
GENIUS_GENCEN_19
1002
{
1040
2.794
1002
}
  0
LINE
  5
77DE
  8
7
 10
75.52185615177376
 20
104.5475056342284
 30
0.0
 11
75.52185615177376
 21
155.5475054339912
 31
0.0
1001
GENIUS_GENOBJ-N-CEN_13
1002
{
1000
OWNER
1000
GEN
1002
}
1001
GENIUS_GENODEF_13
1002
{
1000
HIER
1070
     0
1002
}
1002
{
1000
MANEDIT
1070
     0
1002
}
1002
{
1000
NOSEL
1070
     0
1002
}
1002
{
1000
BEHIND
1070
     0
1002
}
1002
{
1000
OTHER
1070
     0
1002
}
1002
{
1000
REACTOR
1002
}
1001
GENIUS_GENCEN_19
1002
{
1040
2.794
1002
}
  0
LINE
  5
77DF
  8
0
 10
48.59898190247389
 20
110.5792596188625
 30
0.0
 11
48.40028246517448
 21
109.6934550575415
 31
0.0
  0
LINE
  5
77E0
  8
0
 10
50.02185662861137
 20
109.5475056342284
 30
0.0
 11
50.02185662861137
 21
109.6246154181163
 31
0.0
  0
ARC
  5
77E1
  8
0
 10
49.99817736882864
 20
109.6234257302165
 30
0.0
 40
0.0237091269589662
 50
2.876222857360645
 51
43.43589811605096
  0
ARC
  5
77E2
  8
0
 10
49.93341644773955
 20
109.5593603589566
 30
0.0
 40
0.1147998884239122
 50
44.43153582575037
 51
70.88950362693386
  0
ARC
  5
77E3
  8
0
 10
49.82916808337586
 20
109.2891290601922
 30
0.0
 40
0.4043928833089286
 50
69.46801332213798
 51
91.03603616465674
  0
LINE
  5
77E4
  8
0
 10
48.59898199911385
 20
110.5792583100001
 30
0.0
 11
48.52185615177422
 21
110.6274442868451
 31
0.0
  0
LINE
  5
77E5
  8
0
 10
48.52185615177422
 20
110.6274442868451
 30
0.0
 11
48.52185615177422
 21
110.9190783306683
 31
0.0
  0
LINE
  5
77E6
  8
0
 10
38.91496320839195
 20
118.9544000796477
 30
0.0
 11
38.73607104296951
 21
119.1332922450702
 31
0.0
  0
ARC
  5
77E7
  8
0
 10
228.1103317283133
 20
256.2661351002631
 30
0.0
 40
2.0
 50
0.0
 51
90.0
  0
LINE
  5
8579
  8
0
 10
38.2718561517737
 20
264.9911362700033
 30
0.0
 11
112.7718561517737
 21
264.9911362700033
 31
0.0
  0
LINE
  5
857A
  8
0
 10
38.2718561517737
 20
194.7911362700032
 30
0.0
 11
112.7718561517737
 21
194.7911362700032
 31
0.0
  0
LINE
  5
857B
  8
0
 10
38.2718561517737
 20
264.9911362700033
 30
0.0
 11
38.2718561517737
 21
194.7911362700032
 31
0.0
  0
LINE
  5
857C
  8
0
 10
112.7718561517737
 20
264.9911362700033
 30
0.0
 11
112.7718561517737
 21
194.7911362700032
 31
0.0
  0
LINE
  5
857D
  8
0
 10
112.0218556153319
 20
195.3911371342706
 30
0.0
 11
112.0218556153319
 21
264.3911354057359
 31
0.0
  0
LINE
  5
857E
  8
0
 10
39.02185668821551
 20
195.3911371342706
 30
0.0
 11
112.0218556153319
 21
195.3911371342706
 31
0.0
  0
LINE
  5
857F
  8
0
 10
39.02185668821551
 20
264.3911354057359
 30
0.0
 11
39.02185668821551
 21
195.3911371342706
 31
0.0
  0
LINE
  5
8580
  8
0
 10
112.0218556153319
 20
264.3911354057359
 30
0.0
 11
39.02185668821551
 21
264.3911354057359
 31
0.0
  0
LINE
  5
8581
  8
0
 10
40.52185600276209
 20
196.8911364488172
 30
0.0
 11
110.5218563007853
 21
196.8911364488172
 31
0.0
  0
LINE
  5
8582
  8
0
 10
110.5218563007853
 20
196.8911364488172
 30
0.0
 11
110.5218563007853
 21
262.8911360911893
 31
0.0
  0
LINE
  5
8583
  8
0
 10
110.5218563007853
 20
262.8911360911893
 30
0.0
 11
65.52185637529112
 21
262.8911360911893
 31
0.0
  0
LINE
  5
8584
  8
0
 10
40.52185600276209
 20
250.8911359868812
 30
0.0
 11
65.52185637529112
 21
250.8911359868812
 31
0.0
  0
LINE
  5
8585
  8
0
 10
40.52185600276209
 20
250.8911359868812
 30
0.0
 11
40.52185600276209
 21
196.8911364488172
 31
0.0
  0
LINE
  5
8586
  8
0
 10
47.32185562725283
 20
253.191135805087
 30
0.0
 11
57.32185540373541
 21
253.191135805087
 31
0.0
  0
LINE
  5
8587
  8
0
 10
57.32185540373541
 20
253.191135805087
 30
0.0
 11
57.32185540373541
 21
261.1911371163892
 31
0.0
  0
LINE
  5
8588
  8
0
 10
57.32185540373541
 20
261.1911371163892
 30
0.0
 11
47.32185562725283
 21
261.1911371163892
 31
0.0
  0
LINE
  5
8589
  8
0
 10
47.32185562725283
 20
261.1911371163892
 30
0.0
 11
47.32185562725283
 21
253.191135805087
 31
0.0
  0
LINE
  5
858A
  8
0
 10
65.52185637529112
 20
250.8911359868812
 30
0.0
 11
65.52185637529112
 21
262.8911360911893
 31
0.0
  0
LINE
  5
858B
  8
0
 10
112.5218566286109
 20
194.8911361209916
 30
0.0
 11
112.5218566286109
 21
264.8911364190149
 31
0.0
  0
LINE
  5
858C
  8
0
 10
38.52185567493655
 20
194.8911361209916
 30
0.0
 11
112.5218566286109
 21
194.8911361209916
 31
0.0
  0
LINE
  5
858D
  8
0
 10
38.52185567493655
 20
264.8911364190149
 30
0.0
 11
38.52185567493655
 21
194.8911361209916
 31
0.0
  0
LINE
  5
858E
  8
0
 10
112.5218566286109
 20
264.8911364190149
 30
0.0
 11
38.52185567493655
 21
264.8911364190149
 31
0.0
  0
ARC
  5
858F
  8
0
 10
48.7218555154941
 20
259.691135805087
 30
0.0
 40
1.0
 50
90.0
 51
180.0
  0
ARC
  5
8590
  8
0
 10
53.7218555154941
 20
259.691135805087
 30
0.0
 40
1.0
 50
0.0
 51
90.0
  0
LINE
  5
8591
  8
0
 10
48.7218555154941
 20
260.691135805087
 30
0.0
 11
53.7218555154941
 21
260.691135805087
 31
0.0
  0
LINE
  5
8592
  8
0
 10
53.7218555154941
 20
253.6911358050871
 30
0.0
 11
48.7218555154941
 21
253.691135805087
 31
0.0
  0
ARC
  5
8593
  8
0
 10
48.7218555154941
 20
254.691135805087
 30
0.0
 40
1.0
 50
180.0
 51
270.0000000000016
  0
ARC
  5
8594
  8
0
 10
53.7218555154941
 20
254.6911358050871
 30
0.0
 40
1.0
 50
270.0
 51
0.0
  0
LINE
  5
8595
  8
0
 10
52.7218555154941
 20
253.6911358050871
 30
0.0
 11
52.7218555154941
 21
260.691135805087
 31
0.0
  0
LINE
  5
8596
  8
0
 10
51.7218555154941
 20
253.691135805087
 30
0.0
 11
51.7218555154941
 21
260.691135805087
 31
0.0
  0
LINE
  5
8597
  8
0
 10
50.7218555154941
 20
253.6911358050869
 30
0.0
 11
50.7218555154941
 21
260.691135805087
 31
0.0
  0
LINE
  5
8598
  8
0
 10
49.7218555154941
 20
253.6911358050869
 30
0.0
 11
49.7218555154941
 21
260.691135805087
 31
0.0
  0
LINE
  5
8599
  8
0
 10
47.7218555154941
 20
254.691135805087
 30
0.0
 11
47.7218555154941
 21
259.691135805087
 31
0.0
  0
LINE
  5
859A
  8
0
 10
54.7218555154941
 20
259.691135805087
 30
0.0
 11
54.7218555154941
 21
254.6911358050871
 31
0.0
  0
LINE
  5
859B
  8
0
 10
65.77185637529112
 20
262.6411362700034
 30
0.0
 11
110.2718561517737
 21
262.6411362700032
 31
0.0
  0
LINE
  5
859C
  8
0
 10
110.2718561517737
 20
262.6411362700032
 30
0.0
 11
110.2718561517737
 21
197.1411362700032
 31
0.0
  0
LINE
  5
859D
  8
0
 10
40.7718561517737
 20
197.1411362700034
 30
0.0
 11
40.7718561517737
 21
250.6411359868812
 31
0.0
  0
LINE
  5
859E
  8
0
 10
110.2718561517737
 20
197.1411362700032
 30
0.0
 11
40.7718561517737
 21
197.1411362700034
 31
0.0
  0
LINE
  5
859F
  8
0
  6
CONTINUOUS
 10
65.77185637529112
 20
250.6411359868812
 30
0.0
 11
65.77185637529112
 21
262.6411362700034
 31
0.0
  0
LINE
  5
85A0
  8
0
  6
CONTINUOUS
 10
40.7718561517737
 20
250.6411359868812
 30
0.0
 11
65.77185637529112
 21
250.6411359868812
 31
0.0
  0
INSERT
  5
85A1
  8
0
 62
     7
  2
*X9
 10
0.0
 20
0.0
 30
0.0
  0
TEXT
  5
85A2
  8
0
 62
     7
 10
69.34772694134784
 20
212.9769742415557
 30
0.0
 40
1.9
  1
給水
  0
TEXT
  5
85A3
  8
0
 62
     7
 10
89.3430064300669
 20
207.9715320646849
 30
0.0
 40
4.0
  1
PUSH
 41
1.2
  0
TEXT
  5
85A4
  8
0
 62
     7
 10
49.75042694406555
 20
246.2980317554704
 30
0.0
 40
2.0
  1
電源
  0
LINE
  5
85A6
  8
0
 10
41.7718561517737
 20
217.1012443773085
 30
0.0
 11
41.7718561517737
 21
219.6387443773091
 31
0.0
  0
LINE
  5
85A7
  8
0
 10
43.87435615177367
 20
217.1012443773085
 30
0.0
 11
43.87435615177367
 21
219.6387443773091
 31
0.0
  0
LINE
  5
85A8
  8
0
 10
44.09185615177387
 20
217.1012443773085
 30
0.0
 11
44.09185615177387
 21
219.6387443773091
 31
0.0
  0
LINE
  5
85A9
  8
0
 10
41.7718561517737
 20
217.1012443773085
 30
0.0
 11
42.56935615177383
 21
217.1012443773085
 31
0.0
  0
LINE
  5
85AA
  8
0
 10
41.7718561517737
 20
219.6387443773091
 30
0.0
 11
42.56935615177383
 21
219.6387443773091
 31
0.0
  0
LINE
  5
85AB
  8
0
 10
42.56935615177383
 20
219.6387443773091
 30
0.0
 11
42.56935615177383
 21
218.768744377309
 31
0.0
  0
LINE
  5
85AC
  8
0
 10
43.07685615177354
 20
219.6387443773091
 30
0.0
 11
43.07685615177354
 21
218.768744377309
 31
0.0
  0
LINE
  5
85AD
  8
0
 10
42.56935615177383
 20
217.1012443773085
 30
0.0
 11
42.56935615177383
 21
217.9712443773084
 31
0.0
  0
LINE
  5
85AE
  8
0
 10
43.07685615177354
 20
217.1012443773085
 30
0.0
 11
43.07685615177354
 21
217.9712443773084
 31
0.0
  0
LINE
  5
85AF
  8
0
 10
43.07685615177354
 20
219.6387443773091
 30
0.0
 11
43.87435615177367
 21
219.6387443773091
 31
0.0
  0
LINE
  5
85B0
  8
0
 10
43.07685615177354
 20
217.1012443773085
 30
0.0
 11
43.87435615177367
 21
217.1012443773085
 31
0.0
  0
LINE
  5
85B1
  8
0
 10
42.56935615177383
 20
218.768744377309
 30
0.0
 11
43.07685615177354
 21
218.768744377309
 31
0.0
  0
LINE
  5
85B2
  8
0
 10
42.56935615177383
 20
217.9712443773084
 30
0.0
 11
43.07685615177354
 21
217.9712443773084
 31
0.0
  0
LINE
  5
85B3
  8
0
 10
44.88935615177354
 20
217.1012443773085
 30
0.0
 11
44.88935615177354
 21
219.6387443773091
 31
0.0
  0
LINE
  5
85B4
  8
0
 10
45.10685615177374
 20
217.1012443773085
 30
0.0
 11
45.10685615177374
 21
219.6387443773091
 31
0.0
  0
LINE
  5
85B5
  8
0
 10
44.09185615177387
 20
219.6387443773091
 30
0.0
 11
44.88935615177354
 21
219.6387443773091
 31
0.0
  0
LINE
  5
85B6
  8
0
 10
44.09185615177387
 20
217.1012443773085
 30
0.0
 11
44.88935615177354
 21
217.1012443773085
 31
0.0
  0
LINE
  5
85B7
  8
0
 10
47.2093561517737
 20
217.1012443773085
 30
0.0
 11
47.2093561517737
 21
217.6812443773084
 31
0.0
  0
LINE
  5
85B8
  8
0
 10
47.2093561517737
 20
219.0587443773092
 30
0.0
 11
47.2093561517737
 21
219.6387443773091
 31
0.0
  0
LINE
  5
85B9
  8
0
 10
45.10685615177374
 20
217.1012443773085
 30
0.0
 11
45.90435615177387
 21
217.1012443773085
 31
0.0
  0
LINE
  5
85BA
  8
0
 10
45.10685615177374
 20
219.6387443773091
 30
0.0
 11
45.90435615177387
 21
219.6387443773091
 31
0.0
  0
LINE
  5
85BB
  8
0
 10
45.90435615177387
 20
219.6387443773091
 30
0.0
 11
45.90435615177387
 21
218.768744377309
 31
0.0
  0
LINE
  5
85BC
  8
0
 10
46.41185615177358
 20
219.6387443773091
 30
0.0
 11
46.41185615177358
 21
219.0587443773092
 31
0.0
  0
LINE
  5
85BD
  8
0
 10
45.90435615177387
 20
217.1012443773085
 30
0.0
 11
45.90435615177387
 21
217.9712443773084
 31
0.0
  0
LINE
  5
85BE
  8
0
 10
46.41185615177358
 20
217.1012443773085
 30
0.0
 11
46.41185615177358
 21
217.6812443773084
 31
0.0
  0
ARC
  5
85BF
  8
0
 10
46.12185615177361
 20
217.6812443773084
 30
0.0
 40
0.29
 50
0.0
 51
90.0
  0
ARC
  5
85C0
  8
0
 10
46.12185615177361
 20
217.6812443773084
 30
0.0
 40
1.0875
 50
0.0
 51
39.29648023918966
  0
LINE
  5
85C1
  8
0
 10
46.41185615177358
 20
219.6387443773091
 30
0.0
 11
47.2093561517737
 21
219.6387443773091
 31
0.0
  0
LINE
  5
85C2
  8
0
 10
46.41185615177358
 20
217.1012443773085
 30
0.0
 11
47.2093561517737
 21
217.1012443773085
 31
0.0
  0
LINE
  5
85C3
  8
0
 10
45.90435615177387
 20
218.768744377309
 30
0.0
 11
46.12185615177361
 21
218.768744377309
 31
0.0
  0
ARC
  5
85C4
  8
0
 10
46.12185615177361
 20
219.0587443773092
 30
0.0
 40
0.29
 50
270.0
 51
0.0
  0
ARC
  5
85C5
  8
0
 10
46.12185615177361
 20
219.0587443773092
 30
0.0
 40
1.0875
 50
320.7035197608187
 51
0.0
  0
LINE
  5
85C6
  8
0
 10
45.90435615177387
 20
217.9712443773084
 30
0.0
 11
46.12185615177361
 21
217.9712443773084
 31
0.0
  0
LINE
  5
85C7
  8
0
 10
47.4268561517739
 20
217.1012443773085
 30
0.0
 11
47.4268561517739
 21
218.5874943773084
 31
0.0
  0
LINE
  5
85C8
  8
0
 10
49.52935615177387
 20
217.1012443773085
 30
0.0
 11
49.52935615177387
 21
218.5874943773084
 31
0.0
  0
LINE
  5
85C9
  8
0
 10
47.4268561517739
 20
217.1012443773085
 30
0.0
 11
48.22435615177358
 21
217.1012443773085
 31
0.0
  0
LINE
  5
85CA
  8
0
 10
48.22435615177358
 20
217.1012443773085
 30
0.0
 11
48.22435615177358
 21
217.6087443773082
 31
0.0
  0
LINE
  5
85CB
  8
0
 10
48.73185615177374
 20
217.1012443773085
 30
0.0
 11
48.73185615177374
 21
217.6087443773082
 31
0.0
  0
LINE
  5
85CC
  8
0
 10
48.73185615177374
 20
217.1012443773085
 30
0.0
 11
49.52935615177387
 21
217.1012443773085
 31
0.0
  0
LINE
  5
85CD
  8
0
 10
48.22435615177358
 20
217.6087443773082
 30
0.0
 11
48.73185615177374
 21
217.6087443773082
 31
0.0
  0
LINE
  5
85CE
  8
0
 10
48.22435615177358
 20
218.3337443773086
 30
0.0
 11
48.73185615177374
 21
218.3337443773086
 31
0.0
  0
ARC
  5
85CF
  8
0
 10
48.47810615177389
 20
218.5874943773084
 30
0.0
 40
1.05125
 50
0.0
 51
180.0
  0
ARC
  5
85D0
  8
0
 10
48.47810615177389
 20
218.5874943773084
 30
0.0
 40
0.25375
 50
0.0
 51
180.0
  0
LINE
  5
85D1
  8
0
 10
48.22435615177358
 20
218.3337443773086
 30
0.0
 11
48.22435615177358
 21
218.5874943773084
 31
0.0
  0
LINE
  5
85D2
  8
0
 10
48.73185615177374
 20
218.5874943773084
 30
0.0
 11
48.73185615177374
 21
218.3337443773086
 31
0.0
  0
LINE
  5
85D3
  8
0
 10
49.74685615177361
 20
217.1012443773085
 30
0.0
 11
49.74685615177361
 21
219.6387443773091
 31
0.0
  0
LINE
  5
85D4
  8
0
 10
51.84935615177358
 20
217.1012443773085
 30
0.0
 11
51.84935615177358
 21
217.6812443773084
 31
0.0
  0
LINE
  5
85D5
  8
0
 10
49.74685615177361
 20
217.1012443773085
 30
0.0
 11
50.54435615177374
 21
217.1012443773085
 31
0.0
  0
LINE
  5
85D6
  8
0
 10
50.68935615177372
 20
217.8987443773086
 30
0.0
 11
50.8343561517737
 21
217.8987443773086
 31
0.0
  0
LINE
  5
85D7
  8
0
 10
50.68935615177372
 20
218.478744377309
 30
0.0
 11
50.8343561517737
 21
218.478744377309
 31
0.0
  0
LINE
  5
85D8
  8
0
 10
50.54435615177374
 20
217.1012443773085
 30
0.0
 11
50.54435615177374
 21
218.9137443773087
 31
0.0
  0
LINE
  5
85D9
  8
0
 10
51.0518561517739
 20
217.1012443773085
 30
0.0
 11
51.0518561517739
 21
217.6812443773084
 31
0.0
  0
ARC
  5
85DA
  8
0
 10
50.8343561517737
 20
217.6812443773084
 30
0.0
 40
0.2175
 50
0.0
 51
90.0
  0
ARC
  5
85DB
  8
0
 10
50.8343561517737
 20
217.6812443773084
 30
0.0
 40
1.015
 50
0.0
 51
30.66296328368225
  0
LINE
  5
85DC
  8
0
 10
49.74685615177361
 20
219.6387443773091
 30
0.0
 11
50.90685615177347
 21
219.6387443773091
 31
0.0
  0
LINE
  5
85DD
  8
0
 10
50.54435615177374
 20
218.9137443773087
 30
0.0
 11
50.8343561517737
 21
218.9137443773087
 31
0.0
  0
LINE
  5
85DE
  8
0
 10
51.0518561517739
 20
217.1012443773085
 30
0.0
 11
51.84935615177358
 21
217.1012443773085
 31
0.0
  0
ARC
  5
85DF
  8
0
 10
50.8343561517737
 20
218.6962443773087
 30
0.0
 40
0.2175
 50
270.0
 51
90.0
  0
ARC
  5
85E0
  8
0
 10
50.90685615177347
 20
218.6962443773087
 30
0.0
 40
0.9425
 50
328.1493895340805
 51
90.0
  0
LINE
  5
85E1
  8
0
 10
50.68935615177372
 20
218.478744377309
 30
0.0
 11
50.68935615177372
 21
217.8987443773086
 31
0.0
  0
LINE
  5
85E2
  8
0
 10
52.06685615177378
 20
217.1012443773085
 30
0.0
 11
52.06685615177378
 21
219.6387443773091
 31
0.0
  0
LINE
  5
85E3
  8
0
 10
52.8643561517739
 20
217.1012443773085
 30
0.0
 11
52.8643561517739
 21
219.6387443773091
 31
0.0
  0
LINE
  5
85E4
  8
0
 10
55.76435615177354
 20
217.1374943773086
 30
0.0
 11
55.76435615177354
 21
218.5874943773084
 31
0.0
  0
LINE
  5
85E5
  8
0
 10
52.06685615177378
 20
219.6387443773091
 30
0.0
 11
52.8643561517739
 21
219.6387443773091
 31
0.0
  0
LINE
  5
85E6
  8
0
 10
52.06685615177378
 20
217.1012443773085
 30
0.0
 11
52.8643561517739
 21
217.1012443773085
 31
0.0
  0
ARC
  5
85E7
  8
0
 10
55.03935615177363
 20
218.3699943773087
 30
0.0
 40
1.305
 50
84.27518954777628
 51
281.4211862750086
  0
ARC
  5
85E8
  8
0
 10
55.03935615177363
 20
218.3699943773087
 30
0.0
 40
0.5075000000000001
 50
84.27518954777645
 51
270.0
  0
CIRCLE
  5
85E9
  8
0
 10
57.28685615177358
 20
218.3699943773087
 30
0.0
 40
1.305
  0
CIRCLE
  5
85EA
  8
0
 10
57.28685615177358
 20
218.3699943773087
 30
0.0
 40
0.5075000000000001
  0
LINE
  5
85EB
  8
0
 10
55.03935615177363
 20
217.862494377309
 30
0.0
 11
55.03935615177363
 21
218.5874943773084
 31
0.0
  0
LINE
  5
85EC
  8
0
 10
55.03935615177363
 20
218.5874943773084
 30
0.0
 11
55.76435615177354
 21
218.5874943773084
 31
0.0
  0
LINE
  5
85ED
  8
0
 10
55.29777199335797
 20
217.0908359614674
 30
0.0
 11
55.76435615177354
 21
217.1374943773086
 31
0.0
  0
LINE
  5
85EE
  8
0
 10
55.16953071536466
 20
219.6684856491291
 30
0.0
 11
55.76435615177354
 21
219.6387443773091
 31
0.0
  0
LINE
  5
85EF
  8
0
 10
55.76435615177354
 20
219.6387443773091
 30
0.0
 11
55.76435615177354
 21
218.8412443773085
 31
0.0
  0
LINE
  5
85F0
  8
0
 10
55.76435615177354
 20
218.8412443773085
 30
0.0
 11
55.08997959317014
 21
218.8749632052394
 31
0.0
  0
LINE
  5
85F1
  8
0
 10
58.80935615177361
 20
217.1012443773085
 30
0.0
 11
58.80935615177361
 21
219.6387443773091
 31
0.0
  0
LINE
  5
85F2
  8
0
 10
60.91185615177358
 20
217.1012443773085
 30
0.0
 11
60.91185615177358
 21
217.6812443773084
 31
0.0
  0
LINE
  5
85F3
  8
0
 10
60.91185615177358
 20
219.0587443773092
 30
0.0
 11
60.91185615177358
 21
219.6387443773091
 31
0.0
  0
LINE
  5
85F4
  8
0
 10
58.80935615177361
 20
217.1012443773085
 30
0.0
 11
59.60685615177374
 21
217.1012443773085
 31
0.0
  0
LINE
  5
85F5
  8
0
 10
58.80935615177361
 20
219.6387443773091
 30
0.0
 11
59.60685615177374
 21
219.6387443773091
 31
0.0
  0
LINE
  5
85F6
  8
0
 10
59.60685615177374
 20
219.6387443773091
 30
0.0
 11
59.60685615177374
 21
218.768744377309
 31
0.0
  0
LINE
  5
85F7
  8
0
 10
60.1143561517739
 20
219.6387443773091
 30
0.0
 11
60.1143561517739
 21
219.0587443773092
 31
0.0
  0
LINE
  5
85F8
  8
0
 10
59.60685615177374
 20
217.1012443773085
 30
0.0
 11
59.60685615177374
 21
217.9712443773084
 31
0.0
  0
LINE
  5
85F9
  8
0
 10
60.1143561517739
 20
217.1012443773085
 30
0.0
 11
60.1143561517739
 21
217.6812443773084
 31
0.0
  0
ARC
  5
85FA
  8
0
 10
59.82435615177349
 20
217.6812443773084
 30
0.0
 40
0.29
 50
0.0
 51
90.0
  0
ARC
  5
85FB
  8
0
 10
59.82435615177349
 20
217.6812443773084
 30
0.0
 40
1.0875
 50
0.0
 51
39.29648023918966
  0
LINE
  5
85FC
  8
0
 10
60.1143561517739
 20
219.6387443773091
 30
0.0
 11
60.91185615177358
 21
219.6387443773091
 31
0.0
  0
LINE
  5
85FD
  8
0
 10
60.1143561517739
 20
217.1012443773085
 30
0.0
 11
60.91185615177358
 21
217.1012443773085
 31
0.0
  0
LINE
  5
85FE
  8
0
 10
59.60685615177374
 20
218.768744377309
 30
0.0
 11
59.82435615177349
 21
218.768744377309
 31
0.0
  0
ARC
  5
85FF
  8
0
 10
59.82435615177349
 20
219.0587443773092
 30
0.0
 40
0.29
 50
270.0
 51
0.0
  0
ARC
  5
8600
  8
0
 10
59.82435615177349
 20
219.0587443773092
 30
0.0
 40
1.0875
 50
320.7035197608187
 51
0.0
  0
LINE
  5
8601
  8
0
 10
59.60685615177374
 20
217.9712443773084
 30
0.0
 11
59.82435615177349
 21
217.9712443773084
 31
0.0
  0
LINE
  5
8602
  8
0
 10
61.12935615177378
 20
217.1012443773085
 30
0.0
 11
61.12935615177378
 21
219.6387443773091
 31
0.0
  0
LINE
  5
8603
  8
0
 10
61.9268561517739
 20
217.1012443773085
 30
0.0
 11
61.9268561517739
 21
219.6387443773091
 31
0.0
  0
LINE
  5
8604
  8
0
 10
61.12935615177378
 20
219.6387443773091
 30
0.0
 11
61.9268561517739
 21
219.6387443773091
 31
0.0
  0
LINE
  5
8605
  8
0
 10
61.12935615177378
 20
217.1012443773085
 30
0.0
 11
61.9268561517739
 21
217.1012443773085
 31
0.0
  0
LINE
  5
8606
  8
0
 10
62.14435615177365
 20
217.1012443773085
 30
0.0
 11
62.14435615177365
 21
218.5874943773084
 31
0.0
  0
LINE
  5
8607
  8
0
 10
64.24685615177361
 20
217.1012443773085
 30
0.0
 11
64.24685615177361
 21
218.5874943773084
 31
0.0
  0
LINE
  5
8608
  8
0
 10
62.14435615177365
 20
217.1012443773085
 30
0.0
 11
62.94185615177378
 21
217.1012443773085
 31
0.0
  0
LINE
  5
8609
  8
0
 10
62.94185615177378
 20
217.1012443773085
 30
0.0
 11
62.94185615177378
 21
218.5874943773084
 31
0.0
  0
LINE
  5
860A
  8
0
 10
63.44935615177349
 20
217.1012443773085
 30
0.0
 11
63.44935615177349
 21
218.5874943773084
 31
0.0
  0
LINE
  5
860B
  8
0
 10
63.44935615177349
 20
217.1012443773085
 30
0.0
 11
64.24685615177361
 21
217.1012443773085
 31
0.0
  0
ARC
  5
860C
  8
0
 10
63.19560615177363
 20
218.5874943773084
 30
0.0
 40
1.05125
 50
0.0
 51
180.0
  0
ARC
  5
860D
  8
0
 10
63.19560615177363
 20
218.5874943773084
 30
0.0
 40
0.25375
 50
0.0
 51
180.0
  0
CIRCLE
  5
860E
  8
0
 10
95.52185615177376
 20
209.8911362700034
 30
0.0
 40
8.25
  0
LINE
  5
860F
  8
0
 10
68.2718561517733
 20
203.8911362700028
 30
0.0
 11
68.2718561517733
 21
215.8911362700032
 31
0.0
  0
ARC
  5
8610
  8
0
 10
70.2718561517733
 20
203.8911362700028
 30
0.0
 40
2.0
 50
180.0
 51
270.0
1001
GENIUS_GENOBJ-N-FIL_13
1002
{
1000
OWNER
1000
GEN
1002
}
1001
GENIUS_GENODEF_13
1002
{
1000
HIER
1070
     0
1002
}
1002
{
1000
MANEDIT
1070
     0
1002
}
1002
{
1000
NOSEL
1070
     0
1002
}
1002
{
1000
BEHIND
1070
     0
1002
}
1002
{
1000
OTHER
1070
     0
1002
}
1002
{
1000
REACTOR
1002
}
  0
LINE
  5
8611
  8
0
 10
86.2718561517724
 20
203.8911362700028
 30
0.0
 11
86.2718561517724
 21
215.8911362700023
 31
0.0
  0
ARC
  5
8612
  8
0
 10
84.2718561517724
 20
215.8911362700023
 30
0.0
 40
2.0
 50
0.0
 51
90.0
1001
GENIUS_GENODEF_13
1002
{
1000
HIER
1070
     0
1002
}
1002
{
1000
MANEDIT
1070
     0
1002
}
1002
{
1000
NOSEL
1070
     0
1002
}
1002
{
1000
BEHIND
1070
     0
1002
}
1002
{
1000
OTHER
1070
     0
1002
}
1002
{
1000
REACTOR
1002
}
1001
GENIUS_GENOBJ-N-FIL_13
1002
{
1000
OWNER
1000
GEN
1002
}
  0
LINE
  5
8613
  8
0
 10
86.2718561517724
 20
209.3911362700028
 30
0.0
 11
86.24963589325938
 21
209.3911362700028
 31
0.0
  0
LINE
  5
8614
  8
0
 10
84.8218561517728
 20
209.5411362700027
 30
0.0
 11
69.7218561517729
 21
209.5411362700027
 31
0.0
  0
LINE
  5
8615
  8
0
 10
86.2718561517724
 20
210.3911362700028
 30
0.0
 11
86.24963589325938
 21
210.3911362700028
 31
0.0
  0
LINE
  5
8616
  8
0
 10
84.8218561517728
 20
210.2411362700027
 30
0.0
 11
69.7218561517729
 21
210.2411362700027
 31
0.0
  0
CIRCLE
  5
8617
  8
0
 10
77.47346969118843
 20
213.8911362700032
 30
0.0
 40
2.0
  0
LINE
  5
8618
  8
0
 10
84.2718561517724
 20
217.8911362700023
 30
0.0
 11
70.2718561517733
 21
217.8911362700032
 31
0.0
  0
ARC
  5
8619
  8
0
 10
70.2718561517733
 20
215.8911362700032
 30
0.0
 40
2.0
 50
90.0
 51
180.0
1001
GENIUS_GENOBJ-N-FIL_13
1002
{
1000
OWNER
1000
GEN
1002
}
1001
GENIUS_GENODEF_13
1002
{
1000
HIER
1070
     0
1002
}
1002
{
1000
MANEDIT
1070
     0
1002
}
1002
{
1000
NOSEL
1070
     0
1002
}
1002
{
1000
BEHIND
1070
     0
1002
}
1002
{
1000
OTHER
1070
     0
1002
}
1002
{
1000
REACTOR
1002
}
  0
LINE
  5
861A
  8
0
 10
84.2718561517724
 20
201.8911362700028
 30
0.0
 11
70.2718561517733
 21
201.8911362700028
 31
0.0
  0
ARC
  5
861B
  8
0
 10
84.2718561517724
 20
203.8911362700028
 30
0.0
 40
2.0
 50
270.0
 51
0.0
1001
GENIUS_GENODEF_13
1002
{
1000
HIER
1070
     0
1002
}
1002
{
1000
MANEDIT
1070
     0
1002
}
1002
{
1000
NOSEL
1070
     0
1002
}
1002
{
1000
BEHIND
1070
     0
1002
}
1002
{
1000
OTHER
1070
     0
1002
}
1002
{
1000
REACTOR
1002
}
1001
GENIUS_GENOBJ-N-FIL_13
1002
{
1000
OWNER
1000
GEN
1002
}
  0
TEXT
  5
861C
  8
0
 10
41.65052034472361
 20
220.3458387727714
 30
0.0
 40
1.8
  1
電動水抜操作盤 EV1K
  0
CIRCLE
  5
864D
  8
0
 10
65.82231811433564
 20
224.3743007952838
 30
0.0
 40
1.125
  0
TEXT
  5
864E
  8
0
 10
65.10231811433565
 20
223.6063007952838
 30
0.0
 40
1.44
  1
Ｒ
 72
     4
 11
65.82231811433564
 21
224.3743007952838
 31
0.0
  0
LINE
  5
8657
  8
0
 10
55.82185551549412
 20
248.2411362700035
 30
0.0
 11
55.82185551549412
 21
246.2411362700035
 31
0.0
  0
LINE
  5
8658
  8
0
 10
48.82185551549412
 20
248.2411362700035
 30
0.0
 11
48.82185551549412
 21
246.2411362700035
 31
0.0
  0
ARC
  5
8659
  8
0
 10
49.82185551549412
 20
248.2411362700035
 30
0.0
 40
1.0
 50
90.0
 51
180.0
  0
ARC
  5
865A
  8
0
 10
49.82185551549412
 20
246.2411362700035
 30
0.0
 40
1.0
 50
180.0
 51
270.0
  0
ARC
  5
865B
  8
0
 10
54.82185551549412
 20
246.2411362700035
 30
0.0
 40
1.0
 50
270.0
 51
0.0
  0
ARC
  5
865C
  8
0
 10
54.82185551549412
 20
248.2411362700035
 30
0.0
 40
1.0
 50
0.0
 51
90.0
  0
LINE
  5
865D
  8
0
 10
49.82185551549412
 20
249.2411362700035
 30
0.0
 11
54.82185551549412
 21
249.2411362700035
 31
0.0
  0
LINE
  5
865E
  8
0
 10
49.82185551549412
 20
245.2411362700035
 30
0.0
 11
54.82185551549412
 21
245.2411362700035
 31
0.0
  0
TEXT
  5
865F
  8
0
 10
42.16044235838125
 20
246.2788604505848
 30
0.0
 40
2.0
  1
OFF
 41
1.5
  0
TEXT
  5
8660
  8
0
 10
57.20729150807297
 20
246.2788604505848
 30
0.0
 40
2.0
  1
ON
 41
1.5
  0
ARC
  5
8661
  8
0
 10
69.7218561517729
 20
209.8911362700028
 30
0.0
 40
0.3500000000000227
 50
90.0
 51
270.0
  0
ARC
  5
8662
  8
0
 10
84.8218561517728
 20
209.8911362700028
 30
0.0
 40
0.3500000000000227
 50
270.0
 51
90.0
  0
LINE
  5
8663
  8
0
 10
56.5218561517737
 20
212.8911362700034
 30
0.0
 11
64.5218561517737
 21
212.8911362700034
 31
0.0
  0
ARC
  5
8664
  8
0
 10
64.5218561517737
 20
210.8911362700034
 30
0.0
 40
2.0
 50
0.0
 51
90.0
  0
ARC
  5
8665
  8
0
 10
56.5218561517737
 20
210.8911362700034
 30
0.0
 40
2.0
 50
90.0
 51
180.0
  0
ARC
  5
8666
  8
0
 10
64.5218561517737
 20
203.8911362700029
 30
0.0
 40
2.0
 50
270.0
 51
0.0
  0
LINE
  5
8667
  8
0
 10
66.5218561517737
 20
203.8911362700029
 30
0.0
 11
66.5218561517737
 21
210.8911362700034
 31
0.0
  0
LINE
  5
8668
  8
0
 10
56.5218561517737
 20
201.8911362700029
 30
0.0
 11
64.5218561517737
 21
201.8911362700029
 31
0.0
  0
ARC
  5
8669
  8
0
 10
56.5218561517737
 20
203.8911362700029
 30
0.0
 40
2.0
 50
180.0
 51
270.0
  0
LINE
  5
866A
  8
0
 10
54.5218561517737
 20
203.8911362700029
 30
0.0
 11
54.5218561517737
 21
210.8911362700034
 31
0.0
  0
TEXT
  5
866B
  8
0
 10
55.65609042412076
 20
203.1068556636895
 30
0.0
 40
1.9
  1
点検
  0
ARC
  5
866C
  8
0
 10
64.27349234550186
 20
204.4584520354259
 30
0.0
 40
0.9999999999999992
 50
233.0491207032591
 51
57.32628399712605
  0
LINE
  5
866D
  8
0
 10
63.67236222803129
 20
203.6593008720847
 30
0.0
 11
58.96522801641669
 21
207.2000579545677
 31
0.0
  0
LINE
  5
866E
  8
0
 10
59.85524786706148
 20
208.4800423840364
 30
0.0
 11
64.813346572564
 21
205.3002105598993
 31
0.0
  0
ARC
  5
866F
  8
0
 10
57.40559677286444
 20
209.2339502767104
 30
0.0
 40
1.99079584716086
 50
1.683229077249547
 51
160.7903378653517
  0
ARC
  5
8670
  8
0
 10
60.39510209412404
 20
209.3218009085096
 30
0.0
 40
0.9999999999999992
 50
181.6832290772424
 51
237.326283997126
1001
GENIUS_GENODEF_13
1002
{
1000
HIER
1070
     0
1002
}
1002
{
1000
MANEDIT
1070
     0
1002
}
1002
{
1000
NOSEL
1070
     0
1002
}
1002
{
1000
BEHIND
1070
     0
1002
}
1002
{
1000
OTHER
1070
     0
1002
}
1002
{
1000
REACTOR
1002
}
1001
GENIUS_GENOBJ-N-FIL_13
1002
{
1000
OWNER
1000
GEN
1002
}
  0
ARC
  5
8671
  8
0
 10
57.40559677286444
 20
209.2339502767104
 30
0.0
 40
1.99079584716086
 50
219.5850668351122
 51
288.6921756231417
  0
ARC
  5
8672
  8
0
 10
58.36409789894648
 20
206.4009067912262
 30
0.0
 40
0.9999999999999992
 50
53.04912070325908
 51
108.6921756231398
1001
GENIUS_GENOBJ-N-FIL_13
1002
{
1000
OWNER
1000
GEN
1002
}
1001
GENIUS_GENODEF_13
1002
{
1000
HIER
1070
     0
1002
}
1002
{
1000
MANEDIT
1070
     0
1002
}
1002
{
1000
NOSEL
1070
     0
1002
}
1002
{
1000
BEHIND
1070
     0
1002
}
1002
{
1000
OTHER
1070
     0
1002
}
1002
{
1000
REACTOR
1002
}
  0
LINE
  5
8673
  8
0
 10
57.96654129808908
 20
209.3347558361868
 30
0.0
 11
57.58408692139605
 21
208.273162916147
 31
0.0
  0
LINE
  5
8674
  8
0
 10
57.58408692139605
 20
208.273162916147
 30
0.0
 11
55.87133152286617
 21
207.9653690819417
 31
0.0
  0
LINE
  5
8675
  8
0
 10
57.96654129808897
 20
209.3347558361875
 30
0.0
 11
57.23840204920225
 21
210.1967675022119
 31
0.0
  0
LINE
  5
8676
  8
0
 10
57.23840204920225
 20
210.1967675022119
 30
0.0
 11
55.52564665067212
 21
209.8889736680063
 31
0.0
  0
CIRCLE
  5
8677
  8
0
 10
64.27349234550186
 20
204.4584520354259
 30
0.0
 40
0.4999999999999996
  0
LINE
  5
8678
  8
0
 10
42.53436654623886
 20
212.5722712700029
 30
0.0
 11
44.87114804623889
 21
212.5722712700029
 31
0.0
  0
LINE
  5
8679
  8
0
 10
44.87114804623889
 20
212.5722712700029
 30
0.0
 11
44.87114804623889
 21
212.9062551700029
 31
0.0
  0
LINE
  5
867A
  8
0
 10
44.87114804623889
 20
212.9062551700029
 30
0.0
 11
42.53436654623886
 21
212.9062551700029
 31
0.0
  0
LINE
  5
867B
  8
0
 10
42.53436654623886
 20
212.9062551700029
 30
0.0
 11
42.53436654623886
 21
212.5722712700029
 31
0.0
  0
LINE
  5
867C
  8
0
 10
45.53874154623884
 20
212.5722712700029
 30
0.0
 11
46.53995604623884
 21
212.5722712700029
 31
0.0
  0
LINE
  5
867D
  8
0
 10
46.53995604623884
 20
212.5722712700029
 30
0.0
 11
46.53995604623884
 21
212.9062551700029
 31
0.0
  0
LINE
  5
867E
  8
0
 10
46.53995604623884
 20
212.9062551700029
 30
0.0
 11
45.53874154623884
 21
212.9062551700029
 31
0.0
  0
LINE
  5
867F
  8
0
 10
45.53874154623884
 20
212.9062551700029
 30
0.0
 11
45.53874154623884
 21
212.5722712700029
 31
0.0
  0
LINE
  5
8680
  8
0
 10
47.20751154623886
 20
212.5722712700029
 30
0.0
 11
47.54149544623888
 21
212.5722712700029
 31
0.0
  0
LINE
  5
8681
  8
0
 10
47.54149544623888
 20
212.5722712700029
 30
0.0
 11
47.54149544623888
 21
212.9062551700029
 31
0.0
  0
LINE
  5
8682
  8
0
 10
47.54149544623888
 20
212.9062551700029
 30
0.0
 11
47.20751154623886
 21
212.9062551700029
 31
0.0
  0
LINE
  5
8683
  8
0
 10
47.20751154623886
 20
212.9062551700029
 30
0.0
 11
47.20751154623886
 21
212.5722712700029
 31
0.0
  0
LINE
  5
8684
  8
0
 10
47.87507654623886
 20
212.5722712700029
 30
0.0
 11
48.20906139623887
 21
212.5722712700029
 31
0.0
  0
LINE
  5
8685
  8
0
 10
48.20906139623887
 20
212.5722712700029
 30
0.0
 11
48.20906139623887
 21
212.9062551700029
 31
0.0
  0
LINE
  5
8686
  8
0
 10
48.20906139623887
 20
212.9062551700029
 30
0.0
 11
47.87507654623886
 21
212.9062551700029
 31
0.0
  0
LINE
  5
8687
  8
0
 10
47.87507654623886
 20
212.9062551700029
 30
0.0
 11
47.87507654623886
 21
212.5722712700029
 31
0.0
  0
LINE
  5
8688
  8
0
 10
48.54273654623887
 20
212.5722712700029
 30
0.0
 11
48.87672139623885
 21
212.5722712700029
 31
0.0
  0
LINE
  5
8689
  8
0
 10
48.87672139623885
 20
212.5722712700029
 30
0.0
 11
48.87672139623885
 21
212.9062551700029
 31
0.0
  0
LINE
  5
868A
  8
0
 10
48.87672139623885
 20
212.9062551700029
 30
0.0
 11
48.54273654623887
 21
212.9062551700029
 31
0.0
  0
LINE
  5
868B
  8
0
 10
48.54273654623887
 20
212.9062551700029
 30
0.0
 11
48.54273654623887
 21
212.5722712700029
 31
0.0
  0
LINE
  5
868C
  8
0
 10
49.87748654623886
 20
212.5722712700029
 30
0.0
 11
50.21147044623888
 21
212.5722712700029
 31
0.0
  0
LINE
  5
868D
  8
0
 10
50.21147044623888
 20
212.5722712700029
 30
0.0
 11
50.21147044623888
 21
212.9062551700029
 31
0.0
  0
LINE
  5
868E
  8
0
 10
50.21147044623888
 20
212.9062551700029
 30
0.0
 11
49.87748654623886
 21
212.9062551700029
 31
0.0
  0
LINE
  5
868F
  8
0
 10
49.87748654623886
 20
212.9062551700029
 30
0.0
 11
49.87748654623886
 21
212.5722712700029
 31
0.0
  0
LINE
  5
8691
  8
0
 10
51.54707544623886
 20
212.5722712700029
 30
0.0
 11
53.21550154623887
 21
212.5722712700029
 31
0.0
  0
LINE
  5
8692
  8
0
 10
53.54987304623887
 20
210.5691012700029
 30
0.0
 11
53.54987304623887
 21
212.9062551700029
 31
0.0
  0
LINE
  5
8693
  8
0
 10
53.54987304623887
 20
212.9062551700029
 30
0.0
 11
51.21309154623887
 21
212.9062551700029
 31
0.0
  0
LINE
  5
8694
  8
0
 10
51.21309154623887
 20
212.9062551700029
 30
0.0
 11
51.21309154623887
 21
210.5691012700029
 31
0.0
  0
LINE
  5
8695
  8
0
 10
42.53436654623886
 20
212.2383462700029
 30
0.0
 11
42.86872189623887
 21
212.2383462700029
 31
0.0
  0
LINE
  5
8696
  8
0
 10
42.86872189623887
 20
212.2383462700029
 30
0.0
 11
42.86872189623887
 21
212.5723311200029
 31
0.0
  0
LINE
  5
8697
  8
0
 10
42.86872189623887
 20
212.5723311200029
 30
0.0
 11
42.53436654623886
 21
212.5723311200029
 31
0.0
  0
LINE
  5
8698
  8
0
 10
42.53436654623886
 20
212.5723311200029
 30
0.0
 11
42.53436654623886
 21
212.2383462700029
 31
0.0
  0
LINE
  5
8699
  8
0
 10
44.53744154623885
 20
212.2383462700029
 30
0.0
 11
44.87142544623885
 21
212.2383462700029
 31
0.0
  0
LINE
  5
869A
  8
0
 10
44.87142544623885
 20
212.2383462700029
 30
0.0
 11
44.87142544623885
 21
212.5723311200029
 31
0.0
  0
LINE
  5
869B
  8
0
 10
44.87142544623885
 20
212.5723311200029
 30
0.0
 11
44.53744154623885
 21
212.5723311200029
 31
0.0
  0
LINE
  5
869C
  8
0
 10
44.53744154623885
 20
212.5723311200029
 30
0.0
 11
44.53744154623885
 21
212.2383462700029
 31
0.0
  0
LINE
  5
869D
  8
0
 10
45.20510154623886
 20
212.2383462700029
 30
0.0
 11
46.20668654623887
 21
212.2383462700029
 31
0.0
  0
LINE
  5
869E
  8
0
 10
46.20668654623887
 20
212.2383462700029
 30
0.0
 11
46.20668654623887
 21
212.5723311200029
 31
0.0
  0
LINE
  5
869F
  8
0
 10
46.20668654623887
 20
212.5723311200029
 30
0.0
 11
45.20510154623886
 21
212.5723311200029
 31
0.0
  0
LINE
  5
86A0
  8
0
 10
45.20510154623886
 20
212.5723311200029
 30
0.0
 11
45.20510154623886
 21
212.2383462700029
 31
0.0
  0
LINE
  5
86A1
  8
0
 10
46.54032654623887
 20
212.2383462700029
 30
0.0
 11
47.54154104623888
 21
212.2383462700029
 31
0.0
  0
LINE
  5
86A2
  8
0
 10
47.54154104623888
 20
212.2383462700029
 30
0.0
 11
47.54154104623888
 21
212.5723311200029
 31
0.0
  0
LINE
  5
86A3
  8
0
 10
47.54154104623888
 20
212.5723311200029
 30
0.0
 11
46.54032654623887
 21
212.5723311200029
 31
0.0
  0
LINE
  5
86A4
  8
0
 10
46.54032654623887
 20
212.5723311200029
 30
0.0
 11
46.54032654623887
 21
212.2383462700029
 31
0.0
  0
LINE
  5
86A5
  8
0
 10
48.20909654623887
 20
212.2383462700029
 30
0.0
 11
48.54308044623886
 21
212.2383462700029
 31
0.0
  0
LINE
  5
86A6
  8
0
 10
48.54308044623886
 20
212.2383462700029
 30
0.0
 11
48.54308044623886
 21
212.5723311200029
 31
0.0
  0
LINE
  5
86A7
  8
0
 10
48.54308044623886
 20
212.5723311200029
 30
0.0
 11
48.20909654623887
 21
212.5723311200029
 31
0.0
  0
LINE
  5
86A8
  8
0
 10
48.20909654623887
 20
212.5723311200029
 30
0.0
 11
48.20909654623887
 21
212.2383462700029
 31
0.0
  0
LINE
  5
86A9
  8
0
 10
49.20992154623886
 20
212.2383462700029
 30
0.0
 11
49.54427689623887
 21
212.2383462700029
 31
0.0
  0
LINE
  5
86AA
  8
0
 10
49.54427689623887
 20
212.2383462700029
 30
0.0
 11
49.54427689623887
 21
212.5723311200029
 31
0.0
  0
LINE
  5
86AB
  8
0
 10
49.54427689623887
 20
212.5723311200029
 30
0.0
 11
49.20992154623886
 21
212.5723311200029
 31
0.0
  0
LINE
  5
86AC
  8
0
 10
49.20992154623886
 20
212.5723311200029
 30
0.0
 11
49.20992154623886
 21
212.2383462700029
 31
0.0
  0
LINE
  5
86AD
  8
0
 10
49.87748654623886
 20
212.2383462700029
 30
0.0
 11
50.21147044623888
 21
212.2383462700029
 31
0.0
  0
LINE
  5
86AE
  8
0
 10
50.21147044623888
 20
212.2383462700029
 30
0.0
 11
50.21147044623888
 21
212.5723311200029
 31
0.0
  0
LINE
  5
86AF
  8
0
 10
50.21147044623888
 20
212.5723311200029
 30
0.0
 11
49.87748654623886
 21
212.5723311200029
 31
0.0
  0
LINE
  5
86B0
  8
0
 10
49.87748654623886
 20
212.5723311200029
 30
0.0
 11
49.87748654623886
 21
212.2383462700029
 31
0.0
  0
LINE
  5
86B1
  8
0
 10
50.54590654623885
 20
212.2383462700029
 30
0.0
 11
50.87989139623886
 21
212.2383462700029
 31
0.0
  0
LINE
  5
86B3
  8
0
 10
50.87989139623886
 20
212.2383016200029
 30
0.0
 11
50.87989139623886
 21
212.5723311200029
 31
0.0
  0
LINE
  5
86B4
  8
0
 10
50.87989139623886
 20
212.5723311200029
 30
0.0
 11
50.54590654623885
 21
212.5723311200029
 31
0.0
  0
LINE
  5
86B5
  8
0
 10
50.54590654623885
 20
212.5723311200029
 30
0.0
 11
50.54590654623885
 21
212.2383016200029
 31
0.0
  0
LINE
  5
86B6
  8
0
 10
42.53436654623886
 20
211.9039462700029
 30
0.0
 11
42.86872189623887
 21
211.9039462700029
 31
0.0
  0
LINE
  5
86B7
  8
0
 10
42.86872189623887
 20
211.9039462700029
 30
0.0
 11
42.86872189623887
 21
212.2383016200029
 31
0.0
  0
LINE
  5
86B8
  8
0
 10
42.86872189623887
 20
212.2383016200029
 30
0.0
 11
42.53436654623886
 21
212.2383016200029
 31
0.0
  0
LINE
  5
86B9
  8
0
 10
42.53436654623886
 20
212.2383016200029
 30
0.0
 11
42.53436654623886
 21
211.9039462700029
 31
0.0
  0
LINE
  5
86BA
  8
0
 10
43.20193154623885
 20
211.9039462700029
 30
0.0
 11
44.20351654623886
 21
211.9039462700029
 31
0.0
  0
LINE
  5
86BB
  8
0
 10
44.20351654623886
 20
211.9039462700029
 30
0.0
 11
44.20351654623886
 21
212.2383016200029
 31
0.0
  0
LINE
  5
86BC
  8
0
 10
44.20351654623886
 20
212.2383016200029
 30
0.0
 11
43.20193154623885
 21
212.2383016200029
 31
0.0
  0
LINE
  5
86BD
  8
0
 10
43.20193154623885
 20
212.2383016200029
 30
0.0
 11
43.20193154623885
 21
211.9039462700029
 31
0.0
  0
LINE
  5
86BE
  8
0
 10
44.53744154623885
 20
211.9039462700029
 30
0.0
 11
44.87142544623885
 21
211.9039462700029
 31
0.0
  0
LINE
  5
86BF
  8
0
 10
44.87142544623885
 20
211.9039462700029
 30
0.0
 11
44.87142544623885
 21
212.2383016200029
 31
0.0
  0
LINE
  5
86C0
  8
0
 10
44.87142544623885
 20
212.2383016200029
 30
0.0
 11
44.53744154623885
 21
212.2383016200029
 31
0.0
  0
LINE
  5
86C1
  8
0
 10
44.53744154623885
 20
212.2383016200029
 30
0.0
 11
44.53744154623885
 21
211.9039462700029
 31
0.0
  0
LINE
  5
86C2
  8
0
 10
45.20510154623886
 20
211.9039462700029
 30
0.0
 11
46.20668654623887
 21
211.9039462700029
 31
0.0
  0
LINE
  5
86C3
  8
0
 10
46.20668654623887
 20
211.9039462700029
 30
0.0
 11
46.20668654623887
 21
212.2383016200029
 31
0.0
  0
LINE
  5
86C4
  8
0
 10
46.20668654623887
 20
212.2383016200029
 30
0.0
 11
45.20510154623886
 21
212.2383016200029
 31
0.0
  0
LINE
  5
86C5
  8
0
 10
45.20510154623886
 20
212.2383016200029
 30
0.0
 11
45.20510154623886
 21
211.9039462700029
 31
0.0
  0
LINE
  5
86C6
  8
0
 10
46.54032654623887
 20
211.9039462700029
 30
0.0
 11
47.20755334623885
 21
211.9039462700029
 31
0.0
  0
LINE
  5
86C7
  8
0
 10
47.20755334623885
 20
211.9039462700029
 30
0.0
 11
47.20755334623885
 21
212.2383016200029
 31
0.0
  0
LINE
  5
86C8
  8
0
 10
47.20755334623885
 20
212.2383016200029
 30
0.0
 11
46.54032654623887
 21
212.2383016200029
 31
0.0
  0
LINE
  5
86C9
  8
0
 10
46.54032654623887
 20
212.2383016200029
 30
0.0
 11
46.54032654623887
 21
211.9039462700029
 31
0.0
  0
LINE
  5
86CA
  8
0
 10
47.54153154623887
 20
211.9039462700029
 30
0.0
 11
47.87588689623888
 21
211.9039462700029
 31
0.0
  0
LINE
  5
86CB
  8
0
 10
47.87588689623888
 20
211.9039462700029
 30
0.0
 11
47.87588689623888
 21
212.2383016200029
 31
0.0
  0
LINE
  5
86CC
  8
0
 10
47.87588689623888
 20
212.2383016200029
 30
0.0
 11
47.54153154623887
 21
212.2383016200029
 31
0.0
  0
LINE
  5
86CD
  8
0
 10
47.54153154623887
 20
212.2383016200029
 30
0.0
 11
47.54153154623887
 21
211.9039462700029
 31
0.0
  0
LINE
  5
86CE
  8
0
 10
48.20909654623887
 20
211.9039462700029
 30
0.0
 11
49.21068154623887
 21
211.9039462700029
 31
0.0
  0
LINE
  5
86CF
  8
0
 10
49.21068154623887
 20
211.9039462700029
 30
0.0
 11
49.21068154623887
 21
212.2383016200029
 31
0.0
  0
LINE
  5
86D0
  8
0
 10
49.21068154623887
 20
212.2383016200029
 30
0.0
 11
48.20909654623887
 21
212.2383016200029
 31
0.0
  0
LINE
  5
86D1
  8
0
 10
48.20909654623887
 20
212.2383016200029
 30
0.0
 11
48.20909654623887
 21
211.9039462700029
 31
0.0
  0
LINE
  5
86D2
  8
0
 10
49.54432154623885
 20
211.9039462700029
 30
0.0
 11
49.87830639623886
 21
211.9039462700029
 31
0.0
  0
LINE
  5
86D3
  8
0
 10
49.87830639623886
 20
211.9039462700029
 30
0.0
 11
49.87830639623886
 21
212.2383016200029
 31
0.0
  0
LINE
  5
86D4
  8
0
 10
49.87830639623886
 20
212.2383016200029
 30
0.0
 11
49.54432154623885
 21
212.2383016200029
 31
0.0
  0
LINE
  5
86D5
  8
0
 10
49.54432154623885
 20
212.2383016200029
 30
0.0
 11
49.54432154623885
 21
211.9039462700029
 31
0.0
  0
LINE
  5
86D6
  8
0
 10
50.54590654623885
 20
211.9039462700029
 30
0.0
 11
50.87989139623886
 21
211.9039462700029
 31
0.0
  0
LINE
  5
86D7
  8
0
 10
50.87989139623886
 20
211.9039462700029
 30
0.0
 11
50.87989139623886
 21
212.2383016200029
 31
0.0
  0
LINE
  5
86D8
  8
0
 10
50.87989139623886
 20
212.2383016200029
 30
0.0
 11
50.54590654623885
 21
212.2383016200029
 31
0.0
  0
LINE
  5
86D9
  8
0
 10
50.54590654623885
 20
212.2383016200029
 30
0.0
 11
50.54590654623885
 21
211.9039462700029
 31
0.0
  0
LINE
  5
86DB
  8
0
 10
52.88224154623884
 20
211.2367612700029
 30
0.0
 11
52.88224154623884
 21
212.2383016200029
 31
0.0
  0
LINE
  5
86DC
  8
0
 10
52.88224154623884
 20
212.2383016200029
 30
0.0
 11
51.88065654623887
 21
212.2383016200029
 31
0.0
  0
LINE
  5
86DD
  8
0
 10
51.88065654623887
 20
212.2383016200029
 30
0.0
 11
51.88065654623887
 21
211.2367612700029
 31
0.0
  0
LINE
  5
86DE
  8
0
 10
42.53436654623886
 20
211.5706862700029
 30
0.0
 11
42.86872189623887
 21
211.5706862700029
 31
0.0
  0
LINE
  5
86DF
  8
0
 10
42.86872189623887
 20
211.5706862700029
 30
0.0
 11
42.86872189623887
 21
211.9046701700029
 31
0.0
  0
LINE
  5
86E0
  8
0
 10
42.86872189623887
 20
211.9046701700029
 30
0.0
 11
42.53436654623886
 21
211.9046701700029
 31
0.0
  0
LINE
  5
86E1
  8
0
 10
42.53436654623886
 20
211.9046701700029
 30
0.0
 11
42.53436654623886
 21
211.5706862700029
 31
0.0
  0
LINE
  5
86E2
  8
0
 10
43.20193154623885
 20
211.5706862700029
 30
0.0
 11
44.20351654623886
 21
211.5706862700029
 31
0.0
  0
LINE
  5
86E3
  8
0
 10
44.20351654623886
 20
211.5706862700029
 30
0.0
 11
44.20351654623886
 21
211.9046701700029
 31
0.0
  0
LINE
  5
86E4
  8
0
 10
44.20351654623886
 20
211.9046701700029
 30
0.0
 11
43.20193154623885
 21
211.9046701700029
 31
0.0
  0
LINE
  5
86E5
  8
0
 10
43.20193154623885
 20
211.9046701700029
 30
0.0
 11
43.20193154623885
 21
211.5706862700029
 31
0.0
  0
LINE
  5
86E6
  8
0
 10
44.53744154623885
 20
211.5706862700029
 30
0.0
 11
44.87142544623885
 21
211.5706862700029
 31
0.0
  0
LINE
  5
86E7
  8
0
 10
44.87142544623885
 20
211.5706862700029
 30
0.0
 11
44.87142544623885
 21
211.9046701700029
 31
0.0
  0
LINE
  5
86E8
  8
0
 10
44.87142544623885
 20
211.9046701700029
 30
0.0
 11
44.53744154623885
 21
211.9046701700029
 31
0.0
  0
LINE
  5
86E9
  8
0
 10
44.53744154623885
 20
211.9046701700029
 30
0.0
 11
44.53744154623885
 21
211.5706862700029
 31
0.0
  0
LINE
  5
86EA
  8
0
 10
45.20510154623886
 20
211.5706862700029
 30
0.0
 11
45.53908639623887
 21
211.5706862700029
 31
0.0
  0
LINE
  5
86EB
  8
0
 10
45.53908639623887
 20
211.5706862700029
 30
0.0
 11
45.53908639623887
 21
211.9046701700029
 31
0.0
  0
LINE
  5
86EC
  8
0
 10
45.53908639623887
 20
211.9046701700029
 30
0.0
 11
45.20510154623886
 21
211.9046701700029
 31
0.0
  0
LINE
  5
86ED
  8
0
 10
45.20510154623886
 20
211.9046701700029
 30
0.0
 11
45.20510154623886
 21
211.5706862700029
 31
0.0
  0
LINE
  5
86EE
  8
0
 10
48.87666154623886
 20
211.5706862700029
 30
0.0
 11
49.21064544623886
 21
211.5706862700029
 31
0.0
  0
LINE
  5
86EF
  8
0
 10
49.21064544623886
 20
211.5706862700029
 30
0.0
 11
49.21064544623886
 21
211.9046701700029
 31
0.0
  0
LINE
  5
86F0
  8
0
 10
49.21064544623886
 20
211.9046701700029
 30
0.0
 11
48.87666154623886
 21
211.9046701700029
 31
0.0
  0
LINE
  5
86F1
  8
0
 10
48.87666154623886
 20
211.9046701700029
 30
0.0
 11
48.87666154623886
 21
211.5706862700029
 31
0.0
  0
LINE
  5
86F2
  8
0
 10
49.54432154623885
 20
211.5706862700029
 30
0.0
 11
50.87914754623887
 21
211.5706862700029
 31
0.0
  0
LINE
  5
86F3
  8
0
 10
50.87914754623887
 20
211.5706862700029
 30
0.0
 11
50.87914754623887
 21
211.9046701700029
 31
0.0
  0
LINE
  5
86F4
  8
0
 10
50.87914754623887
 20
211.9046701700029
 30
0.0
 11
49.54432154623885
 21
211.9046701700029
 31
0.0
  0
LINE
  5
86F5
  8
0
 10
49.54432154623885
 20
211.9046701700029
 30
0.0
 11
49.54432154623885
 21
211.5706862700029
 31
0.0
  0
LINE
  5
86F6
  8
0
 10
42.53436654623886
 20
211.2367612700029
 30
0.0
 11
42.86872189623887
 21
211.2367612700029
 31
0.0
  0
LINE
  5
86F7
  8
0
 10
42.86872189623887
 20
211.2367612700029
 30
0.0
 11
42.86872189623887
 21
211.5707461200029
 31
0.0
  0
LINE
  5
86F8
  8
0
 10
42.86872189623887
 20
211.5707461200029
 30
0.0
 11
42.53436654623886
 21
211.5707461200029
 31
0.0
  0
LINE
  5
86F9
  8
0
 10
42.53436654623886
 20
211.5707461200029
 30
0.0
 11
42.53436654623886
 21
211.2367612700029
 31
0.0
  0
LINE
  5
86FA
  8
0
 10
43.20193154623885
 20
211.2367612700029
 30
0.0
 11
44.20351654623886
 21
211.2367612700029
 31
0.0
  0
LINE
  5
86FB
  8
0
 10
44.20351654623886
 20
211.2367612700029
 30
0.0
 11
44.20351654623886
 21
211.5707461200029
 31
0.0
  0
LINE
  5
86FC
  8
0
 10
44.20351654623886
 20
211.5707461200029
 30
0.0
 11
43.20193154623885
 21
211.5707461200029
 31
0.0
  0
LINE
  5
86FD
  8
0
 10
43.20193154623885
 20
211.5707461200029
 30
0.0
 11
43.20193154623885
 21
211.2367612700029
 31
0.0
  0
LINE
  5
86FE
  8
0
 10
44.53744154623885
 20
211.2367612700029
 30
0.0
 11
44.87142544623885
 21
211.2367612700029
 31
0.0
  0
LINE
  5
86FF
  8
0
 10
44.87142544623885
 20
211.2367612700029
 30
0.0
 11
44.87142544623885
 21
211.5707461200029
 31
0.0
  0
LINE
  5
8700
  8
0
 10
44.87142544623885
 20
211.5707461200029
 30
0.0
 11
44.53744154623885
 21
211.5707461200029
 31
0.0
  0
LINE
  5
8701
  8
0
 10
44.53744154623885
 20
211.5707461200029
 30
0.0
 11
44.53744154623885
 21
211.2367612700029
 31
0.0
  0
LINE
  5
8702
  8
0
 10
45.53874154623884
 20
211.2367612700029
 30
0.0
 11
45.87272639623885
 21
211.2367612700029
 31
0.0
  0
LINE
  5
8703
  8
0
 10
45.87272639623885
 20
211.2367612700029
 30
0.0
 11
45.87272639623885
 21
211.5707461200029
 31
0.0
  0
LINE
  5
8704
  8
0
 10
45.87272639623885
 20
211.5707461200029
 30
0.0
 11
45.53874154623884
 21
211.5707461200029
 31
0.0
  0
LINE
  5
8705
  8
0
 10
45.53874154623884
 20
211.5707461200029
 30
0.0
 11
45.53874154623884
 21
211.2367612700029
 31
0.0
  0
LINE
  5
8706
  8
0
 10
46.20592654623886
 20
211.2367612700029
 30
0.0
 11
47.20751154623886
 21
211.2367612700029
 31
0.0
  0
LINE
  5
8707
  8
0
 10
47.20751154623886
 20
211.2367612700029
 30
0.0
 11
47.20751154623886
 21
211.5707461200029
 31
0.0
  0
LINE
  5
8708
  8
0
 10
47.20751154623886
 20
211.5707461200029
 30
0.0
 11
46.20592654623886
 21
211.5707461200029
 31
0.0
  0
LINE
  5
8709
  8
0
 10
46.20592654623886
 20
211.5707461200029
 30
0.0
 11
46.20592654623886
 21
211.2367612700029
 31
0.0
  0
LINE
  5
870A
  8
0
 10
47.54153154623887
 20
211.2367612700029
 30
0.0
 11
47.87588689623888
 21
211.2367612700029
 31
0.0
  0
LINE
  5
870B
  8
0
 10
47.87588689623888
 20
211.2367612700029
 30
0.0
 11
47.87588689623888
 21
211.5707461200029
 31
0.0
  0
LINE
  5
870C
  8
0
 10
47.87588689623888
 20
211.5707461200029
 30
0.0
 11
47.54153154623887
 21
211.5707461200029
 31
0.0
  0
LINE
  5
870D
  8
0
 10
47.54153154623887
 20
211.5707461200029
 30
0.0
 11
47.54153154623887
 21
211.2367612700029
 31
0.0
  0
LINE
  5
870E
  8
0
 10
48.20909654623887
 20
211.2367612700029
 30
0.0
 11
48.87669384623885
 21
211.2367612700029
 31
0.0
  0
LINE
  5
870F
  8
0
 10
48.87669384623885
 20
211.2367612700029
 30
0.0
 11
48.87669384623885
 21
211.5707461200029
 31
0.0
  0
LINE
  5
8710
  8
0
 10
48.87669384623885
 20
211.5707461200029
 30
0.0
 11
48.20909654623887
 21
211.5707461200029
 31
0.0
  0
LINE
  5
8711
  8
0
 10
48.20909654623887
 20
211.5707461200029
 30
0.0
 11
48.20909654623887
 21
211.2367612700029
 31
0.0
  0
LINE
  5
8712
  8
0
 10
50.21150654623887
 20
211.2367612700029
 30
0.0
 11
50.54586189623888
 21
211.2367612700029
 31
0.0
  0
LINE
  5
8713
  8
0
 10
50.54586189623888
 20
211.2367612700029
 30
0.0
 11
50.54586189623888
 21
211.5707461200029
 31
0.0
  0
LINE
  5
8714
  8
0
 10
50.54586189623888
 20
211.5707461200029
 30
0.0
 11
50.21150654623887
 21
211.5707461200029
 31
0.0
  0
LINE
  5
8715
  8
0
 10
50.21150654623887
 20
211.5707461200029
 30
0.0
 11
50.21150654623887
 21
211.2367612700029
 31
0.0
  0
LINE
  5
8716
  8
0
 10
51.88065654623887
 20
211.2367612700029
 30
0.0
 11
52.88224154623884
 21
211.2367612700029
 31
0.0
  0
LINE
  5
8717
  8
0
 10
42.53436654623886
 20
210.9031212700029
 30
0.0
 11
42.86872189623887
 21
210.9031212700029
 31
0.0
  0
LINE
  5
8718
  8
0
 10
42.86872189623887
 20
210.9031212700029
 30
0.0
 11
42.86872189623887
 21
211.2371061200029
 31
0.0
  0
LINE
  5
8719
  8
0
 10
42.86872189623887
 20
211.2371061200029
 30
0.0
 11
42.53436654623886
 21
211.2371061200029
 31
0.0
  0
LINE
  5
871A
  8
0
 10
42.53436654623886
 20
211.2371061200029
 30
0.0
 11
42.53436654623886
 21
210.9031212700029
 31
0.0
  0
LINE
  5
871B
  8
0
 10
44.53744154623885
 20
210.9031212700029
 30
0.0
 11
44.87142544623885
 21
210.9031212700029
 31
0.0
  0
LINE
  5
871C
  8
0
 10
44.87142544623885
 20
210.9031212700029
 30
0.0
 11
44.87142544623885
 21
211.2371061200029
 31
0.0
  0
LINE
  5
871D
  8
0
 10
44.87142544623885
 20
211.2371061200029
 30
0.0
 11
44.53744154623885
 21
211.2371061200029
 31
0.0
  0
LINE
  5
871E
  8
0
 10
44.53744154623885
 20
211.2371061200029
 30
0.0
 11
44.53744154623885
 21
210.9031212700029
 31
0.0
  0
LINE
  5
871F
  8
0
 10
46.87349154623885
 20
210.9031212700029
 30
0.0
 11
47.54108979623888
 21
210.9031212700029
 31
0.0
  0
LINE
  5
8720
  8
0
 10
47.54108979623888
 20
210.9031212700029
 30
0.0
 11
47.54108979623888
 21
211.2371061200029
 31
0.0
  0
LINE
  5
8721
  8
0
 10
47.54108979623888
 20
211.2371061200029
 30
0.0
 11
46.87349154623885
 21
211.2371061200029
 31
0.0
  0
LINE
  5
8722
  8
0
 10
46.87349154623885
 20
211.2371061200029
 30
0.0
 11
46.87349154623885
 21
210.9031212700029
 31
0.0
  0
LINE
  5
8723
  8
0
 10
47.87507654623886
 20
210.9031212700029
 30
0.0
 11
48.20906139623887
 21
210.9031212700029
 31
0.0
  0
LINE
  5
8724
  8
0
 10
48.20906139623887
 20
210.9031212700029
 30
0.0
 11
48.20906139623887
 21
211.2371061200029
 31
0.0
  0
LINE
  5
8725
  8
0
 10
48.20906139623887
 20
211.2371061200029
 30
0.0
 11
47.87507654623886
 21
211.2371061200029
 31
0.0
  0
LINE
  5
8726
  8
0
 10
47.87507654623886
 20
211.2371061200029
 30
0.0
 11
47.87507654623886
 21
210.9031212700029
 31
0.0
  0
LINE
  5
8727
  8
0
 10
48.54273654623887
 20
210.9031212700029
 30
0.0
 11
48.87672139623885
 21
210.9031212700029
 31
0.0
  0
LINE
  5
8728
  8
0
 10
48.87672139623885
 20
210.9031212700029
 30
0.0
 11
48.87672139623885
 21
211.2371061200029
 31
0.0
  0
LINE
  5
8729
  8
0
 10
48.87672139623885
 20
211.2371061200029
 30
0.0
 11
48.54273654623887
 21
211.2371061200029
 31
0.0
  0
LINE
  5
872A
  8
0
 10
48.54273654623887
 20
211.2371061200029
 30
0.0
 11
48.54273654623887
 21
210.9031212700029
 31
0.0
  0
LINE
  5
872B
  8
0
 10
49.20992154623886
 20
210.9031212700029
 30
0.0
 11
49.54427689623887
 21
210.9031212700029
 31
0.0
  0
LINE
  5
872C
  8
0
 10
49.54427689623887
 20
210.9031212700029
 30
0.0
 11
49.54427689623887
 21
211.2371061200029
 31
0.0
  0
LINE
  5
872D
  8
0
 10
49.54427689623887
 20
211.2371061200029
 30
0.0
 11
49.20992154623886
 21
211.2371061200029
 31
0.0
  0
LINE
  5
872E
  8
0
 10
49.20992154623886
 20
211.2371061200029
 30
0.0
 11
49.20992154623886
 21
210.9031212700029
 31
0.0
  0
LINE
  5
872F
  8
0
 10
51.54707544623886
 20
210.9030851700029
 30
0.0
 11
51.54707544623886
 21
212.5722712700029
 31
0.0
  0
LINE
  5
8730
  8
0
 10
53.21550154623887
 20
212.5722712700029
 30
0.0
 11
53.21550154623887
 21
210.9030851700029
 31
0.0
  0
LINE
  5
8731
  8
0
 10
42.53436654623886
 20
210.5691012700029
 30
0.0
 11
44.87114804623889
 21
210.5691012700029
 31
0.0
  0
LINE
  5
8732
  8
0
 10
44.87114804623889
 20
210.5691012700029
 30
0.0
 11
44.87114804623889
 21
210.9030851700029
 31
0.0
  0
LINE
  5
8733
  8
0
 10
44.87114804623889
 20
210.9030851700029
 30
0.0
 11
42.53436654623886
 21
210.9030851700029
 31
0.0
  0
LINE
  5
8734
  8
0
 10
42.53436654623886
 20
210.9030851700029
 30
0.0
 11
42.53436654623886
 21
210.5691012700029
 31
0.0
  0
LINE
  5
8735
  8
0
 10
45.20510154623886
 20
210.5691012700029
 30
0.0
 11
45.53908639623887
 21
210.5691012700029
 31
0.0
  0
LINE
  5
8736
  8
0
 10
45.53908639623887
 20
210.5691012700029
 30
0.0
 11
45.53908639623887
 21
210.9030851700029
 31
0.0
  0
LINE
  5
8737
  8
0
 10
45.53908639623887
 20
210.9030851700029
 30
0.0
 11
45.20510154623886
 21
210.9030851700029
 31
0.0
  0
LINE
  5
8738
  8
0
 10
45.20510154623886
 20
210.9030851700029
 30
0.0
 11
45.20510154623886
 21
210.5691012700029
 31
0.0
  0
LINE
  5
8739
  8
0
 10
45.87266654623886
 20
210.5691012700029
 30
0.0
 11
46.20665044623888
 21
210.5691012700029
 31
0.0
  0
LINE
  5
873A
  8
0
 10
46.20665044623888
 20
210.5691012700029
 30
0.0
 11
46.20665044623888
 21
210.9030851700029
 31
0.0
  0
LINE
  5
873B
  8
0
 10
46.20665044623888
 20
210.9030851700029
 30
0.0
 11
45.87266654623886
 21
210.9030851700029
 31
0.0
  0
LINE
  5
873C
  8
0
 10
45.87266654623886
 20
210.9030851700029
 30
0.0
 11
45.87266654623886
 21
210.5691012700029
 31
0.0
  0
LINE
  5
873D
  8
0
 10
46.54032654623887
 20
210.5691012700029
 30
0.0
 11
46.87431044623887
 21
210.5691012700029
 31
0.0
  0
LINE
  5
873E
  8
0
 10
46.87431044623887
 20
210.5691012700029
 30
0.0
 11
46.87431044623887
 21
210.9030851700029
 31
0.0
  0
LINE
  5
873F
  8
0
 10
46.87431044623887
 20
210.9030851700029
 30
0.0
 11
46.54032654623887
 21
210.9030851700029
 31
0.0
  0
LINE
  5
8740
  8
0
 10
46.54032654623887
 20
210.9030851700029
 30
0.0
 11
46.54032654623887
 21
210.5691012700029
 31
0.0
  0
LINE
  5
8741
  8
0
 10
47.20751154623886
 20
210.5691012700029
 30
0.0
 11
47.54149544623888
 21
210.5691012700029
 31
0.0
  0
LINE
  5
8742
  8
0
 10
47.54149544623888
 20
210.5691012700029
 30
0.0
 11
47.54149544623888
 21
210.9030851700029
 31
0.0
  0
LINE
  5
8743
  8
0
 10
47.54149544623888
 20
210.9030851700029
 30
0.0
 11
47.20751154623886
 21
210.9030851700029
 31
0.0
  0
LINE
  5
8744
  8
0
 10
47.20751154623886
 20
210.9030851700029
 30
0.0
 11
47.20751154623886
 21
210.5691012700029
 31
0.0
  0
LINE
  5
8745
  8
0
 10
47.87507654623886
 20
210.5691012700029
 30
0.0
 11
48.20906139623887
 21
210.5691012700029
 31
0.0
  0
LINE
  5
8746
  8
0
 10
48.20906139623887
 20
210.5691012700029
 30
0.0
 11
48.20906139623887
 21
210.9030851700029
 31
0.0
  0
LINE
  5
8747
  8
0
 10
48.20906139623887
 20
210.9030851700029
 30
0.0
 11
47.87507654623886
 21
210.9030851700029
 31
0.0
  0
LINE
  5
8748
  8
0
 10
47.87507654623886
 20
210.9030851700029
 30
0.0
 11
47.87507654623886
 21
210.5691012700029
 31
0.0
  0
LINE
  5
8749
  8
0
 10
48.54273654623887
 20
210.5691012700029
 30
0.0
 11
48.87672139623885
 21
210.5691012700029
 31
0.0
  0
LINE
  5
874A
  8
0
 10
48.87672139623885
 20
210.5691012700029
 30
0.0
 11
48.87672139623885
 21
210.9030851700029
 31
0.0
  0
LINE
  5
874B
  8
0
 10
48.87672139623885
 20
210.9030851700029
 30
0.0
 11
48.54273654623887
 21
210.9030851700029
 31
0.0
  0
LINE
  5
874C
  8
0
 10
48.54273654623887
 20
210.9030851700029
 30
0.0
 11
48.54273654623887
 21
210.5691012700029
 31
0.0
  0
LINE
  5
874D
  8
0
 10
49.20992154623886
 20
210.5691012700029
 30
0.0
 11
49.54427689623887
 21
210.5691012700029
 31
0.0
  0
LINE
  5
874E
  8
0
 10
49.54427689623887
 20
210.5691012700029
 30
0.0
 11
49.54427689623887
 21
210.9030851700029
 31
0.0
  0
LINE
  5
874F
  8
0
 10
49.54427689623887
 20
210.9030851700029
 30
0.0
 11
49.20992154623886
 21
210.9030851700029
 31
0.0
  0
LINE
  5
8750
  8
0
 10
49.20992154623886
 20
210.9030851700029
 30
0.0
 11
49.20992154623886
 21
210.5691012700029
 31
0.0
  0
LINE
  5
8751
  8
0
 10
49.87748654623886
 20
210.5691012700029
 30
0.0
 11
50.21147044623888
 21
210.5691012700029
 31
0.0
  0
LINE
  5
8752
  8
0
 10
50.21147044623888
 20
210.5691012700029
 30
0.0
 11
50.21147044623888
 21
210.9030851700029
 31
0.0
  0
LINE
  5
8753
  8
0
 10
50.21147044623888
 20
210.9030851700029
 30
0.0
 11
49.87748654623886
 21
210.9030851700029
 31
0.0
  0
LINE
  5
8754
  8
0
 10
49.87748654623886
 20
210.9030851700029
 30
0.0
 11
49.87748654623886
 21
210.5691012700029
 31
0.0
  0
LINE
  5
8755
  8
0
 10
50.54590654623885
 20
210.5691012700029
 30
0.0
 11
50.87989139623886
 21
210.5691012700029
 31
0.0
  0
LINE
  5
8756
  8
0
 10
50.87989139623886
 20
210.5691012700029
 30
0.0
 11
50.87989139623886
 21
210.9030851700029
 31
0.0
  0
LINE
  5
8757
  8
0
 10
50.87989139623886
 20
210.9030851700029
 30
0.0
 11
50.54590654623885
 21
210.9030851700029
 31
0.0
  0
LINE
  5
8758
  8
0
 10
50.54590654623885
 20
210.9030851700029
 30
0.0
 11
50.54590654623885
 21
210.5691012700029
 31
0.0
  0
LINE
  5
8759
  8
0
 10
51.21309154623887
 20
210.5691012700029
 30
0.0
 11
53.54987304623887
 21
210.5691012700029
 31
0.0
  0
LINE
  5
875A
  8
0
 10
53.21550154623887
 20
210.9030851700029
 30
0.0
 11
51.54707544623886
 21
210.9030851700029
 31
0.0
  0
LINE
  5
875B
  8
0
 10
45.20510154623886
 20
210.2359362700029
 30
0.0
 11
45.53908639623887
 21
210.2359362700029
 31
0.0
  0
LINE
  5
875C
  8
0
 10
45.53908639623887
 20
210.2359362700029
 30
0.0
 11
45.53908639623887
 21
210.5699201700029
 31
0.0
  0
LINE
  5
875D
  8
0
 10
45.53908639623887
 20
210.5699201700029
 30
0.0
 11
45.20510154623886
 21
210.5699201700029
 31
0.0
  0
LINE
  5
875E
  8
0
 10
45.20510154623886
 20
210.5699201700029
 30
0.0
 11
45.20510154623886
 21
210.2359362700029
 31
0.0
  0
LINE
  5
875F
  8
0
 10
46.54032654623887
 20
210.2359362700029
 30
0.0
 11
46.87431044623887
 21
210.2359362700029
 31
0.0
  0
LINE
  5
8760
  8
0
 10
46.87431044623887
 20
210.2359362700029
 30
0.0
 11
46.87431044623887
 21
210.5699201700029
 31
0.0
  0
LINE
  5
8761
  8
0
 10
46.87431044623887
 20
210.5699201700029
 30
0.0
 11
46.54032654623887
 21
210.5699201700029
 31
0.0
  0
LINE
  5
8762
  8
0
 10
46.54032654623887
 20
210.5699201700029
 30
0.0
 11
46.54032654623887
 21
210.2359362700029
 31
0.0
  0
LINE
  5
8763
  8
0
 10
47.20751154623886
 20
210.2359362700029
 30
0.0
 11
47.54149544623888
 21
210.2359362700029
 31
0.0
  0
LINE
  5
8764
  8
0
 10
47.54149544623888
 20
210.2359362700029
 30
0.0
 11
47.54149544623888
 21
210.5699201700029
 31
0.0
  0
LINE
  5
8765
  8
0
 10
47.54149544623888
 20
210.5699201700029
 30
0.0
 11
47.20751154623886
 21
210.5699201700029
 31
0.0
  0
LINE
  5
8766
  8
0
 10
47.20751154623886
 20
210.5699201700029
 30
0.0
 11
47.20751154623886
 21
210.2359362700029
 31
0.0
  0
LINE
  5
8767
  8
0
 10
49.87748654623886
 20
210.2359362700029
 30
0.0
 11
50.21147044623888
 21
210.2359362700029
 31
0.0
  0
LINE
  5
8768
  8
0
 10
50.21147044623888
 20
210.2359362700029
 30
0.0
 11
50.21147044623888
 21
210.5699201700029
 31
0.0
  0
LINE
  5
8769
  8
0
 10
50.21147044623888
 20
210.5699201700029
 30
0.0
 11
49.87748654623886
 21
210.5699201700029
 31
0.0
  0
LINE
  5
876A
  8
0
 10
49.87748654623886
 20
210.5699201700029
 30
0.0
 11
49.87748654623886
 21
210.2359362700029
 31
0.0
  0
LINE
  5
876B
  8
0
 10
50.54590654623885
 20
210.2359362700029
 30
0.0
 11
50.87989139623886
 21
210.2359362700029
 31
0.0
  0
LINE
  5
876C
  8
0
 10
50.87989139623886
 20
210.2359362700029
 30
0.0
 11
50.87989139623886
 21
210.5699201700029
 31
0.0
  0
LINE
  5
876D
  8
0
 10
50.87989139623886
 20
210.5699201700029
 30
0.0
 11
50.54590654623885
 21
210.5699201700029
 31
0.0
  0
LINE
  5
876E
  8
0
 10
50.54590654623885
 20
210.5699201700029
 30
0.0
 11
50.54590654623885
 21
210.2359362700029
 31
0.0
  0
LINE
  5
876F
  8
0
 10
42.53436654623886
 20
209.9015362700029
 30
0.0
 11
42.86872189623887
 21
209.9015362700029
 31
0.0
  0
LINE
  5
8770
  8
0
 10
42.86872189623887
 20
209.9015362700029
 30
0.0
 11
42.86872189623887
 21
210.2358916200029
 31
0.0
  0
LINE
  5
8771
  8
0
 10
42.86872189623887
 20
210.2358916200029
 30
0.0
 11
42.53436654623886
 21
210.2358916200029
 31
0.0
  0
LINE
  5
8772
  8
0
 10
42.53436654623886
 20
210.2358916200029
 30
0.0
 11
42.53436654623886
 21
209.9015362700029
 31
0.0
  0
LINE
  5
8773
  8
0
 10
44.53744154623885
 20
209.9015362700029
 30
0.0
 11
44.87142544623885
 21
209.9015362700029
 31
0.0
  0
LINE
  5
8774
  8
0
 10
44.87142544623885
 20
209.9015362700029
 30
0.0
 11
44.87142544623885
 21
210.2358916200029
 31
0.0
  0
LINE
  5
8775
  8
0
 10
44.87142544623885
 20
210.2358916200029
 30
0.0
 11
44.53744154623885
 21
210.2358916200029
 31
0.0
  0
LINE
  5
8776
  8
0
 10
44.53744154623885
 20
210.2358916200029
 30
0.0
 11
44.53744154623885
 21
209.9015362700029
 31
0.0
  0
LINE
  5
8777
  8
0
 10
45.20510154623886
 20
209.9015362700029
 30
0.0
 11
46.20668654623887
 21
209.9015362700029
 31
0.0
  0
LINE
  5
8778
  8
0
 10
46.20668654623887
 20
209.9015362700029
 30
0.0
 11
46.20668654623887
 21
210.2358916200029
 31
0.0
  0
LINE
  5
8779
  8
0
 10
46.20668654623887
 20
210.2358916200029
 30
0.0
 11
45.20510154623886
 21
210.2358916200029
 31
0.0
  0
LINE
  5
877A
  8
0
 10
45.20510154623886
 20
210.2358916200029
 30
0.0
 11
45.20510154623886
 21
209.9015362700029
 31
0.0
  0
LINE
  5
877B
  8
0
 10
46.87349154623885
 20
209.9015362700029
 30
0.0
 11
48.54267004623887
 21
209.9015362700029
 31
0.0
  0
LINE
  5
877C
  8
0
 10
48.54267004623887
 20
209.9015362700029
 30
0.0
 11
48.54267004623887
 21
210.2358916200029
 31
0.0
  0
LINE
  5
877D
  8
0
 10
48.54267004623887
 20
210.2358916200029
 30
0.0
 11
46.87349154623885
 21
210.2358916200029
 31
0.0
  0
LINE
  5
877E
  8
0
 10
46.87349154623885
 20
210.2358916200029
 30
0.0
 11
46.87349154623885
 21
209.9015362700029
 31
0.0
  0
LINE
  5
877F
  8
0
 10
49.87748654623886
 20
209.9015362700029
 30
0.0
 11
50.21147044623888
 21
209.9015362700029
 31
0.0
  0
LINE
  5
8780
  8
0
 10
50.21147044623888
 20
209.9015362700029
 30
0.0
 11
50.21147044623888
 21
210.2358916200029
 31
0.0
  0
LINE
  5
8781
  8
0
 10
50.21147044623888
 20
210.2358916200029
 30
0.0
 11
49.87748654623886
 21
210.2358916200029
 31
0.0
  0
LINE
  5
8782
  8
0
 10
49.87748654623886
 20
210.2358916200029
 30
0.0
 11
49.87748654623886
 21
209.9015362700029
 31
0.0
  0
LINE
  5
8783
  8
0
 10
50.54590654623885
 20
209.9015362700029
 30
0.0
 11
51.54712104623886
 21
209.9015362700029
 31
0.0
  0
LINE
  5
8784
  8
0
 10
51.54712104623886
 20
209.9015362700029
 30
0.0
 11
51.54712104623886
 21
210.2358916200029
 31
0.0
  0
LINE
  5
8785
  8
0
 10
51.54712104623886
 20
210.2358916200029
 30
0.0
 11
50.54590654623885
 21
210.2358916200029
 31
0.0
  0
LINE
  5
8786
  8
0
 10
50.54590654623885
 20
210.2358916200029
 30
0.0
 11
50.54590654623885
 21
209.9015362700029
 31
0.0
  0
LINE
  5
8787
  8
0
 10
52.21391654623886
 20
209.9015362700029
 30
0.0
 11
53.21550154623887
 21
209.9015362700029
 31
0.0
  0
LINE
  5
8788
  8
0
 10
53.21550154623887
 20
209.9015362700029
 30
0.0
 11
53.21550154623887
 21
210.2358916200029
 31
0.0
  0
LINE
  5
8789
  8
0
 10
53.21550154623887
 20
210.2358916200029
 30
0.0
 11
52.21391654623886
 21
210.2358916200029
 31
0.0
  0
LINE
  5
878A
  8
0
 10
52.21391654623886
 20
210.2358916200029
 30
0.0
 11
52.21391654623886
 21
209.9015362700029
 31
0.0
  0
LINE
  5
878B
  8
0
 10
42.53436654623886
 20
209.5682762700029
 30
0.0
 11
42.86872189623887
 21
209.5682762700029
 31
0.0
  0
LINE
  5
878C
  8
0
 10
42.86872189623887
 20
209.5682762700029
 30
0.0
 11
42.86872189623887
 21
209.9022611200029
 31
0.0
  0
LINE
  5
878D
  8
0
 10
42.86872189623887
 20
209.9022611200029
 30
0.0
 11
42.53436654623886
 21
209.9022611200029
 31
0.0
  0
LINE
  5
878E
  8
0
 10
42.53436654623886
 20
209.9022611200029
 30
0.0
 11
42.53436654623886
 21
209.5682762700029
 31
0.0
  0
LINE
  5
878F
  8
0
 10
44.20351654623886
 20
209.5682762700029
 30
0.0
 11
44.53750139623887
 21
209.5682762700029
 31
0.0
  0
LINE
  5
8790
  8
0
 10
44.53750139623887
 20
209.5682762700029
 30
0.0
 11
44.53750139623887
 21
209.9022611200029
 31
0.0
  0
LINE
  5
8791
  8
0
 10
44.53750139623887
 20
209.9022611200029
 30
0.0
 11
44.20351654623886
 21
209.9022611200029
 31
0.0
  0
LINE
  5
8792
  8
0
 10
44.20351654623886
 20
209.9022611200029
 30
0.0
 11
44.20351654623886
 21
209.5682762700029
 31
0.0
  0
LINE
  5
8793
  8
0
 10
45.20510154623886
 20
209.5682762700029
 30
0.0
 11
45.53908639623887
 21
209.5682762700029
 31
0.0
  0
LINE
  5
8794
  8
0
 10
45.53908639623887
 20
209.5682762700029
 30
0.0
 11
45.53908639623887
 21
209.9022611200029
 31
0.0
  0
LINE
  5
8795
  8
0
 10
45.53908639623887
 20
209.9022611200029
 30
0.0
 11
45.20510154623886
 21
209.9022611200029
 31
0.0
  0
LINE
  5
8796
  8
0
 10
45.20510154623886
 20
209.9022611200029
 30
0.0
 11
45.20510154623886
 21
209.5682762700029
 31
0.0
  0
LINE
  5
8797
  8
0
 10
45.87266654623886
 20
209.5682762700029
 30
0.0
 11
46.87388104623886
 21
209.5682762700029
 31
0.0
  0
LINE
  5
8798
  8
0
 10
46.87388104623886
 20
209.5682762700029
 30
0.0
 11
46.87388104623886
 21
209.9022611200029
 31
0.0
  0
LINE
  5
8799
  8
0
 10
46.87388104623886
 20
209.9022611200029
 30
0.0
 11
45.87266654623886
 21
209.9022611200029
 31
0.0
  0
LINE
  5
879A
  8
0
 10
45.87266654623886
 20
209.9022611200029
 30
0.0
 11
45.87266654623886
 21
209.5682762700029
 31
0.0
  0
LINE
  5
879B
  8
0
 10
47.54153154623887
 20
209.5682762700029
 30
0.0
 11
47.87588689623888
 21
209.5682762700029
 31
0.0
  0
LINE
  5
879C
  8
0
 10
47.87588689623888
 20
209.5682762700029
 30
0.0
 11
47.87588689623888
 21
209.9022611200029
 31
0.0
  0
LINE
  5
879D
  8
0
 10
47.87588689623888
 20
209.9022611200029
 30
0.0
 11
47.54153154623887
 21
209.9022611200029
 31
0.0
  0
LINE
  5
879E
  8
0
 10
47.54153154623887
 20
209.9022611200029
 30
0.0
 11
47.54153154623887
 21
209.5682762700029
 31
0.0
  0
LINE
  5
879F
  8
0
 10
48.54273654623887
 20
209.5682762700029
 30
0.0
 11
49.20996334623888
 21
209.5682762700029
 31
0.0
  0
LINE
  5
87A0
  8
0
 10
49.20996334623888
 20
209.5682762700029
 30
0.0
 11
49.20996334623888
 21
209.9022611200029
 31
0.0
  0
LINE
  5
87A1
  8
0
 10
49.20996334623888
 20
209.9022611200029
 30
0.0
 11
48.54273654623887
 21
209.9022611200029
 31
0.0
  0
LINE
  5
87A2
  8
0
 10
48.54273654623887
 20
209.9022611200029
 30
0.0
 11
48.54273654623887
 21
209.5682762700029
 31
0.0
  0
LINE
  5
87A3
  8
0
 10
49.54432154623885
 20
209.5682762700029
 30
0.0
 11
50.54590654623885
 21
209.5682762700029
 31
0.0
  0
LINE
  5
87A4
  8
0
 10
50.54590654623885
 20
209.5682762700029
 30
0.0
 11
50.54590654623885
 21
209.9022611200029
 31
0.0
  0
LINE
  5
87A5
  8
0
 10
50.54590654623885
 20
209.9022611200029
 30
0.0
 11
49.54432154623885
 21
209.9022611200029
 31
0.0
  0
LINE
  5
87A6
  8
0
 10
49.54432154623885
 20
209.9022611200029
 30
0.0
 11
49.54432154623885
 21
209.5682762700029
 31
0.0
  0
LINE
  5
87A7
  8
0
 10
51.88065654623887
 20
209.5682762700029
 30
0.0
 11
52.88224154623884
 21
209.5682762700029
 31
0.0
  0
LINE
  5
87A8
  8
0
 10
52.88224154623884
 20
209.5682762700029
 30
0.0
 11
52.88224154623884
 21
209.9022611200029
 31
0.0
  0
LINE
  5
87A9
  8
0
 10
52.88224154623884
 20
209.9022611200029
 30
0.0
 11
51.88065654623887
 21
209.9022611200029
 31
0.0
  0
LINE
  5
87AA
  8
0
 10
51.88065654623887
 20
209.9022611200029
 30
0.0
 11
51.88065654623887
 21
209.5682762700029
 31
0.0
  0
LINE
  5
87AB
  8
0
 10
43.20193154623885
 20
209.2343512700029
 30
0.0
 11
43.53628784623885
 21
209.2343512700029
 31
0.0
  0
LINE
  5
87AC
  8
0
 10
43.53628784623885
 20
209.2343512700029
 30
0.0
 11
43.53628784623885
 21
209.5683351700029
 31
0.0
  0
LINE
  5
87AD
  8
0
 10
43.53628784623885
 20
209.5683351700029
 30
0.0
 11
43.20193154623885
 21
209.5683351700029
 31
0.0
  0
LINE
  5
87AE
  8
0
 10
43.20193154623885
 20
209.5683351700029
 30
0.0
 11
43.20193154623885
 21
209.2343512700029
 31
0.0
  0
LINE
  5
87AF
  8
0
 10
43.86949654623888
 20
209.2343512700029
 30
0.0
 11
45.20469304623884
 21
209.2343512700029
 31
0.0
  0
LINE
  5
87B0
  8
0
 10
45.20469304623884
 20
209.2343512700029
 30
0.0
 11
45.20469304623884
 21
209.5683351700029
 31
0.0
  0
LINE
  5
87B1
  8
0
 10
45.20469304623884
 20
209.5683351700029
 30
0.0
 11
43.86949654623888
 21
209.5683351700029
 31
0.0
  0
LINE
  5
87B2
  8
0
 10
43.86949654623888
 20
209.5683351700029
 30
0.0
 11
43.86949654623888
 21
209.2343512700029
 31
0.0
  0
LINE
  5
87B3
  8
0
 10
45.53874154623884
 20
209.2343512700029
 30
0.0
 11
46.20596834623888
 21
209.2343512700029
 31
0.0
  0
LINE
  5
87B4
  8
0
 10
46.20596834623888
 20
209.2343512700029
 30
0.0
 11
46.20596834623888
 21
209.5683351700029
 31
0.0
  0
LINE
  5
87B5
  8
0
 10
46.20596834623888
 20
209.5683351700029
 30
0.0
 11
45.53874154623884
 21
209.5683351700029
 31
0.0
  0
LINE
  5
87B6
  8
0
 10
45.53874154623884
 20
209.5683351700029
 30
0.0
 11
45.53874154623884
 21
209.2343512700029
 31
0.0
  0
LINE
  5
87B7
  8
0
 10
46.54032654623887
 20
209.2343512700029
 30
0.0
 11
46.87431044623887
 21
209.2343512700029
 31
0.0
  0
LINE
  5
87B8
  8
0
 10
46.87431044623887
 20
209.2343512700029
 30
0.0
 11
46.87431044623887
 21
209.5683351700029
 31
0.0
  0
LINE
  5
87B9
  8
0
 10
46.87431044623887
 20
209.5683351700029
 30
0.0
 11
46.54032654623887
 21
209.5683351700029
 31
0.0
  0
LINE
  5
87BA
  8
0
 10
46.54032654623887
 20
209.5683351700029
 30
0.0
 11
46.54032654623887
 21
209.2343512700029
 31
0.0
  0
LINE
  5
87BB
  8
0
 10
47.54153154623887
 20
209.2343512700029
 30
0.0
 11
47.87588689623888
 21
209.2343512700029
 31
0.0
  0
LINE
  5
87BC
  8
0
 10
47.87588689623888
 20
209.2343512700029
 30
0.0
 11
47.87588689623888
 21
209.5683351700029
 31
0.0
  0
LINE
  5
87BD
  8
0
 10
47.87588689623888
 20
209.5683351700029
 30
0.0
 11
47.54153154623887
 21
209.5683351700029
 31
0.0
  0
LINE
  5
87BE
  8
0
 10
47.54153154623887
 20
209.5683351700029
 30
0.0
 11
47.54153154623887
 21
209.2343512700029
 31
0.0
  0
LINE
  5
87BF
  8
0
 10
48.54273654623887
 20
209.2343512700029
 30
0.0
 11
48.87672139623885
 21
209.2343512700029
 31
0.0
  0
LINE
  5
87C0
  8
0
 10
48.87672139623885
 20
209.2343512700029
 30
0.0
 11
48.87672139623885
 21
209.5683351700029
 31
0.0
  0
LINE
  5
87C1
  8
0
 10
48.87672139623885
 20
209.5683351700029
 30
0.0
 11
48.54273654623887
 21
209.5683351700029
 31
0.0
  0
LINE
  5
87C2
  8
0
 10
48.54273654623887
 20
209.5683351700029
 30
0.0
 11
48.54273654623887
 21
209.2343512700029
 31
0.0
  0
LINE
  5
87C3
  8
0
 10
49.20992154623886
 20
209.2343512700029
 30
0.0
 11
49.54427689623887
 21
209.2343512700029
 31
0.0
  0
LINE
  5
87C4
  8
0
 10
49.54427689623887
 20
209.2343512700029
 30
0.0
 11
49.54427689623887
 21
209.5683351700029
 31
0.0
  0
LINE
  5
87C5
  8
0
 10
49.54427689623887
 20
209.5683351700029
 30
0.0
 11
49.20992154623886
 21
209.5683351700029
 31
0.0
  0
LINE
  5
87C6
  8
0
 10
49.20992154623886
 20
209.5683351700029
 30
0.0
 11
49.20992154623886
 21
209.2343512700029
 31
0.0
  0
LINE
  5
87C7
  8
0
 10
49.87748654623886
 20
209.2343512700029
 30
0.0
 11
50.21147044623888
 21
209.2343512700029
 31
0.0
  0
LINE
  5
87C8
  8
0
 10
50.21147044623888
 20
209.2343512700029
 30
0.0
 11
50.21147044623888
 21
209.5683351700029
 31
0.0
  0
LINE
  5
87C9
  8
0
 10
50.21147044623888
 20
209.5683351700029
 30
0.0
 11
49.87748654623886
 21
209.5683351700029
 31
0.0
  0
LINE
  5
87CA
  8
0
 10
49.87748654623886
 20
209.5683351700029
 30
0.0
 11
49.87748654623886
 21
209.2343512700029
 31
0.0
  0
LINE
  5
87CB
  8
0
 10
50.54590654623885
 20
209.2343512700029
 30
0.0
 11
51.54712104623886
 21
209.2343512700029
 31
0.0
  0
LINE
  5
87CC
  8
0
 10
51.54712104623886
 20
209.2343512700029
 30
0.0
 11
51.54712104623886
 21
209.5683351700029
 31
0.0
  0
LINE
  5
87CD
  8
0
 10
51.54712104623886
 20
209.5683351700029
 30
0.0
 11
50.54590654623885
 21
209.5683351700029
 31
0.0
  0
LINE
  5
87CE
  8
0
 10
50.54590654623885
 20
209.5683351700029
 30
0.0
 11
50.54590654623885
 21
209.2343512700029
 31
0.0
  0
LINE
  5
87CF
  8
0
 10
51.88065654623887
 20
209.2343512700029
 30
0.0
 11
52.21464139623885
 21
209.2343512700029
 31
0.0
  0
LINE
  5
87D0
  8
0
 10
52.21464139623885
 20
209.2343512700029
 30
0.0
 11
52.21464139623885
 21
209.5683351700029
 31
0.0
  0
LINE
  5
87D1
  8
0
 10
52.21464139623885
 20
209.5683351700029
 30
0.0
 11
51.88065654623887
 21
209.5683351700029
 31
0.0
  0
LINE
  5
87D2
  8
0
 10
51.88065654623887
 20
209.5683351700029
 30
0.0
 11
51.88065654623887
 21
209.2343512700029
 31
0.0
  0
LINE
  5
87D3
  8
0
 10
52.54831654623885
 20
209.2343512700029
 30
0.0
 11
53.21554239623887
 21
209.2343512700029
 31
0.0
  0
LINE
  5
87D4
  8
0
 10
53.21554239623887
 20
209.2343512700029
 30
0.0
 11
53.21554239623887
 21
209.5683351700029
 31
0.0
  0
LINE
  5
87D5
  8
0
 10
53.21554239623887
 20
209.5683351700029
 30
0.0
 11
52.54831654623885
 21
209.5683351700029
 31
0.0
  0
LINE
  5
87D6
  8
0
 10
52.54831654623885
 20
209.5683351700029
 30
0.0
 11
52.54831654623885
 21
209.2343512700029
 31
0.0
  0
LINE
  5
87D7
  8
0
 10
42.53436654623886
 20
208.8999512700029
 30
0.0
 11
43.20196384623884
 21
208.8999512700029
 31
0.0
  0
LINE
  5
87D8
  8
0
 10
43.20196384623884
 20
208.8999512700029
 30
0.0
 11
43.20196384623884
 21
209.2343066200029
 31
0.0
  0
LINE
  5
87D9
  8
0
 10
43.20196384623884
 20
209.2343066200029
 30
0.0
 11
42.53436654623886
 21
209.2343066200029
 31
0.0
  0
LINE
  5
87DA
  8
0
 10
42.53436654623886
 20
209.2343066200029
 30
0.0
 11
42.53436654623886
 21
208.8999512700029
 31
0.0
  0
LINE
  5
87DB
  8
0
 10
43.53585654623888
 20
208.8999512700029
 30
0.0
 11
44.20345384623886
 21
208.8999512700029
 31
0.0
  0
LINE
  5
87DC
  8
0
 10
44.20345384623886
 20
208.8999512700029
 30
0.0
 11
44.20345384623886
 21
209.2343066200029
 31
0.0
  0
LINE
  5
87DD
  8
0
 10
44.20345384623886
 20
209.2343066200029
 30
0.0
 11
43.53585654623888
 21
209.2343066200029
 31
0.0
  0
LINE
  5
87DE
  8
0
 10
43.53585654623888
 20
209.2343066200029
 30
0.0
 11
43.53585654623888
 21
208.8999512700029
 31
0.0
  0
LINE
  5
87DF
  8
0
 10
44.87108154623886
 20
208.8999512700029
 30
0.0
 11
45.20506544623885
 21
208.8999512700029
 31
0.0
  0
LINE
  5
87E0
  8
0
 10
45.20506544623885
 20
208.8999512700029
 30
0.0
 11
45.20506544623885
 21
209.2343066200029
 31
0.0
  0
LINE
  5
87E1
  8
0
 10
45.20506544623885
 20
209.2343066200029
 30
0.0
 11
44.87108154623886
 21
209.2343066200029
 31
0.0
  0
LINE
  5
87E2
  8
0
 10
44.87108154623886
 20
209.2343066200029
 30
0.0
 11
44.87108154623886
 21
208.8999512700029
 31
0.0
  0
LINE
  5
87E3
  8
0
 10
45.87266654623886
 20
208.8999512700029
 30
0.0
 11
46.53989239623886
 21
208.8999512700029
 31
0.0
  0
LINE
  5
87E4
  8
0
 10
46.53989239623886
 20
208.8999512700029
 30
0.0
 11
46.53989239623886
 21
209.2343066200029
 31
0.0
  0
LINE
  5
87E5
  8
0
 10
46.53989239623886
 20
209.2343066200029
 30
0.0
 11
45.87266654623886
 21
209.2343066200029
 31
0.0
  0
LINE
  5
87E6
  8
0
 10
45.87266654623886
 20
209.2343066200029
 30
0.0
 11
45.87266654623886
 21
208.8999512700029
 31
0.0
  0
LINE
  5
87E7
  8
0
 10
47.20751154623886
 20
208.8999512700029
 30
0.0
 11
47.87510884623887
 21
208.8999512700029
 31
0.0
  0
LINE
  5
87E8
  8
0
 10
47.87510884623887
 20
208.8999512700029
 30
0.0
 11
47.87510884623887
 21
209.2343066200029
 31
0.0
  0
LINE
  5
87E9
  8
0
 10
47.87510884623887
 20
209.2343066200029
 30
0.0
 11
47.20751154623886
 21
209.2343066200029
 31
0.0
  0
LINE
  5
87EA
  8
0
 10
47.20751154623886
 20
209.2343066200029
 30
0.0
 11
47.20751154623886
 21
208.8999512700029
 31
0.0
  0
LINE
  5
87EB
  8
0
 10
48.87666154623886
 20
208.8999512700029
 30
0.0
 11
49.54425884623885
 21
208.8999512700029
 31
0.0
  0
LINE
  5
87EC
  8
0
 10
49.54425884623885
 20
208.8999512700029
 30
0.0
 11
49.54425884623885
 21
209.2343066200029
 31
0.0
  0
LINE
  5
87ED
  8
0
 10
49.54425884623885
 20
209.2343066200029
 30
0.0
 11
48.87666154623886
 21
209.2343066200029
 31
0.0
  0
LINE
  5
87EE
  8
0
 10
48.87666154623886
 20
209.2343066200029
 30
0.0
 11
48.87666154623886
 21
208.8999512700029
 31
0.0
  0
LINE
  5
87EF
  8
0
 10
49.87748654623886
 20
208.8999512700029
 30
0.0
 11
50.54508384623887
 21
208.8999512700029
 31
0.0
  0
LINE
  5
87F0
  8
0
 10
50.54508384623887
 20
208.8999512700029
 30
0.0
 11
50.54508384623887
 21
209.2343066200029
 31
0.0
  0
LINE
  5
87F1
  8
0
 10
50.54508384623887
 20
209.2343066200029
 30
0.0
 11
49.87748654623886
 21
209.2343066200029
 31
0.0
  0
LINE
  5
87F2
  8
0
 10
49.87748654623886
 20
209.2343066200029
 30
0.0
 11
49.87748654623886
 21
208.8999512700029
 31
0.0
  0
LINE
  5
87F3
  8
0
 10
50.87907154623886
 20
208.8999512700029
 30
0.0
 11
51.21305639623887
 21
208.8999512700029
 31
0.0
  0
LINE
  5
87F4
  8
0
 10
51.21305639623887
 20
208.8999512700029
 30
0.0
 11
51.21305639623887
 21
209.2343066200029
 31
0.0
  0
LINE
  5
87F5
  8
0
 10
51.21305639623887
 20
209.2343066200029
 30
0.0
 11
50.87907154623886
 21
209.2343066200029
 31
0.0
  0
LINE
  5
87F6
  8
0
 10
50.87907154623886
 20
209.2343066200029
 30
0.0
 11
50.87907154623886
 21
208.8999512700029
 31
0.0
  0
LINE
  5
87F7
  8
0
 10
51.54673154623885
 20
208.8999512700029
 30
0.0
 11
53.54915104623888
 21
208.8999512700029
 31
0.0
  0
LINE
  5
87F8
  8
0
 10
53.54915104623888
 20
208.8999512700029
 30
0.0
 11
53.54915104623888
 21
209.2343066200029
 31
0.0
  0
LINE
  5
87F9
  8
0
 10
53.54915104623888
 20
209.2343066200029
 30
0.0
 11
51.54673154623885
 21
209.2343066200029
 31
0.0
  0
LINE
  5
87FA
  8
0
 10
51.54673154623885
 20
209.2343066200029
 30
0.0
 11
51.54673154623885
 21
208.8999512700029
 31
0.0
  0
LINE
  5
87FB
  8
0
 10
42.86867154623886
 20
208.5666912700029
 30
0.0
 11
43.20265639623886
 21
208.5666912700029
 31
0.0
  0
LINE
  5
87FC
  8
0
 10
43.20265639623886
 20
208.5666912700029
 30
0.0
 11
43.20265639623886
 21
208.9006761200029
 31
0.0
  0
LINE
  5
87FD
  8
0
 10
43.20265639623886
 20
208.9006761200029
 30
0.0
 11
42.86867154623886
 21
208.9006761200029
 31
0.0
  0
LINE
  5
87FE
  8
0
 10
42.86867154623886
 20
208.9006761200029
 30
0.0
 11
42.86867154623886
 21
208.5666912700029
 31
0.0
  0
LINE
  5
87FF
  8
0
 10
43.53585654623888
 20
208.5666912700029
 30
0.0
 11
43.86984044623887
 21
208.5666912700029
 31
0.0
  0
LINE
  5
8800
  8
0
 10
43.86984044623887
 20
208.5666912700029
 30
0.0
 11
43.86984044623887
 21
208.9006761200029
 31
0.0
  0
LINE
  5
8801
  8
0
 10
43.86984044623887
 20
208.9006761200029
 30
0.0
 11
43.53585654623888
 21
208.9006761200029
 31
0.0
  0
LINE
  5
8802
  8
0
 10
43.53585654623888
 20
208.9006761200029
 30
0.0
 11
43.53585654623888
 21
208.5666912700029
 31
0.0
  0
LINE
  5
8803
  8
0
 10
44.53744154623885
 20
208.5666912700029
 30
0.0
 11
45.53902654623886
 21
208.5666912700029
 31
0.0
  0
LINE
  5
8804
  8
0
 10
45.53902654623886
 20
208.5666912700029
 30
0.0
 11
45.53902654623886
 21
208.9006761200029
 31
0.0
  0
LINE
  5
8805
  8
0
 10
45.53902654623886
 20
208.9006761200029
 30
0.0
 11
44.53744154623885
 21
208.9006761200029
 31
0.0
  0
LINE
  5
8806
  8
0
 10
44.53744154623885
 20
208.9006761200029
 30
0.0
 11
44.53744154623885
 21
208.5666912700029
 31
0.0
  0
LINE
  5
8807
  8
0
 10
46.87349154623885
 20
208.5666912700029
 30
0.0
 11
47.54108979623888
 21
208.5666912700029
 31
0.0
  0
LINE
  5
8808
  8
0
 10
47.54108979623888
 20
208.5666912700029
 30
0.0
 11
47.54108979623888
 21
208.9006761200029
 31
0.0
  0
LINE
  5
8809
  8
0
 10
47.54108979623888
 20
208.9006761200029
 30
0.0
 11
46.87349154623885
 21
208.9006761200029
 31
0.0
  0
LINE
  5
880A
  8
0
 10
46.87349154623885
 20
208.9006761200029
 30
0.0
 11
46.87349154623885
 21
208.5666912700029
 31
0.0
  0
LINE
  5
880B
  8
0
 10
47.87507654623886
 20
208.5666912700029
 30
0.0
 11
48.87666154623886
 21
208.5666912700029
 31
0.0
  0
LINE
  5
880C
  8
0
 10
48.87666154623886
 20
208.5666912700029
 30
0.0
 11
48.87666154623886
 21
208.9006761200029
 31
0.0
  0
LINE
  5
880D
  8
0
 10
48.87666154623886
 20
208.9006761200029
 30
0.0
 11
47.87507654623886
 21
208.9006761200029
 31
0.0
  0
LINE
  5
880E
  8
0
 10
47.87507654623886
 20
208.9006761200029
 30
0.0
 11
47.87507654623886
 21
208.5666912700029
 31
0.0
  0
LINE
  5
880F
  8
0
 10
49.20992154623886
 20
208.5666912700029
 30
0.0
 11
50.21150654623887
 21
208.5666912700029
 31
0.0
  0
LINE
  5
8810
  8
0
 10
50.21150654623887
 20
208.5666912700029
 30
0.0
 11
50.21150654623887
 21
208.9006761200029
 31
0.0
  0
LINE
  5
8811
  8
0
 10
50.21150654623887
 20
208.9006761200029
 30
0.0
 11
49.20992154623886
 21
208.9006761200029
 31
0.0
  0
LINE
  5
8812
  8
0
 10
49.20992154623886
 20
208.9006761200029
 30
0.0
 11
49.20992154623886
 21
208.5666912700029
 31
0.0
  0
LINE
  5
8813
  8
0
 10
50.54590654623885
 20
208.5666912700029
 30
0.0
 11
50.87989139623886
 21
208.5666912700029
 31
0.0
  0
LINE
  5
8814
  8
0
 10
50.87989139623886
 20
208.5666912700029
 30
0.0
 11
50.87989139623886
 21
208.9006761200029
 31
0.0
  0
LINE
  5
8815
  8
0
 10
50.87989139623886
 20
208.9006761200029
 30
0.0
 11
50.54590654623885
 21
208.9006761200029
 31
0.0
  0
LINE
  5
8816
  8
0
 10
50.54590654623885
 20
208.9006761200029
 30
0.0
 11
50.54590654623885
 21
208.5666912700029
 31
0.0
  0
LINE
  5
8817
  8
0
 10
51.21309154623887
 20
208.5666912700029
 30
0.0
 11
51.88068884623885
 21
208.5666912700029
 31
0.0
  0
LINE
  5
8818
  8
0
 10
51.88068884623885
 20
208.5666912700029
 30
0.0
 11
51.88068884623885
 21
208.9006761200029
 31
0.0
  0
LINE
  5
8819
  8
0
 10
51.88068884623885
 20
208.9006761200029
 30
0.0
 11
51.21309154623887
 21
208.9006761200029
 31
0.0
  0
LINE
  5
881A
  8
0
 10
51.21309154623887
 20
208.9006761200029
 30
0.0
 11
51.21309154623887
 21
208.5666912700029
 31
0.0
  0
LINE
  5
881B
  8
0
 10
42.53436654623886
 20
208.2327662700029
 30
0.0
 11
43.20196384623884
 21
208.2327662700029
 31
0.0
  0
LINE
  5
881C
  8
0
 10
43.20196384623884
 20
208.2327662700029
 30
0.0
 11
43.20196384623884
 21
208.5667501700029
 31
0.0
  0
LINE
  5
881D
  8
0
 10
43.20196384623884
 20
208.5667501700029
 30
0.0
 11
42.53436654623886
 21
208.5667501700029
 31
0.0
  0
LINE
  5
881E
  8
0
 10
42.53436654623886
 20
208.5667501700029
 30
0.0
 11
42.53436654623886
 21
208.2327662700029
 31
0.0
  0
LINE
  5
881F
  8
0
 10
43.53585654623888
 20
208.2327662700029
 30
0.0
 11
44.20345384623886
 21
208.2327662700029
 31
0.0
  0
LINE
  5
8820
  8
0
 10
44.20345384623886
 20
208.2327662700029
 30
0.0
 11
44.20345384623886
 21
208.5667501700029
 31
0.0
  0
LINE
  5
8821
  8
0
 10
44.20345384623886
 20
208.5667501700029
 30
0.0
 11
43.53585654623888
 21
208.5667501700029
 31
0.0
  0
LINE
  5
8822
  8
0
 10
43.53585654623888
 20
208.5667501700029
 30
0.0
 11
43.53585654623888
 21
208.2327662700029
 31
0.0
  0
LINE
  5
8823
  8
0
 10
44.87108154623886
 20
208.2327662700029
 30
0.0
 11
45.53867884623884
 21
208.2327662700029
 31
0.0
  0
LINE
  5
8824
  8
0
 10
45.53867884623884
 20
208.2327662700029
 30
0.0
 11
45.53867884623884
 21
208.5667501700029
 31
0.0
  0
LINE
  5
8825
  8
0
 10
45.53867884623884
 20
208.5667501700029
 30
0.0
 11
44.87108154623886
 21
208.5667501700029
 31
0.0
  0
LINE
  5
8826
  8
0
 10
44.87108154623886
 20
208.5667501700029
 30
0.0
 11
44.87108154623886
 21
208.2327662700029
 31
0.0
  0
LINE
  5
8827
  8
0
 10
46.20592654623886
 20
208.2327662700029
 30
0.0
 11
46.87352384623887
 21
208.2327662700029
 31
0.0
  0
LINE
  5
8828
  8
0
 10
46.87352384623887
 20
208.2327662700029
 30
0.0
 11
46.87352384623887
 21
208.5667501700029
 31
0.0
  0
LINE
  5
8829
  8
0
 10
46.87352384623887
 20
208.5667501700029
 30
0.0
 11
46.20592654623886
 21
208.5667501700029
 31
0.0
  0
LINE
  5
882A
  8
0
 10
46.20592654623886
 20
208.5667501700029
 30
0.0
 11
46.20592654623886
 21
208.2327662700029
 31
0.0
  0
LINE
  5
882B
  8
0
 10
47.20751154623886
 20
208.2327662700029
 30
0.0
 11
47.54149544623888
 21
208.2327662700029
 31
0.0
  0
LINE
  5
882C
  8
0
 10
47.54149544623888
 20
208.2327662700029
 30
0.0
 11
47.54149544623888
 21
208.5667501700029
 31
0.0
  0
LINE
  5
882D
  8
0
 10
47.54149544623888
 20
208.5667501700029
 30
0.0
 11
47.20751154623886
 21
208.5667501700029
 31
0.0
  0
LINE
  5
882E
  8
0
 10
47.20751154623886
 20
208.5667501700029
 30
0.0
 11
47.20751154623886
 21
208.2327662700029
 31
0.0
  0
LINE
  5
882F
  8
0
 10
47.87507654623886
 20
208.2327662700029
 30
0.0
 11
48.54267384623887
 21
208.2327662700029
 31
0.0
  0
LINE
  5
8830
  8
0
 10
48.54267384623887
 20
208.2327662700029
 30
0.0
 11
48.54267384623887
 21
208.5667501700029
 31
0.0
  0
LINE
  5
8831
  8
0
 10
48.54267384623887
 20
208.5667501700029
 30
0.0
 11
47.87507654623886
 21
208.5667501700029
 31
0.0
  0
LINE
  5
8832
  8
0
 10
47.87507654623886
 20
208.5667501700029
 30
0.0
 11
47.87507654623886
 21
208.2327662700029
 31
0.0
  0
LINE
  5
8833
  8
0
 10
49.20992154623886
 20
208.2327662700029
 30
0.0
 11
49.87751979623886
 21
208.2327662700029
 31
0.0
  0
LINE
  5
8834
  8
0
 10
49.87751979623886
 20
208.2327662700029
 30
0.0
 11
49.87751979623886
 21
208.5667501700029
 31
0.0
  0
LINE
  5
8835
  8
0
 10
49.87751979623886
 20
208.5667501700029
 30
0.0
 11
49.20992154623886
 21
208.5667501700029
 31
0.0
  0
LINE
  5
8836
  8
0
 10
49.20992154623886
 20
208.5667501700029
 30
0.0
 11
49.20992154623886
 21
208.2327662700029
 31
0.0
  0
LINE
  5
8837
  8
0
 10
50.21150654623887
 20
208.2327662700029
 30
0.0
 11
50.54586189623888
 21
208.2327662700029
 31
0.0
  0
LINE
  5
8838
  8
0
 10
50.54586189623888
 20
208.2327662700029
 30
0.0
 11
50.54586189623888
 21
208.5667501700029
 31
0.0
  0
LINE
  5
8839
  8
0
 10
50.54586189623888
 20
208.5667501700029
 30
0.0
 11
50.21150654623887
 21
208.5667501700029
 31
0.0
  0
LINE
  5
883A
  8
0
 10
50.21150654623887
 20
208.5667501700029
 30
0.0
 11
50.21150654623887
 21
208.2327662700029
 31
0.0
  0
LINE
  5
883B
  8
0
 10
51.21309154623887
 20
208.2327662700029
 30
0.0
 11
51.54707544623886
 21
208.2327662700029
 31
0.0
  0
LINE
  5
883C
  8
0
 10
51.54707544623886
 20
208.2327662700029
 30
0.0
 11
51.54707544623886
 21
208.5667501700029
 31
0.0
  0
LINE
  5
883D
  8
0
 10
51.54707544623886
 20
208.5667501700029
 30
0.0
 11
51.21309154623887
 21
208.5667501700029
 31
0.0
  0
LINE
  5
883E
  8
0
 10
51.21309154623887
 20
208.5667501700029
 30
0.0
 11
51.21309154623887
 21
208.2327662700029
 31
0.0
  0
LINE
  5
883F
  8
0
 10
52.21391654623886
 20
208.2327662700029
 30
0.0
 11
53.54911304623886
 21
208.2327662700029
 31
0.0
  0
LINE
  5
8840
  8
0
 10
53.54911304623886
 20
208.2327662700029
 30
0.0
 11
53.54911304623886
 21
208.5667501700029
 31
0.0
  0
LINE
  5
8841
  8
0
 10
53.54911304623886
 20
208.5667501700029
 30
0.0
 11
52.21391654623886
 21
208.5667501700029
 31
0.0
  0
LINE
  5
8842
  8
0
 10
52.21391654623886
 20
208.5667501700029
 30
0.0
 11
52.21391654623886
 21
208.2327662700029
 31
0.0
  0
LINE
  5
8843
  8
0
 10
42.86867154623886
 20
207.8991262700029
 30
0.0
 11
46.20665804623886
 21
207.8991262700029
 31
0.0
  0
LINE
  5
8844
  8
0
 10
46.20665804623886
 20
207.8991262700029
 30
0.0
 11
46.20665804623886
 21
208.2331111200029
 31
0.0
  0
LINE
  5
8845
  8
0
 10
46.20665804623886
 20
208.2331111200029
 30
0.0
 11
42.86867154623886
 21
208.2331111200029
 31
0.0
  0
LINE
  5
8846
  8
0
 10
42.86867154623886
 20
208.2331111200029
 30
0.0
 11
42.86867154623886
 21
207.8991262700029
 31
0.0
  0
LINE
  5
8847
  8
0
 10
46.87349154623885
 20
207.8991262700029
 30
0.0
 11
47.20747639623886
 21
207.8991262700029
 31
0.0
  0
LINE
  5
8848
  8
0
 10
47.20747639623886
 20
207.8991262700029
 30
0.0
 11
47.20747639623886
 21
208.2331111200029
 31
0.0
  0
LINE
  5
8849
  8
0
 10
47.20747639623886
 20
208.2331111200029
 30
0.0
 11
46.87349154623885
 21
208.2331111200029
 31
0.0
  0
LINE
  5
884A
  8
0
 10
46.87349154623885
 20
208.2331111200029
 30
0.0
 11
46.87349154623885
 21
207.8991262700029
 31
0.0
  0
LINE
  5
884B
  8
0
 10
48.20909654623887
 20
207.8991262700029
 30
0.0
 11
48.54308044623886
 21
207.8991262700029
 31
0.0
  0
LINE
  5
884C
  8
0
 10
48.54308044623886
 20
207.8991262700029
 30
0.0
 11
48.54308044623886
 21
208.2331111200029
 31
0.0
  0
LINE
  5
884D
  8
0
 10
48.54308044623886
 20
208.2331111200029
 30
0.0
 11
48.20909654623887
 21
208.2331111200029
 31
0.0
  0
LINE
  5
884E
  8
0
 10
48.20909654623887
 20
208.2331111200029
 30
0.0
 11
48.20909654623887
 21
207.8991262700029
 31
0.0
  0
LINE
  5
884F
  8
0
 10
48.87666154623886
 20
207.8991262700029
 30
0.0
 11
49.21064544623886
 21
207.8991262700029
 31
0.0
  0
LINE
  5
8850
  8
0
 10
49.21064544623886
 20
207.8991262700029
 30
0.0
 11
49.21064544623886
 21
208.2331111200029
 31
0.0
  0
LINE
  5
8851
  8
0
 10
49.21064544623886
 20
208.2331111200029
 30
0.0
 11
48.87666154623886
 21
208.2331111200029
 31
0.0
  0
LINE
  5
8852
  8
0
 10
48.87666154623886
 20
208.2331111200029
 30
0.0
 11
48.87666154623886
 21
207.8991262700029
 31
0.0
  0
LINE
  5
8853
  8
0
 10
50.87907154623886
 20
207.8991262700029
 30
0.0
 11
51.54666979623886
 21
207.8991262700029
 31
0.0
  0
LINE
  5
8854
  8
0
 10
51.54666979623886
 20
207.8991262700029
 30
0.0
 11
51.54666979623886
 21
208.2331111200029
 31
0.0
  0
LINE
  5
8855
  8
0
 10
51.54666979623886
 20
208.2331111200029
 30
0.0
 11
50.87907154623886
 21
208.2331111200029
 31
0.0
  0
LINE
  5
8856
  8
0
 10
50.87907154623886
 20
208.2331111200029
 30
0.0
 11
50.87907154623886
 21
207.8991262700029
 31
0.0
  0
LINE
  5
8857
  8
0
 10
51.88065654623887
 20
207.8991262700029
 30
0.0
 11
52.21464139623885
 21
207.8991262700029
 31
0.0
  0
LINE
  5
8858
  8
0
 10
52.21464139623885
 20
207.8991262700029
 30
0.0
 11
52.21464139623885
 21
208.2331111200029
 31
0.0
  0
LINE
  5
8859
  8
0
 10
52.21464139623885
 20
208.2331111200029
 30
0.0
 11
51.88065654623887
 21
208.2331111200029
 31
0.0
  0
LINE
  5
885A
  8
0
 10
51.88065654623887
 20
208.2331111200029
 30
0.0
 11
51.88065654623887
 21
207.8991262700029
 31
0.0
  0
LINE
  5
885B
  8
0
 10
52.54831654623885
 20
207.8991262700029
 30
0.0
 11
53.21554239623887
 21
207.8991262700029
 31
0.0
  0
LINE
  5
885C
  8
0
 10
53.21554239623887
 20
207.8991262700029
 30
0.0
 11
53.21554239623887
 21
208.2331111200029
 31
0.0
  0
LINE
  5
885D
  8
0
 10
53.21554239623887
 20
208.2331111200029
 30
0.0
 11
52.54831654623885
 21
208.2331111200029
 31
0.0
  0
LINE
  5
885E
  8
0
 10
52.54831654623885
 20
208.2331111200029
 30
0.0
 11
52.54831654623885
 21
207.8991262700029
 31
0.0
  0
LINE
  5
885F
  8
0
 10
42.53436654623886
 20
207.5651062700029
 30
0.0
 11
43.20196384623884
 21
207.5651062700029
 31
0.0
  0
LINE
  5
8860
  8
0
 10
43.20196384623884
 20
207.5651062700029
 30
0.0
 11
43.20196384623884
 21
207.8991262700029
 31
0.0
  0
LINE
  5
8861
  8
0
 10
43.20196384623884
 20
207.8991262700029
 30
0.0
 11
42.53436654623886
 21
207.8991262700029
 31
0.0
  0
LINE
  5
8862
  8
0
 10
42.53436654623886
 20
207.8991262700029
 30
0.0
 11
42.53436654623886
 21
207.5651062700029
 31
0.0
  0
LINE
  5
8863
  8
0
 10
43.53585654623888
 20
207.5651062700029
 30
0.0
 11
44.20345384623886
 21
207.5651062700029
 31
0.0
  0
LINE
  5
8864
  8
0
 10
44.20345384623886
 20
207.5651062700029
 30
0.0
 11
44.20345384623886
 21
207.8991262700029
 31
0.0
  0
LINE
  5
8865
  8
0
 10
44.20345384623886
 20
207.8991262700029
 30
0.0
 11
43.53585654623888
 21
207.8991262700029
 31
0.0
  0
LINE
  5
8866
  8
0
 10
43.53585654623888
 20
207.8991262700029
 30
0.0
 11
43.53585654623888
 21
207.5651062700029
 31
0.0
  0
LINE
  5
8867
  8
0
 10
45.53874154623884
 20
207.5651062700029
 30
0.0
 11
45.87272639623885
 21
207.5651062700029
 31
0.0
  0
LINE
  5
8868
  8
0
 10
45.87272639623885
 20
207.5651062700029
 30
0.0
 11
45.87272639623885
 21
207.8991262700029
 31
0.0
  0
LINE
  5
8869
  8
0
 10
45.87272639623885
 20
207.8991262700029
 30
0.0
 11
45.53874154623884
 21
207.8991262700029
 31
0.0
  0
LINE
  5
886A
  8
0
 10
45.53874154623884
 20
207.8991262700029
 30
0.0
 11
45.53874154623884
 21
207.5651062700029
 31
0.0
  0
LINE
  5
886B
  8
0
 10
46.54032654623887
 20
207.5651062700029
 30
0.0
 11
46.87431044623887
 21
207.5651062700029
 31
0.0
  0
LINE
  5
886C
  8
0
 10
46.87431044623887
 20
207.5651062700029
 30
0.0
 11
46.87431044623887
 21
207.8991262700029
 31
0.0
  0
LINE
  5
886D
  8
0
 10
46.87431044623887
 20
207.8991262700029
 30
0.0
 11
46.54032654623887
 21
207.8991262700029
 31
0.0
  0
LINE
  5
886E
  8
0
 10
46.54032654623887
 20
207.8991262700029
 30
0.0
 11
46.54032654623887
 21
207.5651062700029
 31
0.0
  0
LINE
  5
886F
  8
0
 10
47.20751154623886
 20
207.5651062700029
 30
0.0
 11
47.87510884623887
 21
207.5651062700029
 31
0.0
  0
LINE
  5
8870
  8
0
 10
47.87510884623887
 20
207.5651062700029
 30
0.0
 11
47.87510884623887
 21
207.8991262700029
 31
0.0
  0
LINE
  5
8871
  8
0
 10
47.87510884623887
 20
207.8991262700029
 30
0.0
 11
47.20751154623886
 21
207.8991262700029
 31
0.0
  0
LINE
  5
8872
  8
0
 10
47.20751154623886
 20
207.8991262700029
 30
0.0
 11
47.20751154623886
 21
207.5651062700029
 31
0.0
  0
LINE
  5
8873
  8
0
 10
48.54273654623887
 20
207.5651062700029
 30
0.0
 11
49.20996334623888
 21
207.5651062700029
 31
0.0
  0
LINE
  5
8874
  8
0
 10
49.20996334623888
 20
207.5651062700029
 30
0.0
 11
49.20996334623888
 21
207.8991262700029
 31
0.0
  0
LINE
  5
8875
  8
0
 10
49.20996334623888
 20
207.8991262700029
 30
0.0
 11
48.54273654623887
 21
207.8991262700029
 31
0.0
  0
LINE
  5
8876
  8
0
 10
48.54273654623887
 20
207.8991262700029
 30
0.0
 11
48.54273654623887
 21
207.5651062700029
 31
0.0
  0
LINE
  5
8877
  8
0
 10
50.87907154623886
 20
207.5651062700029
 30
0.0
 11
51.21309154623887
 21
207.5651062700029
 31
0.0
  0
LINE
  5
8878
  8
0
 10
51.21309154623887
 20
207.5651062700029
 30
0.0
 11
51.21309154623887
 21
207.8991262700029
 31
0.0
  0
LINE
  5
8879
  8
0
 10
51.21309154623887
 20
207.8991262700029
 30
0.0
 11
50.87910669623886
 21
207.8991262700029
 31
0.0
  0
LINE
  5
887A
  8
0
 10
50.87910669623886
 20
207.8991262700029
 30
0.0
 11
50.87907154623886
 21
207.5651062700029
 31
0.0
  0
LINE
  5
887B
  8
0
 10
51.88065654623887
 20
207.5651062700029
 30
0.0
 11
52.88224154623884
 21
207.5651062700029
 31
0.0
  0
LINE
  5
887C
  8
0
 10
52.88224154623884
 20
207.5651062700029
 30
0.0
 11
52.88224154623884
 21
207.8991262700029
 31
0.0
  0
LINE
  5
887D
  8
0
 10
52.88224154623884
 20
207.8991262700029
 30
0.0
 11
51.88065654623887
 21
207.8991262700029
 31
0.0
  0
LINE
  5
887E
  8
0
 10
51.88065654623887
 20
207.8991262700029
 30
0.0
 11
51.88065654623887
 21
207.5651062700029
 31
0.0
  0
LINE
  5
887F
  8
0
 10
53.21550154623887
 20
207.5651062700029
 30
0.0
 11
53.54985784623887
 21
207.5651062700029
 31
0.0
  0
LINE
  5
8880
  8
0
 10
53.54985784623887
 20
207.5651062700029
 30
0.0
 11
53.54985784623887
 21
207.8991262700029
 31
0.0
  0
LINE
  5
8881
  8
0
 10
53.54985784623887
 20
207.8991262700029
 30
0.0
 11
53.21550154623887
 21
207.8991262700029
 31
0.0
  0
LINE
  5
8882
  8
0
 10
53.21550154623887
 20
207.8991262700029
 30
0.0
 11
53.21550154623887
 21
207.5651062700029
 31
0.0
  0
LINE
  5
8883
  8
0
 10
42.86867154623886
 20
207.2315612700029
 30
0.0
 11
43.20265639623886
 21
207.2315612700029
 31
0.0
  0
LINE
  5
8884
  8
0
 10
43.20265639623886
 20
207.2315612700029
 30
0.0
 11
43.20265639623886
 21
207.5659166200029
 31
0.0
  0
LINE
  5
8885
  8
0
 10
43.20265639623886
 20
207.5659166200029
 30
0.0
 11
42.86867154623886
 21
207.5659166200029
 31
0.0
  0
LINE
  5
8886
  8
0
 10
42.86867154623886
 20
207.5659166200029
 30
0.0
 11
42.86867154623886
 21
207.2315612700029
 31
0.0
  0
LINE
  5
8887
  8
0
 10
44.53744154623885
 20
207.2315612700029
 30
0.0
 11
44.87142544623885
 21
207.2315612700029
 31
0.0
  0
LINE
  5
8888
  8
0
 10
44.87142544623885
 20
207.2315612700029
 30
0.0
 11
44.87142544623885
 21
207.5659166200029
 31
0.0
  0
LINE
  5
8889
  8
0
 10
44.87142544623885
 20
207.5659166200029
 30
0.0
 11
44.53744154623885
 21
207.5659166200029
 31
0.0
  0
LINE
  5
888A
  8
0
 10
44.53744154623885
 20
207.5659166200029
 30
0.0
 11
44.53744154623885
 21
207.2315612700029
 31
0.0
  0
LINE
  5
888B
  8
0
 10
45.53874154623884
 20
207.2315612700029
 30
0.0
 11
46.20596834623888
 21
207.2315612700029
 31
0.0
  0
LINE
  5
888C
  8
0
 10
46.20596834623888
 20
207.2315612700029
 30
0.0
 11
46.20596834623888
 21
207.5659166200029
 31
0.0
  0
LINE
  5
888D
  8
0
 10
46.20596834623888
 20
207.5659166200029
 30
0.0
 11
45.53874154623884
 21
207.5659166200029
 31
0.0
  0
LINE
  5
888E
  8
0
 10
45.53874154623884
 20
207.5659166200029
 30
0.0
 11
45.53874154623884
 21
207.2315612700029
 31
0.0
  0
LINE
  5
888F
  8
0
 10
46.54032654623887
 20
207.2315612700029
 30
0.0
 11
47.20755334623885
 21
207.2315612700029
 31
0.0
  0
LINE
  5
8890
  8
0
 10
47.20755334623885
 20
207.2315612700029
 30
0.0
 11
47.20755334623885
 21
207.5659166200029
 31
0.0
  0
LINE
  5
8891
  8
0
 10
47.20755334623885
 20
207.5659166200029
 30
0.0
 11
46.54032654623887
 21
207.5659166200029
 31
0.0
  0
LINE
  5
8892
  8
0
 10
46.54032654623887
 20
207.5659166200029
 30
0.0
 11
46.54032654623887
 21
207.2315612700029
 31
0.0
  0
LINE
  5
8893
  8
0
 10
48.20909654623887
 20
207.2315612700029
 30
0.0
 11
49.21068154623887
 21
207.2315612700029
 31
0.0
  0
LINE
  5
8894
  8
0
 10
49.21068154623887
 20
207.2315612700029
 30
0.0
 11
49.21068154623887
 21
207.5659166200029
 31
0.0
  0
LINE
  5
8895
  8
0
 10
49.21068154623887
 20
207.5659166200029
 30
0.0
 11
48.20909654623887
 21
207.5659166200029
 31
0.0
  0
LINE
  5
8896
  8
0
 10
48.20909654623887
 20
207.5659166200029
 30
0.0
 11
48.20909654623887
 21
207.2315612700029
 31
0.0
  0
LINE
  5
8897
  8
0
 10
49.87748654623886
 20
207.2315612700029
 30
0.0
 11
50.21147044623888
 21
207.2315612700029
 31
0.0
  0
LINE
  5
8898
  8
0
 10
50.21147044623888
 20
207.2315612700029
 30
0.0
 11
50.21147044623888
 21
207.5659166200029
 31
0.0
  0
LINE
  5
8899
  8
0
 10
50.21147044623888
 20
207.5659166200029
 30
0.0
 11
49.87748654623886
 21
207.5659166200029
 31
0.0
  0
LINE
  5
889A
  8
0
 10
49.87748654623886
 20
207.5659166200029
 30
0.0
 11
49.87748654623886
 21
207.2315612700029
 31
0.0
  0
LINE
  5
889B
  8
0
 10
50.54590654623885
 20
207.2315612700029
 30
0.0
 11
51.21313334623886
 21
207.2315612700029
 31
0.0
  0
LINE
  5
889C
  8
0
 10
51.21313334623886
 20
207.2315612700029
 30
0.0
 11
51.21313334623886
 21
207.5659166200029
 31
0.0
  0
LINE
  5
889D
  8
0
 10
51.21313334623886
 20
207.5659166200029
 30
0.0
 11
50.54590654623885
 21
207.5659166200029
 31
0.0
  0
LINE
  5
889E
  8
0
 10
50.54590654623885
 20
207.5659166200029
 30
0.0
 11
50.54590654623885
 21
207.2315612700029
 31
0.0
  0
LINE
  5
889F
  8
0
 10
51.54673154623885
 20
207.2315612700029
 30
0.0
 11
52.54831654623885
 21
207.2315612700029
 31
0.0
  0
LINE
  5
88A0
  8
0
 10
52.54831654623885
 20
207.2315612700029
 30
0.0
 11
52.54831654623885
 21
207.5659166200029
 31
0.0
  0
LINE
  5
88A1
  8
0
 10
52.54831654623885
 20
207.5659166200029
 30
0.0
 11
51.54673154623885
 21
207.5659166200029
 31
0.0
  0
LINE
  5
88A2
  8
0
 10
51.54673154623885
 20
207.5659166200029
 30
0.0
 11
51.54673154623885
 21
207.2315612700029
 31
0.0
  0
LINE
  5
88A3
  8
0
 10
53.21550154623887
 20
207.2315612700029
 30
0.0
 11
53.54985784623887
 21
207.2315612700029
 31
0.0
  0
LINE
  5
88A4
  8
0
 10
53.54985784623887
 20
207.2315612700029
 30
0.0
 11
53.54985784623887
 21
207.5659166200029
 31
0.0
  0
LINE
  5
88A5
  8
0
 10
53.54985784623887
 20
207.5659166200029
 30
0.0
 11
53.21550154623887
 21
207.5659166200029
 31
0.0
  0
LINE
  5
88A6
  8
0
 10
53.21550154623887
 20
207.5659166200029
 30
0.0
 11
53.21550154623887
 21
207.2315612700029
 31
0.0
  0
LINE
  5
88A7
  8
0
 10
42.86867154623886
 20
206.8975412700029
 30
0.0
 11
43.53589834623887
 21
206.8975412700029
 31
0.0
  0
LINE
  5
88A8
  8
0
 10
43.53589834623887
 20
206.8975412700029
 30
0.0
 11
43.53589834623887
 21
207.2315261200029
 31
0.0
  0
LINE
  5
88A9
  8
0
 10
43.53589834623887
 20
207.2315261200029
 30
0.0
 11
42.86867154623886
 21
207.2315261200029
 31
0.0
  0
LINE
  5
88AA
  8
0
 10
42.86867154623886
 20
207.2315261200029
 30
0.0
 11
42.86867154623886
 21
206.8975412700029
 31
0.0
  0
LINE
  5
88AB
  8
0
 10
43.86949654623888
 20
206.8975412700029
 30
0.0
 11
44.20348044623887
 21
206.8975412700029
 31
0.0
  0
LINE
  5
88AC
  8
0
 10
44.20348044623887
 20
206.8975412700029
 30
0.0
 11
44.20348044623887
 21
207.2315261200029
 31
0.0
  0
LINE
  5
88AD
  8
0
 10
44.20348044623887
 20
207.2315261200029
 30
0.0
 11
43.86949654623888
 21
207.2315261200029
 31
0.0
  0
LINE
  5
88AE
  8
0
 10
43.86949654623888
 20
207.2315261200029
 30
0.0
 11
43.86949654623888
 21
206.8975412700029
 31
0.0
  0
LINE
  5
88AF
  8
0
 10
46.20592654623886
 20
206.8975412700029
 30
0.0
 11
46.53991044623888
 21
206.8975412700029
 31
0.0
  0
LINE
  5
88B0
  8
0
 10
46.53991044623888
 20
206.8975412700029
 30
0.0
 11
46.53991044623888
 21
207.2315261200029
 31
0.0
  0
LINE
  5
88B1
  8
0
 10
46.53991044623888
 20
207.2315261200029
 30
0.0
 11
46.20592654623886
 21
207.2315261200029
 31
0.0
  0
LINE
  5
88B2
  8
0
 10
46.20592654623886
 20
207.2315261200029
 30
0.0
 11
46.20592654623886
 21
206.8975412700029
 31
0.0
  0
LINE
  5
88B3
  8
0
 10
46.87349154623885
 20
206.8975412700029
 30
0.0
 11
49.87749604623886
 21
206.8975412700029
 31
0.0
  0
LINE
  5
88B4
  8
0
 10
49.87749604623886
 20
206.8975412700029
 30
0.0
 11
49.87749604623886
 21
207.2315261200029
 31
0.0
  0
LINE
  5
88B5
  8
0
 10
49.87749604623886
 20
207.2315261200029
 30
0.0
 11
46.87349154623885
 21
207.2315261200029
 31
0.0
  0
LINE
  5
88B6
  8
0
 10
46.87349154623885
 20
207.2315261200029
 30
0.0
 11
46.87349154623885
 21
206.8975412700029
 31
0.0
  0
LINE
  5
88B7
  8
0
 10
50.21150654623887
 20
206.8975412700029
 30
0.0
 11
51.54670304623886
 21
206.8975412700029
 31
0.0
  0
LINE
  5
88B8
  8
0
 10
51.54670304623886
 20
206.8975412700029
 30
0.0
 11
51.54670304623886
 21
207.2315261200029
 31
0.0
  0
LINE
  5
88B9
  8
0
 10
51.54670304623886
 20
207.2315261200029
 30
0.0
 11
50.21150654623887
 21
207.2315261200029
 31
0.0
  0
LINE
  5
88BA
  8
0
 10
50.21150654623887
 20
207.2315261200029
 30
0.0
 11
50.21150654623887
 21
206.8975412700029
 31
0.0
  0
LINE
  5
88BB
  8
0
 10
52.21391654623886
 20
206.8975412700029
 30
0.0
 11
52.88151384623885
 21
206.8975412700029
 31
0.0
  0
LINE
  5
88BC
  8
0
 10
52.88151384623885
 20
206.8975412700029
 30
0.0
 11
52.88151384623885
 21
207.2315261200029
 31
0.0
  0
LINE
  5
88BD
  8
0
 10
52.88151384623885
 20
207.2315261200029
 30
0.0
 11
52.21391654623886
 21
207.2315261200029
 31
0.0
  0
LINE
  5
88BE
  8
0
 10
52.21391654623886
 20
207.2315261200029
 30
0.0
 11
52.21391654623886
 21
206.8975412700029
 31
0.0
  0
LINE
  5
88BF
  8
0
 10
53.21550154623887
 20
206.8975412700029
 30
0.0
 11
53.54985784623887
 21
206.8975412700029
 31
0.0
  0
LINE
  5
88C0
  8
0
 10
53.54985784623887
 20
206.8975412700029
 30
0.0
 11
53.54985784623887
 21
207.2315261200029
 31
0.0
  0
LINE
  5
88C1
  8
0
 10
53.54985784623887
 20
207.2315261200029
 30
0.0
 11
53.21550154623887
 21
207.2315261200029
 31
0.0
  0
LINE
  5
88C2
  8
0
 10
53.21550154623887
 20
207.2315261200029
 30
0.0
 11
53.21550154623887
 21
206.8975412700029
 31
0.0
  0
LINE
  5
88C3
  8
0
 10
43.20193154623885
 20
206.5642812700029
 30
0.0
 11
43.53628784623885
 21
206.5642812700029
 31
0.0
  0
LINE
  5
88C4
  8
0
 10
43.53628784623885
 20
206.5642812700029
 30
0.0
 11
43.53628784623885
 21
206.8982651700029
 31
0.0
  0
LINE
  5
88C5
  8
0
 10
43.53628784623885
 20
206.8982651700029
 30
0.0
 11
43.20193154623885
 21
206.8982651700029
 31
0.0
  0
LINE
  5
88C6
  8
0
 10
43.20193154623885
 20
206.8982651700029
 30
0.0
 11
43.20193154623885
 21
206.5642812700029
 31
0.0
  0
LINE
  5
88C7
  8
0
 10
43.86949654623888
 20
206.5642812700029
 30
0.0
 11
44.20348044623887
 21
206.5642812700029
 31
0.0
  0
LINE
  5
88C8
  8
0
 10
44.20348044623887
 20
206.5642812700029
 30
0.0
 11
44.20348044623887
 21
206.8982651700029
 31
0.0
  0
LINE
  5
88C9
  8
0
 10
44.20348044623887
 20
206.8982651700029
 30
0.0
 11
43.86949654623888
 21
206.8982651700029
 31
0.0
  0
LINE
  5
88CA
  8
0
 10
43.86949654623888
 20
206.8982651700029
 30
0.0
 11
43.86949654623888
 21
206.5642812700029
 31
0.0
  0
LINE
  5
88CB
  8
0
 10
44.53744154623885
 20
206.5642812700029
 30
0.0
 11
46.54023154623886
 21
206.5642812700029
 31
0.0
  0
LINE
  5
88CC
  8
0
 10
46.54023154623886
 20
206.5642812700029
 30
0.0
 11
46.54023154623886
 21
206.8982651700029
 31
0.0
  0
LINE
  5
88CD
  8
0
 10
46.54023154623886
 20
206.8982651700029
 30
0.0
 11
44.53744154623885
 21
206.8982651700029
 31
0.0
  0
LINE
  5
88CE
  8
0
 10
44.53744154623885
 20
206.8982651700029
 30
0.0
 11
44.53744154623885
 21
206.5642812700029
 31
0.0
  0
LINE
  5
88CF
  8
0
 10
46.87349154623885
 20
206.5642812700029
 30
0.0
 11
47.20747639623886
 21
206.5642812700029
 31
0.0
  0
LINE
  5
88D0
  8
0
 10
47.20747639623886
 20
206.5642812700029
 30
0.0
 11
47.20747639623886
 21
206.8982651700029
 31
0.0
  0
LINE
  5
88D1
  8
0
 10
47.20747639623886
 20
206.8982651700029
 30
0.0
 11
46.87349154623885
 21
206.8982651700029
 31
0.0
  0
LINE
  5
88D2
  8
0
 10
46.87349154623885
 20
206.8982651700029
 30
0.0
 11
46.87349154623885
 21
206.5642812700029
 31
0.0
  0
LINE
  5
88D3
  8
0
 10
47.54153154623887
 20
206.5642812700029
 30
0.0
 11
48.20912979623884
 21
206.5642812700029
 31
0.0
  0
LINE
  5
88D4
  8
0
 10
48.20912979623884
 20
206.5642812700029
 30
0.0
 11
48.20912979623884
 21
206.8982651700029
 31
0.0
  0
LINE
  5
88D5
  8
0
 10
48.20912979623884
 20
206.8982651700029
 30
0.0
 11
47.54153154623887
 21
206.8982651700029
 31
0.0
  0
LINE
  5
88D6
  8
0
 10
47.54153154623887
 20
206.8982651700029
 30
0.0
 11
47.54153154623887
 21
206.5642812700029
 31
0.0
  0
LINE
  5
88D7
  8
0
 10
48.87666154623886
 20
206.5642812700029
 30
0.0
 11
49.21064544623886
 21
206.5642812700029
 31
0.0
  0
LINE
  5
88D8
  8
0
 10
49.21064544623886
 20
206.5642812700029
 30
0.0
 11
49.21064544623886
 21
206.8982651700029
 31
0.0
  0
LINE
  5
88D9
  8
0
 10
49.21064544623886
 20
206.8982651700029
 30
0.0
 11
48.87666154623886
 21
206.8982651700029
 31
0.0
  0
LINE
  5
88DA
  8
0
 10
48.87666154623886
 20
206.8982651700029
 30
0.0
 11
48.87666154623886
 21
206.5642812700029
 31
0.0
  0
LINE
  5
88DB
  8
0
 10
50.21150654623887
 20
206.5642812700029
 30
0.0
 11
50.54586189623888
 21
206.5642812700029
 31
0.0
  0
LINE
  5
88DC
  8
0
 10
50.54586189623888
 20
206.5642812700029
 30
0.0
 11
50.54586189623888
 21
206.8982651700029
 31
0.0
  0
LINE
  5
88DD
  8
0
 10
50.54586189623888
 20
206.8982651700029
 30
0.0
 11
50.21150654623887
 21
206.8982651700029
 31
0.0
  0
LINE
  5
88DE
  8
0
 10
50.21150654623887
 20
206.8982651700029
 30
0.0
 11
50.21150654623887
 21
206.5642812700029
 31
0.0
  0
LINE
  5
88DF
  8
0
 10
51.54673154623885
 20
206.5642812700029
 30
0.0
 11
51.88071544623887
 21
206.5642812700029
 31
0.0
  0
LINE
  5
88E0
  8
0
 10
51.88071544623887
 20
206.5642812700029
 30
0.0
 11
51.88071544623887
 21
206.8982651700029
 31
0.0
  0
LINE
  5
88E1
  8
0
 10
51.88071544623887
 20
206.8982651700029
 30
0.0
 11
51.54673154623885
 21
206.8982651700029
 31
0.0
  0
LINE
  5
88E2
  8
0
 10
51.54673154623885
 20
206.8982651700029
 30
0.0
 11
51.54673154623885
 21
206.5642812700029
 31
0.0
  0
LINE
  5
88E3
  8
0
 10
52.21391654623886
 20
206.5642812700029
 30
0.0
 11
52.88151384623885
 21
206.5642812700029
 31
0.0
  0
LINE
  5
88E4
  8
0
 10
52.88151384623885
 20
206.5642812700029
 30
0.0
 11
52.88151384623885
 21
206.8982651700029
 31
0.0
  0
LINE
  5
88E5
  8
0
 10
52.88151384623885
 20
206.8982651700029
 30
0.0
 11
52.21391654623886
 21
206.8982651700029
 31
0.0
  0
LINE
  5
88E6
  8
0
 10
52.21391654623886
 20
206.8982651700029
 30
0.0
 11
52.21391654623886
 21
206.5642812700029
 31
0.0
  0
LINE
  5
88E7
  8
0
 10
53.21550154623887
 20
206.5642812700029
 30
0.0
 11
53.54985784623887
 21
206.5642812700029
 31
0.0
  0
LINE
  5
88E8
  8
0
 10
53.54985784623887
 20
206.5642812700029
 30
0.0
 11
53.54985784623887
 21
206.8982651700029
 31
0.0
  0
LINE
  5
88E9
  8
0
 10
53.54985784623887
 20
206.8982651700029
 30
0.0
 11
53.21550154623887
 21
206.8982651700029
 31
0.0
  0
LINE
  5
88EA
  8
0
 10
53.21550154623887
 20
206.8982651700029
 30
0.0
 11
53.21550154623887
 21
206.5642812700029
 31
0.0
  0
LINE
  5
88EB
  8
0
 10
42.86867154623886
 20
206.2303562700029
 30
0.0
 11
43.20265639623886
 21
206.2303562700029
 31
0.0
  0
LINE
  5
88EC
  8
0
 10
43.20265639623886
 20
206.2303562700029
 30
0.0
 11
43.20265639623886
 21
206.5643411200029
 31
0.0
  0
LINE
  5
88ED
  8
0
 10
43.20265639623886
 20
206.5643411200029
 30
0.0
 11
42.86867154623886
 21
206.5643411200029
 31
0.0
  0
LINE
  5
88EE
  8
0
 10
42.86867154623886
 20
206.5643411200029
 30
0.0
 11
42.86867154623886
 21
206.2303562700029
 31
0.0
  0
LINE
  5
88EF
  8
0
 10
43.53585654623888
 20
206.2303562700029
 30
0.0
 11
44.53744154623885
 21
206.2303562700029
 31
0.0
  0
LINE
  5
88F0
  8
0
 10
44.53744154623885
 20
206.2303562700029
 30
0.0
 11
44.53744154623885
 21
206.5643411200029
 31
0.0
  0
LINE
  5
88F1
  8
0
 10
44.53744154623885
 20
206.5643411200029
 30
0.0
 11
43.53585654623888
 21
206.5643411200029
 31
0.0
  0
LINE
  5
88F2
  8
0
 10
43.53585654623888
 20
206.5643411200029
 30
0.0
 11
43.53585654623888
 21
206.2303562700029
 31
0.0
  0
LINE
  5
88F3
  8
0
 10
44.87108154623886
 20
206.2303562700029
 30
0.0
 11
45.53867884623884
 21
206.2303562700029
 31
0.0
  0
LINE
  5
88F4
  8
0
 10
45.53867884623884
 20
206.2303562700029
 30
0.0
 11
45.53867884623884
 21
206.5643411200029
 31
0.0
  0
LINE
  5
88F5
  8
0
 10
45.53867884623884
 20
206.5643411200029
 30
0.0
 11
44.87108154623886
 21
206.5643411200029
 31
0.0
  0
LINE
  5
88F6
  8
0
 10
44.87108154623886
 20
206.5643411200029
 30
0.0
 11
44.87108154623886
 21
206.2303562700029
 31
0.0
  0
LINE
  5
88F7
  8
0
 10
45.87266654623886
 20
206.2303562700029
 30
0.0
 11
46.20665044623888
 21
206.2303562700029
 31
0.0
  0
LINE
  5
88F8
  8
0
 10
46.20665044623888
 20
206.2303562700029
 30
0.0
 11
46.20665044623888
 21
206.5643411200029
 31
0.0
  0
LINE
  5
88F9
  8
0
 10
46.20665044623888
 20
206.5643411200029
 30
0.0
 11
45.87266654623886
 21
206.5643411200029
 31
0.0
  0
LINE
  5
88FA
  8
0
 10
45.87266654623886
 20
206.5643411200029
 30
0.0
 11
45.87266654623886
 21
206.2303562700029
 31
0.0
  0
LINE
  5
88FB
  8
0
 10
47.54153154623887
 20
206.2303562700029
 30
0.0
 11
49.87831304623887
 21
206.2303562700029
 31
0.0
  0
LINE
  5
88FC
  8
0
 10
49.87831304623887
 20
206.2303562700029
 30
0.0
 11
49.87831304623887
 21
206.5643411200029
 31
0.0
  0
LINE
  5
88FD
  8
0
 10
49.87831304623887
 20
206.5643411200029
 30
0.0
 11
47.54153154623887
 21
206.5643411200029
 31
0.0
  0
LINE
  5
88FE
  8
0
 10
47.54153154623887
 20
206.5643411200029
 30
0.0
 11
47.54153154623887
 21
206.2303562700029
 31
0.0
  0
LINE
  5
88FF
  8
0
 10
50.21150654623887
 20
206.2303562700029
 30
0.0
 11
50.54586189623888
 21
206.2303562700029
 31
0.0
  0
LINE
  5
8900
  8
0
 10
50.54586189623888
 20
206.2303562700029
 30
0.0
 11
50.54586189623888
 21
206.5643411200029
 31
0.0
  0
LINE
  5
8901
  8
0
 10
50.54586189623888
 20
206.5643411200029
 30
0.0
 11
50.21150654623887
 21
206.5643411200029
 31
0.0
  0
LINE
  5
8902
  8
0
 10
50.21150654623887
 20
206.5643411200029
 30
0.0
 11
50.21150654623887
 21
206.2303562700029
 31
0.0
  0
LINE
  5
8903
  8
0
 10
50.87907154623886
 20
206.2303562700029
 30
0.0
 11
51.21305639623887
 21
206.2303562700029
 31
0.0
  0
LINE
  5
8904
  8
0
 10
51.21305639623887
 20
206.2303562700029
 30
0.0
 11
51.21305639623887
 21
206.5643411200029
 31
0.0
  0
LINE
  5
8905
  8
0
 10
51.21305639623887
 20
206.5643411200029
 30
0.0
 11
50.87907154623886
 21
206.5643411200029
 31
0.0
  0
LINE
  5
8906
  8
0
 10
50.87907154623886
 20
206.5643411200029
 30
0.0
 11
50.87907154623886
 21
206.2303562700029
 31
0.0
  0
LINE
  5
8907
  8
0
 10
51.88065654623887
 20
206.2303562700029
 30
0.0
 11
52.88224154623884
 21
206.2303562700029
 31
0.0
  0
LINE
  5
8908
  8
0
 10
52.88224154623884
 20
206.2303562700029
 30
0.0
 11
52.88224154623884
 21
206.5643411200029
 31
0.0
  0
LINE
  5
8909
  8
0
 10
52.88224154623884
 20
206.5643411200029
 30
0.0
 11
51.88065654623887
 21
206.5643411200029
 31
0.0
  0
LINE
  5
890A
  8
0
 10
51.88065654623887
 20
206.5643411200029
 30
0.0
 11
51.88065654623887
 21
206.2303562700029
 31
0.0
  0
LINE
  5
890B
  8
0
 10
53.21550154623887
 20
206.2303562700029
 30
0.0
 11
53.54985784623887
 21
206.2303562700029
 31
0.0
  0
LINE
  5
890C
  8
0
 10
53.54985784623887
 20
206.2303562700029
 30
0.0
 11
53.54985784623887
 21
206.5643411200029
 31
0.0
  0
LINE
  5
890D
  8
0
 10
53.54985784623887
 20
206.5643411200029
 30
0.0
 11
53.21550154623887
 21
206.5643411200029
 31
0.0
  0
LINE
  5
890E
  8
0
 10
53.21550154623887
 20
206.5643411200029
 30
0.0
 11
53.21550154623887
 21
206.2303562700029
 31
0.0
  0
LINE
  5
890F
  8
0
 10
42.53436654623886
 20
205.8959562700029
 30
0.0
 11
43.86956304623885
 21
205.8959562700029
 31
0.0
  0
LINE
  5
8910
  8
0
 10
43.86956304623885
 20
205.8959562700029
 30
0.0
 11
43.86956304623885
 21
206.2303116200029
 31
0.0
  0
LINE
  5
8911
  8
0
 10
43.86956304623885
 20
206.2303116200029
 30
0.0
 11
42.53436654623886
 21
206.2303116200029
 31
0.0
  0
LINE
  5
8912
  8
0
 10
42.53436654623886
 20
206.2303116200029
 30
0.0
 11
42.53436654623886
 21
205.8959562700029
 31
0.0
  0
LINE
  5
8913
  8
0
 10
44.53744154623885
 20
205.8959562700029
 30
0.0
 11
44.87142544623885
 21
205.8959562700029
 31
0.0
  0
LINE
  5
8914
  8
0
 10
44.87142544623885
 20
205.8959562700029
 30
0.0
 11
44.87142544623885
 21
206.2303116200029
 31
0.0
  0
LINE
  5
8915
  8
0
 10
44.87142544623885
 20
206.2303116200029
 30
0.0
 11
44.53744154623885
 21
206.2303116200029
 31
0.0
  0
LINE
  5
8916
  8
0
 10
44.53744154623885
 20
206.2303116200029
 30
0.0
 11
44.53744154623885
 21
205.8959562700029
 31
0.0
  0
LINE
  5
8917
  8
0
 10
45.20510154623886
 20
205.8959562700029
 30
0.0
 11
45.53908639623887
 21
205.8959562700029
 31
0.0
  0
LINE
  5
8918
  8
0
 10
45.53908639623887
 20
205.8959562700029
 30
0.0
 11
45.53908639623887
 21
206.2303116200029
 31
0.0
  0
LINE
  5
8919
  8
0
 10
45.53908639623887
 20
206.2303116200029
 30
0.0
 11
45.20510154623886
 21
206.2303116200029
 31
0.0
  0
LINE
  5
891A
  8
0
 10
45.20510154623886
 20
206.2303116200029
 30
0.0
 11
45.20510154623886
 21
205.8959562700029
 31
0.0
  0
LINE
  5
891B
  8
0
 10
45.87266654623886
 20
205.8959562700029
 30
0.0
 11
46.20665044623888
 21
205.8959562700029
 31
0.0
  0
LINE
  5
891C
  8
0
 10
46.20665044623888
 20
205.8959562700029
 30
0.0
 11
46.20665044623888
 21
206.2303116200029
 31
0.0
  0
LINE
  5
891D
  8
0
 10
46.20665044623888
 20
206.2303116200029
 30
0.0
 11
45.87266654623886
 21
206.2303116200029
 31
0.0
  0
LINE
  5
891E
  8
0
 10
45.87266654623886
 20
206.2303116200029
 30
0.0
 11
45.87266654623886
 21
205.8959562700029
 31
0.0
  0
LINE
  5
891F
  8
0
 10
46.54032654623887
 20
205.8959562700029
 30
0.0
 11
47.54154104623888
 21
205.8959562700029
 31
0.0
  0
LINE
  5
8920
  8
0
 10
47.54154104623888
 20
205.8959562700029
 30
0.0
 11
47.54154104623888
 21
206.2303116200029
 31
0.0
  0
LINE
  5
8921
  8
0
 10
47.54154104623888
 20
206.2303116200029
 30
0.0
 11
46.54032654623887
 21
206.2303116200029
 31
0.0
  0
LINE
  5
8922
  8
0
 10
46.54032654623887
 20
206.2303116200029
 30
0.0
 11
46.54032654623887
 21
205.8959562700029
 31
0.0
  0
LINE
  5
8923
  8
0
 10
47.87507654623886
 20
205.8959562700029
 30
0.0
 11
48.20906139623887
 21
205.8959562700029
 31
0.0
  0
LINE
  5
8924
  8
0
 10
48.20906139623887
 20
205.8959562700029
 30
0.0
 11
48.20906139623887
 21
206.2303116200029
 31
0.0
  0
LINE
  5
8925
  8
0
 10
48.20906139623887
 20
206.2303116200029
 30
0.0
 11
47.87507654623886
 21
206.2303116200029
 31
0.0
  0
LINE
  5
8926
  8
0
 10
47.87507654623886
 20
206.2303116200029
 30
0.0
 11
47.87507654623886
 21
205.8959562700029
 31
0.0
  0
LINE
  5
8927
  8
0
 10
49.20992154623886
 20
205.8959562700029
 30
0.0
 11
50.21150654623887
 21
205.8959562700029
 31
0.0
  0
LINE
  5
8928
  8
0
 10
50.21150654623887
 20
205.8959562700029
 30
0.0
 11
50.21150654623887
 21
206.2303116200029
 31
0.0
  0
LINE
  5
8929
  8
0
 10
50.21150654623887
 20
206.2303116200029
 30
0.0
 11
49.20992154623886
 21
206.2303116200029
 31
0.0
  0
LINE
  5
892A
  8
0
 10
49.20992154623886
 20
206.2303116200029
 30
0.0
 11
49.20992154623886
 21
205.8959562700029
 31
0.0
  0
LINE
  5
892B
  8
0
 10
50.87907154623886
 20
205.8959562700029
 30
0.0
 11
51.21305639623887
 21
205.8959562700029
 31
0.0
  0
LINE
  5
892C
  8
0
 10
51.21305639623887
 20
205.8959562700029
 30
0.0
 11
51.21305639623887
 21
206.2303116200029
 31
0.0
  0
LINE
  5
892D
  8
0
 10
51.21305639623887
 20
206.2303116200029
 30
0.0
 11
50.87907154623886
 21
206.2303116200029
 31
0.0
  0
LINE
  5
892E
  8
0
 10
50.87907154623886
 20
206.2303116200029
 30
0.0
 11
50.87907154623886
 21
205.8959562700029
 31
0.0
  0
LINE
  5
892F
  8
0
 10
51.88065654623887
 20
205.8959562700029
 30
0.0
 11
52.54788334623888
 21
205.8959562700029
 31
0.0
  0
LINE
  5
8930
  8
0
 10
52.54788334623888
 20
205.8959562700029
 30
0.0
 11
52.54788334623888
 21
206.2303116200029
 31
0.0
  0
LINE
  5
8931
  8
0
 10
52.54788334623888
 20
206.2303116200029
 30
0.0
 11
51.88065654623887
 21
206.2303116200029
 31
0.0
  0
LINE
  5
8932
  8
0
 10
51.88065654623887
 20
206.2303116200029
 30
0.0
 11
51.88065654623887
 21
205.8959562700029
 31
0.0
  0
LINE
  5
8933
  8
0
 10
42.53436654623886
 20
205.5626962700029
 30
0.0
 11
43.20196384623884
 21
205.5626962700029
 31
0.0
  0
LINE
  5
8934
  8
0
 10
43.20196384623884
 20
205.5626962700029
 30
0.0
 11
43.20196384623884
 21
205.8966811200029
 31
0.0
  0
LINE
  5
8935
  8
0
 10
43.20196384623884
 20
205.8966811200029
 30
0.0
 11
42.53436654623886
 21
205.8966811200029
 31
0.0
  0
LINE
  5
8936
  8
0
 10
42.53436654623886
 20
205.8966811200029
 30
0.0
 11
42.53436654623886
 21
205.5626962700029
 31
0.0
  0
LINE
  5
8937
  8
0
 10
43.53585654623888
 20
205.5626962700029
 30
0.0
 11
43.86984044623887
 21
205.5626962700029
 31
0.0
  0
LINE
  5
8938
  8
0
 10
43.86984044623887
 20
205.5626962700029
 30
0.0
 11
43.86984044623887
 21
205.8966811200029
 31
0.0
  0
LINE
  5
8939
  8
0
 10
43.86984044623887
 20
205.8966811200029
 30
0.0
 11
43.53585654623888
 21
205.8966811200029
 31
0.0
  0
LINE
  5
893A
  8
0
 10
43.53585654623888
 20
205.8966811200029
 30
0.0
 11
43.53585654623888
 21
205.5626962700029
 31
0.0
  0
LINE
  5
893B
  8
0
 10
44.20351654623886
 20
205.5626962700029
 30
0.0
 11
44.53750139623887
 21
205.5626962700029
 31
0.0
  0
LINE
  5
893C
  8
0
 10
44.53750139623887
 20
205.5626962700029
 30
0.0
 11
44.53750139623887
 21
205.8966811200029
 31
0.0
  0
LINE
  5
893D
  8
0
 10
44.53750139623887
 20
205.8966811200029
 30
0.0
 11
44.20351654623886
 21
205.8966811200029
 31
0.0
  0
LINE
  5
893E
  8
0
 10
44.20351654623886
 20
205.8966811200029
 30
0.0
 11
44.20351654623886
 21
205.5626962700029
 31
0.0
  0
LINE
  5
893F
  8
0
 10
45.20510154623886
 20
205.5626962700029
 30
0.0
 11
45.53908639623887
 21
205.5626962700029
 31
0.0
  0
LINE
  5
8940
  8
0
 10
45.53908639623887
 20
205.5626962700029
 30
0.0
 11
45.53908639623887
 21
205.8966811200029
 31
0.0
  0
LINE
  5
8941
  8
0
 10
45.53908639623887
 20
205.8966811200029
 30
0.0
 11
45.20510154623886
 21
205.8966811200029
 31
0.0
  0
LINE
  5
8942
  8
0
 10
45.20510154623886
 20
205.8966811200029
 30
0.0
 11
45.20510154623886
 21
205.5626962700029
 31
0.0
  0
LINE
  5
8943
  8
0
 10
45.87266654623886
 20
205.5626962700029
 30
0.0
 11
46.87388104623886
 21
205.5626962700029
 31
0.0
  0
LINE
  5
8944
  8
0
 10
46.87388104623886
 20
205.5626962700029
 30
0.0
 11
46.87388104623886
 21
205.8966811200029
 31
0.0
  0
LINE
  5
8945
  8
0
 10
46.87388104623886
 20
205.8966811200029
 30
0.0
 11
45.87266654623886
 21
205.8966811200029
 31
0.0
  0
LINE
  5
8946
  8
0
 10
45.87266654623886
 20
205.8966811200029
 30
0.0
 11
45.87266654623886
 21
205.5626962700029
 31
0.0
  0
LINE
  5
8947
  8
0
 10
47.20751154623886
 20
205.5626962700029
 30
0.0
 11
47.54149544623888
 21
205.5626962700029
 31
0.0
  0
LINE
  5
8948
  8
0
 10
47.54149544623888
 20
205.5626962700029
 30
0.0
 11
47.54149544623888
 21
205.8966811200029
 31
0.0
  0
LINE
  5
8949
  8
0
 10
47.54149544623888
 20
205.8966811200029
 30
0.0
 11
47.20751154623886
 21
205.8966811200029
 31
0.0
  0
LINE
  5
894A
  8
0
 10
47.20751154623886
 20
205.8966811200029
 30
0.0
 11
47.20751154623886
 21
205.5626962700029
 31
0.0
  0
LINE
  5
894B
  8
0
 10
47.87507654623886
 20
205.5626962700029
 30
0.0
 11
48.87666154623886
 21
205.5626962700029
 31
0.0
  0
LINE
  5
894C
  8
0
 10
48.87666154623886
 20
205.5626962700029
 30
0.0
 11
48.87666154623886
 21
205.8966811200029
 31
0.0
  0
LINE
  5
894D
  8
0
 10
48.87666154623886
 20
205.8966811200029
 30
0.0
 11
47.87507654623886
 21
205.8966811200029
 31
0.0
  0
LINE
  5
894E
  8
0
 10
47.87507654623886
 20
205.8966811200029
 30
0.0
 11
47.87507654623886
 21
205.5626962700029
 31
0.0
  0
LINE
  5
894F
  8
0
 10
49.20992154623886
 20
205.5626962700029
 30
0.0
 11
49.54427689623887
 21
205.5626962700029
 31
0.0
  0
LINE
  5
8950
  8
0
 10
49.54427689623887
 20
205.5626962700029
 30
0.0
 11
49.54427689623887
 21
205.8966811200029
 31
0.0
  0
LINE
  5
8951
  8
0
 10
49.54427689623887
 20
205.8966811200029
 30
0.0
 11
49.20992154623886
 21
205.8966811200029
 31
0.0
  0
LINE
  5
8952
  8
0
 10
49.20992154623886
 20
205.8966811200029
 30
0.0
 11
49.20992154623886
 21
205.5626962700029
 31
0.0
  0
LINE
  5
8953
  8
0
 10
49.87748654623886
 20
205.5626962700029
 30
0.0
 11
50.54508384623887
 21
205.5626962700029
 31
0.0
  0
LINE
  5
8954
  8
0
 10
50.54508384623887
 20
205.5626962700029
 30
0.0
 11
50.54508384623887
 21
205.8966811200029
 31
0.0
  0
LINE
  5
8955
  8
0
 10
50.54508384623887
 20
205.8966811200029
 30
0.0
 11
49.87748654623886
 21
205.8966811200029
 31
0.0
  0
LINE
  5
8956
  8
0
 10
49.87748654623886
 20
205.8966811200029
 30
0.0
 11
49.87748654623886
 21
205.5626962700029
 31
0.0
  0
LINE
  5
8957
  8
0
 10
51.54673154623885
 20
205.5626962700029
 30
0.0
 11
52.88155754623887
 21
205.5626962700029
 31
0.0
  0
LINE
  5
8958
  8
0
 10
52.88155754623887
 20
205.5626962700029
 30
0.0
 11
52.88155754623887
 21
205.8966811200029
 31
0.0
  0
LINE
  5
8959
  8
0
 10
52.88155754623887
 20
205.8966811200029
 30
0.0
 11
51.54673154623885
 21
205.8966811200029
 31
0.0
  0
LINE
  5
895A
  8
0
 10
51.54673154623885
 20
205.8966811200029
 30
0.0
 11
51.54673154623885
 21
205.5626962700029
 31
0.0
  0
LINE
  5
895B
  8
0
 10
42.53436654623886
 20
205.2287712700029
 30
0.0
 11
42.86872189623887
 21
205.2287712700029
 31
0.0
  0
LINE
  5
895C
  8
0
 10
42.86872189623887
 20
205.2287712700029
 30
0.0
 11
42.86872189623887
 21
205.5627551700029
 31
0.0
  0
LINE
  5
895D
  8
0
 10
42.86872189623887
 20
205.5627551700029
 30
0.0
 11
42.53436654623886
 21
205.5627551700029
 31
0.0
  0
LINE
  5
895E
  8
0
 10
42.53436654623886
 20
205.5627551700029
 30
0.0
 11
42.53436654623886
 21
205.2287712700029
 31
0.0
  0
LINE
  5
895F
  8
0
 10
43.20193154623885
 20
205.2287712700029
 30
0.0
 11
43.53628784623885
 21
205.2287712700029
 31
0.0
  0
LINE
  5
8960
  8
0
 10
43.53628784623885
 20
205.2287712700029
 30
0.0
 11
43.53628784623885
 21
205.5627551700029
 31
0.0
  0
LINE
  5
8961
  8
0
 10
43.53628784623885
 20
205.5627551700029
 30
0.0
 11
43.20193154623885
 21
205.5627551700029
 31
0.0
  0
LINE
  5
8962
  8
0
 10
43.20193154623885
 20
205.5627551700029
 30
0.0
 11
43.20193154623885
 21
205.2287712700029
 31
0.0
  0
LINE
  5
8963
  8
0
 10
43.86949654623888
 20
205.2287712700029
 30
0.0
 11
44.87108154623886
 21
205.2287712700029
 31
0.0
  0
LINE
  5
8964
  8
0
 10
44.87108154623886
 20
205.2287712700029
 30
0.0
 11
44.87108154623886
 21
205.5627551700029
 31
0.0
  0
LINE
  5
8965
  8
0
 10
44.87108154623886
 20
205.5627551700029
 30
0.0
 11
43.86949654623888
 21
205.5627551700029
 31
0.0
  0
LINE
  5
8966
  8
0
 10
43.86949654623888
 20
205.5627551700029
 30
0.0
 11
43.86949654623888
 21
205.2287712700029
 31
0.0
  0
LINE
  5
8967
  8
0
 10
45.53874154623884
 20
205.2287712700029
 30
0.0
 11
45.87272639623885
 21
205.2287712700029
 31
0.0
  0
LINE
  5
8968
  8
0
 10
45.87272639623885
 20
205.2287712700029
 30
0.0
 11
45.87272639623885
 21
205.5627551700029
 31
0.0
  0
LINE
  5
8969
  8
0
 10
45.87272639623885
 20
205.5627551700029
 30
0.0
 11
45.53874154623884
 21
205.5627551700029
 31
0.0
  0
LINE
  5
896A
  8
0
 10
45.53874154623884
 20
205.5627551700029
 30
0.0
 11
45.53874154623884
 21
205.2287712700029
 31
0.0
  0
LINE
  5
896B
  8
0
 10
46.20592654623886
 20
205.2287712700029
 30
0.0
 11
46.53991044623888
 21
205.2287712700029
 31
0.0
  0
LINE
  5
896C
  8
0
 10
46.53991044623888
 20
205.2287712700029
 30
0.0
 11
46.53991044623888
 21
205.5627551700029
 31
0.0
  0
LINE
  5
896D
  8
0
 10
46.53991044623888
 20
205.5627551700029
 30
0.0
 11
46.20592654623886
 21
205.5627551700029
 31
0.0
  0
LINE
  5
896E
  8
0
 10
46.20592654623886
 20
205.5627551700029
 30
0.0
 11
46.20592654623886
 21
205.2287712700029
 31
0.0
  0
LINE
  5
896F
  8
0
 10
47.54153154623887
 20
205.2287712700029
 30
0.0
 11
48.54311654623885
 21
205.2287712700029
 31
0.0
  0
LINE
  5
8970
  8
0
 10
48.54311654623885
 20
205.2287712700029
 30
0.0
 11
48.54311654623885
 21
205.5627551700029
 31
0.0
  0
LINE
  5
8971
  8
0
 10
48.54311654623885
 20
205.5627551700029
 30
0.0
 11
47.54153154623887
 21
205.5627551700029
 31
0.0
  0
LINE
  5
8972
  8
0
 10
47.54153154623887
 20
205.5627551700029
 30
0.0
 11
47.54153154623887
 21
205.2287712700029
 31
0.0
  0
LINE
  5
8973
  8
0
 10
49.20992154623886
 20
205.2287712700029
 30
0.0
 11
49.87751979623886
 21
205.2287712700029
 31
0.0
  0
LINE
  5
8974
  8
0
 10
49.87751979623886
 20
205.2287712700029
 30
0.0
 11
49.87751979623886
 21
205.5627551700029
 31
0.0
  0
LINE
  5
8975
  8
0
 10
49.87751979623886
 20
205.5627551700029
 30
0.0
 11
49.20992154623886
 21
205.5627551700029
 31
0.0
  0
LINE
  5
8976
  8
0
 10
49.20992154623886
 20
205.5627551700029
 30
0.0
 11
49.20992154623886
 21
205.2287712700029
 31
0.0
  0
LINE
  5
8977
  8
0
 10
50.54590654623885
 20
205.2287712700029
 30
0.0
 11
51.21313334623886
 21
205.2287712700029
 31
0.0
  0
LINE
  5
8978
  8
0
 10
51.21313334623886
 20
205.2287712700029
 30
0.0
 11
51.21313334623886
 21
205.5627551700029
 31
0.0
  0
LINE
  5
8979
  8
0
 10
51.21313334623886
 20
205.5627551700029
 30
0.0
 11
50.54590654623885
 21
205.5627551700029
 31
0.0
  0
LINE
  5
897A
  8
0
 10
50.54590654623885
 20
205.5627551700029
 30
0.0
 11
50.54590654623885
 21
205.2287712700029
 31
0.0
  0
LINE
  5
897B
  8
0
 10
51.54673154623885
 20
205.2287712700029
 30
0.0
 11
51.88071544623887
 21
205.2287712700029
 31
0.0
  0
LINE
  5
897C
  8
0
 10
51.88071544623887
 20
205.2287712700029
 30
0.0
 11
51.88071544623887
 21
205.5627551700029
 31
0.0
  0
LINE
  5
897D
  8
0
 10
51.88071544623887
 20
205.5627551700029
 30
0.0
 11
51.54673154623885
 21
205.5627551700029
 31
0.0
  0
LINE
  5
897E
  8
0
 10
51.54673154623885
 20
205.5627551700029
 30
0.0
 11
51.54673154623885
 21
205.2287712700029
 31
0.0
  0
LINE
  5
897F
  8
0
 10
52.21391654623886
 20
205.2287712700029
 30
0.0
 11
53.21550154623887
 21
205.2287712700029
 31
0.0
  0
LINE
  5
8980
  8
0
 10
53.21550154623887
 20
205.2287712700029
 30
0.0
 11
53.21550154623887
 21
205.5627551700029
 31
0.0
  0
LINE
  5
8981
  8
0
 10
53.21550154623887
 20
205.5627551700029
 30
0.0
 11
52.21391654623886
 21
205.5627551700029
 31
0.0
  0
LINE
  5
8982
  8
0
 10
52.21391654623886
 20
205.5627551700029
 30
0.0
 11
52.21391654623886
 21
205.2287712700029
 31
0.0
  0
LINE
  5
8983
  8
0
 10
42.53436654623886
 20
204.8951312700029
 30
0.0
 11
42.86872189623887
 21
204.8951312700029
 31
0.0
  0
LINE
  5
8984
  8
0
 10
42.86872189623887
 20
204.8951312700029
 30
0.0
 11
42.86872189623887
 21
205.2291151700029
 31
0.0
  0
LINE
  5
8985
  8
0
 10
42.86872189623887
 20
205.2291151700029
 30
0.0
 11
42.53436654623886
 21
205.2291151700029
 31
0.0
  0
LINE
  5
8986
  8
0
 10
42.53436654623886
 20
205.2291151700029
 30
0.0
 11
42.53436654623886
 21
204.8951312700029
 31
0.0
  0
LINE
  5
8987
  8
0
 10
43.86949654623888
 20
204.8951312700029
 30
0.0
 11
44.53709384623886
 21
204.8951312700029
 31
0.0
  0
LINE
  5
8988
  8
0
 10
44.53709384623886
 20
204.8951312700029
 30
0.0
 11
44.53709384623886
 21
205.2291151700029
 31
0.0
  0
LINE
  5
8989
  8
0
 10
44.53709384623886
 20
205.2291151700029
 30
0.0
 11
43.86949654623888
 21
205.2291151700029
 31
0.0
  0
LINE
  5
898A
  8
0
 10
43.86949654623888
 20
205.2291151700029
 30
0.0
 11
43.86949654623888
 21
204.8951312700029
 31
0.0
  0
LINE
  5
898B
  8
0
 10
44.87108154623886
 20
204.8951312700029
 30
0.0
 11
46.87350104623886
 21
204.8951312700029
 31
0.0
  0
LINE
  5
898C
  8
0
 10
46.87350104623886
 20
204.8951312700029
 30
0.0
 11
46.87350104623886
 21
205.2291151700029
 31
0.0
  0
LINE
  5
898D
  8
0
 10
46.87350104623886
 20
205.2291151700029
 30
0.0
 11
44.87108154623886
 21
205.2291151700029
 31
0.0
  0
LINE
  5
898E
  8
0
 10
44.87108154623886
 20
205.2291151700029
 30
0.0
 11
44.87108154623886
 21
204.8951312700029
 31
0.0
  0
LINE
  5
898F
  8
0
 10
48.54273654623887
 20
204.8951312700029
 30
0.0
 11
48.87672139623885
 21
204.8951312700029
 31
0.0
  0
LINE
  5
8990
  8
0
 10
48.87672139623885
 20
204.8951312700029
 30
0.0
 11
48.87672139623885
 21
205.2291151700029
 31
0.0
  0
LINE
  5
8991
  8
0
 10
48.87672139623885
 20
205.2291151700029
 30
0.0
 11
48.54273654623887
 21
205.2291151700029
 31
0.0
  0
LINE
  5
8992
  8
0
 10
48.54273654623887
 20
205.2291151700029
 30
0.0
 11
48.54273654623887
 21
204.8951312700029
 31
0.0
  0
LINE
  5
8993
  8
0
 10
49.87748654623886
 20
204.8951312700029
 30
0.0
 11
50.54508384623887
 21
204.8951312700029
 31
0.0
  0
LINE
  5
8994
  8
0
 10
50.54508384623887
 20
204.8951312700029
 30
0.0
 11
50.54508384623887
 21
205.2291151700029
 31
0.0
  0
LINE
  5
8995
  8
0
 10
50.54508384623887
 20
205.2291151700029
 30
0.0
 11
49.87748654623886
 21
205.2291151700029
 31
0.0
  0
LINE
  5
8996
  8
0
 10
49.87748654623886
 20
205.2291151700029
 30
0.0
 11
49.87748654623886
 21
204.8951312700029
 31
0.0
  0
LINE
  5
8997
  8
0
 10
50.87907154623886
 20
204.8951312700029
 30
0.0
 11
51.88065654623887
 21
204.8951312700029
 31
0.0
  0
LINE
  5
8998
  8
0
 10
51.88065654623887
 20
204.8951312700029
 30
0.0
 11
51.88065654623887
 21
205.2291151700029
 31
0.0
  0
LINE
  5
8999
  8
0
 10
51.88065654623887
 20
205.2291151700029
 30
0.0
 11
50.87907154623886
 21
205.2291151700029
 31
0.0
  0
LINE
  5
899A
  8
0
 10
50.87907154623886
 20
205.2291151700029
 30
0.0
 11
50.87907154623886
 21
204.8951312700029
 31
0.0
  0
LINE
  5
899B
  8
0
 10
52.21391654623886
 20
204.8951312700029
 30
0.0
 11
52.88151384623885
 21
204.8951312700029
 31
0.0
  0
LINE
  5
899C
  8
0
 10
52.88151384623885
 20
204.8951312700029
 30
0.0
 11
52.88151384623885
 21
205.2291151700029
 31
0.0
  0
LINE
  5
899D
  8
0
 10
52.88151384623885
 20
205.2291151700029
 30
0.0
 11
52.21391654623886
 21
205.2291151700029
 31
0.0
  0
LINE
  5
899E
  8
0
 10
52.21391654623886
 20
205.2291151700029
 30
0.0
 11
52.21391654623886
 21
204.8951312700029
 31
0.0
  0
LINE
  5
899F
  8
0
 10
53.21550154623887
 20
204.8951312700029
 30
0.0
 11
53.54985784623887
 21
204.8951312700029
 31
0.0
  0
LINE
  5
89A0
  8
0
 10
53.54985784623887
 20
204.8951312700029
 30
0.0
 11
53.54985784623887
 21
205.2291151700029
 31
0.0
  0
LINE
  5
89A1
  8
0
 10
53.54985784623887
 20
205.2291151700029
 30
0.0
 11
53.21550154623887
 21
205.2291151700029
 31
0.0
  0
LINE
  5
89A2
  8
0
 10
53.21550154623887
 20
205.2291151700029
 30
0.0
 11
53.21550154623887
 21
204.8951312700029
 31
0.0
  0
LINE
  5
89A3
  8
0
 10
42.53436654623886
 20
204.5611112700029
 30
0.0
 11
43.20196384623884
 21
204.5611112700029
 31
0.0
  0
LINE
  5
89A4
  8
0
 10
43.20196384623884
 20
204.5611112700029
 30
0.0
 11
43.20196384623884
 21
204.8950961200029
 31
0.0
  0
LINE
  5
89A5
  8
0
 10
43.20196384623884
 20
204.8950961200029
 30
0.0
 11
42.53436654623886
 21
204.8950961200029
 31
0.0
  0
LINE
  5
89A6
  8
0
 10
42.53436654623886
 20
204.8950961200029
 30
0.0
 11
42.53436654623886
 21
204.5611112700029
 31
0.0
  0
LINE
  5
89A7
  8
0
 10
43.53585654623888
 20
204.5611112700029
 30
0.0
 11
43.86984044623887
 21
204.5611112700029
 31
0.0
  0
LINE
  5
89A8
  8
0
 10
43.86984044623887
 20
204.5611112700029
 30
0.0
 11
43.86984044623887
 21
204.8950961200029
 31
0.0
  0
LINE
  5
89A9
  8
0
 10
43.86984044623887
 20
204.8950961200029
 30
0.0
 11
43.53585654623888
 21
204.8950961200029
 31
0.0
  0
LINE
  5
89AA
  8
0
 10
43.53585654623888
 20
204.8950961200029
 30
0.0
 11
43.53585654623888
 21
204.5611112700029
 31
0.0
  0
LINE
  5
89AB
  8
0
 10
44.20351654623886
 20
204.5611112700029
 30
0.0
 11
46.20593604623886
 21
204.5611112700029
 31
0.0
  0
LINE
  5
89AC
  8
0
 10
46.20593604623886
 20
204.5611112700029
 30
0.0
 11
46.20593604623886
 21
204.8950961200029
 31
0.0
  0
LINE
  5
89AD
  8
0
 10
46.20593604623886
 20
204.8950961200029
 30
0.0
 11
44.20351654623886
 21
204.8950961200029
 31
0.0
  0
LINE
  5
89AE
  8
0
 10
44.20351654623886
 20
204.8950961200029
 30
0.0
 11
44.20351654623886
 21
204.5611112700029
 31
0.0
  0
LINE
  5
89AF
  8
0
 10
47.54153154623887
 20
204.5611112700029
 30
0.0
 11
48.20912979623884
 21
204.5611112700029
 31
0.0
  0
LINE
  5
89B0
  8
0
 10
48.20912979623884
 20
204.5611112700029
 30
0.0
 11
48.20912979623884
 21
204.8950961200029
 31
0.0
  0
LINE
  5
89B1
  8
0
 10
48.20912979623884
 20
204.8950961200029
 30
0.0
 11
47.54153154623887
 21
204.8950961200029
 31
0.0
  0
LINE
  5
89B2
  8
0
 10
47.54153154623887
 20
204.8950961200029
 30
0.0
 11
47.54153154623887
 21
204.5611112700029
 31
0.0
  0
LINE
  5
89B3
  8
0
 10
48.87666154623886
 20
204.5611112700029
 30
0.0
 11
49.54425884623885
 21
204.5611112700029
 31
0.0
  0
LINE
  5
89B4
  8
0
 10
49.54425884623885
 20
204.5611112700029
 30
0.0
 11
49.54425884623885
 21
204.8950961200029
 31
0.0
  0
LINE
  5
89B5
  8
0
 10
49.54425884623885
 20
204.8950961200029
 30
0.0
 11
48.87666154623886
 21
204.8950961200029
 31
0.0
  0
LINE
  5
89B6
  8
0
 10
48.87666154623886
 20
204.8950961200029
 30
0.0
 11
48.87666154623886
 21
204.5611112700029
 31
0.0
  0
LINE
  5
89B7
  8
0
 10
50.54590654623885
 20
204.5611112700029
 30
0.0
 11
52.54832604623886
 21
204.5611112700029
 31
0.0
  0
LINE
  5
89B8
  8
0
 10
52.54832604623886
 20
204.5611112700029
 30
0.0
 11
52.54832604623886
 21
204.8950961200029
 31
0.0
  0
LINE
  5
89B9
  8
0
 10
52.54832604623886
 20
204.8950961200029
 30
0.0
 11
50.54590654623885
 21
204.8950961200029
 31
0.0
  0
LINE
  5
89BA
  8
0
 10
50.54590654623885
 20
204.8950961200029
 30
0.0
 11
50.54590654623885
 21
204.5611112700029
 31
0.0
  0
LINE
  5
89BB
  8
0
 10
45.20510154623886
 20
204.2275662700029
 30
0.0
 11
45.53908639623887
 21
204.2275662700029
 31
0.0
  0
LINE
  5
89BC
  8
0
 10
45.53908639623887
 20
204.2275662700029
 30
0.0
 11
45.53908639623887
 21
204.5615511200029
 31
0.0
  0
LINE
  5
89BD
  8
0
 10
45.53908639623887
 20
204.5615511200029
 30
0.0
 11
45.20510154623886
 21
204.5615511200029
 31
0.0
  0
LINE
  5
89BE
  8
0
 10
45.20510154623886
 20
204.5615511200029
 30
0.0
 11
45.20510154623886
 21
204.2275662700029
 31
0.0
  0
LINE
  5
89BF
  8
0
 10
46.20592654623886
 20
204.2275662700029
 30
0.0
 11
46.53991044623888
 21
204.2275662700029
 31
0.0
  0
LINE
  5
89C0
  8
0
 10
46.53991044623888
 20
204.2275662700029
 30
0.0
 11
46.53991044623888
 21
204.5615511200029
 31
0.0
  0
LINE
  5
89C1
  8
0
 10
46.53991044623888
 20
204.5615511200029
 30
0.0
 11
46.20592654623886
 21
204.5615511200029
 31
0.0
  0
LINE
  5
89C2
  8
0
 10
46.20592654623886
 20
204.5615511200029
 30
0.0
 11
46.20592654623886
 21
204.2275662700029
 31
0.0
  0
LINE
  5
89C3
  8
0
 10
46.87349154623885
 20
204.2275662700029
 30
0.0
 11
47.20747639623886
 21
204.2275662700029
 31
0.0
  0
LINE
  5
89C4
  8
0
 10
47.20747639623886
 20
204.2275662700029
 30
0.0
 11
47.20747639623886
 21
204.5615511200029
 31
0.0
  0
LINE
  5
89C5
  8
0
 10
47.20747639623886
 20
204.5615511200029
 30
0.0
 11
46.87349154623885
 21
204.5615511200029
 31
0.0
  0
LINE
  5
89C6
  8
0
 10
46.87349154623885
 20
204.5615511200029
 30
0.0
 11
46.87349154623885
 21
204.2275662700029
 31
0.0
  0
LINE
  5
89C7
  8
0
 10
47.54153154623887
 20
204.2275662700029
 30
0.0
 11
47.87588689623888
 21
204.2275662700029
 31
0.0
  0
LINE
  5
89C8
  8
0
 10
47.87588689623888
 20
204.2275662700029
 30
0.0
 11
47.87588689623888
 21
204.5615511200029
 31
0.0
  0
LINE
  5
89C9
  8
0
 10
47.87588689623888
 20
204.5615511200029
 30
0.0
 11
47.54153154623887
 21
204.5615511200029
 31
0.0
  0
LINE
  5
89CA
  8
0
 10
47.54153154623887
 20
204.5615511200029
 30
0.0
 11
47.54153154623887
 21
204.2275662700029
 31
0.0
  0
LINE
  5
89CB
  8
0
 10
48.54273654623887
 20
204.2275662700029
 30
0.0
 11
49.54395104623887
 21
204.2275662700029
 31
0.0
  0
LINE
  5
89CC
  8
0
 10
49.54395104623887
 20
204.2275662700029
 30
0.0
 11
49.54395104623887
 21
204.5615511200029
 31
0.0
  0
LINE
  5
89CD
  8
0
 10
49.54395104623887
 20
204.5615511200029
 30
0.0
 11
48.54273654623887
 21
204.5615511200029
 31
0.0
  0
LINE
  5
89CE
  8
0
 10
48.54273654623887
 20
204.5615511200029
 30
0.0
 11
48.54273654623887
 21
204.2275662700029
 31
0.0
  0
LINE
  5
89CF
  8
0
 10
49.87748654623886
 20
204.2275662700029
 30
0.0
 11
50.87907154623886
 21
204.2275662700029
 31
0.0
  0
LINE
  5
89D0
  8
0
 10
50.87907154623886
 20
204.2275662700029
 30
0.0
 11
50.87907154623886
 21
204.5615511200029
 31
0.0
  0
LINE
  5
89D1
  8
0
 10
50.87907154623886
 20
204.5615511200029
 30
0.0
 11
49.87748654623886
 21
204.5615511200029
 31
0.0
  0
LINE
  5
89D2
  8
0
 10
49.87748654623886
 20
204.5615511200029
 30
0.0
 11
49.87748654623886
 21
204.2275662700029
 31
0.0
  0
LINE
  5
89D3
  8
0
 10
51.88065654623887
 20
204.2275662700029
 30
0.0
 11
52.21464139623885
 21
204.2275662700029
 31
0.0
  0
LINE
  5
89D4
  8
0
 10
52.21464139623885
 20
204.2275662700029
 30
0.0
 11
52.21464139623885
 21
204.5615511200029
 31
0.0
  0
LINE
  5
89D5
  8
0
 10
52.21464139623885
 20
204.5615511200029
 30
0.0
 11
51.88065654623887
 21
204.5615511200029
 31
0.0
  0
LINE
  5
89D6
  8
0
 10
51.88065654623887
 20
204.5615511200029
 30
0.0
 11
51.88065654623887
 21
204.2275662700029
 31
0.0
  0
LINE
  5
89D7
  8
0
 10
52.54831654623885
 20
204.2275662700029
 30
0.0
 11
53.54990154623886
 21
204.2275662700029
 31
0.0
  0
LINE
  5
89D8
  8
0
 10
53.54990154623886
 20
204.2275662700029
 30
0.0
 11
53.54990154623886
 21
204.5615511200029
 31
0.0
  0
LINE
  5
89D9
  8
0
 10
53.54990154623886
 20
204.5615511200029
 30
0.0
 11
52.54831654623885
 21
204.5615511200029
 31
0.0
  0
LINE
  5
89DA
  8
0
 10
52.54831654623885
 20
204.5615511200029
 30
0.0
 11
52.54831654623885
 21
204.2275662700029
 31
0.0
  0
LINE
  5
89DB
  8
0
 10
42.53436654623886
 20
203.8935462700029
 30
0.0
 11
44.87114804623889
 21
203.8935462700029
 31
0.0
  0
LINE
  5
89DC
  8
0
 10
44.87114804623889
 20
203.8935462700029
 30
0.0
 11
44.87114804623889
 21
204.2275301700029
 31
0.0
  0
LINE
  5
89DD
  8
0
 10
44.87114804623889
 20
204.2275301700029
 30
0.0
 11
42.53436654623886
 21
204.2275301700029
 31
0.0
  0
LINE
  5
89DE
  8
0
 10
42.53436654623886
 20
204.2275301700029
 30
0.0
 11
42.53436654623886
 21
203.8935462700029
 31
0.0
  0
LINE
  5
89DF
  8
0
 10
46.20592654623886
 20
203.8935462700029
 30
0.0
 11
47.20751154623886
 21
203.8935462700029
 31
0.0
  0
LINE
  5
89E0
  8
0
 10
47.20751154623886
 20
203.8935462700029
 30
0.0
 11
47.20751154623886
 21
204.2275301700029
 31
0.0
  0
LINE
  5
89E1
  8
0
 10
47.20751154623886
 20
204.2275301700029
 30
0.0
 11
46.20592654623886
 21
204.2275301700029
 31
0.0
  0
LINE
  5
89E2
  8
0
 10
46.20592654623886
 20
204.2275301700029
 30
0.0
 11
46.20592654623886
 21
203.8935462700029
 31
0.0
  0
LINE
  5
89E3
  8
0
 10
47.54153154623887
 20
203.8935462700029
 30
0.0
 11
48.20912979623884
 21
203.8935462700029
 31
0.0
  0
LINE
  5
89E4
  8
0
 10
48.20912979623884
 20
203.8935462700029
 30
0.0
 11
48.20912979623884
 21
204.2275301700029
 31
0.0
  0
LINE
  5
89E5
  8
0
 10
48.20912979623884
 20
204.2275301700029
 30
0.0
 11
47.54153154623887
 21
204.2275301700029
 31
0.0
  0
LINE
  5
89E6
  8
0
 10
47.54153154623887
 20
204.2275301700029
 30
0.0
 11
47.54153154623887
 21
203.8935462700029
 31
0.0
  0
LINE
  5
89E7
  8
0
 10
48.54273654623887
 20
203.8935462700029
 30
0.0
 11
48.87672139623885
 21
203.8935462700029
 31
0.0
  0
LINE
  5
89E8
  8
0
 10
48.87672139623885
 20
203.8935462700029
 30
0.0
 11
48.87672139623885
 21
204.2275301700029
 31
0.0
  0
LINE
  5
89E9
  8
0
 10
48.87672139623885
 20
204.2275301700029
 30
0.0
 11
48.54273654623887
 21
204.2275301700029
 31
0.0
  0
LINE
  5
89EA
  8
0
 10
48.54273654623887
 20
204.2275301700029
 30
0.0
 11
48.54273654623887
 21
203.8935462700029
 31
0.0
  0
LINE
  5
89EB
  8
0
 10
49.20992154623886
 20
203.8935462700029
 30
0.0
 11
49.87751979623886
 21
203.8935462700029
 31
0.0
  0
LINE
  5
89EC
  8
0
 10
49.87751979623886
 20
203.8935462700029
 30
0.0
 11
49.87751979623886
 21
204.2275301700029
 31
0.0
  0
LINE
  5
89ED
  8
0
 10
49.87751979623886
 20
204.2275301700029
 30
0.0
 11
49.20992154623886
 21
204.2275301700029
 31
0.0
  0
LINE
  5
89EE
  8
0
 10
49.20992154623886
 20
204.2275301700029
 30
0.0
 11
49.20992154623886
 21
203.8935462700029
 31
0.0
  0
LINE
  5
89EF
  8
0
 10
50.21150654623887
 20
203.8935462700029
 30
0.0
 11
50.87910384623885
 21
203.8935462700029
 31
0.0
  0
LINE
  5
89F0
  8
0
 10
50.87910384623885
 20
203.8935462700029
 30
0.0
 11
50.87910384623885
 21
204.2275301700029
 31
0.0
  0
LINE
  5
89F1
  8
0
 10
50.87910384623885
 20
204.2275301700029
 30
0.0
 11
50.21150654623887
 21
204.2275301700029
 31
0.0
  0
LINE
  5
89F2
  8
0
 10
50.21150654623887
 20
204.2275301700029
 30
0.0
 11
50.21150654623887
 21
203.8935462700029
 31
0.0
  0
LINE
  5
89F3
  8
0
 10
51.21309154623887
 20
203.8935462700029
 30
0.0
 11
51.54707544623886
 21
203.8935462700029
 31
0.0
  0
LINE
  5
89F4
  8
0
 10
51.54707544623886
 20
203.8935462700029
 30
0.0
 11
51.54707544623886
 21
204.2275301700029
 31
0.0
  0
LINE
  5
89F5
  8
0
 10
51.54707544623886
 20
204.2275301700029
 30
0.0
 11
51.21309154623887
 21
204.2275301700029
 31
0.0
  0
LINE
  5
89F6
  8
0
 10
51.21309154623887
 20
204.2275301700029
 30
0.0
 11
51.21309154623887
 21
203.8935462700029
 31
0.0
  0
LINE
  5
89F7
  8
0
 10
51.88065654623887
 20
203.8935462700029
 30
0.0
 11
52.21464139623885
 21
203.8935462700029
 31
0.0
  0
LINE
  5
89F8
  8
0
 10
52.21464139623885
 20
203.8935462700029
 30
0.0
 11
52.21464139623885
 21
204.2275301700029
 31
0.0
  0
LINE
  5
89F9
  8
0
 10
52.21464139623885
 20
204.2275301700029
 30
0.0
 11
51.88065654623887
 21
204.2275301700029
 31
0.0
  0
LINE
  5
89FA
  8
0
 10
51.88065654623887
 20
204.2275301700029
 30
0.0
 11
51.88065654623887
 21
203.8935462700029
 31
0.0
  0
LINE
  5
89FB
  8
0
 10
52.54831654623885
 20
203.8935462700029
 30
0.0
 11
53.21554239623887
 21
203.8935462700029
 31
0.0
  0
LINE
  5
89FC
  8
0
 10
53.21554239623887
 20
203.8935462700029
 30
0.0
 11
53.21554239623887
 21
204.2275301700029
 31
0.0
  0
LINE
  5
89FD
  8
0
 10
53.21554239623887
 20
204.2275301700029
 30
0.0
 11
52.54831654623885
 21
204.2275301700029
 31
0.0
  0
LINE
  5
89FE
  8
0
 10
52.54831654623885
 20
204.2275301700029
 30
0.0
 11
52.54831654623885
 21
203.8935462700029
 31
0.0
  0
LINE
  5
89FF
  8
0
 10
42.53436654623886
 20
203.5602862700029
 30
0.0
 11
42.86872189623887
 21
203.5602862700029
 31
0.0
  0
LINE
  5
8A00
  8
0
 10
42.86872189623887
 20
203.5602862700029
 30
0.0
 11
42.86872189623887
 21
203.8942701700029
 31
0.0
  0
LINE
  5
8A01
  8
0
 10
42.86872189623887
 20
203.8942701700029
 30
0.0
 11
42.53436654623886
 21
203.8942701700029
 31
0.0
  0
LINE
  5
8A02
  8
0
 10
42.53436654623886
 20
203.8942701700029
 30
0.0
 11
42.53436654623886
 21
203.5602862700029
 31
0.0
  0
LINE
  5
8A03
  8
0
 10
44.53744154623885
 20
203.5602862700029
 30
0.0
 11
44.87142544623885
 21
203.5602862700029
 31
0.0
  0
LINE
  5
8A04
  8
0
 10
44.87142544623885
 20
203.5602862700029
 30
0.0
 11
44.87142544623885
 21
203.8942701700029
 31
0.0
  0
LINE
  5
8A05
  8
0
 10
44.87142544623885
 20
203.8942701700029
 30
0.0
 11
44.53744154623885
 21
203.8942701700029
 31
0.0
  0
LINE
  5
8A06
  8
0
 10
44.53744154623885
 20
203.8942701700029
 30
0.0
 11
44.53744154623885
 21
203.5602862700029
 31
0.0
  0
LINE
  5
8A07
  8
0
 10
45.53874154623884
 20
203.5602862700029
 30
0.0
 11
46.53995604623884
 21
203.5602862700029
 31
0.0
  0
LINE
  5
8A08
  8
0
 10
46.53995604623884
 20
203.5602862700029
 30
0.0
 11
46.53995604623884
 21
203.8942701700029
 31
0.0
  0
LINE
  5
8A09
  8
0
 10
46.53995604623884
 20
203.8942701700029
 30
0.0
 11
45.53874154623884
 21
203.8942701700029
 31
0.0
  0
LINE
  5
8A0A
  8
0
 10
45.53874154623884
 20
203.8942701700029
 30
0.0
 11
45.53874154623884
 21
203.5602862700029
 31
0.0
  0
LINE
  5
8A0B
  8
0
 10
47.54153154623887
 20
203.5602862700029
 30
0.0
 11
47.87588689623888
 21
203.5602862700029
 31
0.0
  0
LINE
  5
8A0C
  8
0
 10
47.87588689623888
 20
203.5602862700029
 30
0.0
 11
47.87588689623888
 21
203.8942701700029
 31
0.0
  0
LINE
  5
8A0D
  8
0
 10
47.87588689623888
 20
203.8942701700029
 30
0.0
 11
47.54153154623887
 21
203.8942701700029
 31
0.0
  0
LINE
  5
8A0E
  8
0
 10
47.54153154623887
 20
203.8942701700029
 30
0.0
 11
47.54153154623887
 21
203.5602862700029
 31
0.0
  0
LINE
  5
8A0F
  8
0
 10
49.20992154623886
 20
203.5602862700029
 30
0.0
 11
49.54427689623887
 21
203.5602862700029
 31
0.0
  0
LINE
  5
8A10
  8
0
 10
49.54427689623887
 20
203.5602862700029
 30
0.0
 11
49.54427689623887
 21
203.8942701700029
 31
0.0
  0
LINE
  5
8A11
  8
0
 10
49.54427689623887
 20
203.8942701700029
 30
0.0
 11
49.20992154623886
 21
203.8942701700029
 31
0.0
  0
LINE
  5
8A12
  8
0
 10
49.20992154623886
 20
203.8942701700029
 30
0.0
 11
49.20992154623886
 21
203.5602862700029
 31
0.0
  0
LINE
  5
8A13
  8
0
 10
50.21150654623887
 20
203.5602862700029
 30
0.0
 11
50.87910384623885
 21
203.5602862700029
 31
0.0
  0
LINE
  5
8A14
  8
0
 10
50.87910384623885
 20
203.5602862700029
 30
0.0
 11
50.87910384623885
 21
203.8942701700029
 31
0.0
  0
LINE
  5
8A15
  8
0
 10
50.87910384623885
 20
203.8942701700029
 30
0.0
 11
50.21150654623887
 21
203.8942701700029
 31
0.0
  0
LINE
  5
8A16
  8
0
 10
50.21150654623887
 20
203.8942701700029
 30
0.0
 11
50.21150654623887
 21
203.5602862700029
 31
0.0
  0
LINE
  5
8A17
  8
0
 10
51.88065654623887
 20
203.5602862700029
 30
0.0
 11
52.88224154623884
 21
203.5602862700029
 31
0.0
  0
LINE
  5
8A18
  8
0
 10
52.88224154623884
 20
203.5602862700029
 30
0.0
 11
52.88224154623884
 21
203.8942701700029
 31
0.0
  0
LINE
  5
8A19
  8
0
 10
52.88224154623884
 20
203.8942701700029
 30
0.0
 11
51.88065654623887
 21
203.8942701700029
 31
0.0
  0
LINE
  5
8A1A
  8
0
 10
51.88065654623887
 20
203.8942701700029
 30
0.0
 11
51.88065654623887
 21
203.5602862700029
 31
0.0
  0
LINE
  5
8A1B
  8
0
 10
53.21550154623887
 20
203.5602862700029
 30
0.0
 11
53.54985784623887
 21
203.5602862700029
 31
0.0
  0
LINE
  5
8A1C
  8
0
 10
53.54985784623887
 20
203.5602862700029
 30
0.0
 11
53.54985784623887
 21
203.8942701700029
 31
0.0
  0
LINE
  5
8A1D
  8
0
 10
53.54985784623887
 20
203.8942701700029
 30
0.0
 11
53.21550154623887
 21
203.8942701700029
 31
0.0
  0
LINE
  5
8A1E
  8
0
 10
53.21550154623887
 20
203.8942701700029
 30
0.0
 11
53.21550154623887
 21
203.5602862700029
 31
0.0
  0
LINE
  5
8A1F
  8
0
 10
42.53436654623886
 20
203.2262662700029
 30
0.0
 11
42.86872189623887
 21
203.2262662700029
 31
0.0
  0
LINE
  5
8A20
  8
0
 10
42.86872189623887
 20
203.2262662700029
 30
0.0
 11
42.86872189623887
 21
203.5602511200029
 31
0.0
  0
LINE
  5
8A21
  8
0
 10
42.86872189623887
 20
203.5602511200029
 30
0.0
 11
42.53436654623886
 21
203.5602511200029
 31
0.0
  0
LINE
  5
8A22
  8
0
 10
42.53436654623886
 20
203.5602511200029
 30
0.0
 11
42.53436654623886
 21
203.2262662700029
 31
0.0
  0
LINE
  5
8A23
  8
0
 10
43.20193154623885
 20
203.2262662700029
 30
0.0
 11
44.20351654623886
 21
203.2262662700029
 31
0.0
  0
LINE
  5
8A24
  8
0
 10
44.20351654623886
 20
203.2262662700029
 30
0.0
 11
44.20351654623886
 21
203.5602511200029
 31
0.0
  0
LINE
  5
8A25
  8
0
 10
44.20351654623886
 20
203.5602511200029
 30
0.0
 11
43.20193154623885
 21
203.5602511200029
 31
0.0
  0
LINE
  5
8A26
  8
0
 10
43.20193154623885
 20
203.5602511200029
 30
0.0
 11
43.20193154623885
 21
203.2262662700029
 31
0.0
  0
LINE
  5
8A27
  8
0
 10
44.53744154623885
 20
203.2262662700029
 30
0.0
 11
44.87142544623885
 21
203.2262662700029
 31
0.0
  0
LINE
  5
8A28
  8
0
 10
44.87142544623885
 20
203.2262662700029
 30
0.0
 11
44.87142544623885
 21
203.5602511200029
 31
0.0
  0
LINE
  5
8A29
  8
0
 10
44.87142544623885
 20
203.5602511200029
 30
0.0
 11
44.53744154623885
 21
203.5602511200029
 31
0.0
  0
LINE
  5
8A2A
  8
0
 10
44.53744154623885
 20
203.5602511200029
 30
0.0
 11
44.53744154623885
 21
203.2262662700029
 31
0.0
  0
LINE
  5
8A2B
  8
0
 10
45.87266654623886
 20
203.2262662700029
 30
0.0
 11
46.53989239623886
 21
203.2262662700029
 31
0.0
  0
LINE
  5
8A2C
  8
0
 10
46.53989239623886
 20
203.2262662700029
 30
0.0
 11
46.53989239623886
 21
203.5602511200029
 31
0.0
  0
LINE
  5
8A2D
  8
0
 10
46.53989239623886
 20
203.5602511200029
 30
0.0
 11
45.87266654623886
 21
203.5602511200029
 31
0.0
  0
LINE
  5
8A2E
  8
0
 10
45.87266654623886
 20
203.5602511200029
 30
0.0
 11
45.87266654623886
 21
203.2262662700029
 31
0.0
  0
LINE
  5
8A2F
  8
0
 10
46.87349154623885
 20
203.2262662700029
 30
0.0
 11
47.54108979623888
 21
203.2262662700029
 31
0.0
  0
LINE
  5
8A30
  8
0
 10
47.54108979623888
 20
203.2262662700029
 30
0.0
 11
47.54108979623888
 21
203.5602511200029
 31
0.0
  0
LINE
  5
8A31
  8
0
 10
47.54108979623888
 20
203.5602511200029
 30
0.0
 11
46.87349154623885
 21
203.5602511200029
 31
0.0
  0
LINE
  5
8A32
  8
0
 10
46.87349154623885
 20
203.5602511200029
 30
0.0
 11
46.87349154623885
 21
203.2262662700029
 31
0.0
  0
LINE
  5
8A33
  8
0
 10
48.54273654623887
 20
203.2262662700029
 30
0.0
 11
49.20996334623888
 21
203.2262662700029
 31
0.0
  0
LINE
  5
8A34
  8
0
 10
49.20996334623888
 20
203.2262662700029
 30
0.0
 11
49.20996334623888
 21
203.5602511200029
 31
0.0
  0
LINE
  5
8A35
  8
0
 10
49.20996334623888
 20
203.5602511200029
 30
0.0
 11
48.54273654623887
 21
203.5602511200029
 31
0.0
  0
LINE
  5
8A36
  8
0
 10
48.54273654623887
 20
203.5602511200029
 30
0.0
 11
48.54273654623887
 21
203.2262662700029
 31
0.0
  0
LINE
  5
8A37
  8
0
 10
49.54432154623885
 20
203.2262662700029
 30
0.0
 11
49.87830639623886
 21
203.2262662700029
 31
0.0
  0
LINE
  5
8A38
  8
0
 10
49.87830639623886
 20
203.2262662700029
 30
0.0
 11
49.87830639623886
 21
203.5602511200029
 31
0.0
  0
LINE
  5
8A39
  8
0
 10
49.87830639623886
 20
203.5602511200029
 30
0.0
 11
49.54432154623885
 21
203.5602511200029
 31
0.0
  0
LINE
  5
8A3A
  8
0
 10
49.54432154623885
 20
203.5602511200029
 30
0.0
 11
49.54432154623885
 21
203.2262662700029
 31
0.0
  0
LINE
  5
8A3B
  8
0
 10
50.54590654623885
 20
203.2262662700029
 30
0.0
 11
52.54832604623886
 21
203.2262662700029
 31
0.0
  0
LINE
  5
8A3C
  8
0
 10
52.54832604623886
 20
203.2262662700029
 30
0.0
 11
52.54832604623886
 21
203.5602511200029
 31
0.0
  0
LINE
  5
8A3D
  8
0
 10
52.54832604623886
 20
203.5602511200029
 30
0.0
 11
50.54590654623885
 21
203.5602511200029
 31
0.0
  0
LINE
  5
8A3E
  8
0
 10
50.54590654623885
 20
203.5602511200029
 30
0.0
 11
50.54590654623885
 21
203.2262662700029
 31
0.0
  0
LINE
  5
8A3F
  8
0
 10
42.53436654623886
 20
202.8919612700029
 30
0.0
 11
42.86872189623887
 21
202.8919612700029
 31
0.0
  0
LINE
  5
8A40
  8
0
 10
42.86872189623887
 20
202.8919612700029
 30
0.0
 11
42.86872189623887
 21
203.2263166200029
 31
0.0
  0
LINE
  5
8A41
  8
0
 10
42.86872189623887
 20
203.2263166200029
 30
0.0
 11
42.53436654623886
 21
203.2263166200029
 31
0.0
  0
LINE
  5
8A42
  8
0
 10
42.53436654623886
 20
203.2263166200029
 30
0.0
 11
42.53436654623886
 21
202.8919612700029
 31
0.0
  0
LINE
  5
8A43
  8
0
 10
43.20193154623885
 20
202.8919612700029
 30
0.0
 11
44.20351654623886
 21
202.8919612700029
 31
0.0
  0
LINE
  5
8A44
  8
0
 10
44.20351654623886
 20
202.8919612700029
 30
0.0
 11
44.20351654623886
 21
203.2263166200029
 31
0.0
  0
LINE
  5
8A45
  8
0
 10
44.20351654623886
 20
203.2263166200029
 30
0.0
 11
43.20193154623885
 21
203.2263166200029
 31
0.0
  0
LINE
  5
8A46
  8
0
 10
43.20193154623885
 20
203.2263166200029
 30
0.0
 11
43.20193154623885
 21
202.8919612700029
 31
0.0
  0
LINE
  5
8A47
  8
0
 10
44.53744154623885
 20
202.8919612700029
 30
0.0
 11
44.87142544623885
 21
202.8919612700029
 31
0.0
  0
LINE
  5
8A48
  8
0
 10
44.87142544623885
 20
202.8919612700029
 30
0.0
 11
44.87142544623885
 21
203.2263166200029
 31
0.0
  0
LINE
  5
8A49
  8
0
 10
44.87142544623885
 20
203.2263166200029
 30
0.0
 11
44.53744154623885
 21
203.2263166200029
 31
0.0
  0
LINE
  5
8A4A
  8
0
 10
44.53744154623885
 20
203.2263166200029
 30
0.0
 11
44.53744154623885
 21
202.8919612700029
 31
0.0
  0
LINE
  5
8A4B
  8
0
 10
45.53874154623884
 20
202.8919612700029
 30
0.0
 11
46.87356754623886
 21
202.8919612700029
 31
0.0
  0
LINE
  5
8A4C
  8
0
 10
46.87356754623886
 20
202.8919612700029
 30
0.0
 11
46.87356754623886
 21
203.2263166200029
 31
0.0
  0
LINE
  5
8A4D
  8
0
 10
46.87356754623886
 20
203.2263166200029
 30
0.0
 11
45.53874154623884
 21
203.2263166200029
 31
0.0
  0
LINE
  5
8A4E
  8
0
 10
45.53874154623884
 20
203.2263166200029
 30
0.0
 11
45.53874154623884
 21
202.8919612700029
 31
0.0
  0
LINE
  5
8A4F
  8
0
 10
47.20751154623886
 20
202.8919612700029
 30
0.0
 11
47.54149544623888
 21
202.8919612700029
 31
0.0
  0
LINE
  5
8A50
  8
0
 10
47.54149544623888
 20
202.8919612700029
 30
0.0
 11
47.54149544623888
 21
203.2263166200029
 31
0.0
  0
LINE
  5
8A51
  8
0
 10
47.54149544623888
 20
203.2263166200029
 30
0.0
 11
47.20751154623886
 21
203.2263166200029
 31
0.0
  0
LINE
  5
8A52
  8
0
 10
47.20751154623886
 20
203.2263166200029
 30
0.0
 11
47.20751154623886
 21
202.8919612700029
 31
0.0
  0
LINE
  5
8A53
  8
0
 10
47.87507654623886
 20
202.8919612700029
 30
0.0
 11
48.20906139623887
 21
202.8919612700029
 31
0.0
  0
LINE
  5
8A54
  8
0
 10
48.20906139623887
 20
202.8919612700029
 30
0.0
 11
48.20906139623887
 21
203.2263166200029
 31
0.0
  0
LINE
  5
8A55
  8
0
 10
48.20906139623887
 20
203.2263166200029
 30
0.0
 11
47.87507654623886
 21
203.2263166200029
 31
0.0
  0
LINE
  5
8A56
  8
0
 10
47.87507654623886
 20
203.2263166200029
 30
0.0
 11
47.87507654623886
 21
202.8919612700029
 31
0.0
  0
LINE
  5
8A57
  8
0
 10
49.20992154623886
 20
202.8919612700029
 30
0.0
 11
49.54427689623887
 21
202.8919612700029
 31
0.0
  0
LINE
  5
8A58
  8
0
 10
49.54427689623887
 20
202.8919612700029
 30
0.0
 11
49.54427689623887
 21
203.2263166200029
 31
0.0
  0
LINE
  5
8A59
  8
0
 10
49.54427689623887
 20
203.2263166200029
 30
0.0
 11
49.20992154623886
 21
203.2263166200029
 31
0.0
  0
LINE
  5
8A5A
  8
0
 10
49.20992154623886
 20
203.2263166200029
 30
0.0
 11
49.20992154623886
 21
202.8919612700029
 31
0.0
  0
LINE
  5
8A5B
  8
0
 10
49.87748654623886
 20
202.8919612700029
 30
0.0
 11
50.54508384623887
 21
202.8919612700029
 31
0.0
  0
LINE
  5
8A5C
  8
0
 10
50.54508384623887
 20
202.8919612700029
 30
0.0
 11
50.54508384623887
 21
203.2263166200029
 31
0.0
  0
LINE
  5
8A5D
  8
0
 10
50.54508384623887
 20
203.2263166200029
 30
0.0
 11
49.87748654623886
 21
203.2263166200029
 31
0.0
  0
LINE
  5
8A5E
  8
0
 10
49.87748654623886
 20
203.2263166200029
 30
0.0
 11
49.87748654623886
 21
202.8919612700029
 31
0.0
  0
LINE
  5
8A5F
  8
0
 10
50.87907154623886
 20
202.8919612700029
 30
0.0
 11
51.21305639623887
 21
202.8919612700029
 31
0.0
  0
LINE
  5
8A60
  8
0
 10
51.21305639623887
 20
202.8919612700029
 30
0.0
 11
51.21305639623887
 21
203.2263166200029
 31
0.0
  0
LINE
  5
8A61
  8
0
 10
51.21305639623887
 20
203.2263166200029
 30
0.0
 11
50.87907154623886
 21
203.2263166200029
 31
0.0
  0
LINE
  5
8A62
  8
0
 10
50.87907154623886
 20
203.2263166200029
 30
0.0
 11
50.87907154623886
 21
202.8919612700029
 31
0.0
  0
LINE
  5
8A63
  8
0
 10
51.54673154623885
 20
202.8919612700029
 30
0.0
 11
52.21395834623888
 21
202.8919612700029
 31
0.0
  0
LINE
  5
8A64
  8
0
 10
52.21395834623888
 20
202.8919612700029
 30
0.0
 11
52.21395834623888
 21
203.2263166200029
 31
0.0
  0
LINE
  5
8A65
  8
0
 10
52.21395834623888
 20
203.2263166200029
 30
0.0
 11
51.54673154623885
 21
203.2263166200029
 31
0.0
  0
LINE
  5
8A66
  8
0
 10
51.54673154623885
 20
203.2263166200029
 30
0.0
 11
51.54673154623885
 21
202.8919612700029
 31
0.0
  0
LINE
  5
8A67
  8
0
 10
52.54831654623885
 20
202.8919612700029
 30
0.0
 11
52.88230044623884
 21
202.8919612700029
 31
0.0
  0
LINE
  5
8A68
  8
0
 10
52.88230044623884
 20
202.8919612700029
 30
0.0
 11
52.88230044623884
 21
203.2263166200029
 31
0.0
  0
LINE
  5
8A69
  8
0
 10
52.88230044623884
 20
203.2263166200029
 30
0.0
 11
52.54831654623885
 21
203.2263166200029
 31
0.0
  0
LINE
  5
8A6A
  8
0
 10
52.54831654623885
 20
203.2263166200029
 30
0.0
 11
52.54831654623885
 21
202.8919612700029
 31
0.0
  0
LINE
  5
8A6B
  8
0
 10
53.21550154623887
 20
202.8919612700029
 30
0.0
 11
53.54985784623887
 21
202.8919612700029
 31
0.0
  0
LINE
  5
8A6C
  8
0
 10
53.54985784623887
 20
202.8919612700029
 30
0.0
 11
53.54985784623887
 21
203.2263166200029
 31
0.0
  0
LINE
  5
8A6D
  8
0
 10
53.54985784623887
 20
203.2263166200029
 30
0.0
 11
53.21550154623887
 21
203.2263166200029
 31
0.0
  0
LINE
  5
8A6E
  8
0
 10
53.21550154623887
 20
203.2263166200029
 30
0.0
 11
53.21550154623887
 21
202.8919612700029
 31
0.0
  0
LINE
  5
8A6F
  8
0
 10
42.53436654623886
 20
202.5587012700029
 30
0.0
 11
42.86872189623887
 21
202.5587012700029
 31
0.0
  0
LINE
  5
8A70
  8
0
 10
42.86872189623887
 20
202.5587012700029
 30
0.0
 11
42.86872189623887
 21
202.8926851700029
 31
0.0
  0
LINE
  5
8A71
  8
0
 10
42.86872189623887
 20
202.8926851700029
 30
0.0
 11
42.53436654623886
 21
202.8926851700029
 31
0.0
  0
LINE
  5
8A72
  8
0
 10
42.53436654623886
 20
202.8926851700029
 30
0.0
 11
42.53436654623886
 21
202.5587012700029
 31
0.0
  0
LINE
  5
8A73
  8
0
 10
43.20193154623885
 20
202.5587012700029
 30
0.0
 11
44.20351654623886
 21
202.5587012700029
 31
0.0
  0
LINE
  5
8A74
  8
0
 10
44.20351654623886
 20
202.5587012700029
 30
0.0
 11
44.20351654623886
 21
202.8926851700029
 31
0.0
  0
LINE
  5
8A75
  8
0
 10
44.20351654623886
 20
202.8926851700029
 30
0.0
 11
43.20193154623885
 21
202.8926851700029
 31
0.0
  0
LINE
  5
8A76
  8
0
 10
43.20193154623885
 20
202.8926851700029
 30
0.0
 11
43.20193154623885
 21
202.5587012700029
 31
0.0
  0
LINE
  5
8A77
  8
0
 10
44.53744154623885
 20
202.5587012700029
 30
0.0
 11
44.87142544623885
 21
202.5587012700029
 31
0.0
  0
LINE
  5
8A78
  8
0
 10
44.87142544623885
 20
202.5587012700029
 30
0.0
 11
44.87142544623885
 21
202.8926851700029
 31
0.0
  0
LINE
  5
8A79
  8
0
 10
44.87142544623885
 20
202.8926851700029
 30
0.0
 11
44.53744154623885
 21
202.8926851700029
 31
0.0
  0
LINE
  5
8A7A
  8
0
 10
44.53744154623885
 20
202.8926851700029
 30
0.0
 11
44.53744154623885
 21
202.5587012700029
 31
0.0
  0
LINE
  5
8A7B
  8
0
 10
45.87266654623886
 20
202.5587012700029
 30
0.0
 11
47.20749254623885
 21
202.5587012700029
 31
0.0
  0
LINE
  5
8A7C
  8
0
 10
47.20749254623885
 20
202.5587012700029
 30
0.0
 11
47.20749254623885
 21
202.8926851700029
 31
0.0
  0
LINE
  5
8A7D
  8
0
 10
47.20749254623885
 20
202.8926851700029
 30
0.0
 11
45.87266654623886
 21
202.8926851700029
 31
0.0
  0
LINE
  5
8A7E
  8
0
 10
45.87266654623886
 20
202.8926851700029
 30
0.0
 11
45.87266654623886
 21
202.5587012700029
 31
0.0
  0
LINE
  5
8A7F
  8
0
 10
47.87507654623886
 20
202.5587012700029
 30
0.0
 11
48.20906139623887
 21
202.5587012700029
 31
0.0
  0
LINE
  5
8A80
  8
0
 10
48.20906139623887
 20
202.5587012700029
 30
0.0
 11
48.20906139623887
 21
202.8926851700029
 31
0.0
  0
LINE
  5
8A81
  8
0
 10
48.20906139623887
 20
202.8926851700029
 30
0.0
 11
47.87507654623886
 21
202.8926851700029
 31
0.0
  0
LINE
  5
8A82
  8
0
 10
47.87507654623886
 20
202.8926851700029
 30
0.0
 11
47.87507654623886
 21
202.5587012700029
 31
0.0
  0
LINE
  5
8A83
  8
0
 10
48.54273654623887
 20
202.5587012700029
 30
0.0
 11
48.87672139623885
 21
202.5587012700029
 31
0.0
  0
LINE
  5
8A84
  8
0
 10
48.87672139623885
 20
202.5587012700029
 30
0.0
 11
48.87672139623885
 21
202.8926851700029
 31
0.0
  0
LINE
  5
8A85
  8
0
 10
48.87672139623885
 20
202.8926851700029
 30
0.0
 11
48.54273654623887
 21
202.8926851700029
 31
0.0
  0
LINE
  5
8A86
  8
0
 10
48.54273654623887
 20
202.8926851700029
 30
0.0
 11
48.54273654623887
 21
202.5587012700029
 31
0.0
  0
LINE
  5
8A87
  8
0
 10
49.20992154623886
 20
202.5587012700029
 30
0.0
 11
49.54427689623887
 21
202.5587012700029
 31
0.0
  0
LINE
  5
8A88
  8
0
 10
49.54427689623887
 20
202.5587012700029
 30
0.0
 11
49.54427689623887
 21
202.8926851700029
 31
0.0
  0
LINE
  5
8A89
  8
0
 10
49.54427689623887
 20
202.8926851700029
 30
0.0
 11
49.20992154623886
 21
202.8926851700029
 31
0.0
  0
LINE
  5
8A8A
  8
0
 10
49.20992154623886
 20
202.8926851700029
 30
0.0
 11
49.20992154623886
 21
202.5587012700029
 31
0.0
  0
LINE
  5
8A8B
  8
0
 10
49.87748654623886
 20
202.5587012700029
 30
0.0
 11
50.21147044623888
 21
202.5587012700029
 31
0.0
  0
LINE
  5
8A8C
  8
0
 10
50.21147044623888
 20
202.5587012700029
 30
0.0
 11
50.21147044623888
 21
202.8926851700029
 31
0.0
  0
LINE
  5
8A8D
  8
0
 10
50.21147044623888
 20
202.8926851700029
 30
0.0
 11
49.87748654623886
 21
202.8926851700029
 31
0.0
  0
LINE
  5
8A8E
  8
0
 10
49.87748654623886
 20
202.8926851700029
 30
0.0
 11
49.87748654623886
 21
202.5587012700029
 31
0.0
  0
LINE
  5
8A8F
  8
0
 10
50.54590654623885
 20
202.5587012700029
 30
0.0
 11
50.87989139623886
 21
202.5587012700029
 31
0.0
  0
LINE
  5
8A90
  8
0
 10
50.87989139623886
 20
202.5587012700029
 30
0.0
 11
50.87989139623886
 21
202.8926851700029
 31
0.0
  0
LINE
  5
8A91
  8
0
 10
50.87989139623886
 20
202.8926851700029
 30
0.0
 11
50.54590654623885
 21
202.8926851700029
 31
0.0
  0
LINE
  5
8A92
  8
0
 10
50.54590654623885
 20
202.8926851700029
 30
0.0
 11
50.54590654623885
 21
202.5587012700029
 31
0.0
  0
LINE
  5
8A93
  8
0
 10
51.54673154623885
 20
202.5587012700029
 30
0.0
 11
52.21395834623888
 21
202.5587012700029
 31
0.0
  0
LINE
  5
8A94
  8
0
 10
52.21395834623888
 20
202.5587012700029
 30
0.0
 11
52.21395834623888
 21
202.8926851700029
 31
0.0
  0
LINE
  5
8A95
  8
0
 10
52.21395834623888
 20
202.8926851700029
 30
0.0
 11
51.54673154623885
 21
202.8926851700029
 31
0.0
  0
LINE
  5
8A96
  8
0
 10
51.54673154623885
 20
202.8926851700029
 30
0.0
 11
51.54673154623885
 21
202.5587012700029
 31
0.0
  0
LINE
  5
8A97
  8
0
 10
52.88157654623888
 20
202.5587012700029
 30
0.0
 11
53.54917384623886
 21
202.5587012700029
 31
0.0
  0
LINE
  5
8A98
  8
0
 10
53.54917384623886
 20
202.5587012700029
 30
0.0
 11
53.54917384623886
 21
202.8926851700029
 31
0.0
  0
LINE
  5
8A99
  8
0
 10
53.54917384623886
 20
202.8926851700029
 30
0.0
 11
52.88157654623888
 21
202.8926851700029
 31
0.0
  0
LINE
  5
8A9A
  8
0
 10
52.88157654623888
 20
202.8926851700029
 30
0.0
 11
52.88157654623888
 21
202.5587012700029
 31
0.0
  0
LINE
  5
8A9B
  8
0
 10
42.53436654623886
 20
202.2247762700029
 30
0.0
 11
42.86872189623887
 21
202.2247762700029
 31
0.0
  0
LINE
  5
8A9C
  8
0
 10
42.86872189623887
 20
202.2247762700029
 30
0.0
 11
42.86872189623887
 21
202.5587611200029
 31
0.0
  0
LINE
  5
8A9D
  8
0
 10
42.86872189623887
 20
202.5587611200029
 30
0.0
 11
42.53436654623886
 21
202.5587611200029
 31
0.0
  0
LINE
  5
8A9E
  8
0
 10
42.53436654623886
 20
202.5587611200029
 30
0.0
 11
42.53436654623886
 21
202.2247762700029
 31
0.0
  0
LINE
  5
8A9F
  8
0
 10
44.53744154623885
 20
202.2247762700029
 30
0.0
 11
44.87142544623885
 21
202.2247762700029
 31
0.0
  0
LINE
  5
8AA0
  8
0
 10
44.87142544623885
 20
202.2247762700029
 30
0.0
 11
44.87142544623885
 21
202.5587611200029
 31
0.0
  0
LINE
  5
8AA1
  8
0
 10
44.87142544623885
 20
202.5587611200029
 30
0.0
 11
44.53744154623885
 21
202.5587611200029
 31
0.0
  0
LINE
  5
8AA2
  8
0
 10
44.53744154623885
 20
202.5587611200029
 30
0.0
 11
44.53744154623885
 21
202.2247762700029
 31
0.0
  0
LINE
  5
8AA3
  8
0
 10
45.87266654623886
 20
202.2247762700029
 30
0.0
 11
46.53989239623886
 21
202.2247762700029
 31
0.0
  0
LINE
  5
8AA4
  8
0
 10
46.53989239623886
 20
202.2247762700029
 30
0.0
 11
46.53989239623886
 21
202.5587611200029
 31
0.0
  0
LINE
  5
8AA5
  8
0
 10
46.53989239623886
 20
202.5587611200029
 30
0.0
 11
45.87266654623886
 21
202.5587611200029
 31
0.0
  0
LINE
  5
8AA6
  8
0
 10
45.87266654623886
 20
202.5587611200029
 30
0.0
 11
45.87266654623886
 21
202.2247762700029
 31
0.0
  0
LINE
  5
8AA7
  8
0
 10
47.20751154623886
 20
202.2247762700029
 30
0.0
 11
48.20909654623887
 21
202.2247762700029
 31
0.0
  0
LINE
  5
8AA8
  8
0
 10
48.20909654623887
 20
202.2247762700029
 30
0.0
 11
48.20909654623887
 21
202.5587611200029
 31
0.0
  0
LINE
  5
8AA9
  8
0
 10
48.20909654623887
 20
202.5587611200029
 30
0.0
 11
47.20751154623886
 21
202.5587611200029
 31
0.0
  0
LINE
  5
8AAA
  8
0
 10
47.20751154623886
 20
202.5587611200029
 30
0.0
 11
47.20751154623886
 21
202.2247762700029
 31
0.0
  0
LINE
  5
8AAB
  8
0
 10
48.87666154623886
 20
202.2247762700029
 30
0.0
 11
49.54425884623885
 21
202.2247762700029
 31
0.0
  0
LINE
  5
8AAC
  8
0
 10
49.54425884623885
 20
202.2247762700029
 30
0.0
 11
49.54425884623885
 21
202.5587611200029
 31
0.0
  0
LINE
  5
8AAD
  8
0
 10
49.54425884623885
 20
202.5587611200029
 30
0.0
 11
48.87666154623886
 21
202.5587611200029
 31
0.0
  0
LINE
  5
8AAE
  8
0
 10
48.87666154623886
 20
202.5587611200029
 30
0.0
 11
48.87666154623886
 21
202.2247762700029
 31
0.0
  0
LINE
  5
8AAF
  8
0
 10
51.54673154623885
 20
202.2247762700029
 30
0.0
 11
52.88155754623887
 21
202.2247762700029
 31
0.0
  0
LINE
  5
8AB0
  8
0
 10
52.88155754623887
 20
202.2247762700029
 30
0.0
 11
52.88155754623887
 21
202.5587611200029
 31
0.0
  0
LINE
  5
8AB1
  8
0
 10
52.88155754623887
 20
202.5587611200029
 30
0.0
 11
51.54673154623885
 21
202.5587611200029
 31
0.0
  0
LINE
  5
8AB2
  8
0
 10
51.54673154623885
 20
202.5587611200029
 30
0.0
 11
51.54673154623885
 21
202.2247762700029
 31
0.0
  0
LINE
  5
8AB3
  8
0
 10
42.53436654623886
 20
201.8911362700029
 30
0.0
 11
44.87114804623889
 21
201.8911362700029
 31
0.0
  0
LINE
  5
8AB4
  8
0
 10
44.87114804623889
 20
201.8911362700029
 30
0.0
 11
44.87114804623889
 21
202.2251211200029
 31
0.0
  0
LINE
  5
8AB5
  8
0
 10
44.87114804623889
 20
202.2251211200029
 30
0.0
 11
42.53436654623886
 21
202.2251211200029
 31
0.0
  0
LINE
  5
8AB6
  8
0
 10
42.53436654623886
 20
202.2251211200029
 30
0.0
 11
42.53436654623886
 21
201.8911362700029
 31
0.0
  0
LINE
  5
8AB7
  8
0
 10
45.20510154623886
 20
201.8911362700029
 30
0.0
 11
45.53908639623887
 21
201.8911362700029
 31
0.0
  0
LINE
  5
8AB8
  8
0
 10
45.53908639623887
 20
201.8911362700029
 30
0.0
 11
45.53908639623887
 21
202.2251211200029
 31
0.0
  0
LINE
  5
8AB9
  8
0
 10
45.53908639623887
 20
202.2251211200029
 30
0.0
 11
45.20510154623886
 21
202.2251211200029
 31
0.0
  0
LINE
  5
8ABA
  8
0
 10
45.20510154623886
 20
202.2251211200029
 30
0.0
 11
45.20510154623886
 21
201.8911362700029
 31
0.0
  0
LINE
  5
8ABB
  8
0
 10
46.20592654623886
 20
201.8911362700029
 30
0.0
 11
46.53991044623888
 21
201.8911362700029
 31
0.0
  0
LINE
  5
8ABC
  8
0
 10
46.53991044623888
 20
201.8911362700029
 30
0.0
 11
46.53991044623888
 21
202.2251211200029
 31
0.0
  0
LINE
  5
8ABD
  8
0
 10
46.53991044623888
 20
202.2251211200029
 30
0.0
 11
46.20592654623886
 21
202.2251211200029
 31
0.0
  0
LINE
  5
8ABE
  8
0
 10
46.20592654623886
 20
202.2251211200029
 30
0.0
 11
46.20592654623886
 21
201.8911362700029
 31
0.0
  0
LINE
  5
8ABF
  8
0
 10
47.20751154623886
 20
201.8911362700029
 30
0.0
 11
47.54149544623888
 21
201.8911362700029
 31
0.0
  0
LINE
  5
8AC0
  8
0
 10
47.54149544623888
 20
201.8911362700029
 30
0.0
 11
47.54149544623888
 21
202.2251211200029
 31
0.0
  0
LINE
  5
8AC1
  8
0
 10
47.54149544623888
 20
202.2251211200029
 30
0.0
 11
47.20751154623886
 21
202.2251211200029
 31
0.0
  0
LINE
  5
8AC2
  8
0
 10
47.20751154623886
 20
202.2251211200029
 30
0.0
 11
47.20751154623886
 21
201.8911362700029
 31
0.0
  0
LINE
  5
8AC3
  8
0
 10
48.20909654623887
 20
201.8911362700029
 30
0.0
 11
48.54308044623886
 21
201.8911362700029
 31
0.0
  0
LINE
  5
8AC4
  8
0
 10
48.54308044623886
 20
201.8911362700029
 30
0.0
 11
48.54308044623886
 21
202.2251211200029
 31
0.0
  0
LINE
  5
8AC5
  8
0
 10
48.54308044623886
 20
202.2251211200029
 30
0.0
 11
48.20909654623887
 21
202.2251211200029
 31
0.0
  0
LINE
  5
8AC6
  8
0
 10
48.20909654623887
 20
202.2251211200029
 30
0.0
 11
48.20909654623887
 21
201.8911362700029
 31
0.0
  0
LINE
  5
8AC7
  8
0
 10
48.87666154623886
 20
201.8911362700029
 30
0.0
 11
49.21064544623886
 21
201.8911362700029
 31
0.0
  0
LINE
  5
8AC8
  8
0
 10
49.21064544623886
 20
201.8911362700029
 30
0.0
 11
49.21064544623886
 21
202.2251211200029
 31
0.0
  0
LINE
  5
8AC9
  8
0
 10
49.21064544623886
 20
202.2251211200029
 30
0.0
 11
48.87666154623886
 21
202.2251211200029
 31
0.0
  0
LINE
  5
8ACA
  8
0
 10
48.87666154623886
 20
202.2251211200029
 30
0.0
 11
48.87666154623886
 21
201.8911362700029
 31
0.0
  0
LINE
  5
8ACB
  8
0
 10
49.87748654623886
 20
201.8911362700029
 30
0.0
 11
51.21231254623885
 21
201.8911362700029
 31
0.0
  0
LINE
  5
8ACC
  8
0
 10
51.21231254623885
 20
201.8911362700029
 30
0.0
 11
51.21231254623885
 21
202.2251211200029
 31
0.0
  0
LINE
  5
8ACD
  8
0
 10
51.21231254623885
 20
202.2251211200029
 30
0.0
 11
49.87748654623886
 21
202.2251211200029
 31
0.0
  0
LINE
  5
8ACE
  8
0
 10
49.87748654623886
 20
202.2251211200029
 30
0.0
 11
49.87748654623886
 21
201.8911362700029
 31
0.0
  0
LINE
  5
8ACF
  8
0
 10
51.54673154623885
 20
201.8911362700029
 30
0.0
 11
51.88071544623887
 21
201.8911362700029
 31
0.0
  0
LINE
  5
8AD0
  8
0
 10
51.88071544623887
 20
201.8911362700029
 30
0.0
 11
51.88071544623887
 21
202.2251211200029
 31
0.0
  0
LINE
  5
8AD1
  8
0
 10
51.88071544623887
 20
202.2251211200029
 30
0.0
 11
51.54673154623885
 21
202.2251211200029
 31
0.0
  0
LINE
  5
8AD2
  8
0
 10
51.54673154623885
 20
202.2251211200029
 30
0.0
 11
51.54673154623885
 21
201.8911362700029
 31
0.0
  0
LINE
  5
8AD3
  8
0
 10
52.21391654623886
 20
201.8911362700029
 30
0.0
 11
52.54827189623887
 21
201.8911362700029
 31
0.0
  0
LINE
  5
8AD4
  8
0
 10
52.54827189623887
 20
201.8911362700029
 30
0.0
 11
52.54827189623887
 21
202.2251211200029
 31
0.0
  0
LINE
  5
8AD5
  8
0
 10
52.54827189623887
 20
202.2251211200029
 30
0.0
 11
52.21391654623886
 21
202.2251211200029
 31
0.0
  0
LINE
  5
8AD6
  8
0
 10
52.21391654623886
 20
202.2251211200029
 30
0.0
 11
52.21391654623886
 21
201.8911362700029
 31
0.0
  0
LINE
  5
8AD7
  8
0
 10
52.88157654623888
 20
201.8911362700029
 30
0.0
 11
53.21556044623887
 21
201.8911362700029
 31
0.0
  0
LINE
  5
8AD8
  8
0
 10
53.21556044623887
 20
201.8911362700029
 30
0.0
 11
53.21556044623887
 21
202.2251211200029
 31
0.0
  0
LINE
  5
8AD9
  8
0
 10
53.21556044623887
 20
202.2251211200029
 30
0.0
 11
52.88157654623888
 21
202.2251211200029
 31
0.0
  0
LINE
  5
8ADA
  8
0
 10
52.88157654623888
 20
202.2251211200029
 30
0.0
 11
52.88157654623888
 21
201.8911362700029
 31
0.0
  0
CIRCLE
  5
8CB0
  8
0
 10
63.5218561517737
 20
209.8911362700031
 30
0.0
 40
1.5
  0
TEXT
  5
8CB1
  8
0
 10
44.47302297808394
 20
198.5567190563594
 30
0.0
 40
1.3
  1
冬期以外(凍結の心配がない期間)や長期間使用しないときは電源をOFFにしてください
  0
POLYLINE
  5
8CB2
  8
0
 66
     1
 10
0.0
 20
0.0
 30
0.0
 70
     1
  0
VERTEX
  5
A2ED
  8
0
 10
42.75218928780021
 20
200.4403705977999
 30
0.0
  0
VERTEX
  5
A2EE
  8
0
 10
41.53975372250204
 20
198.3403705977995
 30
0.0
 42
0.5773502691896262
  0
VERTEX
  5
A2EF
  8
0
 10
41.62635626288045
 20
198.1903705977999
 30
0.0
  0
VERTEX
  5
A2F0
  8
0
 10
44.05122739347678
 20
198.1903705977999
 30
0.0
 42
0.577350269189628
  0
VERTEX
  5
A2F1
  8
0
 10
44.13782993385519
 20
198.3403705977995
 30
0.0
  0
VERTEX
  5
A2F2
  8
0
 10
42.92539436855702
 20
200.4403705977999
 30
0.0
 42
0.577350269189626
  0
SEQEND
  5
A30E
  8
0
  0
POLYLINE
  5
8CB3
  8
0
 66
     1
 10
0.0
 20
0.0
 30
0.0
 70
     1
  0
VERTEX
  5
A2F3
  8
0
 10
42.79549055868472
 20
200.3153705977999
 30
0.0
  0
VERTEX
  5
A2F4
  8
0
 10
41.66965753310194
 20
198.365370597811
 30
0.0
 42
0.577350269275458
  0
VERTEX
  5
A2F5
  8
0
 10
41.71295880328478
 20
198.2903705977993
 30
0.0
  0
VERTEX
  5
A2F6
  8
0
 10
43.96462485312429
 20
198.2903705977993
 30
0.0
 42
0.5773502691037941
  0
VERTEX
  5
A2F7
  8
0
 10
44.00792612331986
 20
198.3653705977882
 30
0.0
  0
VERTEX
  5
A2F8
  8
0
 10
42.88209309906313
 20
200.3153705977999
 30
0.0
 42
0.5773502691896244
  0
SEQEND
  5
A30F
  8
0
  0
CIRCLE
  5
8CB4
  8
0
 10
42.83879182817861
 20
198.5903705977995
 30
0.0
 40
0.1
  0
LINE
  5
8CB5
  8
0
 10
42.73879182817871
 20
199.5903705977995
 30
0.0
 11
42.78923430605471
 21
198.833733429659
 31
0.0
  0
LINE
  5
8CB6
  8
0
 10
42.93879182817898
 20
199.5903705977995
 30
0.0
 11
42.88834935030252
 21
198.8337334296572
 31
0.0
  0
ARC
  5
8CB7
  8
0
 10
42.83879182817861
 20
199.5903705977995
 30
0.0
 40
0.1
 50
0.0
 51
180.0
  0
ARC
  5
8CB8
  8
0
 10
42.83879182817861
 20
198.8403705977995
 30
0.0
 40
0.05
 50
187.6281496673324
 51
352.3718503305627
  0
CIRCLE
  5
8CBC
  8
0
 10
82.52185615177376
 20
213.8911362700031
 30
0.0
 40
1.5
  0
CIRCLE
  5
8CBD
  8
0
 10
82.52185615177376
 20
205.8911362700031
 30
0.0
 40
1.5
  0
POLYLINE
  5
8CBE
  8
0
 66
     1
 10
0.0
 20
0.0
 30
0.0
 70
     1
  0
VERTEX
  5
A2F9
  8
0
 10
77.47346969118843
 20
206.2010027188036
 30
0.0
  0
VERTEX
  5
A2FA
  8
0
 10
77.20511747474683
 20
206.0460694944035
 30
0.0
  0
VERTEX
  5
A2FB
  8
0
 10
77.20511747474683
 20
205.7362030456031
 30
0.0
  0
VERTEX
  5
A2FC
  8
0
 10
77.47346969118843
 20
205.581269821203
 30
0.0
  0
VERTEX
  5
A2FD
  8
0
 10
77.74182190763003
 20
205.7362030456031
 30
0.0
  0
VERTEX
  5
A2FE
  8
0
 10
77.74182190763003
 20
206.0460694944035
 30
0.0
  0
SEQEND
  5
A310
  8
0
  0
POLYLINE
  5
8CBF
  8
0
 66
     1
 10
0.0
 20
0.0
 30
0.0
  0
VERTEX
  5
A2FF
  8
0
 10
77.32346969118834
 20
206.4986531053926
 30
0.0
  0
VERTEX
  5
A300
  8
0
 10
77.0223446785148
 20
206.3247984982656
 30
0.0
  0
SEQEND
  5
A311
  8
0
  0
LINE
  5
8CC0
  8
0
 10
77.32346969118834
 20
202.7911362700032
 30
0.0
 11
77.32346969118834
 21
203.33758287941
 31
0.0
1001
GENIUS_GENODEF_13
1002
{
1000
HIER
1070
     0
1002
}
1002
{
1000
MANEDIT
1070
     0
1002
}
1002
{
1000
NOSEL
1070
     0
1002
}
1002
{
1000
BEHIND
1070
     0
1002
}
1002
{
1000
OTHER
1070
     0
1002
}
1002
{
1000
REACTOR
1002
}
1001
GENIUS_GENOBJ-N-CEN_13
1002
{
1000
OWNER
1000
GEN
1002
}
1001
GENIUS_GENCEN_19
1002
{
1040
3.0
1002
}
  0
LINE
  5
8CC1
  8
0
 10
77.62346969118852
 20
202.7911362700032
 30
0.0
 11
77.62346969118852
 21
203.33758287941
 31
0.0
1001
GENIUS_GENODEF_13
1002
{
1000
HIER
1070
     0
1002
}
1002
{
1000
MANEDIT
1070
     0
1002
}
1002
{
1000
NOSEL
1070
     0
1002
}
1002
{
1000
BEHIND
1070
     0
1002
}
1002
{
1000
OTHER
1070
     0
1002
}
1002
{
1000
REACTOR
1002
}
1001
GENIUS_GENOBJ-N-CEN_13
1002
{
1000
OWNER
1000
GEN
1002
}
1001
GENIUS_GENCEN_19
1002
{
1040
3.0
1002
}
  0
LINE
  5
8CC2
  8
0
 10
77.62346969118852
 20
206.8911362700034
 30
0.0
 11
78.26929649613538
 21
207.5369630749503
 31
0.0
  0
LINE
  5
8CC3
  8
0
 10
77.62346969118852
 20
207.3911362700034
 30
0.0
 11
78.01929649613538
 21
207.7869630749503
 31
0.0
  0
ARC
  5
8CC4
  8
0
 10
77.47346969118843
 20
208.9911362700033
 30
0.0
 40
0.1499999999999773
 50
0.0
 51
180.0
  0
ARC
  5
8CC5
  8
0
 10
78.14429649613538
 20
207.6619630749503
 30
0.0
 40
0.1767766952966168
 50
315.0000000000326
 51
135.0000000000065
  0
LINE
  5
8CC6
  8
0
 10
77.32346969118834
 20
206.8911362700034
 30
0.0
 11
76.67764288624147
 21
207.5369630749503
 31
0.0
  0
LINE
  5
8CC7
  8
0
 10
77.32346969118834
 20
207.3911362700034
 30
0.0
 11
76.92764288624147
 21
207.7869630749503
 31
0.0
  0
ARC
  5
8CC8
  8
0
 10
76.80264288624147
 20
207.6619630749503
 30
0.0
 40
0.1767766952966168
 50
44.99999999999348
 51
224.9999999999674
  0
LINE
  5
8CC9
  8
0
 10
77.62346969118852
 20
208.0911362700033
 30
0.0
 11
78.0222555884099
 21
208.4899221672247
 31
0.0
  0
LINE
  5
8CCA
  8
0
 10
77.62346969118852
 20
208.4446896605965
 30
0.0
 11
77.84547889311324
 21
208.6666988625212
 31
0.0
  0
ARC
  5
8CCB
  8
0
 10
77.93386724076134
 20
208.5783105148731
 30
0.0
 40
0.1249999999999206
 50
314.9999999998987
 51
134.9999999999355
  0
LINE
  5
8CCC
  8
0
 10
79.30372557951426
 20
204.6612324594357
 30
0.0
 11
79.44969134856814
 21
204.1164807931603
 31
0.0
  0
LINE
  5
8CCD
  8
0
 10
79.60991179736214
 20
204.4844557641391
 30
0.0
 11
79.69117280514041
 21
204.1811855544361
 31
0.0
  0
ARC
  5
8CCE
  8
0
 10
80.03082962642742
 20
204.9462651213388
 30
0.0
 40
0.1249999999999206
 50
285.0000000000046
 51
105.0000000000046
  0
LINE
  5
8CCF
  8
0
 10
77.62346969118852
 20
204.8911362700034
 30
0.0
 11
77.62346969118852
 21
205.283619434614
 31
0.0
1001
GENIUS_GENODEF_13
1002
{
1000
HIER
1070
     0
1002
}
1002
{
1000
MANEDIT
1070
     0
1002
}
1002
{
1000
NOSEL
1070
     0
1002
}
1002
{
1000
BEHIND
1070
     0
1002
}
1002
{
1000
OTHER
1070
     0
1002
}
1002
{
1000
REACTOR
1002
}
1001
GENIUS_GENOBJ-N-CEN_13
1002
{
1000
OWNER
1000
GEN
1002
}
1001
GENIUS_GENCEN_19
1002
{
1040
3.0
1002
}
  0
LINE
  5
8CD0
  8
0
 10
79.75991179736201
 20
204.7442633852744
 30
0.0
 11
80.06318200706522
 21
204.8255243930528
 31
0.0
  0
ARC
  5
8CD1
  8
0
 10
79.5704320768545
 20
204.1488331737982
 30
0.0
 40
0.1249999999999206
 50
194.9999999999509
 51
14.99999999999029
  0
LINE
  5
8CD2
  8
0
 10
79.45372557951413
 20
204.9210400805711
 30
0.0
 11
79.99847724578962
 21
205.067005849625
 31
0.0
  0
LINE
  5
8CD3
  8
0
 10
77.62346969118852
 20
203.6911362700033
 30
0.0
 11
77.62346969118852
 21
204.3911362700034
 31
0.0
1001
GENIUS_GENODEF_13
1002
{
1000
HIER
1070
     0
1002
}
1002
{
1000
MANEDIT
1070
     0
1002
}
1002
{
1000
NOSEL
1070
     0
1002
}
1002
{
1000
BEHIND
1070
     0
1002
}
1002
{
1000
OTHER
1070
     0
1002
}
1002
{
1000
REACTOR
1002
}
1001
GENIUS_GENOBJ-N-CEN_13
1002
{
1000
OWNER
1000
GEN
1002
}
1001
GENIUS_GENCEN_19
1002
{
1040
3.0
1002
}
  0
LINE
  5
8CD4
  8
0
 10
77.32346969118834
 20
203.6911362700033
 30
0.0
 11
77.32346969118834
 21
204.3911362700034
 31
0.0
1001
GENIUS_GENODEF_13
1002
{
1000
HIER
1070
     0
1002
}
1002
{
1000
MANEDIT
1070
     0
1002
}
1002
{
1000
NOSEL
1070
     0
1002
}
1002
{
1000
BEHIND
1070
     0
1002
}
1002
{
1000
OTHER
1070
     0
1002
}
1002
{
1000
REACTOR
1002
}
1001
GENIUS_GENOBJ-N-CEN_13
1002
{
1000
OWNER
1000
GEN
1002
}
1001
GENIUS_GENCEN_19
1002
{
1040
3.0
1002
}
  0
LINE
  5
8CD5
  8
0
 10
77.32346969118834
 20
208.4446896605965
 30
0.0
 11
77.32346969118834
 21
208.9911362700033
 31
0.0
1001
GENIUS_GENODEF_13
1002
{
1000
HIER
1070
     0
1002
}
1002
{
1000
MANEDIT
1070
     0
1002
}
1002
{
1000
NOSEL
1070
     0
1002
}
1002
{
1000
BEHIND
1070
     0
1002
}
1002
{
1000
OTHER
1070
     0
1002
}
1002
{
1000
REACTOR
1002
}
1001
GENIUS_GENOBJ-N-CEN_13
1002
{
1000
OWNER
1000
GEN
1002
}
1001
GENIUS_GENCEN_19
1002
{
1040
3.0
1002
}
  0
LINE
  5
8CD6
  8
0
 10
77.62346969118852
 20
208.4446896605965
 30
0.0
 11
77.62346969118852
 21
208.9911362700033
 31
0.0
1001
GENIUS_GENODEF_13
1002
{
1000
HIER
1070
     0
1002
}
1002
{
1000
MANEDIT
1070
     0
1002
}
1002
{
1000
NOSEL
1070
     0
1002
}
1002
{
1000
BEHIND
1070
     0
1002
}
1002
{
1000
OTHER
1070
     0
1002
}
1002
{
1000
REACTOR
1002
}
1001
GENIUS_GENOBJ-N-CEN_13
1002
{
1000
OWNER
1000
GEN
1002
}
1001
GENIUS_GENCEN_19
1002
{
1040
3.0
1002
}
  0
ARC
  5
8CD7
  8
0
 10
77.01307214161551
 20
208.5783105148731
 30
0.0
 40
0.1249999999999206
 50
45.00000000006448
 51
224.999999999954
  0
LINE
  5
8CD8
  8
0
 10
77.32346969118834
 20
208.4446896605965
 30
0.0
 11
77.10146048926362
 21
208.6666988625212
 31
0.0
  0
LINE
  5
8CD9
  8
0
 10
77.32346969118834
 20
208.0911362700033
 30
0.0
 11
76.92468379396695
 21
208.4899221672247
 31
0.0
  0
LINE
  5
8CDA
  8
0
 10
77.62346969118852
 20
207.3911362700034
 30
0.0
 11
77.62346969118852
 21
208.0911362700033
 31
0.0
1001
GENIUS_GENODEF_13
1002
{
1000
HIER
1070
     0
1002
}
1002
{
1000
MANEDIT
1070
     0
1002
}
1002
{
1000
NOSEL
1070
     0
1002
}
1002
{
1000
BEHIND
1070
     0
1002
}
1002
{
1000
OTHER
1070
     0
1002
}
1002
{
1000
REACTOR
1002
}
1001
GENIUS_GENOBJ-N-CEN_13
1002
{
1000
OWNER
1000
GEN
1002
}
1001
GENIUS_GENCEN_19
1002
{
1040
3.0
1002
}
  0
LINE
  5
8CDB
  8
0
 10
77.32346969118834
 20
207.3911362700034
 30
0.0
 11
77.32346969118834
 21
208.0911362700033
 31
0.0
1001
GENIUS_GENODEF_13
1002
{
1000
HIER
1070
     0
1002
}
1002
{
1000
MANEDIT
1070
     0
1002
}
1002
{
1000
NOSEL
1070
     0
1002
}
1002
{
1000
BEHIND
1070
     0
1002
}
1002
{
1000
OTHER
1070
     0
1002
}
1002
{
1000
REACTOR
1002
}
1001
GENIUS_GENOBJ-N-CEN_13
1002
{
1000
OWNER
1000
GEN
1002
}
1001
GENIUS_GENCEN_19
1002
{
1040
3.0
1002
}
  0
LINE
  5
8CDC
  8
0
 10
77.62346969118852
 20
203.33758287941
 30
0.0
 11
77.84547889311324
 21
203.1155736774853
 31
0.0
  0
LINE
  5
8CDD
  8
0
 10
77.32346969118834
 20
204.3911362700034
 30
0.0
 11
76.92764288624147
 21
203.9953094650563
 31
0.0
  0
ARC
  5
8CDE
  8
0
 10
77.47346969118843
 20
202.7911362700032
 30
0.0
 40
0.1499999999999773
 50
180.0
 51
0.0
  0
ARC
  5
8CDF
  8
0
 10
78.14429649613538
 20
204.1203094650563
 30
0.0
 40
0.1767766952966168
 50
224.9999999999935
 51
44.99999999999348
  0
ARC
  5
8CE0
  8
0
 10
76.80264288624147
 20
204.1203094650563
 30
0.0
 40
0.1767766952966168
 50
135.0000000000065
 51
315.0000000000065
  0
LINE
  5
8CE1
  8
0
 10
77.62346969118852
 20
204.3911362700034
 30
0.0
 11
78.01929649613538
 21
203.9953094650563
 31
0.0
  0
LINE
  5
8CE2
  8
0
 10
77.32346969118834
 20
204.8911362700034
 30
0.0
 11
76.67764288624147
 21
204.2453094650563
 31
0.0
  0
ARC
  5
8CE3
  8
0
 10
77.93386724076134
 20
203.2039620251335
 30
0.0
 40
0.1249999999999206
 50
225.0000000000645
 51
44.99999999995394
  0
LINE
  5
8CE4
  8
0
 10
77.32346969118834
 20
203.6911362700033
 30
0.0
 11
76.92468379396695
 21
203.2923503727819
 31
0.0
  0
LINE
  5
8CE5
  8
0
 10
77.62346969118852
 20
203.6911362700033
 30
0.0
 11
78.0222555884099
 21
203.2923503727819
 31
0.0
  0
LINE
  5
8CE6
  8
0
 10
77.62346969118852
 20
204.8911362700034
 30
0.0
 11
78.26929649613538
 21
204.2453094650563
 31
0.0
  0
ARC
  5
8CE7
  8
0
 10
77.01307214161551
 20
203.2039620251335
 30
0.0
 40
0.1249999999999206
 50
134.9999999998987
 51
314.9999999998987
  0
LINE
  5
8CE8
  8
0
 10
77.32346969118834
 20
203.33758287941
 30
0.0
 11
77.10146048926362
 21
203.1155736774853
 31
0.0
  0
LINE
  5
8CE9
  8
0
 10
78.69750779686518
 20
206.771040080571
 30
0.0
 11
78.8423904629746
 21
207.3117495516274
 31
0.0
  0
ARC
  5
8CEA
  8
0
 10
78.6716372875016
 20
207.3575027271005
 30
0.0
 40
0.1767766952966168
 50
344.9999999999747
 51
164.9999999999747
  0
LINE
  5
8CEB
  8
0
 10
75.33702758501471
 20
204.4844557641391
 30
0.0
 11
74.86379093945669
 21
204.2112324594357
 31
0.0
1001
GENIUS_GENODEF_13
1002
{
1000
HIER
1070
     0
1002
}
1002
{
1000
MANEDIT
1070
     0
1002
}
1002
{
1000
NOSEL
1070
     0
1002
}
1002
{
1000
BEHIND
1070
     0
1002
}
1002
{
1000
OTHER
1070
     0
1002
}
1002
{
1000
REACTOR
1002
}
1001
GENIUS_GENOBJ-N-CEN_13
1002
{
1000
OWNER
1000
GEN
1002
}
1001
GENIUS_GENCEN_19
1002
{
1040
3.0
1002
}
  0
LINE
  5
8CEC
  8
0
 10
78.41449509497278
 20
206.2612324594356
 30
0.0
 11
79.29671091697554
 21
206.0248434423801
 31
0.0
  0
LINE
  5
8CED
  8
0
 10
79.45372557951413
 20
206.8612324594357
 30
0.0
 11
79.99847724578962
 21
206.7152666903817
 31
0.0
  0
LINE
  5
8CEE
  8
0
 10
79.75991179736201
 20
207.0380091547323
 30
0.0
 11
80.06318200706522
 21
206.9567481469539
 31
0.0
  0
ARC
  5
8CEF
  8
0
 10
80.03082962642742
 20
206.8360074186679
 30
0.0
 40
0.1249999999999206
 50
254.9999999999954
 51
74.99999999999544
  0
LINE
  5
8CF0
  8
0
 10
79.30372557951426
 20
207.121040080571
 30
0.0
 11
79.44969134856814
 21
207.6657917468464
 31
0.0
  0
LINE
  5
8CF1
  8
0
 10
76.09943158551181
 20
205.271040080571
 30
0.0
 11
75.49321380286273
 21
204.9210400805709
 31
0.0
1001
GENIUS_GENODEF_13
1002
{
1000
HIER
1070
     0
1002
}
1002
{
1000
MANEDIT
1070
     0
1002
}
1002
{
1000
NOSEL
1070
     0
1002
}
1002
{
1000
BEHIND
1070
     0
1002
}
1002
{
1000
OTHER
1070
     0
1002
}
1002
{
1000
REACTOR
1002
}
1001
GENIUS_GENOBJ-N-CEN_13
1002
{
1000
OWNER
1000
GEN
1002
}
1001
GENIUS_GENCEN_19
1002
{
1040
3.0
1002
}
  0
ARC
  5
8CF2
  8
0
 10
76.27530209487526
 20
204.4247698129061
 30
0.0
 40
0.1767766952966168
 50
164.9999999999747
 51
345.0000000000139
  0
LINE
  5
8CF3
  8
0
 10
76.09943158551181
 20
205.271040080571
 30
0.0
 11
75.55872211445529
 21
205.4159227466804
 31
0.0
  0
ARC
  5
8CF4
  8
0
 10
80.15814844292021
 20
207.4411362700033
 30
0.0
 40
0.1499999999999773
 50
300.0000000000254
 51
120.0000000000254
  0
LINE
  5
8CF5
  8
0
 10
78.41449509497278
 20
206.2612324594356
 30
0.0
 11
78.07459470386215
 21
206.0649908771302
 31
0.0
1001
GENIUS_GENODEF_13
1002
{
1000
HIER
1070
     0
1002
}
1002
{
1000
MANEDIT
1070
     0
1002
}
1002
{
1000
NOSEL
1070
     0
1002
}
1002
{
1000
BEHIND
1070
     0
1002
}
1002
{
1000
OTHER
1070
     0
1002
}
1002
{
1000
REACTOR
1002
}
1001
GENIUS_GENOBJ-N-CEN_13
1002
{
1000
OWNER
1000
GEN
1002
}
1001
GENIUS_GENCEN_19
1002
{
1040
3.0
1002
}
  0
LINE
  5
8CF6
  8
0
 10
78.26449509497292
 20
206.521040080571
 30
0.0
 11
77.92459470386228
 21
206.3247984982655
 31
0.0
1001
GENIUS_GENODEF_13
1002
{
1000
HIER
1070
     0
1002
}
1002
{
1000
MANEDIT
1070
     0
1002
}
1002
{
1000
NOSEL
1070
     0
1002
}
1002
{
1000
BEHIND
1070
     0
1002
}
1002
{
1000
OTHER
1070
     0
1002
}
1002
{
1000
REACTOR
1002
}
1001
GENIUS_GENOBJ-N-CEN_13
1002
{
1000
OWNER
1000
GEN
1002
}
1001
GENIUS_GENCEN_19
1002
{
1040
3.0
1002
}
  0
LINE
  5
8CF7
  8
0
 10
76.24943158551167
 20
205.0112324594356
 30
0.0
 11
76.10454891940225
 21
204.4705229883792
 31
0.0
  0
LINE
  5
8CF8
  8
0
 10
76.68244428740394
 20
205.2612324594356
 30
0.0
 11
76.4460552703485
 21
204.3790166374331
 31
0.0
  0
LINE
  5
8CF9
  8
0
 10
80.23314844292025
 20
207.3112324594357
 30
0.0
 11
79.75991179736201
 21
207.0380091547323
 31
0.0
1001
GENIUS_GENODEF_13
1002
{
1000
HIER
1070
     0
1002
}
1002
{
1000
MANEDIT
1070
     0
1002
}
1002
{
1000
NOSEL
1070
     0
1002
}
1002
{
1000
BEHIND
1070
     0
1002
}
1002
{
1000
OTHER
1070
     0
1002
}
1002
{
1000
REACTOR
1002
}
1001
GENIUS_GENOBJ-N-CEN_13
1002
{
1000
OWNER
1000
GEN
1002
}
1001
GENIUS_GENCEN_19
1002
{
1040
3.0
1002
}
  0
ARC
  5
8CFA
  8
0
 10
74.78879093945665
 20
204.3411362700033
 30
0.0
 40
0.1499999999999773
 50
120.0000000000254
 51
300.0000000000254
  0
ARC
  5
8CFB
  8
0
 10
75.6044752899283
 20
205.5866759221534
 30
0.0
 40
0.1767766952966168
 50
75.0000000000127
 51
255.0000000000127
  0
LINE
  5
8CFC
  8
0
 10
80.08314844292016
 20
207.571040080571
 30
0.0
 11
79.60991179736214
 21
207.2978167758677
 31
0.0
1001
GENIUS_GENODEF_13
1002
{
1000
HIER
1070
     0
1002
}
1002
{
1000
MANEDIT
1070
     0
1002
}
1002
{
1000
NOSEL
1070
     0
1002
}
1002
{
1000
BEHIND
1070
     0
1002
}
1002
{
1000
OTHER
1070
     0
1002
}
1002
{
1000
REACTOR
1002
}
1001
GENIUS_GENOBJ-N-CEN_13
1002
{
1000
OWNER
1000
GEN
1002
}
1001
GENIUS_GENCEN_19
1002
{
1040
3.0
1002
}
  0
LINE
  5
8CFD
  8
0
 10
79.30372557951426
 20
207.121040080571
 30
0.0
 11
78.69750779686518
 21
206.771040080571
 31
0.0
1001
GENIUS_GENODEF_13
1002
{
1000
HIER
1070
     0
1002
}
1002
{
1000
MANEDIT
1070
     0
1002
}
1002
{
1000
NOSEL
1070
     0
1002
}
1002
{
1000
BEHIND
1070
     0
1002
}
1002
{
1000
OTHER
1070
     0
1002
}
1002
{
1000
REACTOR
1002
}
1001
GENIUS_GENOBJ-N-CEN_13
1002
{
1000
OWNER
1000
GEN
1002
}
1001
GENIUS_GENCEN_19
1002
{
1040
3.0
1002
}
  0
LINE
  5
8CFE
  8
0
 10
75.18702758501485
 20
204.7442633852744
 30
0.0
 11
74.7137909394566
 21
204.471040080571
 31
0.0
1001
GENIUS_GENODEF_13
1002
{
1000
HIER
1070
     0
1002
}
1002
{
1000
MANEDIT
1070
     0
1002
}
1002
{
1000
NOSEL
1070
     0
1002
}
1002
{
1000
BEHIND
1070
     0
1002
}
1002
{
1000
OTHER
1070
     0
1002
}
1002
{
1000
REACTOR
1002
}
1001
GENIUS_GENOBJ-N-CEN_13
1002
{
1000
OWNER
1000
GEN
1002
}
1001
GENIUS_GENCEN_19
1002
{
1040
3.0
1002
}
  0
LINE
  5
8CFF
  8
0
 10
79.45372557951413
 20
206.8612324594357
 30
0.0
 11
78.84750779686505
 21
206.5112324594356
 31
0.0
1001
GENIUS_GENODEF_13
1002
{
1000
HIER
1070
     0
1002
}
1002
{
1000
MANEDIT
1070
     0
1002
}
1002
{
1000
NOSEL
1070
     0
1002
}
1002
{
1000
BEHIND
1070
     0
1002
}
1002
{
1000
OTHER
1070
     0
1002
}
1002
{
1000
REACTOR
1002
}
1001
GENIUS_GENOBJ-N-CEN_13
1002
{
1000
OWNER
1000
GEN
1002
}
1001
GENIUS_GENCEN_19
1002
{
1040
3.0
1002
}
  0
LINE
  5
8D00
  8
0
 10
75.64321380286259
 20
204.6612324594356
 30
0.0
 11
75.49724803380872
 21
204.1164807931602
 31
0.0
  0
LINE
  5
8D01
  8
0
 10
75.33702758501471
 20
204.4844557641391
 30
0.0
 11
75.25576657723644
 21
204.181185554436
 31
0.0
  0
ARC
  5
8D02
  8
0
 10
75.37650730552235
 20
204.148833173798
 30
0.0
 40
0.1249999999999206
 50
165.0000000000097
 51
345.0000000001045
  0
LINE
  5
8D03
  8
0
 10
75.49321380286273
 20
204.9210400805709
 30
0.0
 11
74.94846213658724
 21
205.0670058496249
 31
0.0
  0
LINE
  5
8D04
  8
0
 10
75.18702758501485
 20
204.7442633852744
 30
0.0
 11
74.88375737531163
 21
204.8255243930527
 31
0.0
  0
LINE
  5
8D05
  8
0
 10
76.24943158551167
 20
205.0112324594356
 30
0.0
 11
75.64321380286259
 21
204.6612324594356
 31
0.0
1001
GENIUS_GENODEF_13
1002
{
1000
HIER
1070
     0
1002
}
1002
{
1000
MANEDIT
1070
     0
1002
}
1002
{
1000
NOSEL
1070
     0
1002
}
1002
{
1000
BEHIND
1070
     0
1002
}
1002
{
1000
OTHER
1070
     0
1002
}
1002
{
1000
REACTOR
1002
}
1001
GENIUS_GENOBJ-N-CEN_13
1002
{
1000
OWNER
1000
GEN
1002
}
1001
GENIUS_GENCEN_19
1002
{
1040
3.0
1002
}
  0
LINE
  5
8D06
  8
0
 10
76.53244428740408
 20
205.521040080571
 30
0.0
 11
75.65022846540131
 21
205.7574290976265
 31
0.0
  0
ARC
  5
8D07
  8
0
 10
74.91610975594944
 20
204.9462651213387
 30
0.0
 40
0.1249999999999206
 50
74.99999999999544
 51
254.9999999999954
  0
LINE
  5
8D08
  8
0
 10
78.84750779686505
 20
206.5112324594356
 30
0.0
 11
79.38821726792156
 21
206.3663497933262
 31
0.0
  0
ARC
  5
8D09
  8
0
 10
79.34246409244855
 20
206.1955966178532
 30
0.0
 40
0.1767766952966168
 50
255.0000000000127
 51
75.0000000000127
  0
LINE
  5
8D0A
  8
0
 10
78.26449509497292
 20
206.521040080571
 30
0.0
 11
78.50088411202859
 21
207.4032559025735
 31
0.0
  0
LINE
  5
8D0B
  8
0
 10
77.32346969118834
 20
204.8911362700034
 30
0.0
 11
77.32346969118834
 21
205.283619434614
 31
0.0
1001
GENIUS_GENODEF_13
1002
{
1000
HIER
1070
     0
1002
}
1002
{
1000
MANEDIT
1070
     0
1002
}
1002
{
1000
NOSEL
1070
     0
1002
}
1002
{
1000
BEHIND
1070
     0
1002
}
1002
{
1000
OTHER
1070
     0
1002
}
1002
{
1000
REACTOR
1002
}
1001
GENIUS_GENOBJ-N-CEN_13
1002
{
1000
OWNER
1000
GEN
1002
}
1001
GENIUS_GENCEN_19
1002
{
1040
3.0
1002
}
  0
LINE
  5
8D0C
  8
0
 10
79.60991179736214
 20
207.2978167758677
 30
0.0
 11
79.69117280514041
 21
207.6010869855706
 31
0.0
  0
ARC
  5
8D0D
  8
0
 10
79.5704320768545
 20
207.6334393662086
 30
0.0
 40
0.1249999999999206
 50
345.0000000000097
 51
165.0000000001046
  0
LINE
  5
8D0E
  8
0
 10
75.33702758501471
 20
207.2978167758677
 30
0.0
 11
75.25576657723644
 21
207.6010869855708
 31
0.0
  0
LINE
  5
8D0F
  8
0
 10
75.49321380286273
 20
206.8612324594357
 30
0.0
 11
74.94846213658724
 21
206.7152666903817
 31
0.0
  0
LINE
  5
8D10
  8
0
 10
75.18702758501485
 20
207.0380091547323
 30
0.0
 11
74.88375737531163
 21
206.9567481469541
 31
0.0
  0
LINE
  5
8D11
  8
0
 10
79.30372557951426
 20
204.6612324594357
 30
0.0
 11
78.69750779686518
 21
205.0112324594357
 31
0.0
1001
GENIUS_GENODEF_13
1002
{
1000
HIER
1070
     0
1002
}
1002
{
1000
MANEDIT
1070
     0
1002
}
1002
{
1000
NOSEL
1070
     0
1002
}
1002
{
1000
BEHIND
1070
     0
1002
}
1002
{
1000
OTHER
1070
     0
1002
}
1002
{
1000
REACTOR
1002
}
1001
GENIUS_GENOBJ-N-CEN_13
1002
{
1000
OWNER
1000
GEN
1002
}
1001
GENIUS_GENCEN_19
1002
{
1040
3.0
1002
}
  0
LINE
  5
8D12
  8
0
 10
79.45372557951413
 20
204.9210400805711
 30
0.0
 11
78.84750779686505
 21
205.2710400805711
 31
0.0
1001
GENIUS_GENODEF_13
1002
{
1000
HIER
1070
     0
1002
}
1002
{
1000
MANEDIT
1070
     0
1002
}
1002
{
1000
NOSEL
1070
     0
1002
}
1002
{
1000
BEHIND
1070
     0
1002
}
1002
{
1000
OTHER
1070
     0
1002
}
1002
{
1000
REACTOR
1002
}
1001
GENIUS_GENOBJ-N-CEN_13
1002
{
1000
OWNER
1000
GEN
1002
}
1001
GENIUS_GENCEN_19
1002
{
1040
3.0
1002
}
  0
ARC
  5
8D13
  8
0
 10
75.37650730552235
 20
207.6334393662086
 30
0.0
 40
0.1249999999999206
 50
14.99999999995087
 51
194.9999999999509
  0
ARC
  5
8D14
  8
0
 10
74.91610975594944
 20
206.8360074186679
 30
0.0
 40
0.1249999999999206
 50
105.0000000000046
 51
285.0000000000046
  0
LINE
  5
8D15
  8
0
 10
78.26449509497292
 20
205.2612324594357
 30
0.0
 11
77.92459470386228
 21
205.4574740417411
 31
0.0
1001
GENIUS_GENODEF_13
1002
{
1000
HIER
1070
     0
1002
}
1002
{
1000
MANEDIT
1070
     0
1002
}
1002
{
1000
NOSEL
1070
     0
1002
}
1002
{
1000
BEHIND
1070
     0
1002
}
1002
{
1000
OTHER
1070
     0
1002
}
1002
{
1000
REACTOR
1002
}
1001
GENIUS_GENOBJ-N-CEN_13
1002
{
1000
OWNER
1000
GEN
1002
}
1001
GENIUS_GENCEN_19
1002
{
1040
3.0
1002
}
  0
LINE
  5
8D16
  8
0
 10
75.33702758501471
 20
207.2978167758677
 30
0.0
 11
74.86379093945669
 21
207.571040080571
 31
0.0
1001
GENIUS_GENODEF_13
1002
{
1000
HIER
1070
     0
1002
}
1002
{
1000
MANEDIT
1070
     0
1002
}
1002
{
1000
NOSEL
1070
     0
1002
}
1002
{
1000
BEHIND
1070
     0
1002
}
1002
{
1000
OTHER
1070
     0
1002
}
1002
{
1000
REACTOR
1002
}
1001
GENIUS_GENOBJ-N-CEN_13
1002
{
1000
OWNER
1000
GEN
1002
}
1001
GENIUS_GENCEN_19
1002
{
1040
3.0
1002
}
  0
LINE
  5
8D17
  8
0
 10
76.24943158551167
 20
206.7710400805711
 30
0.0
 11
76.10454891940225
 21
207.3117495516275
 31
0.0
  0
LINE
  5
8D18
  8
0
 10
78.41449509497278
 20
205.5210400805711
 30
0.0
 11
79.29671091697554
 21
205.7574290976265
 31
0.0
  0
ARC
  5
8D19
  8
0
 10
76.27530209487526
 20
207.3575027271005
 30
0.0
 40
0.1767766952966168
 50
15.00000000002528
 51
194.9999999999861
  0
LINE
  5
8D1A
  8
0
 10
80.08314844292016
 20
204.2112324594357
 30
0.0
 11
79.60991179736214
 21
204.4844557641391
 31
0.0
1001
GENIUS_GENODEF_13
1002
{
1000
HIER
1070
     0
1002
}
1002
{
1000
MANEDIT
1070
     0
1002
}
1002
{
1000
NOSEL
1070
     0
1002
}
1002
{
1000
BEHIND
1070
     0
1002
}
1002
{
1000
OTHER
1070
     0
1002
}
1002
{
1000
REACTOR
1002
}
1001
GENIUS_GENOBJ-N-CEN_13
1002
{
1000
OWNER
1000
GEN
1002
}
1001
GENIUS_GENCEN_19
1002
{
1040
3.0
1002
}
  0
LINE
  5
8D1B
  8
0
 10
76.53244428740408
 20
206.2612324594357
 30
0.0
 11
75.65022846540131
 21
206.0248434423802
 31
0.0
  0
LINE
  5
8D1C
  8
0
 10
78.41449509497278
 20
205.5210400805711
 30
0.0
 11
78.07459470386215
 21
205.7172816628764
 31
0.0
1001
GENIUS_GENODEF_13
1002
{
1000
HIER
1070
     0
1002
}
1002
{
1000
MANEDIT
1070
     0
1002
}
1002
{
1000
NOSEL
1070
     0
1002
}
1002
{
1000
BEHIND
1070
     0
1002
}
1002
{
1000
OTHER
1070
     0
1002
}
1002
{
1000
REACTOR
1002
}
1001
GENIUS_GENOBJ-N-CEN_13
1002
{
1000
OWNER
1000
GEN
1002
}
1001
GENIUS_GENCEN_19
1002
{
1040
3.0
1002
}
  0
LINE
  5
8D1D
  8
0
 10
80.23314844292025
 20
204.471040080571
 30
0.0
 11
79.75991179736201
 21
204.7442633852744
 31
0.0
1001
GENIUS_GENODEF_13
1002
{
1000
HIER
1070
     0
1002
}
1002
{
1000
MANEDIT
1070
     0
1002
}
1002
{
1000
NOSEL
1070
     0
1002
}
1002
{
1000
BEHIND
1070
     0
1002
}
1002
{
1000
OTHER
1070
     0
1002
}
1002
{
1000
REACTOR
1002
}
1001
GENIUS_GENOBJ-N-CEN_13
1002
{
1000
OWNER
1000
GEN
1002
}
1001
GENIUS_GENCEN_19
1002
{
1040
3.0
1002
}
  0
LINE
  5
8D1E
  8
0
 10
75.64321380286259
 20
207.121040080571
 30
0.0
 11
75.49724803380872
 21
207.6657917468464
 31
0.0
  0
ARC
  5
8D1F
  8
0
 10
75.6044752899283
 20
206.1955966178532
 30
0.0
 40
0.1767766952966168
 50
104.9999999999873
 51
284.9999999999873
  0
ARC
  5
8D20
  8
0
 10
74.78879093945665
 20
207.4411362700034
 30
0.0
 40
0.1499999999999773
 50
59.99999999997465
 51
239.9999999999746
  0
LINE
  5
8D21
  8
0
 10
78.84750779686505
 20
205.2710400805711
 30
0.0
 11
79.38821726792156
 21
205.4159227466804
 31
0.0
  0
LINE
  5
8D22
  8
0
 10
76.24943158551167
 20
206.7710400805711
 30
0.0
 11
75.64321380286259
 21
207.121040080571
 31
0.0
1001
GENIUS_GENODEF_13
1002
{
1000
HIER
1070
     0
1002
}
1002
{
1000
MANEDIT
1070
     0
1002
}
1002
{
1000
NOSEL
1070
     0
1002
}
1002
{
1000
BEHIND
1070
     0
1002
}
1002
{
1000
OTHER
1070
     0
1002
}
1002
{
1000
REACTOR
1002
}
1001
GENIUS_GENOBJ-N-CEN_13
1002
{
1000
OWNER
1000
GEN
1002
}
1001
GENIUS_GENCEN_19
1002
{
1040
3.0
1002
}
  0
ARC
  5
8D23
  8
0
 10
80.15814844292021
 20
204.3411362700034
 30
0.0
 40
0.1499999999999773
 50
239.9999999999746
 51
59.99999999997465
  0
ARC
  5
8D24
  8
0
 10
79.34246409244855
 20
205.5866759221535
 30
0.0
 40
0.1767766952966168
 50
284.9999999999873
 51
104.9999999999873
  0
LINE
  5
8D25
  8
0
 10
78.26449509497292
 20
205.2612324594357
 30
0.0
 11
78.50088411202859
 21
204.3790166374331
 31
0.0
  0
LINE
  5
8D26
  8
0
 10
75.18702758501485
 20
207.0380091547323
 30
0.0
 11
74.7137909394566
 21
207.3112324594357
 31
0.0
1001
GENIUS_GENODEF_13
1002
{
1000
HIER
1070
     0
1002
}
1002
{
1000
MANEDIT
1070
     0
1002
}
1002
{
1000
NOSEL
1070
     0
1002
}
1002
{
1000
BEHIND
1070
     0
1002
}
1002
{
1000
OTHER
1070
     0
1002
}
1002
{
1000
REACTOR
1002
}
1001
GENIUS_GENOBJ-N-CEN_13
1002
{
1000
OWNER
1000
GEN
1002
}
1001
GENIUS_GENCEN_19
1002
{
1040
3.0
1002
}
  0
LINE
  5
8D27
  8
0
 10
78.69750779686518
 20
205.0112324594357
 30
0.0
 11
78.8423904629746
 21
204.4705229883792
 31
0.0
  0
LINE
  5
8D28
  8
0
 10
76.09943158551181
 20
206.5112324594357
 30
0.0
 11
75.55872211445529
 21
206.3663497933263
 31
0.0
  0
LINE
  5
8D29
  8
0
 10
76.68244428740394
 20
206.5210400805711
 30
0.0
 11
76.4460552703485
 21
207.4032559025736
 31
0.0
  0
ARC
  5
8D2A
  8
0
 10
78.6716372875016
 20
204.4247698129062
 30
0.0
 40
0.1767766952966168
 50
195.0000000000253
 51
14.99999999998613
  0
LINE
  5
8D2B
  8
0
 10
76.09943158551181
 20
206.5112324594357
 30
0.0
 11
75.49321380286273
 21
206.8612324594357
 31
0.0
1001
GENIUS_GENODEF_13
1002
{
1000
HIER
1070
     0
1002
}
1002
{
1000
MANEDIT
1070
     0
1002
}
1002
{
1000
NOSEL
1070
     0
1002
}
1002
{
1000
BEHIND
1070
     0
1002
}
1002
{
1000
OTHER
1070
     0
1002
}
1002
{
1000
REACTOR
1002
}
1001
GENIUS_GENOBJ-N-CEN_13
1002
{
1000
OWNER
1000
GEN
1002
}
1001
GENIUS_GENCEN_19
1002
{
1040
3.0
1002
}
  0
POLYLINE
  5
8D2C
  8
0
 66
     1
 10
0.0
 20
0.0
 30
0.0
  0
VERTEX
  5
A301
  8
0
 10
77.92459470386228
 20
206.3247984982655
 30
0.0
  0
VERTEX
  5
A302
  8
0
 10
77.62346969118852
 20
206.4986531053926
 30
0.0
  0
SEQEND
  5
A312
  8
0
  0
POLYLINE
  5
8D2D
  8
0
 66
     1
 10
0.0
 20
0.0
 30
0.0
  0
VERTEX
  5
A303
  8
0
 10
77.02234467851457
 20
205.457474041741
 30
0.0
  0
VERTEX
  5
A304
  8
0
 10
77.32346969118834
 20
205.283619434614
 30
0.0
  0
SEQEND
  5
A313
  8
0
  0
POLYLINE
  5
8D2E
  8
0
 66
     1
 10
0.0
 20
0.0
 30
0.0
  0
VERTEX
  5
A305
  8
0
 10
77.62346969118852
 20
205.283619434614
 30
0.0
  0
VERTEX
  5
A306
  8
0
 10
77.92459470386228
 20
205.4574740417411
 30
0.0
  0
SEQEND
  5
A314
  8
0
  0
POLYLINE
  5
8D2F
  8
0
 66
     1
 10
0.0
 20
0.0
 30
0.0
  0
VERTEX
  5
A307
  8
0
 10
78.07459470386215
 20
205.7172816628764
 30
0.0
  0
VERTEX
  5
A308
  8
0
 10
78.07459470386215
 20
206.0649908771302
 30
0.0
  0
SEQEND
  5
A315
  8
0
  0
POLYLINE
  5
8D30
  8
0
 66
     1
 10
0.0
 20
0.0
 30
0.0
  0
VERTEX
  5
A309
  8
0
 10
76.87234467851471
 20
206.0649908771303
 30
0.0
  0
VERTEX
  5
A30A
  8
0
 10
76.87234467851471
 20
205.7172816628763
 30
0.0
  0
SEQEND
  5
A316
  8
0
  0
LINE
  5
8D31
  8
0
 10
76.87234467851471
 20
206.0649908771303
 30
0.0
 11
76.53244428740408
 21
206.2612324594357
 31
0.0
1001
GENIUS_GENODEF_13
1002
{
1000
HIER
1070
     0
1002
}
1002
{
1000
MANEDIT
1070
     0
1002
}
1002
{
1000
NOSEL
1070
     0
1002
}
1002
{
1000
BEHIND
1070
     0
1002
}
1002
{
1000
OTHER
1070
     0
1002
}
1002
{
1000
REACTOR
1002
}
1001
GENIUS_GENOBJ-N-CEN_13
1002
{
1000
OWNER
1000
GEN
1002
}
1001
GENIUS_GENCEN_19
1002
{
1040
3.0
1002
}
  0
LINE
  5
8D32
  8
0
 10
77.02234467851457
 20
205.457474041741
 30
0.0
 11
76.68244428740394
 21
205.2612324594356
 31
0.0
1001
GENIUS_GENODEF_13
1002
{
1000
HIER
1070
     0
1002
}
1002
{
1000
MANEDIT
1070
     0
1002
}
1002
{
1000
NOSEL
1070
     0
1002
}
1002
{
1000
BEHIND
1070
     0
1002
}
1002
{
1000
OTHER
1070
     0
1002
}
1002
{
1000
REACTOR
1002
}
1001
GENIUS_GENOBJ-N-CEN_13
1002
{
1000
OWNER
1000
GEN
1002
}
1001
GENIUS_GENCEN_19
1002
{
1040
3.0
1002
}
  0
LINE
  5
8D33
  8
0
 10
77.62346969118852
 20
206.4986531053926
 30
0.0
 11
77.62346969118852
 21
206.8911362700034
 31
0.0
1001
GENIUS_GENODEF_13
1002
{
1000
HIER
1070
     0
1002
}
1002
{
1000
MANEDIT
1070
     0
1002
}
1002
{
1000
NOSEL
1070
     0
1002
}
1002
{
1000
BEHIND
1070
     0
1002
}
1002
{
1000
OTHER
1070
     0
1002
}
1002
{
1000
REACTOR
1002
}
1001
GENIUS_GENOBJ-N-CEN_13
1002
{
1000
OWNER
1000
GEN
1002
}
1001
GENIUS_GENCEN_19
1002
{
1040
3.0
1002
}
  0
LINE
  5
8D34
  8
0
 10
76.87234467851471
 20
205.7172816628763
 30
0.0
 11
76.53244428740408
 21
205.521040080571
 31
0.0
1001
GENIUS_GENODEF_13
1002
{
1000
HIER
1070
     0
1002
}
1002
{
1000
MANEDIT
1070
     0
1002
}
1002
{
1000
NOSEL
1070
     0
1002
}
1002
{
1000
BEHIND
1070
     0
1002
}
1002
{
1000
OTHER
1070
     0
1002
}
1002
{
1000
REACTOR
1002
}
1001
GENIUS_GENOBJ-N-CEN_13
1002
{
1000
OWNER
1000
GEN
1002
}
1001
GENIUS_GENCEN_19
1002
{
1040
3.0
1002
}
  0
LINE
  5
8D35
  8
0
 10
77.0223446785148
 20
206.3247984982656
 30
0.0
 11
76.68244428740394
 21
206.5210400805711
 31
0.0
1001
GENIUS_GENODEF_13
1002
{
1000
HIER
1070
     0
1002
}
1002
{
1000
MANEDIT
1070
     0
1002
}
1002
{
1000
NOSEL
1070
     0
1002
}
1002
{
1000
BEHIND
1070
     0
1002
}
1002
{
1000
OTHER
1070
     0
1002
}
1002
{
1000
REACTOR
1002
}
1001
GENIUS_GENOBJ-N-CEN_13
1002
{
1000
OWNER
1000
GEN
1002
}
1001
GENIUS_GENCEN_19
1002
{
1040
3.0
1002
}
  0
LINE
  5
8D36
  8
0
 10
77.32346969118834
 20
206.4986531053926
 30
0.0
 11
77.32346969118834
 21
206.8911362700034
 31
0.0
1001
GENIUS_GENODEF_13
1002
{
1000
HIER
1070
     0
1002
}
1002
{
1000
MANEDIT
1070
     0
1002
}
1002
{
1000
NOSEL
1070
     0
1002
}
1002
{
1000
BEHIND
1070
     0
1002
}
1002
{
1000
OTHER
1070
     0
1002
}
1002
{
1000
REACTOR
1002
}
1001
GENIUS_GENOBJ-N-CEN_13
1002
{
1000
OWNER
1000
GEN
1002
}
1001
GENIUS_GENCEN_19
1002
{
1040
3.0
1002
}
  0
POINT
  5
8D37
  8
0
 10
77.47346969118843
 20
205.8911362700034
 30
0.0
  0
ARC
  5
A0D5
  8
0
 10
57.65747357530615
 20
237.9020914956462
 30
0.0
 40
2.818784487207035
 50
42.10643774613708
 51
72.54963860556856
  0
ARC
  5
A0D6
  8
0
 10
57.66204042009621
 20
237.8940184650373
 30
0.0
 40
2.825124600724308
 50
72.68709389380213
 51
114.8350808121767
  0
ARC
  5
A0D7
  8
0
 10
57.66886519956015
 20
237.8951235512724
 30
0.0
 40
2.82699601279636
 50
114.9700164788597
 51
159.7658782060649
  0
ARC
  5
A0D8
  8
0
 10
57.67023802492448
 20
237.9019402368706
 30
0.0
 40
2.825934871198894
 50
159.9051839004258
 51
208.1033156220127
  0
ARC
  5
A0D9
  8
0
 10
57.66700786976547
 20
237.9059759101548
 30
0.0
 40
2.824991178843034
 50
208.2063768521148
 51
252.9917058831046
  0
ARC
  5
A0DA
  8
0
 10
57.66113741822078
 20
237.8985074809185
 30
0.0
 40
2.816134321775382
 50
253.0614728184792
 51
303.6104044070921
  0
ARC
  5
A0DB
  8
0
 10
57.65197731125325
 20
237.9078113586307
 30
0.0
 40
2.828954381084524
 50
303.6606050060731
 51
336.6888212394869
  0
ARC
  5
A0DC
  8
0
 10
57.67302204206248
 20
237.8962000942436
 30
0.0
 40
2.805033656979198
 50
336.7365264644543
 51
352.0115546408769
  0
ARC
  5
A0DD
  8
0
 10
60.88196512445791
 20
237.4395123198013
 30
0.0
 40
0.4362831274249897
 50
124.9417661979965
 51
171.1843733476082
  0
ARC
  5
A0DE
  8
0
 10
60.95858726098099
 20
237.3812910034437
 30
0.0
 40
0.5287156028486799
 50
68.4989425064704
 51
128.1363643025119
  0
ARC
  5
A0DF
  8
0
 10
60.95744437000734
 20
237.3781526040217
 30
0.0
 40
0.5320545012467646
 50
21.17868457593806
 51
68.50830305575766
  0
ARC
  5
A0E0
  8
0
 10
60.90062769955997
 20
237.3654657811657
 30
0.0
 40
0.589681274627146
 50
351.3677592453841
 51
20.33365155063771
  0
ARC
  5
A0E1
  8
0
 10
57.68343705213394
 20
237.8923712411115
 30
0.0
 40
3.849700154783129
 50
329.2955579547433
 51
350.8012500119637
  0
ARC
  5
A0E2
  8
0
 10
57.66066851953252
 20
237.9020138808746
 30
0.0
 40
3.874201887614873
 50
272.110292872708
 51
329.3448789643533
  0
ARC
  5
A0E3
  8
0
 10
57.65755494499695
 20
237.8871204130527
 30
0.0
 40
3.859434907830362
 50
228.1538869054162
 51
272.1646262877288
  0
ARC
  5
A0E4
  8
0
 10
57.65900386452172
 20
237.9001832887908
 30
0.0
 40
3.870140110233152
 50
191.6688789272142
 51
228.2669244735644
  0
ARC
  5
A0E5
  8
0
 10
54.43289767128093
 20
239.2068393856969
 30
0.0
 40
2.164208178393929
 50
198.7239634759426
 51
254.8927875963119
  0
ARC
  5
A0E6
  8
0
 10
52.35567876398036
 20
239.7876061665921
 30
0.0
 40
1.275794832121307
 50
159.5889286416731
 51
271.2373210171075
  0
ARC
  5
A0E7
  8
0
 10
52.35551363530649
 20
239.7874611460522
 30
0.0
 40
1.27569066216106
 50
56.35876753652553
 51
159.5802376694622
  0
ARC
  5
A0E8
  8
0
 10
52.35508848122108
 20
239.7872864095604
 30
0.0
 40
1.27607169163755
 50
300.8474340774544
 51
56.34722155661583
  0
ARC
  5
A0E9
  8
0
 10
54.43269053159633
 20
239.2057650429765
 30
0.0
 40
1.513270340059136
 50
199.8575424768324
 51
244.87020540992
  0
ARC
  5
A0EA
  8
0
 10
57.65322924019236
 20
237.9057736786129
 30
0.0
 40
3.863814594731709
 50
128.8924189419203
 51
181.0387416655356
  0
ARC
  5
A0EB
  8
0
 10
57.65982246991548
 20
237.9092492700555
 30
0.0
 40
3.865255996170545
 50
64.08752047055657
 51
129.0008345454508
  0
ARC
  5
A0EC
  8
0
 10
57.63603020600075
 20
237.8813352334238
 30
0.0
 40
3.900771647075106
 50
41.9314896272178
 51
63.95236016528539
  0
ARC
  5
A0ED
  8
0
 10
60.132924938241
 20
240.1416108209405
 30
0.0
 40
0.5329691384397407
 50
326.9391245431075
 51
40.53482220836
  0
ARC
  5
A0EE
  8
0
 10
60.13437214279057
 20
240.1420787958314
 30
0.0
 40
0.532012855346209
 50
288.8262582044642
 51
326.811859915361
  0
ARC
  5
A0EF
  8
0
 10
60.13890334140646
 20
240.1199636986925
 30
0.0
 40
0.5096266244015553
 50
220.0392534532336
 51
289.1464231932406
  0
ARC
  5
A0F0
  8
0
 10
52.35555897674926
 20
239.7874950974254
 30
0.0
 40
0.5333610920542913
 50
358.2903179254245
 51
182.8871640299837
  0
ARC
  5
A0F1
  8
0
 10
52.35556125442254
 20
239.7872734439684
 30
0.0
 40
0.533352248318835
 50
182.8633706346231
 51
358.3141113207849
  0
ARC
  5
A0F2
  8
0
 10
56.41442408629561
 20
238.3677768329371
 30
0.0
 40
0.6197235851139764
 50
269.9860909562865
 51
92.215844524471
  0
ARC
  5
A0F3
  8
0
 10
56.4145474101523
 20
238.3677792029593
 30
0.0
 40
0.619725997344469
 50
92.2272460800957
 51
269.9746892990934
  0
ARC
  5
A0F4
  8
0
 10
58.91025527816765
 20
238.367769889435
 30
0.0
 40
0.6197167624590886
 50
269.9616101028838
 51
89.98977670141691
  0
ARC
  5
A0F5
  8
0
 10
58.90992044989144
 20
238.3677700314793
 30
0.0
 40
0.6197167706109338
 50
89.95882022245952
 51
269.9925665818412
  0
ARC
  5
A0F6
  8
0
 10
57.66213579924941
 20
238.3884323049973
 30
0.0
 40
1.621966970399848
 50
233.6417470358297
 51
306.8838773871487
  0
ARC
  5
A0F7
  8
0
 10
58.78581951004276
 20
236.8818313823184
 30
0.0
 40
0.2575808481740123
 50
48.75225273408194
 51
125.6665677964282
  0
ARC
  5
A0F8
  8
0
 10
58.78543677085528
 20
236.8815695259131
 30
0.0
 40
0.2580301008803177
 50
350.2089239138045
 51
48.72668974043631
  0
ARC
  5
A0F9
  8
0
 10
58.78228387416652
 20
236.8818129154594
 30
0.0
 40
0.2611786316846578
 50
302.7722891929776
 51
350.2739298216642
  0
ARC
  5
A0FA
  8
0
 10
57.65846606407204
 20
238.3944656030782
 30
0.0
 40
2.145096291517153
 50
279.580629416799
 51
306.143360362296
  0
ARC
  5
A0FB
  8
0
 10
57.66204946286889
 20
238.3876029978724
 30
0.0
 40
2.137734336466047
 50
255.4417152635177
 51
279.5165392426293
  0
ARC
  5
A0FC
  8
0
 10
57.66299912160271
 20
238.3854033398219
 30
0.0
 40
2.135844522087935
 50
232.8702473643658
 51
255.4022254017396
  0
ARC
  5
A0FD
  8
0
 10
56.53944883532802
 20
236.88146173031
 30
0.0
 40
0.25887643170293
 50
155.1529278431581
 51
230.2048092005848
  0
ARC
  5
A0FE
  8
0
 10
56.53824733876187
 20
236.8819013041923
 30
0.0
 40
0.2576014684421306
 50
103.7622011258959
 51
155.1293551933696
  0
ARC
  5
A0FF
  8
0
 10
56.53857260243942
 20
236.8821414920212
 30
0.0
 40
0.2574458242313935
 50
51.00202248787202
 51
103.845228473221
  0
ARC
  5
A100
  8
0
 10
49.6780952065205
 20
234.8564000173185
 30
0.0
 40
0.9091768622367206
 50
133.222959671733
 51
270.1894734199499
  0
ARC
  5
A101
  8
0
 10
49.67852055412767
 20
234.8560163283235
 30
0.0
 40
0.9087918676904274
 50
270.1627370543721
 51
50.19893912908906
  0
ARC
  5
A102
  8
0
 10
49.65784207733947
 20
241.2524864839442
 30
0.0
 40
0.6024320394943272
 50
2.835526177207598
 51
174.3732816204283
  0
ARC
  5
A103
  8
0
 10
49.65787804371784
 20
241.2524083949788
 30
0.0
 40
0.2295028634559424
 50
358.9188453068384
 51
179.9730971000858
  0
ARC
  5
A104
  8
0
 10
46.78493243185769
 20
235.9457516378574
 30
0.0
 40
0.0873768611613766
 50
87.47256260673397
 51
234.0891406317526
  0
ARC
  5
A105
  8
0
 10
48.19601220484167
 20
235.9466651185613
 30
0.0
 40
0.0863646317370953
 50
317.9031549580241
 51
87.18148688827209
  0
ARC
  5
A106
  8
0
 10
47.49016881076269
 20
235.2405667494095
 30
0.0
 40
0.086253216996548
 50
226.0322552542306
 51
315.2107938570916
  0
LINE
  5
A107
  8
0
 10
49.42837520556134
 20
241.2525161567091
 30
0.0
 11
49.42837520556134
 21
237.7288052192089
 31
0.0
  0
LINE
  5
A108
  8
0
 10
49.42837520556134
 20
237.7288052192089
 30
0.0
 11
49.88734004931177
 21
237.7288052192089
 31
0.0
  0
LINE
  5
A109
  8
0
 10
49.88734004931177
 20
237.7288052192089
 30
0.0
 11
49.88734004931177
 21
241.2480779996985
 31
0.0
  0
LINE
  5
A10A
  8
0
 10
50.25953653284308
 20
241.2822882359986
 30
0.0
 11
50.26025997118643
 21
235.5542153754586
 31
0.0
  0
LINE
  5
A10B
  8
0
 10
49.05545528368668
 20
235.5189119744333
 30
0.0
 11
49.05545528368668
 21
237.4994106879585
 31
0.0
  0
LINE
  5
A10C
  8
0
 10
49.05545528368668
 20
237.4994106879585
 30
0.0
 11
46.59223262743637
 21
237.4994106879585
 31
0.0
  0
LINE
  5
A10D
  8
0
 10
46.59223262743637
 20
237.4994106879585
 30
0.0
 11
46.59223262743637
 21
237.7287212756024
 31
0.0
  0
LINE
  5
A10E
  8
0
 10
46.59223262743637
 20
237.7287212756024
 30
0.0
 11
49.05545528368668
 21
237.7288052192089
 31
0.0
  0
LINE
  5
A10F
  8
0
 10
49.05545528368668
 20
237.7288052192089
 30
0.0
 11
49.05831268399742
 21
241.3115531304395
 31
0.0
  0
LINE
  5
A110
  8
0
 10
46.733683641928
 20
235.8749824539059
 30
0.0
 11
47.43028723017628
 21
235.1784876567234
 31
0.0
  0
LINE
  5
A111
  8
0
 10
47.55138301806176
 20
235.1798013129592
 30
0.0
 11
48.26009586330049
 21
235.888767499149
 31
0.0
  0
LINE
  5
A112
  8
0
 10
48.20025896937101
 20
236.0329252751002
 30
0.0
 11
47.81909786181143
 21
236.0330435004589
 31
0.0
  0
LINE
  5
A113
  8
0
 10
47.81909786181143
 20
236.0330435004589
 30
0.0
 11
47.81909786181143
 21
237.0471735697235
 31
0.0
  0
LINE
  5
A114
  8
0
 10
47.81909786181143
 20
237.0471735697235
 30
0.0
 11
47.16114864306167
 21
237.0473013129586
 31
0.0
  0
LINE
  5
A115
  8
0
 10
47.16114864306167
 20
237.0473013129586
 30
0.0
 11
47.16114864306167
 21
236.0330435004589
 31
0.0
  0
LINE
  5
A116
  8
0
 10
47.16114864306167
 20
236.0330435004589
 30
0.0
 11
46.78878555915474
 21
236.0330435004589
 31
0.0
  0
LINE
  5
A117
  8
0
 10
48.38810176806157
 20
239.623902875459
 30
0.0
 11
48.18735958056152
 21
239.7397427192091
 31
0.0
  0
LINE
  5
A118
  8
0
 10
48.18735958056152
 20
239.7397427192091
 30
0.0
 11
47.69104122118654
 21
239.4532192817087
 31
0.0
  0
LINE
  5
A119
  8
0
 10
47.69104122118654
 20
239.4532192817087
 30
0.0
 11
47.69095333056168
 21
240.0264419379591
 31
0.0
  0
LINE
  5
A11A
  8
0
 10
47.69095333056168
 20
240.0264419379591
 30
0.0
 11
47.49021114306163
 21
240.1422817817088
 31
0.0
  0
LINE
  5
A11B
  8
0
 10
47.49021114306163
 20
240.1422817817088
 30
0.0
 11
47.28938106493672
 21
240.0264419379591
 31
0.0
  0
LINE
  5
A11C
  8
0
 10
47.28938106493672
 20
240.0264419379591
 30
0.0
 11
47.28938106493672
 21
239.4532192817087
 31
0.0
  0
LINE
  5
A11D
  8
0
 10
47.28938106493672
 20
239.4532192817087
 30
0.0
 11
46.79297481493643
 21
239.7397427192091
 31
0.0
  0
LINE
  5
A11E
  8
0
 10
46.79297481493643
 20
239.7397427192091
 30
0.0
 11
46.59223262743637
 21
239.623902875459
 31
0.0
  0
LINE
  5
A11F
  8
0
 10
46.59223262743637
 20
239.623902875459
 30
0.0
 11
46.59223262743637
 21
239.392047406709
 31
0.0
  0
LINE
  5
A120
  8
0
 10
46.59223262743637
 20
239.392047406709
 30
0.0
 11
47.08863887743667
 21
239.1055239692087
 31
0.0
  0
LINE
  5
A121
  8
0
 10
47.08863887743667
 20
239.1055239692087
 30
0.0
 11
46.59223262743637
 21
238.8188247504586
 31
0.0
  0
LINE
  5
A122
  8
0
 10
46.59223262743637
 20
238.8188247504586
 30
0.0
 11
46.59223262743637
 21
238.5869692817087
 31
0.0
  0
LINE
  5
A123
  8
0
 10
46.59223262743637
 20
238.5869692817087
 30
0.0
 11
46.79297481493643
 21
238.4711294379586
 31
0.0
  0
LINE
  5
A124
  8
0
 10
46.79297481493643
 20
238.4711294379586
 30
0.0
 11
47.28938106493672
 21
238.7576528754589
 31
0.0
  0
LINE
  5
A125
  8
0
 10
47.28938106493672
 20
238.7576528754589
 30
0.0
 11
47.28946895556157
 21
238.1844302192089
 31
0.0
  0
LINE
  5
A126
  8
0
 10
47.28946895556157
 20
238.1844302192089
 30
0.0
 11
47.49021114306163
 21
238.0685903754588
 31
0.0
  0
LINE
  5
A127
  8
0
 10
47.49021114306163
 20
238.0685903754588
 30
0.0
 11
47.69104122118654
 21
238.1844302192089
 31
0.0
  0
LINE
  5
A128
  8
0
 10
47.69104122118654
 20
238.1844302192089
 30
0.0
 11
47.69095333056168
 21
238.7576528754589
 31
0.0
  0
LINE
  5
A129
  8
0
 10
47.69095333056168
 20
238.7576528754589
 30
0.0
 11
48.18735958056152
 21
238.4711294379586
 31
0.0
  0
LINE
  5
A12A
  8
0
 10
48.18735958056152
 20
238.4711294379586
 30
0.0
 11
48.38810176806157
 21
238.5869692817087
 31
0.0
  0
LINE
  5
A12B
  8
0
 10
48.38810176806157
 20
238.5869692817087
 30
0.0
 11
48.38810176806157
 21
238.8188247504586
 31
0.0
  0
LINE
  5
A12C
  8
0
 10
48.38810176806157
 20
238.8188247504586
 30
0.0
 11
47.89178340868659
 21
239.1055239692087
 31
0.0
  0
LINE
  5
A12D
  8
0
 10
47.89178340868659
 20
239.1055239692087
 30
0.0
 11
48.38810176806157
 21
239.392047406709
 31
0.0
  0
LINE
  5
A12E
  8
0
 10
48.38810176806157
 20
239.392047406709
 30
0.0
 11
48.38810176806157
 21
239.623902875459
 31
0.0
  0
ARC
  5
A12F
  8
0
 10
43.12195934609605
 20
230.2040444927607
 30
0.0
 40
0.3670849884844836
 50
88.43595018400146
 51
181.590761134663
  0
ARC
  5
A130
  8
0
 10
43.1163583312879
 20
230.1781494181705
 30
0.0
 40
0.3616836161732613
 50
177.5113831094955
 51
272.4752596742406
  0
ARC
  5
A131
  8
0
 10
47.84987986345526
 20
228.8144635001164
 30
0.0
 40
1.757421872517575
 50
58.63205765538035
 51
91.82624667791212
  0
ARC
  5
A132
  8
0
 10
48.03110437421941
 20
229.1539891739401
 30
0.0
 40
1.373363550070809
 50
357.3646905701011
 51
57.71432541069437
  0
ARC
  5
A133
  8
0
 10
47.37222606000259
 20
229.1492406359241
 30
0.0
 40
2.031628876196131
 50
312.3580077297276
 51
358.3528725601312
  0
ARC
  5
A134
  8
0
 10
46.53428715551023
 20
230.2834003115175
 30
0.0
 40
3.437343882281632
 50
279.6428930056555
 51
309.9410387066555
  0
ARC
  5
A135
  8
0
 10
45.82933059788157
 20
233.0638045672431
 30
0.0
 40
6.30072093565917
 50
275.4117803201626
 51
281.7281302859268
  0
ARC
  5
A136
  8
0
 10
46.41897769867553
 20
226.6870089836858
 30
0.0
 40
0.104260725704256
 50
87.4752300347481
 51
163.7199139015231
  0
ARC
  5
A137
  8
0
 10
46.61712834302548
 20
226.656407186246
 30
0.0
 40
0.3041729537229
 50
168.6561978748495
 51
200.0889648778469
  0
ARC
  5
A138
  8
0
 10
46.25955381345911
 20
225.9016441229753
 30
0.0
 40
0.2537512839947012
 50
261.3372320245579
 51
20.62119432797275
  0
ARC
  5
A139
  8
0
 10
45.89216037940265
 20
227.3439461614112
 30
0.0
 40
1.693196324176135
 50
200.7119394462078
 51
269.6171287198742
  0
ARC
  5
A13A
  8
0
 10
44.01207273051709
 20
228.5589436716241
 30
0.0
 40
0.2418104089398966
 50
78.56434552526235
 51
205.244229401585
  0
ARC
  5
A13B
  8
0
 10
45.20963082066846
 20
228.2511766206359
 30
0.0
 40
0.5454708950328662
 50
22.03436718337224
 51
87.10976279916946
  0
ARC
  5
A13C
  8
0
 10
46.42807187546437
 20
228.0722198414669
 30
0.0
 40
0.5575982287956304
 50
198.5615711856641
 51
231.4697421334256
  0
ARC
  5
A13D
  8
0
 10
46.27522808336162
 20
227.9079720521946
 30
0.0
 40
0.3343453227859988
 50
234.4274826077689
 51
282.9237961332864
  0
ARC
  5
A13E
  8
0
 10
45.96412109231609
 20
228.9255396532354
 30
0.0
 40
1.397765155718417
 50
286.0259576150772
 51
322.7723331413769
  0
ARC
  5
A13F
  8
0
 10
45.45650265127802
 20
229.3733428326816
 30
0.0
 40
2.073453716718684
 50
321.4055578566604
 51
357.0055140470184
  0
ARC
  5
A140
  8
0
 10
46.98166557240882
 20
229.3036545650758
 30
0.0
 40
0.5468257340680802
 50
355.949160792519
 51
43.9861427071242
  0
ARC
  5
A141
  8
0
 10
46.98970571345929
 20
229.2031052007012
 30
0.0
 40
0.6158215084356161
 50
51.25619189844242
 51
94.75943482914414
  0
ARC
  5
A142
  8
0
 10
50.95033516609477
 20
228.110797704456
 30
0.0
 40
0.9170993127764647
 50
90.00286747961208
 51
268.2497146487426
  0
ARC
  5
A143
  8
0
 10
50.95025858474791
 20
228.1107988723429
 30
0.0
 40
0.9170981442542538
 50
268.2544990708272
 51
89.99808305752734
  0
ARC
  5
A144
  8
0
 10
53.00544743993553
 20
230.189338354761
 30
0.0
 40
0.3770840596473977
 50
89.9884213680942
 51
178.6192995487076
  0
ARC
  5
A145
  8
0
 10
54.17349042306687
 20
230.1893383341406
 30
0.0
 40
0.3770841082509337
 50
1.380703407349445
 51
90.02492579868495
  0
ARC
  5
A146
  8
0
 10
54.1735677262576
 20
227.6231634337482
 30
0.0
 40
0.3768973543141036
 50
269.9633102497762
 51
0.0233356470828619
  0
ARC
  5
A147
  8
0
 10
53.00537010634604
 20
227.6231634012436
 30
0.0
 40
0.3768972758079303
 50
179.9766594067293
 51
270.0233405932998
  0
ARC
  5
A148
  8
0
 10
56.67348593965109
 20
230.1899701726952
 30
0.0
 40
0.3765533069000618
 50
91.32755171042443
 51
178.7135156246359
  0
ARC
  5
A149
  8
0
 10
57.84184585275505
 20
230.1892529476476
 30
0.0
 40
0.3772853742403397
 50
1.392937584181155
 51
88.57968746194234
  0
ARC
  5
A14A
  8
0
 10
55.35470066232927
 20
227.333415090945
 30
0.0
 40
0.9424222807007966
 50
270.2596160298706
 51
359.1847732707208
  0
ARC
  5
A14B
  8
0
 10
55.08760860399901
 20
226.0185659613962
 30
0.0
 40
0.3724651062386549
 50
89.29017710179693
 51
270.7098228982031
  0
ARC
  5
A14C
  8
0
 10
56.02878113638248
 20
227.7815154006755
 30
0.0
 40
2.135678174171317
 50
269.0521856153052
 51
304.9431031995392
  0
ARC
  5
A14D
  8
0
 10
55.98388093546907
 20
227.8864444386104
 30
0.0
 40
2.247528607778139
 50
304.3492687691303
 51
342.0336073987803
  0
ARC
  5
A14E
  8
0
 10
55.96985022703167
 20
227.8474206272895
 30
0.0
 40
2.249219839620582
 50
343.0895187182527
 51
0.3832968636579526
  0
ARC
  5
A14F
  8
0
 10
59.44663312707431
 20
230.2030386176466
 30
0.0
 40
0.3724661917305334
 50
89.27682506750826
 51
270.7231749324918
  0
ARC
  5
A150
  8
0
 10
59.21692130887219
 20
228.5260854926462
 30
0.0
 40
0.3541906372867973
 50
86.29944766479187
 51
273.7005523352082
  0
ARC
  5
A151
  8
0
 10
60.42079770475293
 20
229.237878430018
 30
0.0
 40
0.358803858625055
 50
267.0887535299613
 51
356.4733133196503
  0
ARC
  5
A152
  8
0
 10
60.44140533907068
 20
229.4931598824772
 30
0.0
 40
0.3396690833730922
 50
354.8685998202262
 51
96.56439594170052
  0
ARC
  5
A153
  8
0
 10
64.74309688524876
 20
230.2030386176466
 30
0.0
 40
0.3724651062386495
 50
269.2901771018636
 51
90.7098228981364
  0
ARC
  5
A154
  8
0
 10
63.0788662000955
 20
229.4537048496751
 30
0.0
 40
0.3768972758071489
 50
89.97665940658239
 51
180.0233405934893
  0
ARC
  5
A155
  8
0
 10
63.03671043351217
 20
229.211620920725
 30
0.0
 40
0.3347676534002981
 50
179.2835006658344
 51
277.2606919210987
  0
ARC
  5
A156
  8
0
 10
63.06765651134693
 20
227.8065108745474
 30
0.0
 40
0.3662987656052747
 50
88.22229995736356
 51
176.6896381244135
  0
ARC
  5
A157
  8
0
 10
63.61358972471138
 20
227.2567673821572
 30
0.0
 40
0.9125541393853733
 50
182.5916258786893
 51
271.6600393676819
  0
ARC
  5
A158
  8
0
 10
64.76530104827305
 20
225.9953628363965
 30
0.0
 40
0.3502616083451314
 50
265.608746066266
 51
94.39125393373403
  0
ARC
  5
A159
  8
0
 10
62.96167971981945
 20
227.8729619743563
 30
0.0
 40
2.227259321723195
 50
225.0349285396396
 51
271.1216669202527
  0
ARC
  5
A15A
  8
0
 10
62.70746166970258
 20
227.7024378593899
 30
0.0
 40
1.927871578424823
 50
179.3527648258316
 51
226.7994771726991
  0
ARC
  5
A15B
  8
0
 10
60.60008253863446
 20
227.9573485821022
 30
0.0
 40
0.1798521029892861
 50
357.1558279388276
 51
48.65700890603938
  0
ARC
  5
A15C
  8
0
 10
60.52984032741144
 20
227.8613056341733
 30
0.0
 40
0.2985497565163959
 50
50.71226424714417
 51
78.58034235835004
  0
ARC
  5
A15D
  8
0
 10
60.4150339510925
 20
227.3581845571974
 30
0.0
 40
0.8145440850389851
 50
77.67158325142975
 51
90.87644874463575
  0
ARC
  5
A15E
  8
0
 10
64.94827264105774
 20
228.5523490683129
 30
0.0
 40
0.3797198155434018
 50
270.2659772238895
 51
356.040579270691
  0
ARC
  5
A15F
  8
0
 10
64.96166616666908
 20
228.5141049215298
 30
0.0
 40
0.365617762344841
 50
1.884695911903684
 51
91.822965253088
  0
LINE
  5
A160
  8
0
 10
43.13197872118656
 20
230.5709927192088
 30
0.0
 11
47.79387325243681
 21
230.5709927192088
 31
0.0
  0
LINE
  5
A161
  8
0
 10
46.93860958056177
 20
229.8168032660842
 30
0.0
 11
43.13197872118656
 21
229.8168032660842
 31
0.0
  0
LINE
  5
A162
  8
0
 10
44.06001583056161
 20
228.7959536567087
 30
0.0
 11
45.23713497118626
 21
228.7959536567087
 31
0.0
  0
LINE
  5
A163
  8
0
 10
45.71525997118681
 20
228.4558169379588
 30
0.0
 11
45.89947872118648
 21
227.8947231879588
 31
0.0
  0
LINE
  5
A164
  8
0
 10
43.79335567431154
 20
228.4558169379588
 30
0.0
 11
44.30839473681192
 21
226.7451138129591
 31
0.0
  0
LINE
  5
A165
  8
0
 10
45.88084590868641
 20
225.6507876410842
 30
0.0
 11
46.22133418993656
 21
225.6507876410842
 31
0.0
  0
LINE
  5
A166
  8
0
 10
46.49704708056163
 20
225.9910122504589
 30
0.0
 11
46.33146114306158
 21
226.5519302192088
 31
0.0
  0
LINE
  5
A167
  8
0
 10
52.62847286181125
 20
230.1984243598336
 30
0.0
 11
52.62847286181125
 21
227.6233169379589
 31
0.0
  0
LINE
  5
A168
  8
0
 10
53.00552364306134
 20
227.2462661567088
 30
0.0
 11
54.17332637743641
 21
227.2462661567088
 31
0.0
  0
LINE
  5
A169
  8
0
 10
54.55046504931181
 20
227.6233169379589
 30
0.0
 11
54.55046504931181
 21
230.1984243598336
 31
0.0
  0
LINE
  5
A16A
  8
0
 10
54.17332637743641
 20
230.5664224067086
 30
0.0
 11
53.00552364306134
 21
230.5664224067086
 31
0.0
  0
LINE
  5
A16B
  8
0
 10
56.29702754931134
 20
230.1984243598336
 30
0.0
 11
56.29702754931134
 21
227.3200063910836
 31
0.0
  0
LINE
  5
A16C
  8
0
 10
55.3589709086865
 20
226.3910024848337
 30
0.0
 11
55.09222286181159
 21
226.3910024848337
 31
0.0
  0
LINE
  5
A16D
  8
0
 10
55.09222286181159
 20
225.6461294379587
 30
0.0
 11
55.99345333056192
 21
225.6461294379587
 31
0.0
  0
LINE
  5
A16E
  8
0
 10
58.21901973681145
 20
227.862467328584
 30
0.0
 11
58.21901973681145
 21
230.1984243598336
 31
0.0
  0
LINE
  5
A16F
  8
0
 10
57.85119747118654
 20
230.5664224067086
 30
0.0
 11
56.66476192431185
 21
230.5664224067086
 31
0.0
  0
LINE
  5
A170
  8
0
 10
59.45133418993657
 20
230.5754751410841
 30
0.0
 11
64.73848262743661
 21
230.5754751410841
 31
0.0
  0
LINE
  5
A171
  8
0
 10
64.73848262743661
 20
229.8306020942091
 30
0.0
 11
63.07901973681157
 21
229.8306020942091
 31
0.0
  0
LINE
  5
A172
  8
0
 10
62.70196895556149
 20
229.4535513129586
 30
0.0
 11
62.70196895556148
 21
229.2158071723338
 31
0.0
  0
LINE
  5
A173
  8
0
 10
63.07901973681157
 20
228.8795376410835
 30
0.0
 11
64.9500353618115
 21
228.8795376410835
 31
0.0
  0
LINE
  5
A174
  8
0
 10
64.9500353618115
 20
228.1726333442089
 30
0.0
 11
63.07901973681157
 21
228.1726333442089
 31
0.0
  0
LINE
  5
A175
  8
0
 10
62.70196895556148
 20
227.8276626410839
 30
0.0
 11
62.70196895556148
 21
227.2155044379588
 31
0.0
  0
LINE
  5
A176
  8
0
 10
63.64002559618677
 20
226.3445962348342
 30
0.0
 11
64.73848262743661
 21
226.3445962348342
 31
0.0
  0
LINE
  5
A177
  8
0
 10
64.73848262743661
 20
225.6461294379587
 30
0.0
 11
63.00527950243634
 21
225.6461294379587
 31
0.0
  0
LINE
  5
A178
  8
0
 10
60.77971309618681
 20
227.7242153754587
 30
0.0
 11
60.77971309618681
 21
227.9484243598336
 31
0.0
  0
LINE
  5
A179
  8
0
 10
60.40257442431141
 20
228.1726333442089
 30
0.0
 11
59.23978145556168
 21
228.1726333442089
 31
0.0
  0
LINE
  5
A17A
  8
0
 10
59.23978145556168
 20
228.8795376410835
 30
0.0
 11
60.40257442431141
 21
228.8795376410835
 31
0.0
  0
LINE
  5
A17B
  8
0
 10
60.77892208056176
 20
229.2158071723338
 30
0.0
 11
60.77971309618681
 21
229.4627798285837
 31
0.0
  0
LINE
  5
A17C
  8
0
 10
60.40257442431141
 20
229.8306020942091
 30
0.0
 11
59.45133418993657
 21
229.8306020942091
 31
0.0
  0
LINE
  5
A180
  8
0
 10
44.90033809618637
 20
232.4509731879589
 30
0.0
 11
44.01844356493677
 21
232.4509731879589
 31
0.0
  0
LINE
  5
A181
  8
0
 10
44.01844356493677
 20
232.4509731879589
 30
0.0
 11
44.01844356493677
 21
232.6163833442088
 31
0.0
  0
LINE
  5
A182
  8
0
 10
44.01844356493677
 20
232.6163833442088
 30
0.0
 11
45.09387325243654
 21
232.6163833442088
 31
0.0
  0
LINE
  5
A183
  8
0
 10
45.09387325243654
 20
232.6163833442088
 30
0.0
 11
45.09387325243654
 21
232.4509731879589
 31
0.0
  0
LINE
  5
A184
  8
0
 10
44.47477168993657
 20
232.0305923285841
 30
0.0
 11
44.32403926806148
 21
232.2360806098341
 31
0.0
  0
LINE
  5
A185
  8
0
 10
44.32403926806148
 20
232.2360806098341
 30
0.0
 11
44.17058223681181
 21
232.133424359834
 31
0.0
  0
LINE
  5
A186
  8
0
 10
44.57083614306168
 20
231.5636294379592
 30
0.0
 11
44.72824825243663
 21
231.6623306098336
 31
0.0
  0
LINE
  5
A187
  8
0
 10
44.72824825243663
 20
231.6623306098336
 30
0.0
 11
44.58015254931126
 21
231.8811782660841
 31
0.0
  0
ARC
  5
A188
  8
0
 10
34.35775638356566
 20
224.8149024842411
 30
0.0
 40
12.24141795992888
 50
33.4564306221622
 51
36.71601240395377
  0
ARC
  5
A189
  8
0
 10
44.07174330386157
 20
232.8641906016557
 30
0.0
 40
0.9259146617534648
 50
295.8028544447355
 51
333.4947229782731
  0
ARC
  5
A18A
  8
0
 10
44.14461749811943
 20
232.790331646982
 30
0.0
 40
1.008092580477948
 50
295.5970136290768
 51
340.3280553328837
  0
LINE
  5
A18B
  8
0
 10
45.86775020556126
 20
232.1560122504588
 30
0.0
 11
45.86775020556126
 21
231.5796255317091
 31
0.0
  0
LINE
  5
A18C
  8
0
 10
45.86775020556126
 20
231.5796255317091
 30
0.0
 11
46.05987911181148
 21
231.5796255317091
 31
0.0
  0
LINE
  5
A18D
  8
0
 10
46.05987911181148
 20
231.5796255317091
 30
0.0
 11
46.05987911181148
 21
232.2481216254591
 31
0.0
  0
LINE
  5
A18E
  8
0
 10
46.44545528368656
 20
232.5283169379591
 30
0.0
 11
46.33603145556174
 21
232.6537368598338
 31
0.0
  0
LINE
  5
A18F
  8
0
 10
45.33803340868656
 20
232.180094281709
 30
0.0
 11
45.36607051806152
 21
232.0160024848337
 31
0.0
  0
ARC
  5
A190
  8
0
 10
45.09474995630639
 20
233.9809566754299
 30
0.0
 40
1.817221010036674
 50
277.6936667564446
 51
313.0836814663463
  0
ARC
  5
A191
  8
0
 10
45.27396661180987
 20
233.7350070704317
 30
0.0
 40
1.681810567258462
 50
297.8592692614826
 51
314.1519780416251
  0
ARC
  5
A192
  8
0
 10
45.08145891948336
 20
234.004624337391
 30
0.0
 40
2.008885420952019
 50
278.1448623061176
 51
293.0420589932965
  0
LINE
  5
A193
  8
0
 10
47.17529903368643
 20
232.2468032660836
 30
0.0
 11
47.17529903368643
 21
232.2774770942087
 31
0.0
  0
LINE
  5
A194
  8
0
 10
47.17529903368643
 20
232.2774770942087
 30
0.0
 11
46.66025997118652
 21
232.2774770942087
 31
0.0
  0
LINE
  5
A195
  8
0
 10
46.66025997118652
 20
232.2774770942087
 30
0.0
 11
46.66025997118652
 21
232.4469302192092
 31
0.0
  0
LINE
  5
A196
  8
0
 10
46.66025997118652
 20
232.4469302192092
 30
0.0
 11
47.17529903368643
 21
232.4469302192092
 31
0.0
  0
LINE
  5
A197
  8
0
 10
47.17529903368643
 20
232.4469302192092
 30
0.0
 11
47.17529903368643
 21
232.6963638129591
 31
0.0
  0
LINE
  5
A198
  8
0
 10
47.17529903368643
 20
232.6963638129591
 30
0.0
 11
47.36206661181143
 21
232.6963638129591
 31
0.0
  0
LINE
  5
A199
  8
0
 10
47.36206661181143
 20
232.6963638129591
 30
0.0
 11
47.36206661181143
 21
232.4469302192092
 31
0.0
  0
LINE
  5
A19A
  8
0
 10
47.36206661181143
 20
232.4469302192092
 30
0.0
 11
47.78903926806163
 21
232.4469302192092
 31
0.0
  0
LINE
  5
A19B
  8
0
 10
47.78903926806163
 20
232.4469302192092
 30
0.0
 11
47.78903926806163
 21
232.2774770942087
 31
0.0
  0
LINE
  5
A19C
  8
0
 10
47.78903926806163
 20
232.2774770942087
 30
0.0
 11
47.36206661181143
 21
232.2774770942087
 31
0.0
  0
LINE
  5
A19D
  8
0
 10
47.36206661181143
 20
232.2774770942087
 30
0.0
 11
47.36206661181143
 21
232.2468032660836
 31
0.0
  0
LINE
  5
A19E
  8
0
 10
46.82971309618654
 20
231.5835806098339
 30
0.0
 11
46.77363887743661
 21
231.7490786567087
 31
0.0
  0
ARC
  5
A19F
  8
0
 10
46.40237051412215
 20
232.2322977343753
 30
0.0
 40
0.7730646200712835
 50
342.2910204567376
 51
1.075142363626363
  0
ARC
  5
A1A0
  8
0
 10
46.84883908709914
 20
232.0961127714913
 30
0.0
 40
0.3063876798952075
 50
304.2370088981685
 51
341.1546735930926
  0
ARC
  5
A1A1
  8
0
 10
46.67687034067117
 20
232.3784817005788
 30
0.0
 40
0.6367985092080606
 50
278.7405863986857
 51
302.7346045229132
  0
ARC
  5
A1A2
  8
0
 10
46.70441931145885
 20
232.3594372770201
 30
0.0
 40
0.7859084555523594
 50
279.1735470624596
 51
305.3414915022722
  0
ARC
  5
A1A3
  8
0
 10
46.85359934897006
 20
232.1064541334257
 30
0.0
 40
0.4938678410143298
 50
308.2022886499824
 51
350.7296062183743
  0
ARC
  5
A1A4
  8
0
 10
46.30947755310315
 20
232.2365963541193
 30
0.0
 40
1.05263854554364
 50
348.5089467324627
 51
0.5555773579697275
  0
LINE
  5
A1A5
  8
0
 10
48.78712520556167
 20
232.4602895942089
 30
0.0
 11
48.13198848681134
 21
232.4602895942089
 31
0.0
  0
LINE
  5
A1A6
  8
0
 10
48.13198848681134
 20
232.4602895942089
 30
0.0
 11
48.13198848681134
 21
232.6243813910842
 31
0.0
  0
LINE
  5
A1A7
  8
0
 10
48.13198848681134
 20
232.6243813910842
 30
0.0
 11
48.98584590868643
 21
232.6243813910842
 31
0.0
  0
LINE
  5
A1A8
  8
0
 10
48.98584590868643
 20
232.6243813910842
 30
0.0
 11
48.98584590868643
 21
232.4602895942089
 31
0.0
  0
LINE
  5
A1A9
  8
0
 10
49.10063106493692
 20
231.7156802192089
 30
0.0
 11
48.97784786181148
 21
231.5943032660839
 31
0.0
  0
LINE
  5
A1AA
  8
0
 10
48.09454708056148
 20
231.6023013129588
 30
0.0
 11
48.01447872118626
 21
231.7490786567087
 31
0.0
  0
ARC
  5
A1AB
  8
0
 10
47.31555533298877
 20
233.2836761086371
 30
0.0
 40
1.686263099876902
 50
294.4866134087317
 51
330.7717068869546
  0
ARC
  5
A1AC
  8
0
 10
47.24978877546867
 20
233.4126733885645
 30
0.0
 40
1.997764662355422
 50
295.0147624386651
 51
312.8436054073346
  0
ARC
  5
A1AD
  8
0
 10
41.37531573621828
 20
224.0177754785413
 30
0.0
 40
10.73323194737177
 50
44.90184257982877
 51
47.63246263973684
  0
ARC
  5
A1AE
  8
0
 10
42.14617892478323
 20
224.7138588745839
 30
0.0
 40
9.868632464113261
 50
45.19446774917389
 51
48.17612407225278
  0
ARC
  5
A1AF
  8
0
 10
47.61264821767291
 20
233.0846661972756
 30
0.0
 40
1.508482032064661
 50
317.6232793949239
 51
335.5492736743392
  0
LINE
  5
A1B0
  8
0
 10
49.64766231493661
 20
232.659098187959
 30
0.0
 11
49.47284786181137
 21
232.6790493598337
 31
0.0
  0
LINE
  5
A1B1
  8
0
 10
49.47284786181137
 20
231.5742642035839
 30
0.0
 11
49.64766231493661
 21
231.5943032660839
 31
0.0
  0
ARC
  5
A1B2
  8
0
 10
51.82399673873407
 20
232.1267007270214
 30
0.0
 40
2.24050855401593
 50
166.2536808747335
 51
193.7463191252665
  0
ARC
  5
A1B3
  8
0
 10
51.72627309725141
 20
232.1266567817088
 30
0.0
 40
2.320142851654927
 50
166.2264222050919
 51
193.7735777949081
  0
LINE
  5
A1B4
  8
0
 10
49.85578731493672
 20
232.4202114692089
 30
0.0
 11
49.85578731493672
 21
232.5763052192087
 31
0.0
  0
LINE
  5
A1B5
  8
0
 10
49.85578731493672
 20
232.5763052192087
 30
0.0
 11
50.42953731493674
 21
232.5763052192087
 31
0.0
  0
LINE
  5
A1B6
  8
0
 10
50.42953731493674
 20
232.5763052192087
 30
0.0
 11
50.42953731493674
 21
232.4202114692089
 31
0.0
  0
LINE
  5
A1B7
  8
0
 10
50.42953731493674
 20
232.4202114692089
 30
0.0
 11
49.85578731493672
 21
232.4202114692089
 31
0.0
  0
LINE
  5
A1B8
  8
0
 10
50.03596309618626
 20
232.0827114692088
 30
0.0
 11
49.91045528368625
 21
232.182818891084
 31
0.0
  0
LINE
  5
A1B9
  8
0
 10
50.4414904399365
 20
231.8238735785835
 30
0.0
 11
50.46557247118665
 21
231.6690981879592
 31
0.0
  0
ARC
  5
A1BA
  8
0
 10
50.27006351224581
 20
231.7648570639986
 30
0.0
 40
0.5513711698559726
 50
130.708220238404
 51
157.703625479385
  0
ARC
  5
A1BB
  8
0
 10
49.96061856925147
 20
231.891718737152
 30
0.0
 40
0.2169312572480087
 50
157.6967650917142
 51
205.3984993646999
  0
ARC
  5
A1BC
  8
0
 10
50.02698863958538
 20
231.9460160730321
 30
0.0
 40
0.3008800009813904
 50
209.3210192654115
 51
257.5935048122191
  0
ARC
  5
A1BD
  8
0
 10
50.15961532795603
 20
232.4579992862095
 30
0.0
 40
0.8296316180790294
 50
256.2444659394061
 51
275.2215523672216
  0
ARC
  5
A1BE
  8
0
 10
50.15724436771699
 20
232.8439021216939
 30
0.0
 40
1.214590672657983
 50
273.6760364924778
 51
284.7056607611161
  0
ARC
  5
A1BF
  8
0
 10
50.14568430461726
 20
233.0665376882012
 30
0.0
 40
1.277386143272562
 50
270.1640623199838
 51
283.3896060448861
  0
ARC
  5
A1C0
  8
0
 10
50.12692642604723
 20
232.1592062150329
 30
0.0
 40
0.3707277183708511
 50
242.6706422703818
 51
273.4664302047655
  0
ARC
  5
A1C1
  8
0
 10
50.00640184778214
 20
231.9008927715646
 30
0.0
 40
0.0866823147437489
 50
154.8854560630789
 51
235.0327799996414
  0
ARC
  5
A1C2
  8
0
 10
50.34545015413548
 20
231.739374571606
 30
0.0
 40
0.4622363727478137
 50
132.0317914832186
 51
154.5946083240115
  0
LINE
  5
A1C3
  8
0
 10
50.90186153368643
 20
232.397623578584
 30
0.0
 11
50.71641231493652
 21
232.397623578584
 31
0.0
  0
LINE
  5
A1C4
  8
0
 10
50.71641231493652
 20
232.397623578584
 30
0.0
 11
50.71641231493652
 21
232.5496743598342
 31
0.0
  0
LINE
  5
A1C5
  8
0
 10
50.71641231493652
 20
232.5496743598342
 30
0.0
 11
50.94457637743665
 21
232.5496743598342
 31
0.0
  0
LINE
  5
A1C6
  8
0
 10
50.99124629931168
 20
232.7378481879587
 30
0.0
 11
51.15138301806167
 21
232.7164907660836
 31
0.0
  0
LINE
  5
A1C7
  8
0
 10
51.11130489306163
 20
232.5496743598342
 30
0.0
 11
51.33419551806185
 21
232.5496743598342
 31
0.0
  0
LINE
  5
A1C8
  8
0
 10
51.33419551806185
 20
232.5496743598342
 30
0.0
 11
51.33419551806185
 21
232.397623578584
 31
0.0
  0
LINE
  5
A1C9
  8
0
 10
51.33419551806185
 20
232.397623578584
 30
0.0
 11
51.07131465868645
 21
232.397623578584
 31
0.0
  0
LINE
  5
A1CA
  8
0
 10
50.84042598681174
 20
231.729127484834
 30
0.0
 11
50.68573848681137
 21
231.7811587348342
 31
0.0
  0
LINE
  5
A1CB
  8
0
 10
51.46893184618659
 20
232.5496743598342
 30
0.0
 11
51.46893184618659
 21
232.0479946723335
 31
0.0
  0
LINE
  5
A1CC
  8
0
 10
51.63838497118661
 20
232.3934927192086
 30
0.0
 11
51.63838497118661
 21
231.9652017035842
 31
0.0
  0
LINE
  5
A1CD
  8
0
 10
51.88790645556185
 20
232.5229556098338
 30
0.0
 11
51.86786739306137
 21
232.3708169379588
 31
0.0
  0
LINE
  5
A1CE
  8
0
 10
51.89449825243685
 20
231.7650747504586
 30
0.0
 11
51.78911739306125
 21
231.6477407660841
 31
0.0
  0
LINE
  5
A1CF
  8
0
 10
51.78911739306125
 20
231.6477407660841
 30
0.0
 11
51.63038692431167
 21
231.7798403754587
 31
0.0
  0
ARC
  5
A1D0
  8
0
 10
42.92107959564657
 20
234.6394958163555
 30
0.0
 40
8.291191369612257
 50
345.4009556896894
 51
346.7407469548674
  0
ARC
  5
A1D1
  8
0
 10
44.37678254768493
 20
234.3390983053341
 30
0.0
 40
6.807788178855744
 50
337.9301136346508
 51
343.4301309136027
  0
ARC
  5
A1D2
  8
0
 10
45.15534858739845
 20
234.0667900201057
 30
0.0
 40
6.146931849803847
 50
337.647891114247
 51
344.2437969395151
  0
ARC
  5
A1D3
  8
0
 10
48.22945414164474
 20
233.3302699998172
 30
0.0
 40
2.985698127172701
 50
344.84418349645
 51
348.136949894857
  0
ARC
  5
A1D4
  8
0
 10
51.49143897058536
 20
229.6042935393518
 30
0.0
 40
2.945466813310544
 50
82.26435931630436
 51
90.43781711643568
  0
ARC
  5
A1D5
  8
0
 10
51.58570134588836
 20
230.6877895285088
 30
0.0
 40
1.706516609687102
 50
80.48265313058977
 51
88.23088210500025
  0
ARC
  5
A1D6
  8
0
 10
50.67111454107279
 20
230.4633889586303
 30
0.0
 40
1.786352038619028
 50
46.77616557053221
 51
57.2156866531281
  0
ARC
  5
A1D7
  8
0
 10
51.40025390213555
 20
231.8102664552217
 30
0.0
 40
0.2321356375605922
 50
300.4982959066467
 51
352.4685567395091
  0
ARC
  5
A1D8
  8
0
 10
51.329849516839
 20
232.0140076628753
 30
0.0
 40
0.4454740180557357
 50
260.8493170262734
 51
294.9930070723783
  0
ARC
  5
A1D9
  8
0
 10
51.27329405189619
 20
231.8483553604001
 30
0.0
 40
0.274524516799522
 50
210.6191600754503
 51
267.0164240300838
  0
ARC
  5
A1DA
  8
0
 10
51.27264975303364
 20
231.8216997768579
 30
0.0
 40
0.2613734309622749
 50
147.2334581989084
 51
205.6564160796957
  0
ARC
  5
A1DB
  8
0
 10
51.27761829581475
 20
231.7829361429528
 30
0.0
 40
0.2880874616600608
 50
91.03111037243933
 51
141.2747978514547
  0
ARC
  5
A1DC
  8
0
 10
51.32024310807728
 20
231.6282267104796
 30
0.0
 40
0.4453240198322287
 50
70.49501453936492
 51
96.16302987731919
  0
ARC
  5
A1DD
  8
0
 10
51.32306317960333
 20
231.6381934842063
 30
0.0
 40
0.2902930385304879
 50
59.83528150937469
 51
103.2201440558011
  0
ARC
  5
A1DE
  8
0
 10
51.27816164637246
 20
231.8243268258395
 30
0.0
 40
0.0988304488869036
 50
102.5568170755454
 51
180.262765637224
  0
ARC
  5
A1DF
  8
0
 10
51.28045616725635
 20
231.8211071013842
 30
0.0
 40
0.1011617650333014
 50
178.4329333203273
 51
256.0701828760537
  0
ARC
  5
A1E0
  8
0
 10
51.32722201670435
 20
231.9739760330215
 30
0.0
 40
0.2609345439815814
 50
254.1836782918791
 51
287.6043484841652
  0
ARC
  5
A1E1
  8
0
 10
51.37699042447242
 20
231.8044070712593
 30
0.0
 40
0.0843426031298885
 50
290.2187264653185
 51
350.7581622464084
  0
ARC
  5
A1E2
  8
0
 10
51.10227097165198
 20
231.8720571065842
 30
0.0
 40
0.3670603004158596
 50
347.2201738930314
 51
2.67316898487712
  0
LINE
  5
A1E3
  8
0
 10
52.20941036181159
 20
232.1573306098339
 30
0.0
 11
52.17741817431181
 21
232.3095571723338
 31
0.0
  0
LINE
  5
A1E4
  8
0
 10
52.36550411181145
 20
231.7638442817088
 30
0.0
 11
52.37754512743652
 21
231.6116177192089
 31
0.0
  0
ARC
  5
A1E5
  8
0
 10
52.79608475219865
 20
229.9765940715346
 30
0.0
 40
2.413600042319521
 50
93.0330778001963
 51
104.852125248309
  0
ARC
  5
A1E6
  8
0
 10
52.69343224161628
 20
231.8599952435598
 30
0.0
 40
0.5274133454568837
 50
60.91960556757483
 51
92.72310713201327
  0
ARC
  5
A1E7
  8
0
 10
52.79619597207162
 20
232.0883653996606
 30
0.0
 40
0.2786914630822537
 50
9.671194361813448
 51
56.55959162043377
  0
ARC
  5
A1E8
  8
0
 10
52.63619650665375
 20
232.0478783300961
 30
0.0
 40
0.4434101722744036
 50
333.9597813248211
 51
11.35547973601498
  0
ARC
  5
A1E9
  8
0
 10
52.70757506049454
 20
232.0389247752057
 30
0.0
 40
0.3760688166287614
 50
291.9740011095598
 51
330.409069035119
  0
ARC
  5
A1EA
  8
0
 10
52.5220331521007
 20
232.4326067504145
 30
0.0
 40
0.8109562744615367
 50
277.5911083880263
 51
293.7231081887235
  0
ARC
  5
A1EB
  8
0
 10
52.38885013573412
 20
233.3011233789048
 30
0.0
 40
1.689543481937406
 50
269.6166218252729
 51
278.1772037059889
  0
ARC
  5
A1EC
  8
0
 10
52.40409914763733
 20
232.9172540981565
 30
0.0
 40
1.154055363259622
 50
268.0835017580472
 51
287.3544714703415
  0
ARC
  5
A1ED
  8
0
 10
52.68169839822287
 20
232.0315310309281
 30
0.0
 40
0.2258508101221847
 50
287.1599817388384
 51
352.3121354184231
  0
ARC
  5
A1EE
  8
0
 10
52.7075774912614
 20
232.0373213980954
 30
0.0
 40
0.2011894179017752
 50
349.6911030936221
 51
46.31820342356875
  0
ARC
  5
A1EF
  8
0
 10
52.67569695710583
 20
231.9157940204258
 30
0.0
 40
0.3169953313446048
 50
57.39040451095452
 51
96.72424011119993
  0
ARC
  5
A1F0
  8
0
 10
52.85523187775942
 20
229.6683394030181
 30
0.0
 40
2.571412580288827
 50
94.83313718967935
 51
104.5458325788212
  0
LINE
  5
A1F1
  8
0
 10
53.61038692431168
 20
232.4202114692089
 30
0.0
 11
53.42889278368659
 21
232.4202114692089
 31
0.0
  0
LINE
  5
A1F2
  8
0
 10
53.42889278368659
 20
232.4202114692089
 30
0.0
 11
53.42889278368659
 21
232.5710317817088
 31
0.0
  0
LINE
  5
A1F3
  8
0
 10
53.42889278368659
 20
232.5710317817088
 30
0.0
 11
53.64106075243637
 21
232.5710317817088
 31
0.0
  0
LINE
  5
A1F4
  8
0
 10
53.64106075243637
 20
232.5710317817088
 30
0.0
 11
53.66909786181134
 21
232.7324868598339
 31
0.0
  0
LINE
  5
A1F5
  8
0
 10
53.66909786181134
 20
232.7324868598339
 30
0.0
 11
53.83863887743667
 21
232.7177212348338
 31
0.0
  0
LINE
  5
A1F6
  8
0
 10
53.83863887743667
 20
232.7177212348338
 30
0.0
 11
53.81323848681143
 21
232.5710317817088
 31
0.0
  0
LINE
  5
A1F7
  8
0
 10
53.81323848681143
 20
232.5710317817088
 30
0.0
 11
54.27897090868657
 21
232.5710317817088
 31
0.0
  0
LINE
  5
A1F8
  8
0
 10
54.27897090868657
 20
232.5710317817088
 30
0.0
 11
54.27897090868657
 21
232.4202114692089
 31
0.0
  0
LINE
  5
A1F9
  8
0
 10
54.27897090868657
 20
232.4202114692089
 30
0.0
 11
53.78397090868668
 21
232.4202114692089
 31
0.0
  0
LINE
  5
A1FA
  8
0
 10
53.55703731493634
 20
231.5689907660835
 30
0.0
 11
53.38890254931141
 21
231.6076626410841
 31
0.0
  0
LINE
  5
A1FB
  8
0
 10
53.94129512743677
 20
232.133424359834
 30
0.0
 11
53.93066036181165
 21
232.2827505317091
 31
0.0
  0
LINE
  5
A1FC
  8
0
 10
54.48032833056152
 20
232.3135122504591
 30
0.0
 11
54.48032833056152
 21
232.1640981879591
 31
0.0
  0
LINE
  5
A1FD
  8
0
 10
54.08007442431165
 20
231.9626528754588
 30
0.0
 11
53.95869747118661
 21
232.0399087348342
 31
0.0
  0
LINE
  5
A1FE
  8
0
 10
54.4910509868115
 20
231.7704360785838
 30
0.0
 11
54.51109004931152
 21
231.6197036567091
 31
0.0
  0
ARC
  5
A1FF
  8
0
 10
47.01143885224894
 20
233.7824907413684
 30
0.0
 40
6.738094721294446
 50
341.1697144444025
 51
348.3357808241415
  0
ARC
  5
A200
  8
0
 10
47.03051474647866
 20
233.7648078849465
 30
0.0
 40
6.886008252687487
 50
341.4047346856015
 51
348.739795312407
  0
ARC
  5
A201
  8
0
 10
54.46814351763327
 20
227.6049659104344
 30
0.0
 40
4.708562105975219
 50
89.85172986605279
 51
96.5546104840503
  0
ARC
  5
A202
  8
0
 10
54.46915602137195
 20
227.6088599984424
 30
0.0
 40
4.555251890260736
 50
89.85947499256585
 51
96.65436322543631
  0
ARC
  5
A203
  8
0
 10
54.18685431908101
 20
231.7252752797986
 30
0.0
 40
0.3886512038689388
 50
125.9477923082848
 51
153.9456213275426
  0
ARC
  5
A204
  8
0
 10
53.99978889060169
 20
231.8312970730226
 30
0.0
 40
0.1745196541164178
 50
158.2451995748654
 51
211.937738790848
  0
ARC
  5
A205
  8
0
 10
54.10853904793882
 20
231.9254040928802
 30
0.0
 40
0.3173766808952333
 50
215.9728103304899
 51
258.577083270988
  0
ARC
  5
A206
  8
0
 10
54.22196071284172
 20
232.3136885368774
 30
0.0
 40
0.7212479843673572
 50
255.8532185042195
 51
272.6578213791558
  0
ARC
  5
A207
  8
0
 10
54.22575990582918
 20
233.1267090069062
 30
0.0
 40
1.533779128917274
 50
271.1075186277241
 51
280.7212356446171
  0
ARC
  5
A208
  8
0
 10
54.21305002584175
 20
233.2109144974261
 30
0.0
 40
1.467059170398629
 50
270.0695624886666
 51
280.923337658684
  0
ARC
  5
A209
  8
0
 10
54.20865017539042
 20
232.1111543271701
 30
0.0
 40
0.3680274217404644
 50
240.6869572496387
 51
273.2459162436446
  0
ARC
  5
A20A
  8
0
 10
54.06797053583714
 20
231.8536654286659
 30
0.0
 40
0.074711058388821
 50
182.4248820533392
 51
238.0824827210279
  0
ARC
  5
A20B
  8
0
 10
54.07651269374487
 20
231.8455392329055
 30
0.0
 40
0.0833343655532817
 50
131.1757227927974
 51
176.5841957139149
  0
ARC
  5
A20C
  8
0
 10
54.53985796740226
 20
231.4101545476032
 30
0.0
 40
0.7187873877436253
 50
129.7668863169349
 51
136.1330162188036
  0
LINE
  5
A20D
  8
0
 10
54.99941036181156
 20
232.6604165473336
 30
0.0
 11
54.98077754931148
 21
232.5095962348341
 31
0.0
  0
LINE
  5
A20E
  8
0
 10
55.63450801806141
 20
232.6203384223336
 30
0.0
 11
55.63450801806141
 21
232.4695181098341
 31
0.0
  0
LINE
  5
A20F
  8
0
 10
55.05267208056159
 20
232.3934927192086
 30
0.0
 11
54.87935176806161
 21
232.406939984834
 31
0.0
  0
LINE
  5
A210
  8
0
 10
54.87935176806161
 20
232.406939984834
 30
0.0
 11
54.81255489306125
 21
231.9892837348339
 31
0.0
  0
LINE
  5
A211
  8
0
 10
54.81255489306125
 20
231.9892837348339
 30
0.0
 11
54.97146114306145
 21
231.9545669379586
 31
0.0
  0
LINE
  5
A212
  8
0
 10
55.01813106493648
 20
232.1373794379588
 30
0.0
 11
55.05267208056159
 21
232.3934927192086
 31
0.0
  0
LINE
  5
A213
  8
0
 10
54.92602168993665
 20
231.7503970160842
 30
0.0
 11
54.91406856493643
 21
231.5970278754589
 31
0.0
  0
ARC
  5
A214
  8
0
 10
55.43399971825436
 20
231.5431207045061
 30
0.0
 40
0.725320742221686
 50
82.73839553073199
 51
124.9847424284259
  0
ARC
  5
A215
  8
0
 10
55.51424843690607
 20
231.9691579214149
 30
0.0
 40
0.2936885684487056
 50
25.47750666320868
 51
87.76921556057754
  0
ARC
  5
A216
  8
0
 10
55.4463888622768
 20
231.9625844952602
 30
0.0
 40
0.3585317338785675
 50
321.3543299701645
 51
21.75842031571825
  0
ARC
  5
A217
  8
0
 10
55.37076651704894
 20
232.094450602062
 30
0.0
 40
0.5030455772132802
 50
274.9636499740993
 51
314.9898391517559
  0
ARC
  5
A218
  8
0
 10
55.17878747626958
 20
233.5507945644142
 30
0.0
 40
1.971618719957279
 50
262.283893404366
 51
276.8602022226234
  0
ARC
  5
A219
  8
0
 10
55.23959338752327
 20
234.4587405868128
 30
0.0
 40
2.726435788097946
 50
263.3957068302939
 51
271.0732963894559
  0
ARC
  5
A21A
  8
0
 10
55.29777609091057
 20
232.1218427902631
 30
0.0
 40
0.3891246493399197
 50
268.9526659567916
 51
311.9026700510424
  0
ARC
  5
A21B
  8
0
 10
55.42184816720477
 20
231.9532974279931
 30
0.0
 40
0.1819431806139916
 50
318.2838146029565
 51
32.7613497517906
  0
ARC
  5
A21C
  8
0
 10
55.42043164783968
 20
231.9029154163709
 30
0.0
 40
0.2144715613892272
 50
43.94597849544938
 51
93.25534829104993
  0
ARC
  5
A21D
  8
0
 10
55.39829567840513
 20
231.5990258480605
 30
0.0
 40
0.518110737832
 50
88.89882867160388
 51
112.7433476052045
  0
ARC
  5
A21E
  8
0
 10
55.64190501428759
 20
230.9835403678071
 30
0.0
 40
1.179994739142887
 50
112.0984440204131
 51
124.6230820154913
  0
ARC
  5
A21F
  8
0
 10
55.63247403871709
 20
237.6401807683598
 30
0.0
 40
5.019842758098118
 50
262.7550085222148
 51
270.023215555127
  0
ARC
  5
A220
  8
0
 10
55.63385476779293
 20
237.8105324744901
 30
0.0
 40
5.341014404604963
 50
262.9765318468748
 51
270.0070077480808
  0
LINE
  5
A221
  8
0
 10
56.20025997118648
 20
232.0559927192089
 30
0.0
 11
56.20025997118648
 21
232.656373578584
 31
0.0
  0
LINE
  5
A222
  8
0
 10
56.20025997118648
 20
232.656373578584
 30
0.0
 11
56.38702754931148
 21
232.656373578584
 31
0.0
  0
LINE
  5
A223
  8
0
 10
56.38702754931148
 20
232.656373578584
 30
0.0
 11
56.38702754931148
 21
232.0559927192089
 31
0.0
  0
LINE
  5
A224
  8
0
 10
56.38702754931148
 20
232.0559927192089
 30
0.0
 11
56.20025997118648
 21
232.0559927192089
 31
0.0
  0
LINE
  5
A225
  8
0
 10
56.87130489306185
 20
232.2868813910836
 30
0.0
 11
56.87130489306185
 21
232.656373578584
 31
0.0
  0
LINE
  5
A226
  8
0
 10
56.87130489306185
 20
232.656373578584
 30
0.0
 11
57.06220333056137
 21
232.656373578584
 31
0.0
  0
LINE
  5
A227
  8
0
 10
57.06220333056137
 20
232.656373578584
 30
0.0
 11
57.06220333056137
 21
232.2908364692089
 31
0.0
  0
LINE
  5
A228
  8
0
 10
56.36567012743637
 20
231.5663540473338
 30
0.0
 11
56.32831661181137
 21
231.7304458442086
 31
0.0
  0
LINE
  5
A229
  8
0
 10
57.76128536181125
 20
231.9304849067089
 30
0.0
 11
57.76128536181125
 21
232.0733071723339
 31
0.0
  0
LINE
  5
A22A
  8
0
 10
57.76128536181125
 20
232.0733071723339
 30
0.0
 11
57.39179317431137
 21
232.0733071723339
 31
0.0
  0
LINE
  5
A22B
  8
0
 10
57.39179317431137
 20
232.0733071723339
 30
0.0
 11
57.39179317431137
 21
232.2334438910839
 31
0.0
  0
LINE
  5
A22C
  8
0
 10
57.39179317431137
 20
232.2334438910839
 30
0.0
 11
57.76128536181125
 21
232.2334438910839
 31
0.0
  0
LINE
  5
A22D
  8
0
 10
57.76128536181125
 20
232.2334438910839
 30
0.0
 11
57.76128536181125
 21
232.4695181098341
 31
0.0
  0
LINE
  5
A22E
  8
0
 10
57.76128536181125
 20
232.4695181098341
 30
0.0
 11
57.50772090868634
 21
232.4695181098341
 31
0.0
  0
LINE
  5
A22F
  8
0
 10
57.50772090868634
 20
232.4695181098341
 30
0.0
 11
57.50772090868634
 21
232.6337856879591
 31
0.0
  0
LINE
  5
A230
  8
0
 10
57.50772090868634
 20
232.6337856879591
 30
0.0
 11
58.42310176806143
 21
232.6337856879591
 31
0.0
  0
LINE
  5
A231
  8
0
 10
58.42310176806143
 20
232.6337856879591
 30
0.0
 11
58.42310176806143
 21
232.4695181098341
 31
0.0
  0
LINE
  5
A232
  8
0
 10
58.42310176806143
 20
232.4695181098341
 30
0.0
 11
57.9561388774365
 21
232.4695181098341
 31
0.0
  0
LINE
  5
A233
  8
0
 10
57.9561388774365
 20
232.4695181098341
 30
0.0
 11
57.9561388774365
 21
232.2334438910839
 31
0.0
  0
LINE
  5
A234
  8
0
 10
57.9561388774365
 20
232.2334438910839
 30
0.0
 11
58.53920528368656
 21
232.2334438910839
 31
0.0
  0
LINE
  5
A235
  8
0
 10
58.53920528368656
 20
232.2334438910839
 30
0.0
 11
58.53920528368656
 21
232.0733071723339
 31
0.0
  0
LINE
  5
A236
  8
0
 10
58.53920528368656
 20
232.0733071723339
 30
0.0
 11
57.9561388774365
 21
232.0733071723339
 31
0.0
  0
LINE
  5
A237
  8
0
 10
57.9561388774365
 20
232.0733071723339
 30
0.0
 11
57.9561388774365
 21
231.9358462348337
 31
0.0
  0
LINE
  5
A238
  8
0
 10
58.43646114306159
 20
231.7757095160841
 30
0.0
 11
58.4417345805615
 21
231.6103872504591
 31
0.0
  0
ARC
  5
A239
  8
0
 10
56.0660330026844
 20
232.2696593231702
 30
0.0
 40
0.8054560304915982
 50
340.9437882329765
 51
1.225178000022364
  0
ARC
  5
A23A
  8
0
 10
56.5033136997443
 20
232.1275822978388
 30
0.0
 40
0.345855307889423
 50
291.670576553406
 51
339.5389467977761
  0
ARC
  5
A23B
  8
0
 10
56.22617633258478
 20
232.7816533031498
 30
0.0
 40
1.056158017710445
 50
275.5497072742328
 51
292.5397602820191
  0
ARC
  5
A23C
  8
0
 10
56.293524951023
 20
232.6144548045467
 30
0.0
 40
1.050580850648829
 50
273.9376978144313
 51
296.3652409231684
  0
ARC
  5
A23D
  8
0
 10
56.50691325681849
 20
232.1494239734558
 30
0.0
 40
0.5393756653461665
 50
297.993310867909
 51
349.2973959047169
  0
ARC
  5
A23E
  8
0
 10
56.01234402685586
 20
232.2786580057573
 30
0.0
 40
1.049929936971548
 50
347.3794742886816
 51
0.6646064465848662
  0
ARC
  5
A23F
  8
0
 10
58.25061254406256
 20
231.9008951906346
 30
0.0
 40
0.4902210140205808
 50
176.5395261482796
 51
206.0121964930147
  0
ARC
  5
A240
  8
0
 10
57.99301301416091
 20
231.8380174273149
 30
0.0
 40
0.2379373016522034
 50
219.7400975831983
 51
273.8636407009164
  0
ARC
  5
A241
  8
0
 10
58.14657881403468
 20
235.0971656670003
 30
0.0
 40
3.499248583992225
 50
267.747489334722
 51
274.8385522250587
  0
ARC
  5
A242
  8
0
 10
58.13313627712603
 20
235.2947690525419
 30
0.0
 40
3.532107868600457
 50
269.5594493554569
 51
274.926425743971
  0
ARC
  5
A243
  8
0
 10
58.10685295089348
 20
232.098032191585
 30
0.0
 40
0.3352677379612373
 50
252.6101303751348
 51
269.8504673977251
  0
ARC
  5
A244
  8
0
 10
58.03117260889052
 20
231.8388786144865
 30
0.0
 40
0.0655496828836007
 50
188.1794661638192
 51
248.0315991587105
  0
ARC
  5
A245
  8
0
 10
58.41283809890562
 20
231.9258287316086
 30
0.0
 40
0.4568090730928223
 50
178.7434429434863
 51
192.1667740459214
  0
LINE
  5
A246
  8
0
 10
58.74864864306176
 20
232.037272016084
 30
0.0
 11
58.74864864306176
 21
232.2160415473336
 31
0.0
  0
LINE
  5
A247
  8
0
 10
58.74864864306176
 20
232.2160415473336
 30
0.0
 11
59.85070918993654
 21
232.2160415473336
 31
0.0
  0
LINE
  5
A248
  8
0
 10
59.85070918993654
 20
232.2160415473336
 30
0.0
 11
59.85070918993654
 21
232.037272016084
 31
0.0
  0
LINE
  5
A249
  8
0
 10
59.85070918993654
 20
232.037272016084
 30
0.0
 11
58.74864864306176
 21
232.037272016084
 31
0.0
  0
LINE
  5
A24A
  8
0
 10
60.45645137743634
 20
232.1213833442089
 30
0.0
 11
60.45645137743634
 21
231.5756704535838
 31
0.0
  0
LINE
  5
A24B
  8
0
 10
60.45645137743634
 20
231.5756704535838
 30
0.0
 11
60.26968379931134
 21
231.5756704535838
 31
0.0
  0
LINE
  5
A24C
  8
0
 10
60.26968379931134
 20
231.5756704535838
 30
0.0
 11
60.26968379931134
 21
232.6778188910839
 31
0.0
  0
LINE
  5
A24D
  8
0
 10
60.26968379931134
 20
232.6778188910839
 30
0.0
 11
60.45645137743634
 21
232.6778188910839
 31
0.0
  0
LINE
  5
A24E
  8
0
 10
60.45645137743634
 20
232.6778188910839
 30
0.0
 11
60.45645137743634
 21
232.3041079535842
 31
0.0
  0
LINE
  5
A24F
  8
0
 10
61.18225215868654
 20
232.0813052192088
 30
0.0
 11
61.12626583056192
 21
231.9132583442088
 31
0.0
  0
ARC
  5
A250
  8
0
 10
58.86105535365117
 20
225.8133725468784
 30
0.0
 40
6.683931073296139
 50
69.67895110286403
 51
76.1906888259585
  0
ARC
  5
A251
  8
0
 10
58.9133041008666
 20
225.9731260096003
 30
0.0
 40
6.338956678330691
 50
69.56741481783125
 51
75.9104163881585
  0
LINE
  5
A252
  8
0
 10
61.52379512743676
 20
231.7304458442086
 30
0.0
 11
61.52379512743676
 21
231.9065786567089
 31
0.0
  0
LINE
  5
A253
  8
0
 10
61.52379512743676
 20
231.9065786567089
 30
0.0
 11
61.41850215868692
 21
231.8839028754592
 31
0.0
  0
LINE
  5
A254
  8
0
 10
61.41850215868692
 20
231.8839028754592
 30
0.0
 11
61.40646114306185
 21
232.0399087348342
 31
0.0
  0
LINE
  5
A255
  8
0
 10
61.40646114306185
 20
232.0399087348342
 30
0.0
 11
61.52379512743676
 21
232.0639907660839
 31
0.0
  0
LINE
  5
A256
  8
0
 10
61.52379512743676
 20
232.0639907660839
 30
0.0
 11
61.52379512743676
 21
232.3535903754591
 31
0.0
  0
LINE
  5
A257
  8
0
 10
61.52379512743676
 20
232.3535903754591
 30
0.0
 11
61.40786739306134
 21
232.3535903754591
 31
0.0
  0
LINE
  5
A258
  8
0
 10
61.40786739306134
 20
232.3535903754591
 30
0.0
 11
61.40786739306134
 21
232.5002798285841
 31
0.0
  0
LINE
  5
A259
  8
0
 10
61.40786739306134
 20
232.5002798285841
 30
0.0
 11
61.52379512743676
 21
232.5002798285841
 31
0.0
  0
LINE
  5
A25A
  8
0
 10
61.52379512743676
 20
232.5002798285841
 30
0.0
 11
61.52379512743676
 21
232.731080609834
 31
0.0
  0
LINE
  5
A25B
  8
0
 10
61.52379512743676
 20
232.731080609834
 30
0.0
 11
61.69201778368654
 21
232.731080609834
 31
0.0
  0
LINE
  5
A25C
  8
0
 10
61.69201778368654
 20
232.731080609834
 30
0.0
 11
61.69201778368654
 21
232.5002798285841
 31
0.0
  0
LINE
  5
A25D
  8
0
 10
61.69201778368654
 20
232.5002798285841
 30
0.0
 11
61.80407833056154
 21
232.5002798285841
 31
0.0
  0
LINE
  5
A25E
  8
0
 10
61.80407833056154
 20
232.5002798285841
 30
0.0
 11
61.80407833056154
 21
232.369586469209
 31
0.0
  0
LINE
  5
A25F
  8
0
 10
61.80407833056154
 20
232.369586469209
 30
0.0
 11
62.19237911181165
 21
232.369586469209
 31
0.0
  0
LINE
  5
A260
  8
0
 10
62.19237911181165
 20
232.369586469209
 30
0.0
 11
62.19237911181165
 21
232.0866665473341
 31
0.0
  0
LINE
  5
A261
  8
0
 10
62.19237911181165
 20
232.0866665473341
 30
0.0
 11
62.23236934618637
 21
232.0866665473341
 31
0.0
  0
LINE
  5
A262
  8
0
 10
62.23236934618637
 20
232.0866665473341
 30
0.0
 11
62.23236934618637
 21
232.369586469209
 31
0.0
  0
LINE
  5
A263
  8
0
 10
62.23236934618637
 20
232.369586469209
 30
0.0
 11
62.63525997118643
 21
232.369586469209
 31
0.0
  0
LINE
  5
A264
  8
0
 10
62.63525997118643
 20
232.369586469209
 30
0.0
 11
62.63525997118643
 21
232.0532681098339
 31
0.0
  0
LINE
  5
A265
  8
0
 10
62.63525997118643
 20
232.0532681098339
 30
0.0
 11
62.29644161181125
 21
232.0532681098339
 31
0.0
  0
LINE
  5
A266
  8
0
 10
62.29644161181125
 20
232.0532681098339
 30
0.0
 11
62.29644161181125
 21
232.0039614692087
 31
0.0
  0
LINE
  5
A267
  8
0
 10
62.29644161181125
 20
232.0039614692087
 30
0.0
 11
62.65793575243663
 21
232.0039614692087
 31
0.0
  0
LINE
  5
A268
  8
0
 10
62.65793575243663
 20
232.0039614692087
 30
0.0
 11
62.65793575243663
 21
231.8665005317089
 31
0.0
  0
LINE
  5
A269
  8
0
 10
62.65793575243663
 20
231.8665005317089
 30
0.0
 11
62.38986934618663
 21
231.8665005317089
 31
0.0
  0
LINE
  5
A26A
  8
0
 10
62.03224239306167
 20
231.8665005317089
 30
0.0
 11
61.75872676806159
 21
231.8665005317089
 31
0.0
  0
LINE
  5
A26B
  8
0
 10
61.75872676806159
 20
231.8665005317089
 30
0.0
 11
61.75872676806159
 21
231.9745181098342
 31
0.0
  0
LINE
  5
A26C
  8
0
 10
61.75872676806159
 20
231.9745181098342
 30
0.0
 11
61.69201778368654
 21
231.953248578584
 31
0.0
  0
LINE
  5
A26D
  8
0
 10
61.69201778368654
 20
231.953248578584
 30
0.0
 11
61.69201778368654
 21
231.7437173285839
 31
0.0
  0
LINE
  5
A26E
  8
0
 10
61.7200548930615
 20
231.6797329535839
 30
0.0
 11
61.79608028368659
 21
231.5449087348338
 31
0.0
  0
LINE
  5
A26F
  8
0
 10
62.12303340868641
 20
231.7784341254592
 30
0.0
 11
62.12303340868641
 21
231.5289126410839
 31
0.0
  0
LINE
  5
A270
  8
0
 10
62.12303340868641
 20
231.5289126410839
 30
0.0
 11
62.29644161181125
 21
231.5289126410839
 31
0.0
  0
LINE
  5
A271
  8
0
 10
62.29644161181125
 20
231.5289126410839
 30
0.0
 11
62.29644161181125
 21
231.7811587348342
 31
0.0
  0
LINE
  5
A272
  8
0
 10
62.67929317431174
 20
231.6797329535839
 30
0.0
 11
62.59931270556137
 21
231.5449087348338
 31
0.0
  0
LINE
  5
A273
  8
0
 10
61.86815059618641
 20
232.7177212348338
 30
0.0
 11
62.57531856493654
 21
232.7177212348338
 31
0.0
  0
LINE
  5
A274
  8
0
 10
62.57531856493654
 20
232.7177212348338
 30
0.0
 11
62.57531856493654
 21
232.4055337348336
 31
0.0
  0
LINE
  5
A275
  8
0
 10
62.57531856493654
 20
232.4055337348336
 30
0.0
 11
61.86815059618641
 21
232.4055337348336
 31
0.0
  0
LINE
  5
A276
  8
0
 10
61.86815059618641
 20
232.4055337348336
 30
0.0
 11
61.86815059618641
 21
232.7177212348338
 31
0.0
  0
LINE
  5
A277
  8
0
 10
62.03083614306172
 20
232.5829849067086
 30
0.0
 11
62.03083614306172
 21
232.5242739692089
 31
0.0
  0
LINE
  5
A278
  8
0
 10
62.03083614306172
 20
232.5242739692089
 30
0.0
 11
62.40577754931167
 21
232.5242739692089
 31
0.0
  0
LINE
  5
A279
  8
0
 10
62.40577754931167
 20
232.5242739692089
 30
0.0
 11
62.40577754931167
 21
232.5829849067086
 31
0.0
  0
LINE
  5
A27A
  8
0
 10
62.40577754931167
 20
232.5829849067086
 30
0.0
 11
62.03083614306172
 21
232.5829849067086
 31
0.0
  0
LINE
  5
A27B
  8
0
 10
61.69201778368654
 20
232.1080239692092
 30
0.0
 11
61.69201778368654
 21
232.3535903754591
 31
0.0
  0
LINE
  5
A27C
  8
0
 10
61.69201778368654
 20
232.3535903754591
 30
0.0
 11
61.79071895556137
 21
232.3535903754591
 31
0.0
  0
LINE
  5
A27D
  8
0
 10
61.79071895556137
 20
232.3535903754591
 30
0.0
 11
61.79071895556137
 21
232.140016156709
 31
0.0
  0
LINE
  5
A27E
  8
0
 10
61.79071895556137
 20
232.140016156709
 30
0.0
 11
61.69201778370263
 21
232.1080239692142
 31
0.0
  0
LINE
  5
A27F
  8
0
 10
62.12303340868641
 20
232.0039614692087
 30
0.0
 11
61.80548458056148
 21
232.0039614692087
 31
0.0
  0
LINE
  5
A280
  8
0
 10
61.80548458056148
 20
232.0039614692087
 30
0.0
 11
61.80275997118645
 21
232.0532681098339
 31
0.0
  0
LINE
  5
A281
  8
0
 10
61.80275997118645
 20
232.0532681098339
 30
0.0
 11
62.12303340868641
 21
232.0532681098339
 31
0.0
  0
LINE
  5
A282
  8
0
 10
62.12303340868641
 20
232.0532681098339
 30
0.0
 11
62.12303340868641
 21
232.0039614692087
 31
0.0
  0
LINE
  5
A283
  8
0
 10
62.05351192431147
 20
232.1734145942091
 30
0.0
 11
61.93617793993656
 21
232.1734145942091
 31
0.0
  0
LINE
  5
A284
  8
0
 10
61.93617793993656
 20
232.1734145942091
 30
0.0
 11
61.93617793993656
 21
232.2453970160841
 31
0.0
  0
LINE
  5
A285
  8
0
 10
61.93617793993656
 20
232.2453970160841
 30
0.0
 11
62.05351192431147
 21
232.2453970160841
 31
0.0
  0
LINE
  5
A286
  8
0
 10
62.05351192431147
 20
232.2453970160841
 30
0.0
 11
62.05351192431147
 21
232.1734145942091
 31
0.0
  0
LINE
  5
A287
  8
0
 10
62.36842403368667
 20
232.1734145942091
 30
0.0
 11
62.36842403368667
 21
232.2453970160841
 31
0.0
  0
LINE
  5
A288
  8
0
 10
62.36842403368667
 20
232.2453970160841
 30
0.0
 11
62.48452754931134
 21
232.2453970160841
 31
0.0
  0
LINE
  5
A289
  8
0
 10
62.48452754931134
 20
232.2453970160841
 30
0.0
 11
62.48452754931134
 21
232.1734145942091
 31
0.0
  0
LINE
  5
A28A
  8
0
 10
62.48452754931134
 20
232.1734145942091
 30
0.0
 11
62.36842403368667
 21
232.1734145942091
 31
0.0
  0
LINE
  5
A28B
  8
0
 10
61.41314083056125
 20
231.6757778754591
 30
0.0
 11
61.4212267680615
 21
231.5329556098341
 31
0.0
  0
ARC
  5
A28C
  8
0
 10
61.62535261721469
 20
233.9382242334293
 30
0.0
 40
2.272377029695415
 50
264.6414777738623
 51
266.9348152461827
  0
ARC
  5
A28D
  8
0
 10
61.50617972700476
 20
231.6914529673178
 30
0.0
 40
0.022476476334337
 50
264.03501221812
 51
306.5640674473047
  0
ARC
  5
A28E
  8
0
 10
61.50749320566506
 20
231.6820234348386
 30
0.0
 40
0.014839073681366
 50
324.4701988857918
 51
4.421974038959445
  0
ARC
  5
A28F
  8
0
 10
61.01692946217369
 20
231.7229392839181
 30
0.0
 40
0.5069212474043316
 50
355.5000960438209
 51
0.8484748777842022
  0
ARC
  5
A290
  8
0
 10
61.63483598799712
 20
234.0666560478286
 30
0.0
 40
2.542688893344043
 50
265.1809484774698
 51
267.520801462453
  0
ARC
  5
A291
  8
0
 10
61.53231194556484
 20
232.2737672822851
 30
0.0
 40
0.7474574208886295
 50
269.4278258300276
 51
274.7828769779775
  0
ARC
  5
A292
  8
0
 10
61.58194420662679
 20
231.6700939420978
 30
0.0
 40
0.1417505388387061
 50
275.1365035074422
 51
297.894765149848
  0
ARC
  5
A293
  8
0
 10
61.61222055856118
 20
231.6042047421028
 30
0.0
 40
0.0694715375261978
 50
301.2514755256948
 51
351.339722505839
  0
ARC
  5
A294
  8
0
 10
61.37097983889965
 20
231.6740146044474
 30
0.0
 40
0.3201466567477245
 50
345.4792488797759
 51
359.0668339659489
  0
ARC
  5
A295
  8
0
 10
59.49868979905715
 20
231.7335904344881
 30
0.0
 40
2.193351363129598
 50
358.3072842196241
 51
0.2645405394405018
  0
ARC
  5
A296
  8
0
 10
61.25338018083375
 20
232.8140925439995
 30
0.0
 40
1.226603834737866
 50
292.3622304129851
 51
309.4180965652807
  0
ARC
  5
A297
  8
0
 10
61.17970216562068
 20
232.7535266848221
 30
0.0
 40
1.356716379153855
 50
297.0209406626487
 51
314.0515009572343
  0
ARC
  5
A298
  8
0
 10
63.25416393633073
 20
232.696688584459
 30
0.0
 40
1.324925264474462
 50
223.7097081622024
 51
240.3793491799944
  0
ARC
  5
A299
  8
0
 10
63.27546236360394
 20
232.9212209653984
 30
0.0
 40
1.377211017143197
 50
229.981595629291
 51
244.349432299083
  0
LINE
  5
A29A
  8
0
 10
63.23968379931159
 20
232.7044497504589
 30
0.0
 11
63.07559200243634
 21
232.7364419379592
 31
0.0
  0
LINE
  5
A29B
  8
0
 10
62.80075801806163
 20
232.152057172334
 30
0.0
 11
62.87019161181126
 21
231.9732876410835
 31
0.0
  0
LINE
  5
A29C
  8
0
 10
62.96616817431152
 20
232.102662641084
 30
0.0
 11
62.96616817431152
 21
231.5223208442089
 31
0.0
  0
LINE
  5
A29D
  8
0
 10
62.96616817431152
 20
231.5223208442089
 30
0.0
 11
63.14502559618643
 21
231.5223208442089
 31
0.0
  0
LINE
  5
A29E
  8
0
 10
63.14502559618643
 20
231.5223208442089
 30
0.0
 11
63.14502559618643
 21
232.3882192817091
 31
0.0
  0
LINE
  5
A29F
  8
0
 10
63.15829708056174
 20
232.2187661567086
 30
0.0
 11
63.29980098681165
 21
232.1107485785842
 31
0.0
  0
LINE
  5
A2A0
  8
0
 10
63.50651973681181
 20
232.4736489692086
 30
0.0
 11
63.50651973681181
 21
231.5223208442089
 31
0.0
  0
LINE
  5
A2A1
  8
0
 10
63.50651973681181
 20
231.5223208442089
 30
0.0
 11
63.68933223681154
 21
231.5223208442089
 31
0.0
  0
LINE
  5
A2A2
  8
0
 10
63.68933223681154
 20
231.5223208442089
 30
0.0
 11
63.68933223681154
 21
231.7837954535839
 31
0.0
  0
LINE
  5
A2A3
  8
0
 10
63.68933223681154
 20
231.7837954535839
 30
0.0
 11
64.02287715868681
 21
231.7837954535839
 31
0.0
  0
LINE
  5
A2A4
  8
0
 10
64.02287715868681
 20
231.7837954535839
 30
0.0
 11
64.02287715868681
 21
231.9358462348337
 31
0.0
  0
LINE
  5
A2A5
  8
0
 10
64.02287715868681
 20
231.9358462348337
 30
0.0
 11
63.68933223681154
 21
231.9358462348337
 31
0.0
  0
LINE
  5
A2A6
  8
0
 10
63.68933223681154
 20
231.9358462348337
 30
0.0
 11
63.68933223681154
 21
232.133424359834
 31
0.0
  0
LINE
  5
A2A7
  8
0
 10
63.68933223681154
 20
232.133424359834
 30
0.0
 11
64.02287715868681
 21
232.133424359834
 31
0.0
  0
LINE
  5
A2A8
  8
0
 10
64.02287715868681
 20
232.133424359834
 30
0.0
 11
64.02287715868681
 21
232.2801138129589
 31
0.0
  0
LINE
  5
A2A9
  8
0
 10
64.02287715868681
 20
232.2801138129589
 30
0.0
 11
63.68933223681154
 21
232.2801138129589
 31
0.0
  0
LINE
  5
A2AA
  8
0
 10
63.68933223681154
 20
232.2801138129589
 30
0.0
 11
63.68933223681154
 21
232.4736489692086
 31
0.0
  0
LINE
  5
A2AB
  8
0
 10
63.68933223681154
 20
232.4736489692086
 30
0.0
 11
64.06295528368685
 21
232.4736489692086
 31
0.0
  0
LINE
  5
A2AC
  8
0
 10
64.06295528368685
 20
232.4736489692086
 30
0.0
 11
64.06295528368685
 21
232.6203384223336
 31
0.0
  0
LINE
  5
A2AD
  8
0
 10
64.06295528368685
 20
232.6203384223336
 30
0.0
 11
63.54527950243676
 21
232.6203384223336
 31
0.0
  0
LINE
  5
A2AE
  8
0
 10
63.57604122118676
 20
232.7164907660836
 30
0.0
 11
63.40650020556143
 21
232.7511196723335
 31
0.0
  0
ARC
  5
A2AF
  8
0
 10
61.59772252786788
 20
233.0423315134256
 30
0.0
 40
1.509194028694409
 50
335.5457096686311
 51
348.3060403035889
  0
ARC
  5
A2B0
  8
0
 10
61.88909118811173
 20
232.9260847954469
 30
0.0
 40
1.195932761560066
 50
319.6679218269052
 51
334.8367065032426
  0
ARC
  5
A2B1
  8
0
 10
62.10095993385146
 20
232.6442279911677
 30
0.0
 40
1.020724413232922
 50
318.9043658670762
 51
327.9560510819899
  0
ARC
  5
A2B2
  8
0
 10
61.96384773900762
 20
232.9140671438126
 30
0.0
 40
1.292941260989209
 50
336.0018785125631
 51
350.6697714262811
  0
ARC
  5
A2B3
  8
0
 10
61.43628519640516
 20
233.345670068781
 30
0.0
 40
2.057969231116068
 50
326.7988139724891
 51
343.207798180194
  0
ARC
  5
A2B4
  8
0
 10
61.22811460479032
 20
233.4228762461995
 30
0.0
 40
2.452256813952018
 50
327.6513795623691
 51
337.226874592315
  0
LINE
  5
A2B5
  8
0
 10
63.48920528368637
 20
232.4736489692086
 30
0.0
 11
63.50651973681181
 21
232.4736489692086
 31
0.0
  0
LINE
  5
A2B6
  8
0
 10
63.57604122118676
 20
232.7164907660836
 30
0.0
 11
63.56090449122636
 21
232.6679122694964
 31
0.0
  0
LINE
  5
A2B7
  8
0
 10
63.56090449122636
 20
232.6679122694964
 30
0.0
 11
63.54527950243676
 21
232.6203384223336
 31
0.0
  0
VIEWPORT
  5
22
 67
     1
  8
0
 10
5.269134197284911
 20
5.545311567251436
 30
0.0
 40
11.13808705479925
 41
12.32365374410561
 68
     1
 69
     1
1001
GENIUS_GENSCREG_15
1000
PF
1040
1.0
1000
DF
1040
1.0
1000
MIN
1011
-0.2999093301147138
1021
-0.6165153048013714
1031
0.0
1021
-0.6165153048013714
1031
0.0
1000
MAX
1011
10.83817772468454
1021
11.70713843930424
1031
0.0
1021
11.70713843930424
1031
0.0
1000
FLAGS
1070
     4
1001
GENIUS_GENODEF_13
1002
{
1000
HIER
1070
     0
1002
}
1002
{
1000
MANEDIT
1070
     0
1002
}
1002
{
1000
NOSEL
1070
     0
1002
}
1002
{
1000
BEHIND
1070
     0
1002
}
1002
{
1000
OTHER
1070
     0
1002
}
1002
{
1000
REACTOR
1002
}
1001
GENIUS_GENOBJ-N-SDF_13
1002
{
1000
OWNER
1000
GEN
1002
}
1001
ACAD
1000
MVIEW
1002
{
1070
    16
1010
0.0
1020
0.0
1030
0.0
1020
0.0
1030
0.0
1010
0.0
1020
0.0
1030
1.0
1020
0.0
1030
1.0
1040
0.0
1040
12.32365374410561
1040
5.269134197284911
1040
5.545311567251436
1040
50.0
1040
0.0
1040
0.0
1070
     0
1070
   100
1070
     0
1070
     1
1070
     0
1070
     0
1070
     0
1070
     0
1040
0.0
1040
0.0
1040
0.0
1040
1.0
1040
1.0
1040
10.0
1040
10.0
1070
     0
1002
{
1002
}
1002
}
  0
ENDSEC
  0
EOF
