  0
SECTION
  2
HEADER
  9
$ACADVER
  1
AC1009
  9
$DWGCODEPAGE
  3
ansi_932
  9
$INSBASE
 10
0.0
 20
0.0
 30
0.0
  9
$EXTMIN
 10
0.0000019319777493
 20
0.000000316319074
 30
0.0
  9
$EXTMAX
 10
235.1103317283137
 20
294.6851315128205
 30
0.0
  9
$LIMMIN
 10
0.0
 20
0.0
  9
$LIMMAX
 10
420.0
 20
420.0
  9
$ORTHOMODE
 70
     0
  9
$REGENMODE
 70
     1
  9
$FILLMODE
 70
     1
  9
$QTEXTMODE
 70
     0
  9
$MIRRTEXT
 70
     0
  9
$DRAGMODE
 70
     2
  9
$LTSCALE
 40
10.0
  9
$OSMODE
 70
   549
  9
$ATTMODE
 70
     1
  9
$TEXTSIZE
 40
1.0
  9
$TRACEWID
 40
1.0
  9
$TEXTSTYLE
  7
STANDARD
  9
$CLAYER
  8
0
  9
$CELTYPE
  6
BYLAYER
  9
$CECOLOR
 62
   256
  9
$DIMSCALE
 40
1.0
  9
$DIMASZ
 40
2.5
  9
$DIMEXO
 40
1.0
  9
$DIMDLI
 40
7.0
  9
$DIMRND
 40
0.0
  9
$DIMDLE
 40
0.0
  9
$DIMEXE
 40
1.0
  9
$DIMTP
 40
0.1
  9
$DIMTM
 40
0.1
  9
$DIMTXT
 40
3.0
  9
$DIMCEN
 40
0.0
  9
$DIMTSZ
 40
0.0
  9
$DIMTOL
 70
     0
  9
$DIMLIM
 70
     0
  9
$DIMTIH
 70
     0
  9
$DIMTOH
 70
     0
  9
$DIMSE1
 70
     0
  9
$DIMSE2
 70
     0
  9
$DIMTAD
 70
     3
  9
$DIMZIN
 70
     8
  9
$DIMBLK
  1
OPEN
  9
$DIMASO
 70
     1
  9
$DIMSHO
 70
     1
  9
$DIMPOST
  1

  9
$DIMAPOST
  1
"
  9
$DIMALT
 70
     0
  9
$DIMALTD
 70
     2
  9
$DIMALTF
 40
0.0393701
  9
$DIMLFAC
 40
1.0
  9
$DIMTOFL
 70
     1
  9
$DIMTVP
 40
0.0
  9
$DIMTIX
 70
     0
  9
$DIMSOXD
 70
     0
  9
$DIMSAH
 70
     0
  9
$DIMBLK1
  1

  9
$DIMBLK2
  1

  9
$DIMSTYLE
  2
AM_JIS
  9
$DIMCLRD
 70
   256
  9
$DIMCLRE
 70
   256
  9
$DIMCLRT
 70
     2
  9
$DIMTFAC
 40
0.71
  9
$DIMGAP
 40
1.0
  9
$LUNITS
 70
     2
  9
$LUPREC
 70
     2
  9
$SKETCHINC
 40
1.0
  9
$FILLETRAD
 40
2.5
  9
$AUNITS
 70
     0
  9
$AUPREC
 70
     0
  9
$MENU
  1
.
  9
$ELEVATION
 40
0.0
  9
$PELEVATION
 40
0.0
  9
$THICKNESS
 40
0.0
  9
$LIMCHECK
 70
     0
  9
$CHAMFERA
 40
2.5
  9
$CHAMFERB
 40
2.5
  9
$SKPOLY
 70
     1
  9
$TDCREATE
 40
2457177.655607164
  9
$TDUPDATE
 40
2460346.658136088
  9
$TDINDWG
 40
0.0050025926
  9
$TDUSRTIMER
 40
0.0049971644
  9
$USRTIMER
 70
     1
  9
$ANGBASE
 50
0.0
  9
$ANGDIR
 70
     0
  9
$PDMODE
 70
     0
  9
$PDSIZE
 40
0.0
  9
$PLINEWID
 40
0.0
  9
$COORDS
 70
     0
  9
$SPLFRAME
 70
     0
  9
$SPLINETYPE
 70
     6
  9
$SPLINESEGS
 70
     8
  9
$ATTDIA
 70
     1
  9
$ATTREQ
 70
     1
  9
$HANDLING
 70
     1
  9
$HANDSEED
  5
A014
  9
$SURFTAB1
 70
     6
  9
$SURFTAB2
 70
     6
  9
$SURFTYPE
 70
     6
  9
$SURFU
 70
     6
  9
$SURFV
 70
     6
  9
$UCSNAME
  2

  9
$UCSORG
 10
0.0
 20
0.0
 30
0.0
  9
$UCSXDIR
 10
1.0
 20
0.0
 30
0.0
  9
$UCSYDIR
 10
0.0
 20
1.0
 30
0.0
  9
$PUCSNAME
  2

  9
$PUCSORG
 10
0.0
 20
0.0
 30
0.0
  9
$PUCSXDIR
 10
1.0
 20
0.0
 30
0.0
  9
$PUCSYDIR
 10
0.0
 20
1.0
 30
0.0
  9
$USERI1
 70
     0
  9
$USERI2
 70
     0
  9
$USERI3
 70
     0
  9
$USERI4
 70
     0
  9
$USERI5
 70
     0
  9
$USERR1
 40
0.0
  9
$USERR2
 40
0.0
  9
$USERR3
 40
0.0
  9
$USERR4
 40
0.0
  9
$USERR5
 40
0.0
  9
$WORLDVIEW
 70
     1
  9
$SHADEDGE
 70
     3
  9
$SHADEDIF
 70
    70
  9
$TILEMODE
 70
     1
  9
$MAXACTVP
 70
    48
  9
$PLIMCHECK
 70
     0
  9
$PEXTMIN
 10
1.000000000000000E+20
 20
1.000000000000000E+20
 30
1.000000000000000E+20
  9
$PEXTMAX
 10
-1.000000000000000E+20
 20
-1.000000000000000E+20
 30
-1.000000000000000E+20
  9
$PLIMMIN
 10
-0.2500002402958907
 20
-0.2499999962453767
  9
$PLIMMAX
 10
10.74999951940822
 20
8.249999763458732
  9
$UNITMODE
 70
     0
  9
$VISRETAIN
 70
     1
  9
$PLINEGEN
 70
     0
  9
$PSLTSCALE
 70
     1
  0
ENDSEC
  0
SECTION
  2
TABLES
  0
TABLE
  2
VPORT
 70
     1
  0
VPORT
  2
*ACTIVE
 70
     0
 10
0.0
 20
0.0
 11
1.0
 21
1.0
 12
210.0
 22
209.9999999999999
 13
0.0
 23
0.0
 14
2.5
 24
2.5
 15
10.0
 25
10.0
 16
0.0
 26
0.0
 36
1.0
 17
0.0
 27
0.0
 37
0.0
 40
423.258971871969
 41
2.05293551491819
 42
50.0
 43
0.0
 44
0.0
 50
0.0
 51
0.0
 71
     0
 72
   100
 73
     1
 74
     3
 75
     0
 76
     0
 77
     0
 78
     0
  0
ENDTAB
  0
TABLE
  2
LTYPE
 70
    22
  0
LTYPE
  2
CONTINUOUS
 70
     0
  3
Solid line
 72
    65
 73
     0
 40
0.0
  0
LTYPE
  2
HIDDEN
 70
     0
  3
__ __ __ __ __ __ __ __ __ __ __ __ __ __ __ __
 72
    65
 73
     2
 40
0.375
 49
0.25
 49
-0.125
  0
LTYPE
  2
PHANTOM2
 70
     0
  3
___ _ _ ___ _ _ ___ _ _ ___ _ _ ___ _ _ ___ _ _
 72
    65
 73
     6
 40
1.25
 49
0.625
 49
-0.125
 49
0.125
 49
-0.125
 49
0.125
 49
-0.125
  0
LTYPE
  2
CENTER
 70
     0
  3
____ _ ____ _ ____ _ ____ _ ____ _ ____ _ ____ 
 72
    65
 73
     4
 40
2.0
 49
1.25
 49
-0.25
 49
0.25
 49
-0.25
  0
LTYPE
  2
ACJISTGB
 70
     0
  3
__ . . __ . .
 72
    65
 73
     6
 40
9.0
 49
4.0
 49
-1.0
 49
1.0
 49
-1.0
 49
1.0
 49
-1.0
  0
LTYPE
  2
ACJISTGL
 70
     0
  3
_ _ _ _ _
 72
    65
 73
     2
 40
3.0
 49
2.0
 49
-1.0
  0
LTYPE
  2
ACISOWELD
 70
     0
  3
_ _ _ _ _
 72
    65
 73
     2
 40
2.0
 49
2.0
 49
-1.0
  0
LTYPE
  2
ACISOTGB
 70
     0
  3
__ . . __ . .
 72
    65
 73
     6
 40
9.0
 49
4.0
 49
-1.0
 49
1.0
 49
-1.0
 49
1.0
 49
-1.0
  0
LTYPE
  2
ACISOTGL
 70
     0
  3
_ _ _ _ _
 72
    65
 73
     2
 40
3.0
 49
2.0
 49
-1.0
  0
LTYPE
  2
AM_ISO02W050
 70
     0
  3
__ __ __ __ __ __ __ __ __ __ __ __ __ __ __
 72
    65
 73
     2
 40
7.5
 49
6.0
 49
-1.5
  0
LTYPE
  2
AM_ISO08W050
 70
     0
  3
____ . ____ . ____ . ____ . ____ . ____ . ____
 72
    65
 73
     4
 40
18.0
 49
12.0
 49
-1.5
 49
3.0
 49
-1.5
  0
LTYPE
  2
AM_ISO09W050
 70
     0
  3
_____ . . _____ . . _____ . . ____ .. ____
 72
    65
 73
     6
 40
22.5
 49
12.0
 49
-1.5
 49
3.0
 49
-1.5
 49
3.0
 49
-1.5
  0
LTYPE
  2
AM_ISO02W050X2
 70
     0
  3
 _ _ _ _ _ _ _ _ _ _ _ _
 72
    65
 73
     2
 40
3.75
 49
3.0
 49
-0.75
  0
LTYPE
  2
AM_ISO08W050X2
 70
     0
  3
__ . __ . __ . __ . __ . __
 72
    65
 73
     4
 40
9.0
 49
6.0
 49
-0.75
 49
1.5
 49
-0.75
  0
LTYPE
  2
AMZIGZAG
 70
     0
  3
/\/-/\/-/\/-/\/-/\/-/\/
 72
    65
 73
     2
 40
11.0001
 49
0.0001
 49
-11.0
  0
LTYPE
  2
AMCONSTR
 70
     0
  3
_______________________
 72
    65
 73
     2
 40
9999.0
 49
9999.0
 49
0.0
  0
LTYPE
  2
CENTER2
 70
     0
  3
Center (.5x) ___ _ ___ _ ___ _ ___ _ ___ _ ___
 72
    65
 73
     4
 40
1.125
 49
0.75
 49
-0.125
 49
0.125
 49
-0.125
  0
LTYPE
  2
HIDDEN2
 70
     0
  3
Hidden (.5x) _ _ _ _ _ _ _ _ _ _ _ _ _ _ _ _ _
 72
    65
 73
     2
 40
0.1875
 49
0.125
 49
-0.0625
  0
LTYPE
  2
ACJISWELD
 70
     0
  3
_ _ _ _ _
 72
    65
 73
     2
 40
2.0
 49
2.0
 49
-1.0
  0
LTYPE
  2
AMZIGZAG2
 70
     0
  3
/\/-/\/-/\/-/\/-/\/-/\/
 72
    65
 73
     2
 40
0.4401
 49
0.0001
 49
-0.44
  0
LTYPE
  2
ACANSTGB
 70
     0
  3
__ . . __ . .
 72
    65
 73
     6
 40
0.35433070866
 49
0.15748031496
 49
-0.03937007874
 49
0.03937007874
 49
-0.03937007874
 49
0.03937007874
 49
-0.03937007874
  0
LTYPE
  2
ACANSTGL
 70
     0
  3
_ _ _ _ _
 72
    65
 73
     2
 40
0.11811023622
 49
0.07874015748
 49
-0.03937007874
  0
ENDTAB
  0
TABLE
  2
LAYER
 70
     5
  0
LAYER
  2
0
 70
     0
 62
     7
  6
CONTINUOUS
  0
LAYER
  2
7
 70
     0
 62
     4
  6
CENTER2
  0
LAYER
  2
10
 70
     0
 62
     2
  6
CONTINUOUS
  0
LAYER
  2
DEFPOINTS
 70
     0
 62
     7
  6
CONTINUOUS
  0
LAYER
  2
AM_0
 70
     0
 62
     7
  6
CONTINUOUS
  0
ENDTAB
  0
TABLE
  2
STYLE
 70
     8
  0
STYLE
  2
STANDARD
 70
     0
 40
0.0
 41
1.0
 50
0.0
 71
     0
 42
1.0
  3
ISOCP.SHX
  4
EXTFONT.SHX
  0
STYLE
  2
ACJISTS
 70
     0
 40
1.0
 41
1.0
 50
0.0
 71
     0
 42
3.5
  3
isocp.shx
  4
extfont.shx
  0
STYLE
  2
ACJISGDT
 70
     0
 40
0.0
 41
1.0
 50
0.0
 71
     0
 42
3.5
  3
amgdt.shx
  4
extfont.shx
  0
STYLE
  2
ACISOTS
 70
     0
 40
1.0
 41
1.0
 50
0.0
 71
     0
 42
1.0
  3
isocp.shx
  4
extfont.shx
  0
STYLE
  2
ACISOGDT
 70
     0
 40
0.0
 41
1.0
 50
0.0
 71
     0
 42
3.5
  3
amgdt.shx
  4
extfont.shx
  0
STYLE
  2

 70
     1
 40
0.0
 41
1.0
 50
0.0
 71
     0
 42
3.5
  3
ltypeshp.shx
  4

  0
STYLE
  2

 70
     1
 40
0.0
 41
1.0
 50
0.0
 71
     0
 42
4.0
  3
genltshp.shx
  4

  0
STYLE
  2
ACANSGDT
 70
     0
 40
0.0
 41
1.0
 50
0.0
 71
     0
 42
4.0
  3
amgdt.shx
  4

  0
ENDTAB
  0
TABLE
  2
VIEW
 70
     3
  0
VIEW
  2
AMDTVIEW1
 70
     0
 40
329.0721649484536
 10
210.0
 20
164.5360824742268
 41
420.0
 11
0.0
 21
0.0
 31
1.0
 12
0.0
 22
0.0
 32
0.0
 42
50.0
 43
0.0
 44
0.0
 50
0.0
 71
     0
  0
VIEW
  2
AMDTVIEW2
 70
     0
 40
329.0721649484536
 10
210.0
 20
164.5360824742268
 41
420.0
 11
0.0
 21
0.0
 31
1.0
 12
0.0
 22
0.0
 32
0.0
 42
50.0
 43
0.0
 44
0.0
 50
0.0
 71
     0
  0
VIEW
  2
AMDTVIEW3
 70
     0
 40
329.0721649484536
 10
210.0
 20
164.5360824742268
 41
420.0
 11
0.0
 21
0.0
 31
1.0
 12
0.0
 22
0.0
 32
0.0
 42
50.0
 43
0.0
 44
0.0
 50
0.0
 71
     0
  0
ENDTAB
  0
TABLE
  2
UCS
 70
     0
  0
ENDTAB
  0
TABLE
  2
APPID
 70
    67
  0
APPID
  2
ACAD
 70
     0
  0
APPID
  2
AD_DRAW
 70
     0
  0
APPID
  2
DESIGNERASSEMBLIES
 70
     0
  0
APPID
  2
MCAD_NO_VIS
 70
     0
  0
APPID
  2
ASURF_PCURVE_APPNAME
 70
     0
  0
APPID
  2
ACAD_TEMP_GRAPHIC
 70
     0
  0
APPID
  2
ACATTRIBSERVICES
 70
     0
  0
APPID
  2
ACADM_DIM_EDIT
 70
     0
  0
APPID
  2
GENIUS_GENDIM_13
 70
     0
  0
APPID
  2
GENIUS_GENDTOL_13
 70
     0
  0
APPID
  2
GENIUS_GE3DTOL_13
 70
     0
  0
APPID
  2
AMG_3D2D_5_0
 70
     0
  0
APPID
  2
AMDT_DM_ADJ
 70
     0
  0
APPID
  2
ACAD_PSEXT
 70
     0
  0
APPID
  2
ACAD_DSTYLE_DIMTEXT_FILL
 70
     0
  0
APPID
  2
ACAECLAYERSTANDARD
 70
     0
  0
APPID
  2
GENIUS_GENREC_14
 70
     0
  0
APPID
  2
GENIUS_GENODEF_13
 70
     0
  0
APPID
  2
GENIUS_GENOBJ-N-REC_13
 70
     0
  0
APPID
  2
DCO15
 70
     0
  0
APPID
  2
ACAD_DSTYLE_DIMJAG
 70
     0
  0
APPID
  2
ACAD_DSTYLE_DIMTALN
 70
     0
  0
APPID
  2
ACAD_MLEADERVER
 70
     0
  0
APPID
  2
GENIUS_GENSCREG_15
 70
     0
  0
APPID
  2
GENIUS_GENOBJ-N-SDF_13
 70
     0
  0
APPID
  2
ACAD_NAV_VCDISPLAY
 70
     0
  0
APPID
  2
ACAD_EXEMPT_FROM_CAD_STAND
 70
     0
  0
APPID
  2
ACCMTRANSPARENCY
 70
     0
  0
APPID
  2
GENIUS_GENOBJ-N-CEN_13
 70
     0
  0
APPID
  2
GENIUS_GENOBJ-N-FIL_13
 70
     0
  0
APPID
  2
GENIUS_GENCEN_19
 70
     0
  0
APPID
  2
ACAD_DSTYLE_DIMBREAK
 70
     0
  0
APPID
  2
PLOTTRANSPARENCY
 70
     0
  0
APPID
  2
ACAD_SPLINE_DATA
 70
     0
  0
APPID
  2
ACAD_SPLINE_DATA2
 70
     0
  0
APPID
  2
HC_SUPERPART
 70
     0
  0
APPID
  2
HC_SP4BLOCK
 70
     0
  0
APPID
  2
HC_XDATA_SPRING
 70
     0
  0
APPID
  2
HCCAD_FRAME
 70
     0
  0
APPID
  2
GENIUS_GENOLIS_13
 70
     0
  0
APPID
  2
GENIUS_GENOENT_13
 70
     0
  0
APPID
  2
GENIUS_GENOREF_13
 70
     0
  0
APPID
  2
GENIUS_GENOBJ-N-TIT_13
 70
     0
  0
APPID
  2
GENIUS_GENOBJ-N-ZOO_13
 70
     0
  0
APPID
  2
GENIUS_GENTITLE_13
 70
     0
  0
APPID
  2
GENIUS_GENSYMENT_13
 70
     0
  0
APPID
  2
GENIUS_GENSCSYM_13
 70
     0
  0
APPID
  2
GENIUS_GENOBJ-N-REV_13
 70
     0
  0
APPID
  2
GENIUS_GENOBJ-N-RSSYM_13
 70
     0
  0
APPID
  2
GENIUS_GENREV_15
 70
     0
  0
APPID
  2
HRA
 70
     0
  0
APPID
  2
HTIT
 70
     0
  0
APPID
  2
GENIUS_GENZOO_17
 70
     0
  0
APPID
  2
GENIUS_GENOBJ-N-CRS_13
 70
     0
  0
APPID
  2
GENIUS_GENCRS_20
 70
     0
  0
APPID
  2
GENIUS_GENOBJ-N-CRC_13
 70
     0
  0
APPID
  2
GENIUS_GENCRC_14
 70
     0
  0
APPID
  2
GENIUS_GENFIL_13
 70
     0
  0
APPID
  2
GENIUS_GENOBJ-N-CHA_13
 70
     0
  0
APPID
  2
GENIUS_GENHATCH_13
 70
     0
  0
APPID
  2
GENIUS_GENOBJ-N-HTC_13
 70
     0
  0
APPID
  2
GENIUS_GENOBJ-N-DIM_13
 70
     0
  0
APPID
  2
GENIUS_GENOBJ-N-DIMLI_13
 70
     0
  0
APPID
  2
GENIUS_GENOBJ-N-FITL_13
 70
     0
  0
APPID
  2
GENIUS_GENFITL_13
 70
     0
  0
APPID
  2
GENLAYCOLOR
 70
     0
  0
APPID
  2
ACADANNOTATIVE
 70
     0
  0
ENDTAB
  0
TABLE
  2
DIMSTYLE
 70
    23
  0
DIMSTYLE
  2
STANDARD
 70
     0
  3

  4

  5

  6

  7

 40
1.0
 41
2.5
 42
0.625
 43
3.75
 44
1.25
 45
0.0
 46
0.0
 47
0.0
 48
0.0
140
2.5
141
2.5
142
0.0
143
0.0394
144
1.0
145
0.0
146
1.0
147
0.625
 71
     0
 72
     0
 73
     0
 74
     0
 75
     0
 76
     0
 77
     1
 78
     8
170
     0
171
     4
172
     1
173
     0
174
     0
175
     0
176
     0
177
     0
178
     0
  0
DIMSTYLE
  2
AM_JIS
 70
     0
  3

  4
"
  5
OPEN
  6

  7

 40
1.0
 41
2.5
 42
1.0
 43
7.0
 44
1.0
 45
0.0
 46
0.0
 47
0.1
 48
0.1
140
3.0
141
0.0
142
0.0
143
0.0393701
144
1.0
145
0.0
146
0.71
147
1.0
 71
     0
 72
     0
 73
     0
 74
     0
 75
     0
 76
     0
 77
     3
 78
     8
170
     0
171
     2
172
     1
173
     0
174
     0
175
     0
176
   256
177
   256
178
     2
  0
DIMSTYLE
  2
AM_JIS$3
 70
     0
  3

  4
"
  5
OPEN
  6

  7

 40
1.0
 41
2.5
 42
1.0
 43
10.0
 44
1.0
 45
0.0
 46
0.0
 47
0.1
 48
0.1
140
3.0
141
0.0
142
0.0
143
0.0393701
144
1.0
145
0.0
146
0.71
147
1.0
 71
     0
 72
     0
 73
     0
 74
     0
 75
     0
 76
     0
 77
     3
 78
     8
170
     0
171
     2
172
     1
173
     0
174
     0
175
     0
176
   256
177
   256
178
     2
  0
DIMSTYLE
  2
AM_JIS$4
 70
     0
  3

  4
"
  5

  6
OPEN30
  7
OPEN
 40
1.0
 41
2.5
 42
1.0
 43
10.0
 44
1.0
 45
0.0
 46
0.0
 47
0.1
 48
0.1
140
3.0
141
0.0
142
0.0
143
0.0393701
144
1.0
145
0.0
146
0.71
147
1.0
 71
     0
 72
     0
 73
     0
 74
     0
 75
     0
 76
     0
 77
     3
 78
     8
170
     0
171
     2
172
     1
173
     1
174
     0
175
     0
176
   256
177
   256
178
     2
  0
DIMSTYLE
  2
AM_JIS$6
 70
     0
  3

  4
"
  5
OPEN30
  6
OPEN30
  7
OPEN30
 40
1.0
 41
2.5
 42
1.0
 43
10.0
 44
1.0
 45
0.0
 46
0.0
 47
0.1
 48
0.1
140
3.5
141
0.0
142
0.0
143
0.0393701
144
1.0
145
0.0
146
0.71
147
1.5
 71
     0
 72
     0
 73
     0
 74
     0
 75
     0
 76
     0
 77
     0
 78
     8
170
     0
171
     2
172
     1
173
     0
174
     0
175
     0
176
   256
177
   256
178
     2
  0
DIMSTYLE
  2
AM_JIS$7
 70
     0
  3

  4
"
  5
OPEN30
  6

  7

 40
1.0
 41
2.5
 42
1.0
 43
10.0
 44
1.0
 45
0.0
 46
0.0
 47
0.1
 48
0.1
140
3.0
141
0.0
142
0.0
143
0.0393701
144
1.0
145
0.0
146
0.71
147
1.0
 71
     0
 72
     0
 73
     0
 74
     0
 75
     0
 76
     0
 77
     3
 78
     8
170
     0
171
     2
172
     1
173
     0
174
     0
175
     0
176
   256
177
   256
178
     2
  0
DIMSTYLE
  2
AM_JIS$SF
 70
     0
  3

  4
"
  5
OPEN
  6

  7

 40
1.0
 41
2.5
 42
1.0
 43
7.0
 44
1.0
 45
0.0
 46
0.0
 47
0.1
 48
0.1
140
3.5
141
0.0
142
0.0
143
0.0393701
144
1.0
145
0.0
146
0.71
147
1.5
 71
     0
 72
     0
 73
     0
 74
     0
 75
     1
 76
     1
 77
     3
 78
     8
170
     0
171
     2
172
     1
173
     0
174
     0
175
     0
176
   256
177
   256
178
     2
  0
DIMSTYLE
  2
AM_JIS$SH
 70
     0
  3

  4
"
  5

  6
GENAXEH
  7
OPEN
 40
1.0
 41
2.5
 42
1.0
 43
7.0
 44
1.0
 45
0.0
 46
0.0
 47
0.1
 48
0.1
140
3.5
141
0.0
142
0.0
143
0.0393701
144
2.0
145
0.0
146
0.71
147
1.5
 71
     0
 72
     0
 73
     0
 74
     0
 75
     1
 76
     1
 77
     3
 78
     8
170
     0
171
     2
172
     1
173
     1
174
     0
175
     0
176
   256
177
   256
178
     2
  0
DIMSTYLE
  2
AM_ISO
 70
     0
  3

  4
"
  5

  6

  7

 40
1.0
 41
2.5
 42
1.0
 43
10.0
 44
1.0
 45
0.0
 46
0.0
 47
0.1
 48
0.1
140
3.5
141
0.0
142
0.0
143
0.0393701
144
1.0
145
0.0
146
0.71
147
1.5
 71
     0
 72
     0
 73
     0
 74
     0
 75
     0
 76
     0
 77
     1
 78
     8
170
     0
171
     2
172
     1
173
     0
174
     0
175
     0
176
   256
177
   256
178
     2
  0
DIMSTYLE
  2
AM_ISO$3
 70
     0
  3

  4
"
  5

  6

  7

 40
1.0
 41
2.5
 42
1.0
 43
10.0
 44
1.0
 45
0.0
 46
0.0
 47
0.1
 48
0.1
140
3.5
141
0.0
142
0.0
143
0.0393701
144
1.0
145
0.0
146
0.71
147
1.5
 71
     0
 72
     0
 73
     0
 74
     1
 75
     0
 76
     0
 77
     1
 78
     8
170
     0
171
     2
172
     0
173
     0
174
     0
175
     0
176
   256
177
   256
178
     2
  0
DIMSTYLE
  2
AM_ISO$4
 70
     0
  3

  4
"
  5

  6

  7

 40
1.0
 41
2.5
 42
1.0
 43
10.0
 44
1.0
 45
0.0
 46
0.0
 47
0.1
 48
0.1
140
3.5
141
0.0
142
0.0
143
0.0393701
144
1.0
145
0.0
146
0.71
147
1.5
 71
     0
 72
     0
 73
     0
 74
     1
 75
     0
 76
     0
 77
     1
 78
     8
170
     0
171
     2
172
     0
173
     0
174
     0
175
     0
176
   256
177
   256
178
     2
  0
DIMSTYLE
  2
AM_ISO$6
 70
     0
  3

  4
"
  5

  6

  7

 40
1.0
 41
2.5
 42
1.0
 43
10.0
 44
1.0
 45
0.0
 46
0.0
 47
0.1
 48
0.1
140
3.5
141
0.0
142
0.0
143
0.0393701
144
1.0
145
0.0
146
0.71
147
1.5
 71
     0
 72
     0
 73
     0
 74
     0
 75
     0
 76
     0
 77
     0
 78
     8
170
     0
171
     2
172
     1
173
     0
174
     0
175
     0
176
   256
177
   256
178
     2
  0
DIMSTYLE
  2
AM_ISO$7
 70
     0
  3

  4
"
  5

  6

  7

 40
1.0
 41
2.5
 42
1.0
 43
10.0
 44
1.0
 45
0.0
 46
0.0
 47
0.1
 48
0.1
140
5.0
141
0.0
142
0.0
143
0.0393701
144
1.0
145
0.0
146
0.71
147
1.5
 71
     0
 72
     0
 73
     0
 74
     0
 75
     0
 76
     0
 77
     1
 78
     8
170
     0
171
     2
172
     1
173
     0
174
     0
175
     0
176
   256
177
   256
178
     2
  0
DIMSTYLE
  2
AM_ISO$SF
 70
     0
  3

  4
"
  5

  6

  7

 40
1.0
 41
2.5
 42
1.0
 43
10.0
 44
1.0
 45
0.0
 46
0.0
 47
0.1
 48
0.1
140
3.5
141
0.0
142
0.0
143
0.0393701
144
1.0
145
0.0
146
0.71
147
1.5
 71
     0
 72
     0
 73
     0
 74
     0
 75
     1
 76
     1
 77
     1
 78
     8
170
     0
171
     2
172
     1
173
     0
174
     0
175
     0
176
   256
177
   256
178
     2
  0
DIMSTYLE
  2
AM_ISO$SH
 70
     0
  3

  4
"
  5

  6
GENAXEH
  7

 40
1.0
 41
2.5
 42
1.0
 43
10.0
 44
1.0
 45
0.0
 46
0.0
 47
0.1
 48
0.1
140
3.5
141
0.0
142
0.0
143
0.0393701
144
2.0
145
0.0
146
0.71
147
1.5
 71
     0
 72
     0
 73
     0
 74
     0
 75
     1
 76
     1
 77
     1
 78
     8
170
     0
171
     2
172
     1
173
     1
174
     0
175
     0
176
   256
177
   256
178
     2
  0
DIMSTYLE
  2
AM_JIS$2
 70
     0
  3

  4
"
  5
OPEN
  6

  7

 40
1.0
 41
2.5
 42
1.0
 43
7.0
 44
1.0
 45
0.0
 46
0.0
 47
0.1
 48
0.1
140
3.0
141
0.0
142
0.0
143
0.0393701
144
1.0
145
0.0
146
0.71
147
1.0
 71
     0
 72
     0
 73
     0
 74
     0
 75
     0
 76
     0
 77
     3
 78
     8
170
     0
171
     2
172
     1
173
     0
174
     0
175
     0
176
   256
177
   256
178
     2
  0
DIMSTYLE
  2
AM_JIS$0
 70
     0
  3

  4
"
  5
OPEN
  6

  7

 40
1.0
 41
2.5
 42
1.0
 43
7.0
 44
1.0
 45
0.0
 46
0.0
 47
0.1
 48
0.1
140
3.0
141
0.0
142
0.0
143
0.0393701
144
1.0
145
0.0
146
0.71
147
1.0
 71
     0
 72
     0
 73
     0
 74
     0
 75
     0
 76
     0
 77
     3
 78
     8
170
     0
171
     2
172
     1
173
     0
174
     0
175
     0
176
   256
177
   256
178
     2
  0
DIMSTYLE
  2
AM_ANSI
 70
     0
  3

  4
mm
  5

  6

  7

 40
1.0
 41
0.12
 42
0.05
 43
0.5
 44
0.1
 45
0.0
 46
0.0
 47
0.1
 48
0.1
140
0.12
141
0.0
142
0.0
143
25.4
144
1.0
145
0.0
146
0.71
147
0.06
 71
     0
 72
     0
 73
     1
 74
     1
 75
     0
 76
     0
 77
     0
 78
     7
170
     0
171
     2
172
     0
173
     0
174
     0
175
     0
176
   256
177
   256
178
     2
  0
DIMSTYLE
  2
AM_ANSI$3
 70
     0
  3

  4
mm
  5

  6

  7

 40
1.0
 41
0.12
 42
0.05
 43
0.5
 44
0.1
 45
0.0
 46
0.0
 47
0.1
 48
0.1
140
0.12
141
0.0
142
0.0
143
25.4
144
1.0
145
0.0
146
0.71
147
0.06
 71
     0
 72
     0
 73
     1
 74
     1
 75
     0
 76
     0
 77
     0
 78
     7
170
     0
171
     2
172
     0
173
     0
174
     0
175
     0
176
   256
177
   256
178
     2
  0
DIMSTYLE
  2
AM_ANSI$4
 70
     0
  3

  4
mm
  5

  6

  7

 40
1.0
 41
0.12
 42
0.05
 43
0.5
 44
0.1
 45
0.0
 46
0.0
 47
0.1
 48
0.1
140
0.12
141
0.0
142
0.0
143
25.4
144
1.0
145
0.0
146
0.71
147
0.06
 71
     0
 72
     0
 73
     1
 74
     1
 75
     0
 76
     0
 77
     0
 78
     7
170
     0
171
     2
172
     0
173
     0
174
     0
175
     0
176
   256
177
   256
178
     2
  0
DIMSTYLE
  2
AM_ANSI$7
 70
     0
  3

  4
mm
  5

  6

  7

 40
1.0
 41
0.12
 42
0.05
 43
0.5
 44
0.1
 45
0.0
 46
0.0
 47
0.1
 48
0.1
140
0.12
141
0.0
142
0.0
143
25.4
144
1.0
145
0.0
146
0.71
147
0.06
 71
     0
 72
     0
 73
     1
 74
     1
 75
     0
 76
     0
 77
     0
 78
     7
170
     0
171
     2
172
     0
173
     0
174
     0
175
     0
176
   256
177
   256
178
     2
  0
DIMSTYLE
  2
AM_ANSI$SF
 70
     0
  3

  4
mm
  5

  6

  7

 40
1.0
 41
0.12
 42
0.05
 43
0.5
 44
0.1
 45
0.0
 46
0.0
 47
0.1
 48
0.1
140
0.12
141
0.0
142
0.0
143
25.4
144
1.0
145
0.0
146
0.71
147
0.06
 71
     0
 72
     0
 73
     1
 74
     1
 75
     1
 76
     1
 77
     0
 78
     7
170
     0
171
     2
172
     0
173
     0
174
     0
175
     0
176
   256
177
   256
178
     2
  0
DIMSTYLE
  2
AM_ANSI$SH
 70
     0
  3

  4
mm
  5

  6
GENAXEH
  7

 40
1.0
 41
0.12
 42
0.05
 43
0.5
 44
0.1
 45
0.0
 46
0.0
 47
0.1
 48
0.1
140
0.12
141
0.0
142
0.0
143
25.4
144
1.0
145
0.0
146
0.71
147
0.06
 71
     0
 72
     0
 73
     1
 74
     1
 75
     1
 76
     1
 77
     0
 78
     7
170
     0
171
     2
172
     0
173
     1
174
     0
175
     0
176
   256
177
   256
178
     2
  0
ENDTAB
  0
ENDSEC
  0
SECTION
  2
BLOCKS
  0
BLOCK
  8
0
  2
$MODEL_SPACE
 70
     0
 10
0.0
 20
0.0
 30
0.0
  3
$MODEL_SPACE
  1

  0
ENDBLK
  5
1C
  8
0
  0
BLOCK
 67
     1
  8
0
  2
$PAPER_SPACE
 70
     0
 10
0.0
 20
0.0
 30
0.0
  3
$PAPER_SPACE
  1

  0
ENDBLK
  5
19
 67
     1
  8
0
  0
BLOCK
  8
0
  2
_OPEN30
 70
     0
 10
0.0
 20
0.0
 30
0.0
  3
_OPEN30
  1

  0
LINE
  5
2EF
  8
0
  6
BYBLOCK
 62
     0
 10
-1.0
 20
0.26794919
 30
0.0
 11
0.0
 21
0.0
 31
0.0
  0
LINE
  5
2F0
  8
0
  6
BYBLOCK
 62
     0
 10
0.0
 20
0.0
 30
0.0
 11
-1.0
 21
-0.26794919
 31
0.0
  0
LINE
  5
2F1
  8
0
  6
BYBLOCK
 62
     0
 10
0.0
 20
0.0
 30
0.0
 11
-1.0
 21
0.0
 31
0.0
  0
ENDBLK
  5
2F3
  8
0
  0
BLOCK
  8
0
  2
GENAXEH
 70
     0
 10
0.0
 20
0.0
 30
0.0
  3
GENAXEH
  1

  0
LINE
  5
2F5
  8
0
 10
-1.0
 20
0.0
 30
0.0
 11
1.0
 21
0.0
 31
0.0
  0
ENDBLK
  5
2F7
  8
0
  0
BLOCK
  8
0
  2
_OPEN
 70
     0
 10
0.0
 20
0.0
 30
0.0
  3
_OPEN
  1

  0
LINE
  5
597
  8
0
  6
BYBLOCK
 62
     0
 10
-1.0
 20
0.1666666666666667
 30
0.0
 11
0.0
 21
0.0
 31
0.0
  0
LINE
  5
598
  8
0
  6
BYBLOCK
 62
     0
 10
-1.0
 20
-0.1666666666666667
 30
0.0
 11
0.0
 21
0.0
 31
0.0
  0
LINE
  5
599
  8
0
  6
BYBLOCK
 62
     0
 10
0.0
 20
0.0
 30
0.0
 11
-1.0
 21
0.0
 31
0.0
  0
ENDBLK
  5
59B
  8
0
  0
BLOCK
  8
0
  2
_TAGCIRCLE
 70
     2
 10
0.0
 20
0.0
 30
0.0
  3
_TAGCIRCLE
  1

  0
CIRCLE
  5
1151
  8
0
  6
BYBLOCK
 62
     0
 10
0.0
 20
0.0
 30
0.0
 40
4.0
  0
ATTDEF
  5
1152
  8
0
 62
     0
 10
-7.1
 20
-1.5
 30
0.0
 40
3.0
  1
タグ番号
 72
     1
 11
0.0
 21
-1.5
 31
0.0
  3
タグ番号を入力
  2
タグ番号
 70
     0
  0
ENDBLK
  5
1154
  8
0
  0
BLOCK
  8
0
  2
_ACMFILLED15
 70
     0
 10
0.0
 20
0.0
 30
0.0
  3
_ACMFILLED15
  1
Acad:XRef
  0
TRACE
  5
79ED
  8
AM_0
 62
     0
 10
-1.0
 20
0.1316524975873958
 30
0.0
 11
-1.0
 21
-0.1316524975873958
 31
0.0
 12
0.0
 22
0.0
 32
0.0
 13
0.0
 23
0.0
 33
0.0
  0
ENDBLK
  5
79EB
  8
0
  0
BLOCK
  8
0
  2
_ACMOPEN30
 70
     0
 10
0.0
 20
0.0
 30
0.0
  3
_ACMOPEN30
  1
Acad:XRef
  0
LINE
  5
79F7
  8
AM_0
 62
     0
 10
-1.0
 20
0.0
 30
0.0
 11
0.0
 21
0.0
 31
0.0
  0
LINE
  5
79F8
  8
AM_0
 62
     0
 10
-1.0
 20
-0.2679491924311227
 30
0.0
 11
0.0
 21
0.0
 31
0.0
  0
LINE
  5
79F9
  8
AM_0
 62
     0
 10
-1.0
 20
0.2679491924311227
 30
0.0
 11
0.0
 21
0.0
 31
0.0
  0
ENDBLK
  5
79F6
  8
0
  0
BLOCK
  8
0
  2
_ACMFILLEDHALF
 70
     0
 10
0.0
 20
0.0
 30
0.0
  3
_ACMFILLEDHALF
  1

  0
TRACE
  5
7A02
  8
0
 62
     0
 10
-0.8
 20
0.0
 30
0.0
 11
-1.0
 21
0.166666666
 31
0.0
 12
0.0
 22
0.0
 32
0.0
 13
0.0
 23
0.0
 33
0.0
  0
LINE
  5
7A03
  8
0
 62
     0
 10
-1.0
 20
0.0
 30
0.0
 11
-0.8
 21
0.0
 31
0.0
  0
ENDBLK
  5
7A04
  8
0
  0
BLOCK
  8
0
  2
_ACMOPEN15
 70
     0
 10
0.0
 20
0.0
 30
0.0
  3
_ACMOPEN15
  1
Acad:XRef
  0
LINE
  5
7A11
  8
AM_0
 62
     0
 10
-1.0
 20
0.0
 30
0.0
 11
0.0
 21
0.0
 31
0.0
  0
LINE
  5
7A12
  8
AM_0
 62
     0
 10
-1.0
 20
-0.1316524975873958
 30
0.0
 11
0.0
 21
0.0
 31
0.0
  0
LINE
  5
7A13
  8
AM_0
 62
     0
 10
-1.0
 20
0.1316524975873958
 30
0.0
 11
0.0
 21
0.0
 31
0.0
  0
ENDBLK
  5
7A10
  8
0
  0
BLOCK
  8
0
  2
*X9
 70
     1
 10
0.0
 20
0.0
 30
0.0
  3
*X9
  1
Acad:XRef
  0
TEXT
  5
9FE3
  8
0
 62
     7
 10
69.35712706503402
 20
206.6384413458446
 30
0.0
 40
1.9
  1
凍結
  0
TEXT
  5
9FE4
  8
0
 62
     7
 10
69.34302687950527
 20
203.3143226074401
 30
0.0
 40
1.9
  1
予防
  0
ENDBLK
  5
A007
  8
0
  0
BLOCK
  8
0
  2
*X10
 70
     1
 10
0.0
 20
0.0
 30
0.0
  3
*X10
  1
Acad:XRef
  0
TEXT
  5
A004
  8
0
 62
     7
 10
69.34772694134818
 20
214.639028853575
 30
0.0
 40
1.9
  1
給水
  0
TEXT
  5
A005
  8
0
 62
     7
 10
69.35830208049475
 20
211.3149101151705
 30
0.0
 40
1.9
  1
給湯
  0
ENDBLK
  5
A009
  8
0
  0
ENDSEC
  0
SECTION
  2
ENTITIES
  0
TEXT
  5
1804
  8
10
 10
-1.499998068022251
 20
0.000000316319074
 30
0.0
 40
10.0
  1
2024.02.01 EV2R 2台連動
 11
-1.499998068022251
 21
0.000000316319074
 31
0.0
 73
     1
  0
LINE
  5
4624
  8
0
 10
25.52185615177405
 20
289.8911315128205
 30
0.0
 11
125.521856151774
 21
289.8911315128203
 31
0.0
  0
LINE
  5
4625
  8
0
 10
25.52185615177405
 20
169.8911315128204
 30
0.0
 11
125.521856151774
 21
169.8911315128204
 31
0.0
  0
ARC
  5
4627
  8
0
 10
25.52185615177405
 20
281.8911315128205
 30
0.0
 40
8.0
 50
90.0
 51
180.0
  0
LINE
  5
4628
  8
0
 10
21.27921546465473
 20
286.1337721999396
 30
0.0
 11
29.52185615177405
 21
277.8911315128205
 31
0.0
  0
LINE
  5
4629
  8
0
 10
31.52185615177405
 20
181.8911315128203
 30
0.0
 11
119.521856151774
 21
181.8911315128205
 31
0.0
  0
LINE
  5
462A
  8
0
 10
31.52185615177405
 20
277.8911315128205
 30
0.0
 11
119.521856151774
 21
277.8911315128204
 31
0.0
  0
LINE
  5
462D
  8
0
 10
29.52185615177405
 20
275.8911315128205
 30
0.0
 11
29.52185615177405
 21
183.8911315128204
 31
0.0
  0
LINE
  5
462F
  8
0
 10
17.52185615177405
 20
281.8911315128205
 30
0.0
 11
17.52185615177405
 21
177.8911315128204
 31
0.0
  0
LINE
  5
4630
  8
0
 10
21.27921546465495
 20
173.648490825701
 30
0.0
 11
29.52185615177405
 21
181.8911315128204
 31
0.0
  0
ARC
  5
4631
  8
0
 10
25.52185615177405
 20
177.8911315128204
 30
0.0
 40
8.0
 50
180.0
 51
270.0
  0
ARC
  5
4635
  8
0
 10
125.521856151774
 20
281.8911315128203
 30
0.0
 40
8.0
 50
0.0
 51
90.0
  0
LINE
  5
4636
  8
0
 10
129.7644968388934
 20
286.1337721999396
 30
0.0
 11
121.521856151774
 21
277.8911315128203
 31
0.0
  0
LINE
  5
4638
  8
0
 10
121.521856151774
 20
275.8911315128204
 30
0.0
 11
121.521856151774
 21
183.8911315128205
 31
0.0
  0
LINE
  5
4639
  8
0
 10
133.521856151774
 20
281.8911315128203
 30
0.0
 11
133.521856151774
 21
177.8911315128204
 31
0.0
  0
LINE
  5
463A
  8
0
 10
121.521856151774
 20
181.8911315128205
 30
0.0
 11
129.7644968388934
 21
173.6484908257009
 31
0.0
  0
ARC
  5
463B
  8
0
 10
125.521856151774
 20
177.8911315128204
 30
0.0
 40
8.0
 50
270.0
 51
0.0
  0
LINE
  5
75A2
  8
0
 10
189.5660993381846
 20
280.47591693705
 30
0.0
 11
190.8619853924652
 21
287.8252519569874
 31
0.0
  0
LINE
  5
75A3
  8
0
 10
194.6103319285508
 20
169.8911315128203
 30
0.0
 11
194.6103319285509
 21
289.8911315128203
 31
0.0
  0
LINE
  5
75A4
  8
0
 10
189.1103319285509
 20
184.5157914185978
 30
0.0
 11
189.1103319285509
 21
275.2664716070421
 31
0.0
  0
LINE
  5
75A5
  8
0
 10
189.5660993381846
 20
179.30634608859
 30
0.0
 11
190.8619853924652
 21
171.9570110686531
 31
0.0
  0
ARC
  5
75A6
  8
0
 10
193.3240047749958
 20
172.3911315128204
 30
0.0
 40
2.5
 50
190.0000000000002
 51
270.0
  0
LINE
  5
75A7
  8
0
 10
194.6103319285509
 20
169.8911315128204
 30
0.0
 11
193.3240047749958
 21
169.8911315128204
 31
0.0
  0
ARC
  5
75A8
  8
0
 10
219.110331928551
 20
184.5157914185978
 30
0.0
 40
30.0
 50
180.0
 51
190.0000000000002
  0
ARC
  5
75A9
  8
0
 10
219.110331928551
 20
275.2664716070421
 30
0.0
 40
30.0
 50
169.9999999999998
 51
180.0
  0
ARC
  5
75AA
  8
0
 10
193.3240047749958
 20
287.39113151282
 30
0.0
 40
2.5
 50
90.0
 51
169.9999999999998
  0
LINE
  5
75AB
  8
0
 10
194.6103319285443
 20
289.8911315128203
 30
0.0
 11
193.3240047749892
 21
289.8911315128203
 31
0.0
  0
ARC
  5
75AC
  8
0
 10
186.4103320747657
 20
259.6911315128203
 30
0.0
 40
1.0
 50
90.0
 51
180.0
  0
LINE
  5
75AD
  8
0
 10
186.4103320747657
 20
260.6911315128203
 30
0.0
 11
189.1103320747657
 21
260.6911315128203
 31
0.0
  0
LINE
  5
75AE
  8
0
 10
186.4103320747657
 20
253.6911315128203
 30
0.0
 11
189.1103320747657
 21
253.6911315128203
 31
0.0
  0
LINE
  5
75AF
  8
0
 10
185.4103320747657
 20
259.6911315128203
 30
0.0
 11
185.4103320747657
 21
254.6911315128203
 31
0.0
  0
ARC
  5
75B0
  8
0
 10
186.4103320747657
 20
254.6911315128203
 30
0.0
 40
1.0
 50
180.0
 51
270.0
  0
LINE
  5
75B1
  8
0
 10
125.5218568968322
 20
144.5475006768111
 30
0.0
 11
25.52185540671604
 21
144.5475006768111
 31
0.0
  0
LINE
  5
75B2
  8
0
 10
125.5218568968322
 20
140.5475008360673
 30
0.0
 11
25.52185540671604
 21
140.5475008360673
 31
0.0
  0
LINE
  5
75B3
  8
0
 10
17.52185782070416
 20
140.5475008360673
 30
0.0
 11
17.52185782070416
 21
144.5475006768111
 31
0.0
  0
LINE
  5
75B4
  8
0
 10
25.52185540671604
 20
144.5475006768111
 30
0.0
 11
17.52185782070416
 21
144.5475006768111
 31
0.0
  0
LINE
  5
75B5
  8
0
 10
25.52185540671604
 20
140.5475008360673
 30
0.0
 11
17.52185782070416
 21
140.5475008360673
 31
0.0
  0
LINE
  5
75B6
  8
0
 10
133.521854482844
 20
140.5475008360673
 30
0.0
 11
133.521854482844
 21
144.5475006768111
 31
0.0
  0
LINE
  5
75B7
  8
0
 10
133.521854482844
 20
144.5475006768111
 30
0.0
 11
125.5218568968322
 21
144.5475006768111
 31
0.0
  0
LINE
  5
75B8
  8
0
 10
133.521854482844
 20
140.5475008360673
 30
0.0
 11
125.5218568968322
 21
140.5475008360673
 31
0.0
  0
LINE
  5
75B9
  8
0
 10
18.62185781474369
 20
144.5475006768111
 30
0.0
 11
18.62185781474369
 21
145.0475006768082
 31
0.0
  0
LINE
  5
75BA
  8
0
 10
132.4218544888045
 20
144.5475006768111
 30
0.0
 11
132.4218544888045
 21
145.0475006768082
 31
0.0
  0
LINE
  5
75BB
  8
0
 10
118.5218576120879
 20
138.0475008919466
 30
0.0
 11
32.52185469146031
 21
138.0475008919466
 31
0.0
  0
LINE
  5
75BC
  8
0
 10
120.5218579399134
 20
140.5475008360673
 30
0.0
 11
120.5218579399134
 21
138.0475008919466
 31
0.0
  0
LINE
  5
75BD
  8
0
 10
120.5218579399134
 20
138.0475008919466
 30
0.0
 11
118.5218576120879
 21
138.0475008919466
 31
0.0
  0
LINE
  5
75BE
  8
0
 10
30.52185436363476
 20
138.0475008919466
 30
0.0
 11
30.52185436363476
 21
140.5475008360673
 31
0.0
  0
LINE
  5
75BF
  8
0
 10
32.52185469146031
 20
138.0475008919466
 30
0.0
 11
30.52185436363476
 21
138.0475008919466
 31
0.0
  0
LINE
  5
75C0
  8
0
 10
39.02185668821591
 20
150.5475006125498
 30
0.0
 11
112.0218556153323
 21
150.5475006125498
 31
0.0
  0
LINE
  5
75C1
  8
0
 10
118.5218576120884
 20
118.5475004896152
 30
0.0
 11
50.02185662861172
 21
118.5475004896152
 31
0.0
  0
LINE
  5
75C2
  8
0
 10
50.02185662861172
 20
118.5475004896152
 30
0.0
 11
40.15028437252346
 21
118.5475004896152
 31
0.0
  0
LINE
  5
75C3
  8
0
 10
38.73607104296985
 20
119.1332874878872
 30
0.0
 11
33.52185671801868
 21
124.3474999501932
 31
0.0
  0
LINE
  5
75C4
  8
0
 10
33.52185671801868
 20
124.3474999501932
 30
0.0
 11
33.1076416897327
 21
124.7617149784792
 31
0.0
  0
ARC
  5
75C5
  8
0
 10
118.5218561517746
 20
120.5475006982315
 30
0.0
 40
2.000000000000028
 50
270.0
 51
0.0
  0
ARC
  5
75C6
  8
0
 10
40.1502832765205
 20
120.5475006982315
 30
0.0
 40
2.0
 50
224.9999999999954
 51
270.0
  0
LINE
  5
75C7
  8
0
 10
118.5218576120884
 20
137.5475008099902
 30
0.0
 11
32.52185469146076
 21
137.5475008099902
 31
0.0
  0
LINE
  5
75C8
  8
0
 10
120.5218579399139
 20
137.5475008099902
 30
0.0
 11
118.5218576120884
 21
137.5475008099902
 31
0.0
  0
LINE
  5
75C9
  8
0
 10
120.5218579399139
 20
137.5475008099902
 30
0.0
 11
120.5218579399139
 21
120.5475008174408
 31
0.0
  0
ARC
  5
75CA
  8
0
 10
34.52185615177456
 20
126.1759278229777
 30
0.0
 40
2.0
 50
180.0
 51
224.9999999999954
  0
LINE
  5
75CB
  8
0
 10
32.52185469146076
 20
126.1759283080328
 30
0.0
 11
32.52185469146076
 21
135.0475008658696
 31
0.0
  0
LINE
  5
75CC
  8
0
 10
30.52185436363521
 20
135.0475008658696
 30
0.0
 11
30.52185436363521
 21
137.5475008099902
 31
0.0
  0
LINE
  5
75CD
  8
0
 10
32.52185469146076
 20
137.5475008099902
 30
0.0
 11
30.52185436363521
 21
137.5475008099902
 31
0.0
  0
LINE
  5
75CE
  8
0
 10
32.52185469146076
 20
135.0475008658696
 30
0.0
 11
30.52185436363521
 21
135.0475008658696
 31
0.0
  0
LINE
  5
75CF
  8
0
 10
31.62185435767475
 20
137.5475008099902
 30
0.0
 11
31.62185435767475
 21
138.0475008919466
 31
0.0
  0
LINE
  5
75D0
  8
0
 10
119.4218579458744
 20
137.5475008099902
 30
0.0
 11
119.4218579458744
 21
138.0475008919466
 31
0.0
  0
ARC
  5
75D1
  8
0
 10
114.7218561517744
 20
118.3475006982314
 30
0.0
 40
0.2000000000000171
 50
90.0
 51
180.0
  0
LINE
  5
75D2
  8
0
 10
48.52185545141998
 20
118.5475004896152
 30
0.0
 11
48.52185545141998
 21
118.3475008293617
 31
0.0
  0
LINE
  5
75D3
  8
0
 10
50.02185662861172
 20
118.3475008293617
 30
0.0
 11
50.02185662861172
 21
118.5475004896152
 31
0.0
  0
LINE
  5
75D4
  8
0
 10
49.82185696835819
 20
109.6934503003586
 30
0.0
 11
48.40028246517483
 21
109.6934503003586
 31
0.0
  0
LINE
  5
75D5
  8
0
 10
50.02185662861172
 20
110.5792535528171
 30
0.0
 11
48.59898199911419
 21
110.5792535528171
 31
0.0
  0
LINE
  5
75D6
  8
0
 10
112.5218566286117
 20
109.5475008770454
 30
0.0
 11
50.02185662861172
 21
109.5475008770454
 31
0.0
  0
LINE
  5
75D7
  8
0
 10
50.02185662861172
 20
110.5792535528171
 30
0.0
 11
50.02185662861172
 21
111.547501204871
 31
0.0
  0
LINE
  5
75D8
  8
0
 10
50.02185662861172
 20
109.5475008770454
 30
0.0
 11
50.02185662861172
 21
109.6246106609333
 31
0.0
  0
LINE
  5
75D9
  8
0
 10
47.73606879289451
 20
110.1332878753174
 30
0.0
 11
38.91496320839229
 21
118.9543953224647
 31
0.0
  0
LINE
  5
75DA
  8
0
 10
48.52185545141998
 20
111.9695225789774
 30
0.0
 11
48.52185545141998
 21
110.9190745338428
 31
0.0
  0
ARC
  5
75DB
  8
0
 10
112.5218561517746
 20
111.5475006982315
 30
0.0
 40
2.0
 50
270.0
 51
0.0
  0
LINE
  5
75DC
  8
0
 10
48.52185545141998
 20
111.9695225789774
 30
0.0
 11
48.52185545141998
 21
118.3475008293617
 31
0.0
  0
LINE
  5
75DD
  8
0
 10
114.5218569564373
 20
118.3475008293617
 30
0.0
 11
114.5218569564373
 21
111.547501204871
 31
0.0
  0
LINE
  5
75DE
  8
0
 10
50.02185662861172
 20
118.3475008293617
 30
0.0
 11
50.02185662861172
 21
111.547501204871
 31
0.0
  0
ARC
  5
75DF
  8
0
 10
49.1502832765205
 20
111.5475006982315
 30
0.0
 40
1.114196214777944
 50
235.6658476036728
 51
240.343609400931
  0
ARC
  5
75E0
  8
0
 10
49.1502832765205
 20
111.5475006982315
 30
0.0
 40
2.000000000000035
 50
224.9999999999954
 51
247.9756871629579
  0
ARC
  5
75E1
  8
0
 10
48.72185615177438
 20
111.2475006982315
 30
0.0
 40
0.2000000000000171
 50
180.0
 51
270.0
  0
LINE
  5
75E2
  8
0
 10
48.72185697431865
 20
111.047500191592
 30
0.0
 11
49.82185696835819
 21
111.047500191592
 31
0.0
  0
ARC
  5
75E3
  8
0
 10
49.82185615177474
 20
111.2475006982315
 30
0.0
 40
0.1999999999999886
 50
270.0
 51
0.0
  0
ARC
  5
75E4
  8
0
 10
49.1502832765205
 20
111.5475006982315
 30
0.0
 40
2.000000000000035
 50
247.9756871629579
 51
270.0
  0
LINE
  5
75E5
  8
0
 10
49.15028398509327
 20
109.5475008770454
 30
0.0
 11
50.02185662861172
 21
109.5475008770454
 31
0.0
  0
LINE
  5
75E6
  8
0
 10
48.52185545141998
 20
112.1759278758991
 30
0.0
 11
49.09170379514995
 21
111.6060795321691
 31
0.0
  0
LINE
  5
75E7
  8
0
 10
49.23312512810531
 20
111.547501204871
 30
0.0
 11
50.02185662861172
 21
111.547501204871
 31
0.0
  0
ARC
  5
75E8
  8
0
 10
49.2331259889948
 20
111.7475006982315
 30
0.0
 40
0.1999999999999895
 50
224.9999999999954
 51
270.0
  0
LINE
  5
75E9
  8
0
 10
32.52185615177456
 20
126.1759278229777
 30
0.0
 11
32.52185469146076
 21
125.3475016195261
 31
0.0
  0
LINE
  5
75EA
  8
0
 10
32.52185469146076
 20
125.3475016195261
 30
0.0
 11
33.10760135571905
 21
124.7616746499944
 31
0.0
  0
LINE
  5
75EB
  8
0
 10
52.96668634991858
 20
153.747133347914
 30
0.0
 11
51.9666863499188
 21
153.747133347914
 31
0.0
  0
LINE
  5
75EC
  8
0
 10
53.9666863499188
 20
154.247133347914
 30
0.0
 11
52.9666863499188
 21
154.247133347914
 31
0.0
  0
LINE
  5
75ED
  8
0
 10
51.9666863499188
 20
154.247133347914
 30
0.0
 11
50.9666863499188
 21
154.247133347914
 31
0.0
  0
LINE
  5
75EE
  8
0
 10
51.9666863499188
 20
154.247133347914
 30
0.0
 11
51.9666863499188
 21
153.747133347914
 31
0.0
  0
LINE
  5
75EF
  8
0
 10
54.9666863499188
 20
154.247133347914
 30
0.0
 11
54.9666863499188
 21
153.747133347914
 31
0.0
  0
LINE
  5
75F0
  8
0
 10
52.9666863499188
 20
154.247133347914
 30
0.0
 11
52.96668634991858
 21
153.747133347914
 31
0.0
  0
LINE
  5
75F1
  8
0
 10
53.9666863499188
 20
154.247133347914
 30
0.0
 11
53.9666863499188
 21
153.747133347914
 31
0.0
  0
LINE
  5
75F2
  8
0
 10
54.9666863499188
 20
153.747133347914
 30
0.0
 11
53.9666863499188
 21
153.747133347914
 31
0.0
  0
LINE
  5
75F3
  8
0
 10
56.96668634991875
 20
150.5475006125498
 30
0.0
 11
56.96668634991858
 21
153.247133347914
 31
0.0
  0
ARC
  5
75F4
  8
0
 10
55.96668634991858
 20
153.247133347914
 30
0.0
 40
1.0
 50
0.0
 51
90.0
  0
LINE
  5
75F5
  8
0
 10
55.96668634991858
 20
154.247133347914
 30
0.0
 11
54.9666863499188
 21
154.247133347914
 31
0.0
  0
LINE
  5
75F6
  8
0
 10
49.9666863499188
 20
150.5475006125498
 30
0.0
 11
49.9666863499188
 21
153.247133347914
 31
0.0
  0
ARC
  5
75F7
  8
0
 10
50.9666863499188
 20
153.247133347914
 30
0.0
 40
1.0
 50
90.0
 51
180.0
  0
ARC
  5
75F8
  8
0
 10
40.32184852237907
 20
117.5475119877229
 30
0.0
 40
0.3000000119209
 50
179.9980552173233
 51
314.9996865396516
  0
LINE
  5
75F9
  8
0
 10
40.02185691471328
 20
117.5475119877229
 30
0.0
 11
33.521860729411
 21
124.047508173026
 31
0.0
  0
LINE
  5
75FA
  8
0
 10
35.50176490421524
 20
119.239177637138
 30
0.0
 11
36.91597617740905
 21
120.6533927250279
 31
0.0
  0
LINE
  5
75FB
  8
0
 10
36.91597617740905
 20
117.8249663639439
 30
0.0
 11
38.33019126529922
 21
119.239177637138
 31
0.0
  0
LINE
  5
75FC
  8
0
 10
36.63312400455703
 20
117.8249739933389
 30
0.0
 11
35.50176108951797
 21
118.9563369083779
 31
0.0
  0
ARC
  5
75FD
  8
0
 10
35.64318336124717
 20
119.0977629948039
 30
0.0
 40
0.2000000029802
 50
135.0000039841164
 51
224.9999996583502
  0
ARC
  5
75FE
  8
0
 10
36.77455390568008
 20
117.9663962650669
 30
0.0
 40
0.2000000029802
 50
224.9999996583502
 51
314.999998747812
  0
LINE
  5
75FF
  8
0
 10
33.52185310001602
 20
124.047500543632
 30
0.0
 11
33.52185310001602
 21
124.3475035681959
 31
0.0
  0
LINE
  5
7600
  8
0
 10
133.5218561517738
 20
145.0475006768082
 30
0.0
 11
17.52185615177365
 21
145.0475006768082
 31
0.0
  0
ARC
  5
7601
  8
0
 10
118.8971962459963
 20
120.5475006768082
 30
0.0
 40
30.0
 50
80.00000000000146
 51
90.0
  0
LINE
  5
7602
  8
0
 10
118.8971962459963
 20
150.5475006768082
 30
0.0
 11
32.14651605755176
 21
150.5475006768082
 31
0.0
  0
ARC
  5
7603
  8
0
 10
131.0218561517738
 20
146.3338278303634
 30
0.0
 40
2.5
 50
0.0
 51
80.00000000000146
  0
LINE
  5
7604
  8
0
 10
133.5218561517738
 20
145.0475006768082
 30
0.0
 11
133.5218561517738
 21
146.3338278303634
 31
0.0
  0
LINE
  5
7605
  8
0
 10
124.1066415760042
 20
150.0917332671744
 30
0.0
 11
131.4559765959411
 21
148.7958472128939
 31
0.0
  0
ARC
  5
7606
  8
0
 10
32.14651605755176
 20
120.5475006768082
 30
0.0
 40
30.0
 50
90.0
 51
99.99999999999855
  0
ARC
  5
7607
  8
0
 10
20.02185615177387
 20
146.3338278303633
 30
0.0
 40
2.5
 50
99.99999999999855
 51
180.0
  0
LINE
  5
7608
  8
0
 10
26.93707072754393
 20
150.0917332671744
 30
0.0
 11
19.58773570760656
 21
148.7958472128938
 31
0.0
  0
LINE
  5
7609
  8
0
 10
17.52185615177365
 20
145.0475006768148
 30
0.0
 11
17.52185615177365
 21
146.33382783037
 31
0.0
  0
LINE
  5
760A
  8
0
 10
202.1103317953689
 20
263.0161306560044
 30
0.0
 11
202.1103317953689
 21
197.0161310136323
 31
0.0
  0
LINE
  5
760B
  8
0
 10
202.1103317953689
 20
265.01613098383
 30
0.0
 11
202.1103317953689
 21
263.0161306560044
 31
0.0
  0
LINE
  5
760C
  8
0
 10
202.1103317953689
 20
265.01613098383
 30
0.0
 11
204.6103317394895
 21
265.01613098383
 31
0.0
  0
LINE
  5
760D
  8
0
 10
204.6103317394895
 20
195.0161306858067
 30
0.0
 11
202.1103317953689
 21
195.0161306858067
 31
0.0
  0
LINE
  5
760E
  8
0
 10
202.1103317953689
 20
197.0161310136323
 30
0.0
 11
202.1103317953689
 21
195.0161306858067
 31
0.0
  0
LINE
  5
760F
  8
0
 10
202.1103317953689
 20
263.9161309897904
 30
0.0
 11
201.6103317953689
 21
263.9161309897904
 31
0.0
  0
LINE
  5
7610
  8
0
 10
202.1103317953689
 20
196.1161306798463
 30
0.0
 11
201.6103317953689
 21
196.1161306798463
 31
0.0
  0
LINE
  5
7611
  8
0
 10
204.6103317394895
 20
265.01613098383
 30
0.0
 11
213.4819042973263
 21
265.01613098383
 31
0.0
  0
LINE
  5
7612
  8
0
 10
213.4819042973263
 20
195.0161306858067
 30
0.0
 11
204.6103317394895
 21
195.0161306858067
 31
0.0
  0
LINE
  5
7613
  8
0
 10
213.4819042973263
 20
265.01613098383
 30
0.0
 11
219.1103317879183
 21
265.01613098383
 31
0.0
  0
LINE
  5
7614
  8
0
 10
219.1103317879183
 20
195.0161306858067
 30
0.0
 11
213.4819042973263
 21
195.0161306858067
 31
0.0
  0
LINE
  5
7615
  8
0
 10
228.1103314004881
 20
201.7661313265567
 30
0.0
 11
221.3103317759974
 21
201.7661313265567
 31
0.0
  0
ARC
  5
7616
  8
0
 10
219.1103319071276
 20
197.0161308348183
 30
0.0
 40
2.0
 50
270.0
 51
0.0
  0
LINE
  5
7617
  8
0
 10
221.1103321157439
 20
230.0161308348183
 30
0.0
 11
221.1103321157439
 21
197.0161310136323
 31
0.0
  0
ARC
  5
7618
  8
0
 10
219.1103319071276
 20
263.0161308348183
 30
0.0
 40
2.0
 50
0.0
 51
90.0
  0
LINE
  5
7619
  8
0
 10
221.1103321157439
 20
262.0161323547368
 30
0.0
 11
221.1103321157439
 21
230.0161308348183
 31
0.0
  0
LINE
  5
761A
  8
0
 10
221.3103317759974
 20
258.26613034308
 30
0.0
 11
228.1103317283137
 21
258.26613034308
 31
0.0
  0
ARC
  5
761B
  8
0
 10
221.3103319071274
 20
201.5661308348183
 30
0.0
 40
0.1999999999999957
 50
90.0
 51
180.0
  0
ARC
  5
761C
  8
0
 10
221.3103319071274
 20
258.4661308348183
 30
0.0
 40
0.2000000000000171
 50
180.0
 51
270.0
  0
LINE
  5
761D
  8
0
 10
230.1103317283137
 20
256.2661303430801
 30
0.0
 11
230.1103317283137
 21
203.7661316543822
 31
0.0
  0
ARC
  5
761E
  8
0
 10
228.1103319071276
 20
203.7661308348183
 30
0.0
 40
2.0
 50
270.0
 51
0.0
  0
LINE
  5
761F
  8
0
 10
221.1103321157439
 20
263.0161306560044
 30
0.0
 11
221.1103321157439
 21
262.0161323547368
 31
0.0
  0
POLYLINE
  5
7620
  8
0
 66
     1
 10
0.0
 20
0.0
 30
0.0
  0
VERTEX
  5
9FC1
  8
0
 10
229.1399830125315
 20
202.0516673773532
 30
0.0
  0
VERTEX
  5
9FC2
  8
0
 10
229.1379220285373
 20
202.0504435713424
 30
0.0
  0
VERTEX
  5
9FC3
  8
0
 10
229.1358678499567
 20
202.0492238085552
 30
0.0
  0
VERTEX
  5
9FC4
  8
0
 10
229.1338272822036
 20
202.0480121322155
 30
0.0
  0
VERTEX
  5
9FC5
  8
0
 10
229.1318071306914
 20
202.0468125855468
 30
0.0
  0
VERTEX
  5
9FC6
  8
0
 10
229.129814200834
 20
202.0456292117729
 30
0.0
  0
VERTEX
  5
9FC7
  8
0
 10
229.127855298045
 20
202.0444660541174
 30
0.0
  0
VERTEX
  5
9FC8
  8
0
 10
229.1259372277381
 20
202.0433271558038
 30
0.0
  0
VERTEX
  5
9FC9
  8
0
 10
229.124066795327
 20
202.0422165600561
 30
0.0
  0
VERTEX
  5
9FCA
  8
0
 10
229.1222508062253
 20
202.0411383100978
 30
0.0
  0
VERTEX
  5
9FCB
  8
0
 10
229.1204960658469
 20
202.0400964491526
 30
0.0
  0
VERTEX
  5
9FCC
  8
0
 10
229.1188093796052
 20
202.0390950204443
 30
0.0
  0
VERTEX
  5
9FCD
  8
0
 10
229.117197552914
 20
202.0381380671964
 30
0.0
  0
VERTEX
  5
9FCE
  8
0
 10
229.1156673911871
 20
202.0372296326327
 30
0.0
  0
VERTEX
  5
9FCF
  8
0
 10
229.114225699838
 20
202.0363737599768
 30
0.0
  0
VERTEX
  5
9FD0
  8
0
 10
229.1128792842805
 20
202.0355744924524
 30
0.0
  0
VERTEX
  5
9FD1
  8
0
 10
229.1116349499282
 20
202.0348358732833
 30
0.0
  0
VERTEX
  5
9FD2
  8
0
 10
229.110499502195
 20
202.034161945693
 30
0.0
  0
VERTEX
  5
9FD3
  8
0
 10
229.1094797464943
 20
202.0335567529053
 30
0.0
  0
VERTEX
  5
9FD4
  8
0
 10
229.1085824882399
 20
202.0330243381439
 30
0.0
  0
VERTEX
  5
9FD5
  8
0
 10
229.1078145328455
 20
202.0325687446324
 30
0.0
  0
VERTEX
  5
9FD6
  8
0
 10
229.1071826857247
 20
202.0321940155944
 30
0.0
  0
VERTEX
  5
9FD7
  8
0
 10
229.1066937522913
 20
202.0319041942538
 30
0.0
  0
VERTEX
  5
9FD8
  8
0
 10
229.106354537959
 20
202.0317033238341
 30
0.0
  0
VERTEX
  5
9FD9
  8
0
 10
229.1061718481413
 20
202.0315954475591
 30
0.0
  0
VERTEX
  5
9FDA
  8
0
 10
229.1061524882521
 20
202.0315846086524
 30
0.0
  0
VERTEX
  5
9FDB
  8
0
 10
229.1063032637049
 20
202.0316748503377
 30
0.0
  0
VERTEX
  5
9FDC
  8
0
 10
229.1066309799136
 20
202.0318702158387
 30
0.0
  0
VERTEX
  5
9FDD
  8
0
 10
229.1071424422916
 20
202.032174748379
 30
0.0
  0
VERTEX
  5
9FDE
  8
0
 10
229.1078444562529
 20
202.0325924911825
 30
0.0
  0
VERTEX
  5
9FDF
  8
0
 10
229.1087438272109
 20
202.0331274874726
 30
0.0
  0
VERTEX
  5
9FE0
  8
0
 10
229.1098473605795
 20
202.0337837804732
 30
0.0
  0
VERTEX
  5
9FE1
  8
0
 10
229.1111604414923
 20
202.0345645695929
 30
0.0
  0
SEQEND
  5
A00A
  8
0
  0
LINE
  5
7621
  8
0
 10
199.1103318512482
 20
290.0161294937138
 30
0.0
 11
195.1103320105044
 21
290.0161294937138
 31
0.0
  0
LINE
  5
7622
  8
0
 10
195.1103320105044
 20
290.0161294937138
 30
0.0
 11
195.1103320105044
 21
282.0161319077019
 31
0.0
  0
LINE
  5
7623
  8
0
 10
199.1103318512482
 20
290.0161294937138
 30
0.0
 11
199.1103318512482
 21
282.0161319077019
 31
0.0
  0
LINE
  5
7624
  8
0
 10
195.1103320105044
 20
282.0161319077019
 30
0.0
 11
195.1103320105044
 21
178.0161297619347
 31
0.0
  0
LINE
  5
7625
  8
0
 10
199.1103318512482
 20
282.0161319077019
 30
0.0
 11
199.1103318512482
 21
178.0161297619347
 31
0.0
  0
LINE
  5
7626
  8
0
 10
199.1103318512482
 20
170.0161321759228
 30
0.0
 11
195.1103320105044
 21
170.0161321759228
 31
0.0
  0
LINE
  5
7627
  8
0
 10
195.1103320105044
 20
178.0161297619347
 30
0.0
 11
195.1103320105044
 21
170.0161321759228
 31
0.0
  0
LINE
  5
7628
  8
0
 10
199.1103318512482
 20
178.0161297619347
 30
0.0
 11
199.1103318512482
 21
170.0161321759228
 31
0.0
  0
LINE
  5
7629
  8
0
 10
195.1103320105044
 20
171.1161321699624
 30
0.0
 11
194.6103319285507
 21
171.1161321699623
 31
0.0
  0
LINE
  5
762A
  8
0
 10
195.1103320105044
 20
288.9161294996743
 30
0.0
 11
194.6103319285509
 21
288.9161294996743
 31
0.0
  0
LINE
  5
762B
  8
0
 10
201.6103317953689
 20
263.0161306560044
 30
0.0
 11
201.6103317953689
 21
197.0161310136323
 31
0.0
  0
LINE
  5
762C
  8
0
 10
201.6103317953689
 20
195.0161306858067
 30
0.0
 11
199.1103318512482
 21
195.0161306858067
 31
0.0
  0
LINE
  5
762D
  8
0
 10
201.6103317953689
 20
197.0161310136323
 30
0.0
 11
201.6103317953689
 21
195.0161306858067
 31
0.0
  0
LINE
  5
762E
  8
0
 10
199.1103318512482
 20
265.01613098383
 30
0.0
 11
201.6103317953689
 21
265.01613098383
 31
0.0
  0
LINE
  5
762F
  8
0
 10
201.6103317953689
 20
265.01613098383
 30
0.0
 11
201.6103317953689
 21
263.0161306560044
 31
0.0
  0
LINE
  5
7630
  8
0
 10
201.6103317953689
 20
263.0161306560044
 30
0.0
 11
201.6103317953689
 21
197.0161310136323
 31
0.0
  0
LINE
  5
7631
  8
7
 10
12.72785615177395
 20
229.8911315128204
 30
0.0
 11
138.3158561517739
 21
229.8911315128201
 31
0.0
1001
GENIUS_GENOBJ-N-CEN_13
1002
{
1000
OWNER
1000
GEN
1002
}
1001
GENIUS_GENODEF_13
1002
{
1000
HIER
1070
     0
1002
}
1002
{
1000
MANEDIT
1070
     0
1002
}
1002
{
1000
NOSEL
1070
     0
1002
}
1002
{
1000
BEHIND
1070
     0
1002
}
1002
{
1000
OTHER
1070
     0
1002
}
1002
{
1000
REACTOR
1002
}
1001
GENIUS_GENCEN_19
1002
{
1040
2.794
1002
}
  0
LINE
  5
7632
  8
7
 10
75.52185615177405
 20
294.6851315128205
 30
0.0
 11
75.52185615177405
 21
165.0971315128203
 31
0.0
1001
GENIUS_GENOBJ-N-CEN_13
1002
{
1000
OWNER
1000
GEN
1002
}
1001
GENIUS_GENODEF_13
1002
{
1000
HIER
1070
     0
1002
}
1002
{
1000
MANEDIT
1070
     0
1002
}
1002
{
1000
NOSEL
1070
     0
1002
}
1002
{
1000
BEHIND
1070
     0
1002
}
1002
{
1000
OTHER
1070
     0
1002
}
1002
{
1000
REACTOR
1002
}
1001
GENIUS_GENCEN_19
1002
{
1040
2.794
1002
}
  0
LINE
  5
7633
  8
7
 10
235.1103317283137
 20
230.0161308348183
 30
0.0
 11
184.1103319285509
 21
230.0161308348183
 31
0.0
1001
GENIUS_GENOBJ-N-CEN_13
1002
{
1000
OWNER
1000
GEN
1002
}
1001
GENIUS_GENODEF_13
1002
{
1000
HIER
1070
     0
1002
}
1002
{
1000
MANEDIT
1070
     0
1002
}
1002
{
1000
NOSEL
1070
     0
1002
}
1002
{
1000
BEHIND
1070
     0
1002
}
1002
{
1000
OTHER
1070
     0
1002
}
1002
{
1000
REACTOR
1002
}
1001
GENIUS_GENCEN_19
1002
{
1040
2.794
1002
}
  0
LINE
  5
7634
  8
7
 10
75.5218561517741
 20
104.5475008770454
 30
0.0
 11
75.5218561517741
 21
155.5475006768082
 31
0.0
1001
GENIUS_GENOBJ-N-CEN_13
1002
{
1000
OWNER
1000
GEN
1002
}
1001
GENIUS_GENODEF_13
1002
{
1000
HIER
1070
     0
1002
}
1002
{
1000
MANEDIT
1070
     0
1002
}
1002
{
1000
NOSEL
1070
     0
1002
}
1002
{
1000
BEHIND
1070
     0
1002
}
1002
{
1000
OTHER
1070
     0
1002
}
1002
{
1000
REACTOR
1002
}
1001
GENIUS_GENCEN_19
1002
{
1040
2.794
1002
}
  0
LINE
  5
7635
  8
0
 10
48.59898190247424
 20
110.5792548616795
 30
0.0
 11
48.40028246517483
 21
109.6934503003586
 31
0.0
  0
LINE
  5
7636
  8
0
 10
50.02185662861172
 20
109.5475008770454
 30
0.0
 11
50.02185662861172
 21
109.6246106609333
 31
0.0
  0
ARC
  5
7637
  8
0
 10
49.99817736882898
 20
109.6234209730335
 30
0.0
 40
0.0237091269589662
 50
2.876222857360645
 51
43.43589811605125
  0
ARC
  5
7638
  8
0
 10
49.93341644773989
 20
109.5593556017736
 30
0.0
 40
0.1147998884239122
 50
44.4315358257498
 51
70.88950362693386
  0
ARC
  5
7639
  8
0
 10
49.8291680833762
 20
109.2891243030092
 30
0.0
 40
0.4043928833089286
 50
69.46801332213798
 51
91.03603616465674
  0
LINE
  5
763A
  8
0
 10
48.59898199911419
 20
110.5792535528171
 30
0.0
 11
48.52185615177456
 21
110.6274395296621
 31
0.0
  0
LINE
  5
763B
  8
0
 10
48.52185615177456
 20
110.6274395296621
 30
0.0
 11
48.52185615177456
 21
110.9190735734853
 31
0.0
  0
LINE
  5
763C
  8
0
 10
38.91496320839229
 20
118.9543953224647
 30
0.0
 11
38.73607104296985
 21
119.1332874878872
 31
0.0
  0
ARC
  5
763D
  8
0
 10
228.1103317283137
 20
256.2661303430801
 30
0.0
 40
2.0
 50
0.0
 51
90.0
  0
LINE
  5
826A
  8
0
 10
38.27185615177405
 20
264.9911315128203
 30
0.0
 11
112.771856151774
 21
264.9911315128203
 31
0.0
  0
LINE
  5
826B
  8
0
 10
38.27185615177405
 20
194.7911315128203
 30
0.0
 11
112.771856151774
 21
194.7911315128203
 31
0.0
  0
LINE
  5
826D
  8
0
 10
38.27185615177405
 20
264.9911315128203
 30
0.0
 11
38.27185615177405
 21
194.7911315128203
 31
0.0
  0
LINE
  5
8271
  8
0
 10
112.771856151774
 20
264.9911315128203
 30
0.0
 11
112.771856151774
 21
194.7911315128203
 31
0.0
  0
LINE
  5
8278
  8
0
 10
112.0218556153322
 20
195.3911323770876
 30
0.0
 11
112.0218556153322
 21
264.3911306485529
 31
0.0
  0
LINE
  5
8279
  8
0
 10
39.02185668821585
 20
195.3911323770876
 30
0.0
 11
112.0218556153322
 21
195.3911323770876
 31
0.0
  0
LINE
  5
827A
  8
0
 10
39.02185668821585
 20
264.3911306485529
 30
0.0
 11
39.02185668821585
 21
195.3911323770876
 31
0.0
  0
LINE
  5
827B
  8
0
 10
112.0218556153322
 20
264.3911306485529
 30
0.0
 11
39.02185668821585
 21
264.3911306485529
 31
0.0
  0
LINE
  5
827C
  8
0
 10
40.52185600276243
 20
196.8911316916342
 30
0.0
 11
110.5218563007857
 21
196.8911316916342
 31
0.0
  0
LINE
  5
827D
  8
0
 10
110.5218563007857
 20
196.8911316916342
 30
0.0
 11
110.5218563007857
 21
262.8911313340063
 31
0.0
  0
LINE
  5
827E
  8
0
 10
110.5218563007857
 20
262.8911313340063
 30
0.0
 11
65.52185637529146
 21
262.8911313340063
 31
0.0
  0
LINE
  5
827F
  8
0
 10
40.52185600276243
 20
250.8911312296982
 30
0.0
 11
65.52185637529146
 21
250.8911312296982
 31
0.0
  0
LINE
  5
8280
  8
0
 10
40.52185600276243
 20
250.8911312296982
 30
0.0
 11
40.52185600276243
 21
196.8911316916342
 31
0.0
  0
LINE
  5
8281
  8
0
 10
47.32185562725317
 20
253.191131047904
 30
0.0
 11
57.32185540373575
 21
253.191131047904
 31
0.0
  0
LINE
  5
8282
  8
0
 10
57.32185540373575
 20
253.191131047904
 30
0.0
 11
57.32185540373575
 21
261.1911323592062
 31
0.0
  0
LINE
  5
8283
  8
0
 10
57.32185540373575
 20
261.1911323592062
 30
0.0
 11
47.32185562725317
 21
261.1911323592062
 31
0.0
  0
LINE
  5
8284
  8
0
 10
47.32185562725317
 20
261.1911323592062
 30
0.0
 11
47.32185562725317
 21
253.191131047904
 31
0.0
  0
LINE
  5
8285
  8
0
 10
65.52185637529146
 20
250.8911312296982
 30
0.0
 11
65.52185637529146
 21
262.8911313340063
 31
0.0
  0
LINE
  5
8286
  8
0
 10
112.5218566286112
 20
194.8911313638087
 30
0.0
 11
112.5218566286112
 21
264.8911316618319
 31
0.0
  0
LINE
  5
8287
  8
0
 10
38.52185567493689
 20
194.8911313638087
 30
0.0
 11
112.5218566286112
 21
194.8911313638087
 31
0.0
  0
LINE
  5
8288
  8
0
 10
38.52185567493689
 20
264.8911316618319
 30
0.0
 11
38.52185567493689
 21
194.8911313638087
 31
0.0
  0
LINE
  5
8289
  8
0
 10
112.5218566286112
 20
264.8911316618319
 30
0.0
 11
38.52185567493689
 21
264.8911316618319
 31
0.0
  0
ARC
  5
828A
  8
0
 10
48.72185551549444
 20
259.691131047904
 30
0.0
 40
1.0
 50
90.0
 51
180.0
  0
ARC
  5
828B
  8
0
 10
53.72185551549444
 20
259.691131047904
 30
0.0
 40
1.0
 50
0.0
 51
90.0
  0
LINE
  5
828C
  8
0
 10
48.72185551549444
 20
260.691131047904
 30
0.0
 11
53.72185551549444
 21
260.691131047904
 31
0.0
  0
LINE
  5
828D
  8
0
 10
53.72185551549444
 20
253.6911310479042
 30
0.0
 11
48.72185551549444
 21
253.691131047904
 31
0.0
  0
ARC
  5
828E
  8
0
 10
48.72185551549444
 20
254.691131047904
 30
0.0
 40
1.0
 50
180.0
 51
270.0000000000016
  0
ARC
  5
828F
  8
0
 10
53.72185551549444
 20
254.6911310479042
 30
0.0
 40
1.0
 50
270.0
 51
0.0
  0
LINE
  5
8290
  8
0
 10
52.72185551549444
 20
253.6911310479042
 30
0.0
 11
52.72185551549444
 21
260.691131047904
 31
0.0
  0
LINE
  5
8291
  8
0
 10
51.72185551549444
 20
253.691131047904
 30
0.0
 11
51.72185551549444
 21
260.691131047904
 31
0.0
  0
LINE
  5
8292
  8
0
 10
50.72185551549444
 20
253.6911310479039
 30
0.0
 11
50.72185551549444
 21
260.691131047904
 31
0.0
  0
LINE
  5
8293
  8
0
 10
49.72185551549444
 20
253.6911310479039
 30
0.0
 11
49.72185551549444
 21
260.691131047904
 31
0.0
  0
LINE
  5
8294
  8
0
 10
47.72185551549444
 20
254.691131047904
 30
0.0
 11
47.72185551549444
 21
259.691131047904
 31
0.0
  0
LINE
  5
8295
  8
0
 10
54.72185551549444
 20
259.691131047904
 30
0.0
 11
54.72185551549444
 21
254.6911310479042
 31
0.0
  0
LINE
  5
8296
  8
0
 10
65.77185637529146
 20
262.6411315128204
 30
0.0
 11
110.2718561517741
 21
262.6411315128203
 31
0.0
  0
LINE
  5
8297
  8
0
 10
110.2718561517741
 20
262.6411315128203
 30
0.0
 11
110.2718561517741
 21
197.1411315128202
 31
0.0
  0
LINE
  5
8298
  8
0
 10
40.77185615177405
 20
197.1411315128204
 30
0.0
 11
40.77185615177405
 21
250.6411312296982
 31
0.0
  0
LINE
  5
8299
  8
0
 10
110.2718561517741
 20
197.1411315128202
 30
0.0
 11
40.77185615177405
 21
197.1411315128204
 31
0.0
  0
LINE
  5
829A
  8
0
  6
CONTINUOUS
 10
65.77185637529146
 20
250.6411312296982
 30
0.0
 11
65.77185637529146
 21
262.6411315128204
 31
0.0
  0
LINE
  5
829B
  8
0
  6
CONTINUOUS
 10
40.77185615177405
 20
250.6411312296982
 30
0.0
 11
65.77185637529146
 21
250.6411312296982
 31
0.0
  0
INSERT
  5
829C
  8
0
 62
     7
  2
*X9
 10
0.0
 20
0.0
 30
0.0
  0
TEXT
  5
829D
  8
0
 62
     7
 10
89.3430064300672
 20
207.9715273075019
 30
0.0
 40
4.0
  1
PUSH
 41
1.2
  0
TEXT
  5
829E
  8
0
 62
     7
 10
49.75042694406589
 20
246.2980269982874
 30
0.0
 40
2.0
  1
電源
  0
LINE
  5
82A0
  8
0
 10
41.77185615177405
 20
217.1012396201255
 30
0.0
 11
41.77185615177405
 21
219.6387396201261
 31
0.0
  0
LINE
  5
82A1
  8
0
 10
43.87435615177401
 20
217.1012396201255
 30
0.0
 11
43.87435615177401
 21
219.6387396201261
 31
0.0
  0
LINE
  5
82A2
  8
0
 10
44.09185615177421
 20
217.1012396201255
 30
0.0
 11
44.09185615177421
 21
219.6387396201261
 31
0.0
  0
LINE
  5
82A3
  8
0
 10
41.77185615177405
 20
217.1012396201255
 30
0.0
 11
42.56935615177417
 21
217.1012396201255
 31
0.0
  0
LINE
  5
82A4
  8
0
 10
41.77185615177405
 20
219.6387396201261
 30
0.0
 11
42.56935615177417
 21
219.6387396201261
 31
0.0
  0
LINE
  5
82A5
  8
0
 10
42.56935615177417
 20
219.6387396201261
 30
0.0
 11
42.56935615177417
 21
218.768739620126
 31
0.0
  0
LINE
  5
82A6
  8
0
 10
43.07685615177388
 20
219.6387396201261
 30
0.0
 11
43.07685615177388
 21
218.768739620126
 31
0.0
  0
LINE
  5
82A7
  8
0
 10
42.56935615177417
 20
217.1012396201255
 30
0.0
 11
42.56935615177417
 21
217.9712396201254
 31
0.0
  0
LINE
  5
82A8
  8
0
 10
43.07685615177388
 20
217.1012396201255
 30
0.0
 11
43.07685615177388
 21
217.9712396201254
 31
0.0
  0
LINE
  5
82A9
  8
0
 10
43.07685615177388
 20
219.6387396201261
 30
0.0
 11
43.87435615177401
 21
219.6387396201261
 31
0.0
  0
LINE
  5
82AA
  8
0
 10
43.07685615177388
 20
217.1012396201255
 30
0.0
 11
43.87435615177401
 21
217.1012396201255
 31
0.0
  0
LINE
  5
82AB
  8
0
 10
42.56935615177417
 20
218.768739620126
 30
0.0
 11
43.07685615177388
 21
218.768739620126
 31
0.0
  0
LINE
  5
82AC
  8
0
 10
42.56935615177417
 20
217.9712396201254
 30
0.0
 11
43.07685615177388
 21
217.9712396201254
 31
0.0
  0
LINE
  5
82AD
  8
0
 10
44.88935615177388
 20
217.1012396201255
 30
0.0
 11
44.88935615177388
 21
219.6387396201261
 31
0.0
  0
LINE
  5
82AE
  8
0
 10
45.10685615177408
 20
217.1012396201255
 30
0.0
 11
45.10685615177408
 21
219.6387396201261
 31
0.0
  0
LINE
  5
82AF
  8
0
 10
44.09185615177421
 20
219.6387396201261
 30
0.0
 11
44.88935615177388
 21
219.6387396201261
 31
0.0
  0
LINE
  5
82B0
  8
0
 10
44.09185615177421
 20
217.1012396201255
 30
0.0
 11
44.88935615177388
 21
217.1012396201255
 31
0.0
  0
LINE
  5
82B1
  8
0
 10
47.20935615177405
 20
217.1012396201255
 30
0.0
 11
47.20935615177405
 21
217.6812396201254
 31
0.0
  0
LINE
  5
82B2
  8
0
 10
47.20935615177405
 20
219.0587396201262
 30
0.0
 11
47.20935615177405
 21
219.6387396201261
 31
0.0
  0
LINE
  5
82B3
  8
0
 10
45.10685615177408
 20
217.1012396201255
 30
0.0
 11
45.90435615177421
 21
217.1012396201255
 31
0.0
  0
LINE
  5
82B4
  8
0
 10
45.10685615177408
 20
219.6387396201261
 30
0.0
 11
45.90435615177421
 21
219.6387396201261
 31
0.0
  0
LINE
  5
82B5
  8
0
 10
45.90435615177421
 20
219.6387396201261
 30
0.0
 11
45.90435615177421
 21
218.768739620126
 31
0.0
  0
LINE
  5
82B6
  8
0
 10
46.41185615177392
 20
219.6387396201261
 30
0.0
 11
46.41185615177392
 21
219.0587396201262
 31
0.0
  0
LINE
  5
82B7
  8
0
 10
45.90435615177421
 20
217.1012396201255
 30
0.0
 11
45.90435615177421
 21
217.9712396201254
 31
0.0
  0
LINE
  5
82B8
  8
0
 10
46.41185615177392
 20
217.1012396201255
 30
0.0
 11
46.41185615177392
 21
217.6812396201254
 31
0.0
  0
ARC
  5
82B9
  8
0
 10
46.12185615177395
 20
217.6812396201254
 30
0.0
 40
0.29
 50
0.0
 51
90.0
  0
ARC
  5
82BA
  8
0
 10
46.12185615177395
 20
217.6812396201254
 30
0.0
 40
1.0875
 50
0.0
 51
39.29648023918966
  0
LINE
  5
82BB
  8
0
 10
46.41185615177392
 20
219.6387396201261
 30
0.0
 11
47.20935615177405
 21
219.6387396201261
 31
0.0
  0
LINE
  5
82BC
  8
0
 10
46.41185615177392
 20
217.1012396201255
 30
0.0
 11
47.20935615177405
 21
217.1012396201255
 31
0.0
  0
LINE
  5
82BD
  8
0
 10
45.90435615177421
 20
218.768739620126
 30
0.0
 11
46.12185615177395
 21
218.768739620126
 31
0.0
  0
ARC
  5
82BE
  8
0
 10
46.12185615177395
 20
219.0587396201262
 30
0.0
 40
0.29
 50
270.0
 51
0.0
  0
ARC
  5
82BF
  8
0
 10
46.12185615177395
 20
219.0587396201262
 30
0.0
 40
1.0875
 50
320.7035197608199
 51
0.0
  0
LINE
  5
82C0
  8
0
 10
45.90435615177421
 20
217.9712396201254
 30
0.0
 11
46.12185615177395
 21
217.9712396201254
 31
0.0
  0
LINE
  5
82C1
  8
0
 10
47.42685615177425
 20
217.1012396201255
 30
0.0
 11
47.42685615177425
 21
218.5874896201254
 31
0.0
  0
LINE
  5
82C2
  8
0
 10
49.52935615177421
 20
217.1012396201255
 30
0.0
 11
49.52935615177421
 21
218.5874896201254
 31
0.0
  0
LINE
  5
82C3
  8
0
 10
47.42685615177425
 20
217.1012396201255
 30
0.0
 11
48.22435615177392
 21
217.1012396201255
 31
0.0
  0
LINE
  5
82C4
  8
0
 10
48.22435615177392
 20
217.1012396201255
 30
0.0
 11
48.22435615177392
 21
217.6087396201252
 31
0.0
  0
LINE
  5
82C5
  8
0
 10
48.73185615177408
 20
217.1012396201255
 30
0.0
 11
48.73185615177408
 21
217.6087396201252
 31
0.0
  0
LINE
  5
82C6
  8
0
 10
48.73185615177408
 20
217.1012396201255
 30
0.0
 11
49.52935615177421
 21
217.1012396201255
 31
0.0
  0
LINE
  5
82C7
  8
0
 10
48.22435615177392
 20
217.6087396201252
 30
0.0
 11
48.73185615177408
 21
217.6087396201252
 31
0.0
  0
LINE
  5
82C8
  8
0
 10
48.22435615177392
 20
218.3337396201256
 30
0.0
 11
48.73185615177408
 21
218.3337396201256
 31
0.0
  0
ARC
  5
82C9
  8
0
 10
48.47810615177423
 20
218.5874896201254
 30
0.0
 40
1.05125
 50
0.0
 51
180.0
  0
ARC
  5
82CA
  8
0
 10
48.47810615177423
 20
218.5874896201254
 30
0.0
 40
0.25375
 50
0.0
 51
180.0
  0
LINE
  5
82CB
  8
0
 10
48.22435615177392
 20
218.3337396201256
 30
0.0
 11
48.22435615177392
 21
218.5874896201254
 31
0.0
  0
LINE
  5
82CC
  8
0
 10
48.73185615177408
 20
218.5874896201254
 30
0.0
 11
48.73185615177408
 21
218.3337396201256
 31
0.0
  0
LINE
  5
82CD
  8
0
 10
49.74685615177395
 20
217.1012396201255
 30
0.0
 11
49.74685615177395
 21
219.6387396201261
 31
0.0
  0
LINE
  5
82CE
  8
0
 10
51.84935615177392
 20
217.1012396201255
 30
0.0
 11
51.84935615177392
 21
217.6812396201254
 31
0.0
  0
LINE
  5
82CF
  8
0
 10
49.74685615177395
 20
217.1012396201255
 30
0.0
 11
50.54435615177408
 21
217.1012396201255
 31
0.0
  0
LINE
  5
82D0
  8
0
 10
50.68935615177406
 20
217.8987396201256
 30
0.0
 11
50.83435615177405
 21
217.8987396201256
 31
0.0
  0
LINE
  5
82D1
  8
0
 10
50.68935615177406
 20
218.478739620126
 30
0.0
 11
50.83435615177405
 21
218.478739620126
 31
0.0
  0
LINE
  5
82D2
  8
0
 10
50.54435615177408
 20
217.1012396201255
 30
0.0
 11
50.54435615177408
 21
218.9137396201257
 31
0.0
  0
LINE
  5
82D3
  8
0
 10
51.05185615177425
 20
217.1012396201255
 30
0.0
 11
51.05185615177425
 21
217.6812396201254
 31
0.0
  0
ARC
  5
82D4
  8
0
 10
50.83435615177405
 20
217.6812396201254
 30
0.0
 40
0.2175
 50
0.0
 51
90.0
  0
ARC
  5
82D5
  8
0
 10
50.83435615177405
 20
217.6812396201254
 30
0.0
 40
1.015
 50
0.0
 51
30.66296328368307
  0
LINE
  5
82D6
  8
0
 10
49.74685615177395
 20
219.6387396201261
 30
0.0
 11
50.90685615177381
 21
219.6387396201261
 31
0.0
  0
LINE
  5
82D7
  8
0
 10
50.54435615177408
 20
218.9137396201257
 30
0.0
 11
50.83435615177405
 21
218.9137396201257
 31
0.0
  0
LINE
  5
82D8
  8
0
 10
51.05185615177425
 20
217.1012396201255
 30
0.0
 11
51.84935615177392
 21
217.1012396201255
 31
0.0
  0
ARC
  5
82D9
  8
0
 10
50.83435615177405
 20
218.6962396201258
 30
0.0
 40
0.2175
 50
270.0
 51
90.0
  0
ARC
  5
82DA
  8
0
 10
50.90685615177381
 20
218.6962396201258
 30
0.0
 40
0.9425
 50
328.1493895340805
 51
90.0
  0
LINE
  5
82DB
  8
0
 10
50.68935615177406
 20
218.478739620126
 30
0.0
 11
50.68935615177406
 21
217.8987396201256
 31
0.0
  0
LINE
  5
82DC
  8
0
 10
52.06685615177412
 20
217.1012396201255
 30
0.0
 11
52.06685615177412
 21
219.6387396201261
 31
0.0
  0
LINE
  5
82DD
  8
0
 10
52.86435615177425
 20
217.1012396201255
 30
0.0
 11
52.86435615177425
 21
219.6387396201261
 31
0.0
  0
LINE
  5
82DE
  8
0
 10
55.76435615177388
 20
217.1374896201256
 30
0.0
 11
55.76435615177388
 21
218.5874896201254
 31
0.0
  0
LINE
  5
82DF
  8
0
 10
52.06685615177412
 20
219.6387396201261
 30
0.0
 11
52.86435615177425
 21
219.6387396201261
 31
0.0
  0
LINE
  5
82E0
  8
0
 10
52.06685615177412
 20
217.1012396201255
 30
0.0
 11
52.86435615177425
 21
217.1012396201255
 31
0.0
  0
ARC
  5
82E1
  8
0
 10
55.03935615177397
 20
218.3699896201257
 30
0.0
 40
1.305
 50
84.27518954777628
 51
281.4211862750073
  0
ARC
  5
82E2
  8
0
 10
55.03935615177397
 20
218.3699896201257
 30
0.0
 40
0.5075000000000001
 50
84.27518954777645
 51
270.0
  0
CIRCLE
  5
82E3
  8
0
 10
57.28685615177392
 20
218.3699896201257
 30
0.0
 40
1.305
  0
CIRCLE
  5
82E4
  8
0
 10
57.28685615177392
 20
218.3699896201257
 30
0.0
 40
0.5075000000000001
  0
LINE
  5
82E5
  8
0
 10
55.03935615177397
 20
217.862489620126
 30
0.0
 11
55.03935615177397
 21
218.5874896201254
 31
0.0
  0
LINE
  5
82E6
  8
0
 10
55.03935615177397
 20
218.5874896201254
 30
0.0
 11
55.76435615177388
 21
218.5874896201254
 31
0.0
  0
LINE
  5
82E7
  8
0
 10
55.29777199335831
 20
217.0908312042844
 30
0.0
 11
55.76435615177388
 21
217.1374896201256
 31
0.0
  0
LINE
  5
82E8
  8
0
 10
55.169530715365
 20
219.6684808919462
 30
0.0
 11
55.76435615177388
 21
219.6387396201261
 31
0.0
  0
LINE
  5
82E9
  8
0
 10
55.76435615177388
 20
219.6387396201261
 30
0.0
 11
55.76435615177388
 21
218.8412396201255
 31
0.0
  0
LINE
  5
82EA
  8
0
 10
55.76435615177388
 20
218.8412396201255
 30
0.0
 11
55.08997959317048
 21
218.8749584480564
 31
0.0
  0
LINE
  5
82EB
  8
0
 10
58.80935615177395
 20
217.1012396201255
 30
0.0
 11
58.80935615177395
 21
219.6387396201261
 31
0.0
  0
LINE
  5
82EC
  8
0
 10
60.91185615177392
 20
217.1012396201255
 30
0.0
 11
60.91185615177392
 21
217.6812396201254
 31
0.0
  0
LINE
  5
82ED
  8
0
 10
60.91185615177392
 20
219.0587396201262
 30
0.0
 11
60.91185615177392
 21
219.6387396201261
 31
0.0
  0
LINE
  5
82EE
  8
0
 10
58.80935615177395
 20
217.1012396201255
 30
0.0
 11
59.60685615177408
 21
217.1012396201255
 31
0.0
  0
LINE
  5
82EF
  8
0
 10
58.80935615177395
 20
219.6387396201261
 30
0.0
 11
59.60685615177408
 21
219.6387396201261
 31
0.0
  0
LINE
  5
82F0
  8
0
 10
59.60685615177408
 20
219.6387396201261
 30
0.0
 11
59.60685615177408
 21
218.768739620126
 31
0.0
  0
LINE
  5
82F1
  8
0
 10
60.11435615177425
 20
219.6387396201261
 30
0.0
 11
60.11435615177425
 21
219.0587396201262
 31
0.0
  0
LINE
  5
82F2
  8
0
 10
59.60685615177408
 20
217.1012396201255
 30
0.0
 11
59.60685615177408
 21
217.9712396201254
 31
0.0
  0
LINE
  5
82F3
  8
0
 10
60.11435615177425
 20
217.1012396201255
 30
0.0
 11
60.11435615177425
 21
217.6812396201254
 31
0.0
  0
ARC
  5
82F4
  8
0
 10
59.82435615177383
 20
217.6812396201254
 30
0.0
 40
0.29
 50
0.0
 51
90.0
  0
ARC
  5
82F5
  8
0
 10
59.82435615177383
 20
217.6812396201254
 30
0.0
 40
1.0875
 50
0.0
 51
39.29648023918966
  0
LINE
  5
82F6
  8
0
 10
60.11435615177425
 20
219.6387396201261
 30
0.0
 11
60.91185615177392
 21
219.6387396201261
 31
0.0
  0
LINE
  5
82F7
  8
0
 10
60.11435615177425
 20
217.1012396201255
 30
0.0
 11
60.91185615177392
 21
217.1012396201255
 31
0.0
  0
LINE
  5
82F8
  8
0
 10
59.60685615177408
 20
218.768739620126
 30
0.0
 11
59.82435615177383
 21
218.768739620126
 31
0.0
  0
ARC
  5
82F9
  8
0
 10
59.82435615177383
 20
219.0587396201262
 30
0.0
 40
0.29
 50
270.0
 51
0.0
  0
ARC
  5
82FA
  8
0
 10
59.82435615177383
 20
219.0587396201262
 30
0.0
 40
1.0875
 50
320.7035197608199
 51
0.0
  0
LINE
  5
82FB
  8
0
 10
59.60685615177408
 20
217.9712396201254
 30
0.0
 11
59.82435615177383
 21
217.9712396201254
 31
0.0
  0
LINE
  5
82FC
  8
0
 10
61.12935615177412
 20
217.1012396201255
 30
0.0
 11
61.12935615177412
 21
219.6387396201261
 31
0.0
  0
LINE
  5
82FD
  8
0
 10
61.92685615177425
 20
217.1012396201255
 30
0.0
 11
61.92685615177425
 21
219.6387396201261
 31
0.0
  0
LINE
  5
82FE
  8
0
 10
61.12935615177412
 20
219.6387396201261
 30
0.0
 11
61.92685615177425
 21
219.6387396201261
 31
0.0
  0
LINE
  5
82FF
  8
0
 10
61.12935615177412
 20
217.1012396201255
 30
0.0
 11
61.92685615177425
 21
217.1012396201255
 31
0.0
  0
LINE
  5
8300
  8
0
 10
62.14435615177399
 20
217.1012396201255
 30
0.0
 11
62.14435615177399
 21
218.5874896201254
 31
0.0
  0
LINE
  5
8301
  8
0
 10
64.24685615177395
 20
217.1012396201255
 30
0.0
 11
64.24685615177395
 21
218.5874896201254
 31
0.0
  0
LINE
  5
8302
  8
0
 10
62.14435615177399
 20
217.1012396201255
 30
0.0
 11
62.94185615177412
 21
217.1012396201255
 31
0.0
  0
LINE
  5
8303
  8
0
 10
62.94185615177412
 20
217.1012396201255
 30
0.0
 11
62.94185615177412
 21
218.5874896201254
 31
0.0
  0
LINE
  5
8304
  8
0
 10
63.44935615177383
 20
217.1012396201255
 30
0.0
 11
63.44935615177383
 21
218.5874896201254
 31
0.0
  0
LINE
  5
8305
  8
0
 10
63.44935615177383
 20
217.1012396201255
 30
0.0
 11
64.24685615177395
 21
217.1012396201255
 31
0.0
  0
ARC
  5
8306
  8
0
 10
63.19560615177397
 20
218.5874896201254
 30
0.0
 40
1.05125
 50
0.0
 51
180.0
  0
ARC
  5
8307
  8
0
 10
63.19560615177397
 20
218.5874896201254
 30
0.0
 40
0.25375
 50
0.0
 51
180.0
  0
CIRCLE
  5
8308
  8
0
 10
95.52185615177407
 20
209.8911315128204
 30
0.0
 40
8.25
  0
LINE
  5
8309
  8
0
 10
68.27185615177365
 20
203.8911315128198
 30
0.0
 11
68.27185615177365
 21
215.8911315128203
 31
0.0
  0
ARC
  5
830A
  8
0
 10
70.27185615177365
 20
203.8911315128198
 30
0.0
 40
2.0
 50
180.0
 51
270.0
1001
GENIUS_GENOBJ-N-FIL_13
1002
{
1000
OWNER
1000
GEN
1002
}
1001
GENIUS_GENODEF_13
1002
{
1000
HIER
1070
     0
1002
}
1002
{
1000
MANEDIT
1070
     0
1002
}
1002
{
1000
NOSEL
1070
     0
1002
}
1002
{
1000
BEHIND
1070
     0
1002
}
1002
{
1000
OTHER
1070
     0
1002
}
1002
{
1000
REACTOR
1002
}
  0
LINE
  5
830B
  8
0
 10
86.27185615177274
 20
203.8911315128198
 30
0.0
 11
86.27185615177274
 21
215.8911315128194
 31
0.0
  0
ARC
  5
830C
  8
0
 10
84.27185615177274
 20
215.8911315128194
 30
0.0
 40
2.0
 50
0.0
 51
90.0
1001
GENIUS_GENODEF_13
1002
{
1000
HIER
1070
     0
1002
}
1002
{
1000
MANEDIT
1070
     0
1002
}
1002
{
1000
NOSEL
1070
     0
1002
}
1002
{
1000
BEHIND
1070
     0
1002
}
1002
{
1000
OTHER
1070
     0
1002
}
1002
{
1000
REACTOR
1002
}
1001
GENIUS_GENOBJ-N-FIL_13
1002
{
1000
OWNER
1000
GEN
1002
}
  0
LINE
  5
830D
  8
0
 10
86.27185615177274
 20
209.3911315128198
 30
0.0
 11
86.24963589325972
 21
209.3911315128198
 31
0.0
  0
LINE
  5
830E
  8
0
 10
84.82185615177315
 20
209.5411315128197
 30
0.0
 11
69.72185615177324
 21
209.5411315128197
 31
0.0
  0
LINE
  5
830F
  8
0
 10
86.27185615177274
 20
210.3911315128198
 30
0.0
 11
86.24963589325972
 21
210.3911315128198
 31
0.0
  0
LINE
  5
8310
  8
0
 10
84.82185615177315
 20
210.2411315128197
 30
0.0
 11
69.72185615177324
 21
210.2411315128197
 31
0.0
  0
CIRCLE
  5
8311
  8
0
 10
77.47346969118877
 20
213.8911315128203
 30
0.0
 40
2.0
  0
LINE
  5
8312
  8
0
 10
84.27185615177274
 20
217.8911315128194
 30
0.0
 11
70.27185615177365
 21
217.8911315128203
 31
0.0
  0
ARC
  5
8313
  8
0
 10
70.27185615177365
 20
215.8911315128203
 30
0.0
 40
2.0
 50
90.0
 51
180.0
1001
GENIUS_GENOBJ-N-FIL_13
1002
{
1000
OWNER
1000
GEN
1002
}
1001
GENIUS_GENODEF_13
1002
{
1000
HIER
1070
     0
1002
}
1002
{
1000
MANEDIT
1070
     0
1002
}
1002
{
1000
NOSEL
1070
     0
1002
}
1002
{
1000
BEHIND
1070
     0
1002
}
1002
{
1000
OTHER
1070
     0
1002
}
1002
{
1000
REACTOR
1002
}
  0
LINE
  5
8314
  8
0
 10
84.27185615177274
 20
201.8911315128198
 30
0.0
 11
70.27185615177365
 21
201.8911315128198
 31
0.0
  0
ARC
  5
8315
  8
0
 10
84.27185615177274
 20
203.8911315128198
 30
0.0
 40
2.0
 50
270.0
 51
0.0
1001
GENIUS_GENODEF_13
1002
{
1000
HIER
1070
     0
1002
}
1002
{
1000
MANEDIT
1070
     0
1002
}
1002
{
1000
NOSEL
1070
     0
1002
}
1002
{
1000
BEHIND
1070
     0
1002
}
1002
{
1000
OTHER
1070
     0
1002
}
1002
{
1000
REACTOR
1002
}
1001
GENIUS_GENOBJ-N-FIL_13
1002
{
1000
OWNER
1000
GEN
1002
}
  0
TEXT
  5
8316
  8
0
 10
41.65052034472395
 20
220.3458340155884
 30
0.0
 40
1.8
  1
電動水抜操作盤 EV2R
  0
CIRCLE
  5
8347
  8
0
 10
65.82231811433599
 20
224.3742960381009
 30
0.0
 40
1.125
  0
TEXT
  5
8348
  8
0
 10
65.10231811433599
 20
223.6062960381009
 30
0.0
 40
1.44
  1
Ｒ
 72
     4
 11
65.82231811433599
 21
224.3742960381009
 31
0.0
  0
LINE
  5
8351
  8
0
 10
55.82185551549446
 20
248.2411315128205
 30
0.0
 11
55.82185551549446
 21
246.2411315128205
 31
0.0
  0
LINE
  5
8352
  8
0
 10
48.82185551549446
 20
248.2411315128205
 30
0.0
 11
48.82185551549446
 21
246.2411315128205
 31
0.0
  0
ARC
  5
8353
  8
0
 10
49.82185551549446
 20
248.2411315128205
 30
0.0
 40
1.0
 50
90.0
 51
180.0
  0
ARC
  5
8354
  8
0
 10
49.82185551549446
 20
246.2411315128205
 30
0.0
 40
1.0
 50
180.0
 51
270.0
  0
ARC
  5
8355
  8
0
 10
54.82185551549446
 20
246.2411315128205
 30
0.0
 40
1.0
 50
270.0
 51
0.0
  0
ARC
  5
8356
  8
0
 10
54.82185551549446
 20
248.2411315128205
 30
0.0
 40
1.0
 50
0.0
 51
90.0
  0
LINE
  5
8357
  8
0
 10
49.82185551549446
 20
249.2411315128205
 30
0.0
 11
54.82185551549446
 21
249.2411315128205
 31
0.0
  0
LINE
  5
8358
  8
0
 10
49.82185551549446
 20
245.2411315128205
 30
0.0
 11
54.82185551549446
 21
245.2411315128205
 31
0.0
  0
TEXT
  5
8359
  8
0
 10
42.16044235838159
 20
246.2788556934019
 30
0.0
 40
2.0
  1
OFF
 41
1.5
  0
TEXT
  5
835A
  8
0
 10
57.20729150807331
 20
246.2788556934019
 30
0.0
 40
2.0
  1
ON
 41
1.5
  0
ARC
  5
835B
  8
0
 10
69.72185615177324
 20
209.8911315128198
 30
0.0
 40
0.3500000000000227
 50
90.0
 51
270.0
  0
ARC
  5
835C
  8
0
 10
84.82185615177315
 20
209.8911315128198
 30
0.0
 40
0.3500000000000227
 50
270.0
 51
90.0
  0
LINE
  5
835D
  8
0
 10
56.52185615177405
 20
212.8911315128204
 30
0.0
 11
64.52185615177405
 21
212.8911315128204
 31
0.0
  0
ARC
  5
835E
  8
0
 10
64.52185615177405
 20
210.8911315128204
 30
0.0
 40
2.0
 50
0.0
 51
90.0
  0
ARC
  5
835F
  8
0
 10
56.52185615177405
 20
210.8911315128204
 30
0.0
 40
2.0
 50
90.0
 51
180.0
  0
ARC
  5
8360
  8
0
 10
64.52185615177405
 20
203.8911315128199
 30
0.0
 40
2.0
 50
270.0
 51
0.0
  0
LINE
  5
8361
  8
0
 10
66.52185615177405
 20
203.8911315128199
 30
0.0
 11
66.52185615177405
 21
210.8911315128204
 31
0.0
  0
LINE
  5
8362
  8
0
 10
56.52185615177405
 20
201.8911315128199
 30
0.0
 11
64.52185615177405
 21
201.8911315128199
 31
0.0
  0
ARC
  5
8363
  8
0
 10
56.52185615177405
 20
203.8911315128199
 30
0.0
 40
2.0
 50
180.0
 51
270.0
  0
LINE
  5
8364
  8
0
 10
54.52185615177405
 20
203.8911315128199
 30
0.0
 11
54.52185615177405
 21
210.8911315128204
 31
0.0
  0
TEXT
  5
8365
  8
0
 10
55.6560904241211
 20
203.1068509065065
 30
0.0
 40
1.9
  1
点検
  0
ARC
  5
8366
  8
0
 10
64.27349234550218
 20
204.4584472782429
 30
0.0
 40
0.9999999999999992
 50
233.0491207032604
 51
57.3262839971238
  0
LINE
  5
8367
  8
0
 10
63.6723622280316
 20
203.6592961149017
 30
0.0
 11
58.96522801641703
 21
207.2000531973847
 31
0.0
  0
LINE
  5
8368
  8
0
 10
59.85524786706179
 20
208.4800376268534
 30
0.0
 11
64.81334657256434
 21
205.3002058027163
 31
0.0
  0
ARC
  5
8369
  8
0
 10
57.40559677286478
 20
209.2339455195274
 30
0.0
 40
1.99079584716086
 50
1.683229077249547
 51
160.7903378653517
  0
ARC
  5
836A
  8
0
 10
60.39510209412435
 20
209.3217961513266
 30
0.0
 40
0.9999999999999992
 50
181.6832290772424
 51
237.3262839971274
1001
GENIUS_GENODEF_13
1002
{
1000
HIER
1070
     0
1002
}
1002
{
1000
MANEDIT
1070
     0
1002
}
1002
{
1000
NOSEL
1070
     0
1002
}
1002
{
1000
BEHIND
1070
     0
1002
}
1002
{
1000
OTHER
1070
     0
1002
}
1002
{
1000
REACTOR
1002
}
1001
GENIUS_GENOBJ-N-FIL_13
1002
{
1000
OWNER
1000
GEN
1002
}
  0
ARC
  5
836B
  8
0
 10
57.40559677286478
 20
209.2339455195274
 30
0.0
 40
1.99079584716086
 50
219.5850668351115
 51
288.692175623141
  0
ARC
  5
836C
  8
0
 10
58.3640978989468
 20
206.4009020340432
 30
0.0
 40
0.9999999999999992
 50
53.0491207032568
 51
108.6921756231398
1001
GENIUS_GENOBJ-N-FIL_13
1002
{
1000
OWNER
1000
GEN
1002
}
1001
GENIUS_GENODEF_13
1002
{
1000
HIER
1070
     0
1002
}
1002
{
1000
MANEDIT
1070
     0
1002
}
1002
{
1000
NOSEL
1070
     0
1002
}
1002
{
1000
BEHIND
1070
     0
1002
}
1002
{
1000
OTHER
1070
     0
1002
}
1002
{
1000
REACTOR
1002
}
  0
LINE
  5
836D
  8
0
 10
57.9665412980894
 20
209.3347510790039
 30
0.0
 11
57.58408692139636
 21
208.273158158964
 31
0.0
  0
LINE
  5
836E
  8
0
 10
57.58408692139636
 20
208.273158158964
 30
0.0
 11
55.87133152286651
 21
207.9653643247588
 31
0.0
  0
LINE
  5
836F
  8
0
 10
57.96654129808928
 20
209.3347510790045
 30
0.0
 11
57.23840204920259
 21
210.1967627450289
 31
0.0
  0
LINE
  5
8370
  8
0
 10
57.23840204920259
 20
210.1967627450289
 30
0.0
 11
55.52564665067246
 21
209.8889689108233
 31
0.0
  0
CIRCLE
  5
8371
  8
0
 10
64.27349234550218
 20
204.4584472782429
 30
0.0
 40
0.4999999999999996
  0
LINE
  5
8372
  8
0
 10
42.5343665462392
 20
212.5722665128199
 30
0.0
 11
44.87114804623923
 21
212.5722665128199
 31
0.0
  0
LINE
  5
8373
  8
0
 10
44.87114804623923
 20
212.5722665128199
 30
0.0
 11
44.87114804623923
 21
212.9062504128199
 31
0.0
  0
LINE
  5
8374
  8
0
 10
44.87114804623923
 20
212.9062504128199
 30
0.0
 11
42.5343665462392
 21
212.9062504128199
 31
0.0
  0
LINE
  5
8375
  8
0
 10
42.5343665462392
 20
212.9062504128199
 30
0.0
 11
42.5343665462392
 21
212.5722665128199
 31
0.0
  0
LINE
  5
8376
  8
0
 10
45.53874154623918
 20
212.5722665128199
 30
0.0
 11
46.53995604623918
 21
212.5722665128199
 31
0.0
  0
LINE
  5
8377
  8
0
 10
46.53995604623918
 20
212.5722665128199
 30
0.0
 11
46.53995604623918
 21
212.9062504128199
 31
0.0
  0
LINE
  5
8378
  8
0
 10
46.53995604623918
 20
212.9062504128199
 30
0.0
 11
45.53874154623918
 21
212.9062504128199
 31
0.0
  0
LINE
  5
8379
  8
0
 10
45.53874154623918
 20
212.9062504128199
 30
0.0
 11
45.53874154623918
 21
212.5722665128199
 31
0.0
  0
LINE
  5
837A
  8
0
 10
47.20751154623918
 20
212.5722665128199
 30
0.0
 11
47.5414954462392
 21
212.5722665128199
 31
0.0
  0
LINE
  5
837B
  8
0
 10
47.5414954462392
 20
212.5722665128199
 30
0.0
 11
47.5414954462392
 21
212.9062504128199
 31
0.0
  0
LINE
  5
837C
  8
0
 10
47.5414954462392
 20
212.9062504128199
 30
0.0
 11
47.20751154623918
 21
212.9062504128199
 31
0.0
  0
LINE
  5
837D
  8
0
 10
47.20751154623918
 20
212.9062504128199
 30
0.0
 11
47.20751154623918
 21
212.5722665128199
 31
0.0
  0
LINE
  5
837E
  8
0
 10
47.8750765462392
 20
212.5722665128199
 30
0.0
 11
48.20906139623918
 21
212.5722665128199
 31
0.0
  0
LINE
  5
837F
  8
0
 10
48.20906139623918
 20
212.5722665128199
 30
0.0
 11
48.20906139623918
 21
212.9062504128199
 31
0.0
  0
LINE
  5
8380
  8
0
 10
48.20906139623918
 20
212.9062504128199
 30
0.0
 11
47.8750765462392
 21
212.9062504128199
 31
0.0
  0
LINE
  5
8381
  8
0
 10
47.8750765462392
 20
212.9062504128199
 30
0.0
 11
47.8750765462392
 21
212.5722665128199
 31
0.0
  0
LINE
  5
8382
  8
0
 10
48.54273654623921
 20
212.5722665128199
 30
0.0
 11
48.87672139623919
 21
212.5722665128199
 31
0.0
  0
LINE
  5
8383
  8
0
 10
48.87672139623919
 20
212.5722665128199
 30
0.0
 11
48.87672139623919
 21
212.9062504128199
 31
0.0
  0
LINE
  5
8384
  8
0
 10
48.87672139623919
 20
212.9062504128199
 30
0.0
 11
48.54273654623921
 21
212.9062504128199
 31
0.0
  0
LINE
  5
8385
  8
0
 10
48.54273654623921
 20
212.9062504128199
 30
0.0
 11
48.54273654623921
 21
212.5722665128199
 31
0.0
  0
LINE
  5
8386
  8
0
 10
49.8774865462392
 20
212.5722665128199
 30
0.0
 11
50.21147044623922
 21
212.5722665128199
 31
0.0
  0
LINE
  5
8387
  8
0
 10
50.21147044623922
 20
212.5722665128199
 30
0.0
 11
50.21147044623922
 21
212.9062504128199
 31
0.0
  0
LINE
  5
8388
  8
0
 10
50.21147044623922
 20
212.9062504128199
 30
0.0
 11
49.8774865462392
 21
212.9062504128199
 31
0.0
  0
LINE
  5
8389
  8
0
 10
49.8774865462392
 20
212.9062504128199
 30
0.0
 11
49.8774865462392
 21
212.5722665128199
 31
0.0
  0
LINE
  5
838B
  8
0
 10
51.54707544623921
 20
212.5722665128199
 30
0.0
 11
53.21550154623918
 21
212.5722665128199
 31
0.0
  0
LINE
  5
838C
  8
0
 10
53.54987304623921
 20
210.5690965128199
 30
0.0
 11
53.54987304623921
 21
212.9062504128199
 31
0.0
  0
LINE
  5
838D
  8
0
 10
53.54987304623921
 20
212.9062504128199
 30
0.0
 11
51.21309154623918
 21
212.9062504128199
 31
0.0
  0
LINE
  5
838E
  8
0
 10
51.21309154623918
 20
212.9062504128199
 30
0.0
 11
51.21309154623918
 21
210.5690965128199
 31
0.0
  0
LINE
  5
838F
  8
0
 10
42.5343665462392
 20
212.2383415128199
 30
0.0
 11
42.86872189623921
 21
212.2383415128199
 31
0.0
  0
LINE
  5
8390
  8
0
 10
42.86872189623921
 20
212.2383415128199
 30
0.0
 11
42.86872189623921
 21
212.5723263628199
 31
0.0
  0
LINE
  5
8391
  8
0
 10
42.86872189623921
 20
212.5723263628199
 30
0.0
 11
42.5343665462392
 21
212.5723263628199
 31
0.0
  0
LINE
  5
8392
  8
0
 10
42.5343665462392
 20
212.5723263628199
 30
0.0
 11
42.5343665462392
 21
212.2383415128199
 31
0.0
  0
LINE
  5
8393
  8
0
 10
44.53744154623917
 20
212.2383415128199
 30
0.0
 11
44.87142544623919
 21
212.2383415128199
 31
0.0
  0
LINE
  5
8394
  8
0
 10
44.87142544623919
 20
212.2383415128199
 30
0.0
 11
44.87142544623919
 21
212.5723263628199
 31
0.0
  0
LINE
  5
8395
  8
0
 10
44.87142544623919
 20
212.5723263628199
 30
0.0
 11
44.53744154623917
 21
212.5723263628199
 31
0.0
  0
LINE
  5
8396
  8
0
 10
44.53744154623917
 20
212.5723263628199
 30
0.0
 11
44.53744154623917
 21
212.2383415128199
 31
0.0
  0
LINE
  5
8397
  8
0
 10
45.20510154623918
 20
212.2383415128199
 30
0.0
 11
46.20668654623921
 21
212.2383415128199
 31
0.0
  0
LINE
  5
8398
  8
0
 10
46.20668654623921
 20
212.2383415128199
 30
0.0
 11
46.20668654623921
 21
212.5723263628199
 31
0.0
  0
LINE
  5
8399
  8
0
 10
46.20668654623921
 20
212.5723263628199
 30
0.0
 11
45.20510154623918
 21
212.5723263628199
 31
0.0
  0
LINE
  5
839A
  8
0
 10
45.20510154623918
 20
212.5723263628199
 30
0.0
 11
45.20510154623918
 21
212.2383415128199
 31
0.0
  0
LINE
  5
839B
  8
0
 10
46.54032654623921
 20
212.2383415128199
 30
0.0
 11
47.54154104623922
 21
212.2383415128199
 31
0.0
  0
LINE
  5
839C
  8
0
 10
47.54154104623922
 20
212.2383415128199
 30
0.0
 11
47.54154104623922
 21
212.5723263628199
 31
0.0
  0
LINE
  5
839D
  8
0
 10
47.54154104623922
 20
212.5723263628199
 30
0.0
 11
46.54032654623921
 21
212.5723263628199
 31
0.0
  0
LINE
  5
839E
  8
0
 10
46.54032654623921
 20
212.5723263628199
 30
0.0
 11
46.54032654623921
 21
212.2383415128199
 31
0.0
  0
LINE
  5
839F
  8
0
 10
48.20909654623921
 20
212.2383415128199
 30
0.0
 11
48.54308044623917
 21
212.2383415128199
 31
0.0
  0
LINE
  5
83A0
  8
0
 10
48.54308044623917
 20
212.2383415128199
 30
0.0
 11
48.54308044623917
 21
212.5723263628199
 31
0.0
  0
LINE
  5
83A1
  8
0
 10
48.54308044623917
 20
212.5723263628199
 30
0.0
 11
48.20909654623921
 21
212.5723263628199
 31
0.0
  0
LINE
  5
83A2
  8
0
 10
48.20909654623921
 20
212.5723263628199
 30
0.0
 11
48.20909654623921
 21
212.2383415128199
 31
0.0
  0
LINE
  5
83A3
  8
0
 10
49.20992154623917
 20
212.2383415128199
 30
0.0
 11
49.54427689623918
 21
212.2383415128199
 31
0.0
  0
LINE
  5
83A4
  8
0
 10
49.54427689623918
 20
212.2383415128199
 30
0.0
 11
49.54427689623918
 21
212.5723263628199
 31
0.0
  0
LINE
  5
83A5
  8
0
 10
49.54427689623918
 20
212.5723263628199
 30
0.0
 11
49.20992154623917
 21
212.5723263628199
 31
0.0
  0
LINE
  5
83A6
  8
0
 10
49.20992154623917
 20
212.5723263628199
 30
0.0
 11
49.20992154623917
 21
212.2383415128199
 31
0.0
  0
LINE
  5
83A7
  8
0
 10
49.8774865462392
 20
212.2383415128199
 30
0.0
 11
50.21147044623922
 21
212.2383415128199
 31
0.0
  0
LINE
  5
83A8
  8
0
 10
50.21147044623922
 20
212.2383415128199
 30
0.0
 11
50.21147044623922
 21
212.5723263628199
 31
0.0
  0
LINE
  5
83A9
  8
0
 10
50.21147044623922
 20
212.5723263628199
 30
0.0
 11
49.8774865462392
 21
212.5723263628199
 31
0.0
  0
LINE
  5
83AA
  8
0
 10
49.8774865462392
 20
212.5723263628199
 30
0.0
 11
49.8774865462392
 21
212.2383415128199
 31
0.0
  0
LINE
  5
83AB
  8
0
 10
50.54590654623917
 20
212.2383415128199
 30
0.0
 11
50.8798913962392
 21
212.2383415128199
 31
0.0
  0
LINE
  5
83AD
  8
0
 10
50.8798913962392
 20
212.2382968628199
 30
0.0
 11
50.8798913962392
 21
212.5723263628199
 31
0.0
  0
LINE
  5
83AE
  8
0
 10
50.8798913962392
 20
212.5723263628199
 30
0.0
 11
50.54590654623917
 21
212.5723263628199
 31
0.0
  0
LINE
  5
83AF
  8
0
 10
50.54590654623917
 20
212.5723263628199
 30
0.0
 11
50.54590654623917
 21
212.2382968628199
 31
0.0
  0
LINE
  5
83B0
  8
0
 10
42.5343665462392
 20
211.9039415128199
 30
0.0
 11
42.86872189623921
 21
211.9039415128199
 31
0.0
  0
LINE
  5
83B1
  8
0
 10
42.86872189623921
 20
211.9039415128199
 30
0.0
 11
42.86872189623921
 21
212.2382968628199
 31
0.0
  0
LINE
  5
83B2
  8
0
 10
42.86872189623921
 20
212.2382968628199
 30
0.0
 11
42.5343665462392
 21
212.2382968628199
 31
0.0
  0
LINE
  5
83B3
  8
0
 10
42.5343665462392
 20
212.2382968628199
 30
0.0
 11
42.5343665462392
 21
211.9039415128199
 31
0.0
  0
LINE
  5
83B4
  8
0
 10
43.20193154623917
 20
211.9039415128199
 30
0.0
 11
44.2035165462392
 21
211.9039415128199
 31
0.0
  0
LINE
  5
83B5
  8
0
 10
44.2035165462392
 20
211.9039415128199
 30
0.0
 11
44.2035165462392
 21
212.2382968628199
 31
0.0
  0
LINE
  5
83B6
  8
0
 10
44.2035165462392
 20
212.2382968628199
 30
0.0
 11
43.20193154623917
 21
212.2382968628199
 31
0.0
  0
LINE
  5
83B7
  8
0
 10
43.20193154623917
 20
212.2382968628199
 30
0.0
 11
43.20193154623917
 21
211.9039415128199
 31
0.0
  0
LINE
  5
83B8
  8
0
 10
44.53744154623917
 20
211.9039415128199
 30
0.0
 11
44.87142544623919
 21
211.9039415128199
 31
0.0
  0
LINE
  5
83B9
  8
0
 10
44.87142544623919
 20
211.9039415128199
 30
0.0
 11
44.87142544623919
 21
212.2382968628199
 31
0.0
  0
LINE
  5
83BA
  8
0
 10
44.87142544623919
 20
212.2382968628199
 30
0.0
 11
44.53744154623917
 21
212.2382968628199
 31
0.0
  0
LINE
  5
83BB
  8
0
 10
44.53744154623917
 20
212.2382968628199
 30
0.0
 11
44.53744154623917
 21
211.9039415128199
 31
0.0
  0
LINE
  5
83BC
  8
0
 10
45.20510154623918
 20
211.9039415128199
 30
0.0
 11
46.20668654623921
 21
211.9039415128199
 31
0.0
  0
LINE
  5
83BD
  8
0
 10
46.20668654623921
 20
211.9039415128199
 30
0.0
 11
46.20668654623921
 21
212.2382968628199
 31
0.0
  0
LINE
  5
83BE
  8
0
 10
46.20668654623921
 20
212.2382968628199
 30
0.0
 11
45.20510154623918
 21
212.2382968628199
 31
0.0
  0
LINE
  5
83BF
  8
0
 10
45.20510154623918
 20
212.2382968628199
 30
0.0
 11
45.20510154623918
 21
211.9039415128199
 31
0.0
  0
LINE
  5
83C0
  8
0
 10
46.54032654623921
 20
211.9039415128199
 30
0.0
 11
47.20755334623919
 21
211.9039415128199
 31
0.0
  0
LINE
  5
83C1
  8
0
 10
47.20755334623919
 20
211.9039415128199
 30
0.0
 11
47.20755334623919
 21
212.2382968628199
 31
0.0
  0
LINE
  5
83C2
  8
0
 10
47.20755334623919
 20
212.2382968628199
 30
0.0
 11
46.54032654623921
 21
212.2382968628199
 31
0.0
  0
LINE
  5
83C3
  8
0
 10
46.54032654623921
 20
212.2382968628199
 30
0.0
 11
46.54032654623921
 21
211.9039415128199
 31
0.0
  0
LINE
  5
83C4
  8
0
 10
47.54153154623918
 20
211.9039415128199
 30
0.0
 11
47.87588689623919
 21
211.9039415128199
 31
0.0
  0
LINE
  5
83C5
  8
0
 10
47.87588689623919
 20
211.9039415128199
 30
0.0
 11
47.87588689623919
 21
212.2382968628199
 31
0.0
  0
LINE
  5
83C6
  8
0
 10
47.87588689623919
 20
212.2382968628199
 30
0.0
 11
47.54153154623918
 21
212.2382968628199
 31
0.0
  0
LINE
  5
83C7
  8
0
 10
47.54153154623918
 20
212.2382968628199
 30
0.0
 11
47.54153154623918
 21
211.9039415128199
 31
0.0
  0
LINE
  5
83C8
  8
0
 10
48.20909654623921
 20
211.9039415128199
 30
0.0
 11
49.21068154623919
 21
211.9039415128199
 31
0.0
  0
LINE
  5
83C9
  8
0
 10
49.21068154623919
 20
211.9039415128199
 30
0.0
 11
49.21068154623919
 21
212.2382968628199
 31
0.0
  0
LINE
  5
83CA
  8
0
 10
49.21068154623919
 20
212.2382968628199
 30
0.0
 11
48.20909654623921
 21
212.2382968628199
 31
0.0
  0
LINE
  5
83CB
  8
0
 10
48.20909654623921
 20
212.2382968628199
 30
0.0
 11
48.20909654623921
 21
211.9039415128199
 31
0.0
  0
LINE
  5
83CC
  8
0
 10
49.54432154623919
 20
211.9039415128199
 30
0.0
 11
49.87830639623917
 21
211.9039415128199
 31
0.0
  0
LINE
  5
83CD
  8
0
 10
49.87830639623917
 20
211.9039415128199
 30
0.0
 11
49.87830639623917
 21
212.2382968628199
 31
0.0
  0
LINE
  5
83CE
  8
0
 10
49.87830639623917
 20
212.2382968628199
 30
0.0
 11
49.54432154623919
 21
212.2382968628199
 31
0.0
  0
LINE
  5
83CF
  8
0
 10
49.54432154623919
 20
212.2382968628199
 30
0.0
 11
49.54432154623919
 21
211.9039415128199
 31
0.0
  0
LINE
  5
83D0
  8
0
 10
50.54590654623917
 20
211.9039415128199
 30
0.0
 11
50.8798913962392
 21
211.9039415128199
 31
0.0
  0
LINE
  5
83D1
  8
0
 10
50.8798913962392
 20
211.9039415128199
 30
0.0
 11
50.8798913962392
 21
212.2382968628199
 31
0.0
  0
LINE
  5
83D2
  8
0
 10
50.8798913962392
 20
212.2382968628199
 30
0.0
 11
50.54590654623917
 21
212.2382968628199
 31
0.0
  0
LINE
  5
83D3
  8
0
 10
50.54590654623917
 20
212.2382968628199
 30
0.0
 11
50.54590654623917
 21
211.9039415128199
 31
0.0
  0
LINE
  5
83D5
  8
0
 10
52.88224154623919
 20
211.2367565128199
 30
0.0
 11
52.88224154623919
 21
212.2382968628199
 31
0.0
  0
LINE
  5
83D6
  8
0
 10
52.88224154623919
 20
212.2382968628199
 30
0.0
 11
51.88065654623921
 21
212.2382968628199
 31
0.0
  0
LINE
  5
83D7
  8
0
 10
51.88065654623921
 20
212.2382968628199
 30
0.0
 11
51.88065654623921
 21
211.2367565128199
 31
0.0
  0
LINE
  5
83D8
  8
0
 10
42.5343665462392
 20
211.5706815128199
 30
0.0
 11
42.86872189623921
 21
211.5706815128199
 31
0.0
  0
LINE
  5
83D9
  8
0
 10
42.86872189623921
 20
211.5706815128199
 30
0.0
 11
42.86872189623921
 21
211.9046654128199
 31
0.0
  0
LINE
  5
83DA
  8
0
 10
42.86872189623921
 20
211.9046654128199
 30
0.0
 11
42.5343665462392
 21
211.9046654128199
 31
0.0
  0
LINE
  5
83DB
  8
0
 10
42.5343665462392
 20
211.9046654128199
 30
0.0
 11
42.5343665462392
 21
211.5706815128199
 31
0.0
  0
LINE
  5
83DC
  8
0
 10
43.20193154623917
 20
211.5706815128199
 30
0.0
 11
44.2035165462392
 21
211.5706815128199
 31
0.0
  0
LINE
  5
83DD
  8
0
 10
44.2035165462392
 20
211.5706815128199
 30
0.0
 11
44.2035165462392
 21
211.9046654128199
 31
0.0
  0
LINE
  5
83DE
  8
0
 10
44.2035165462392
 20
211.9046654128199
 30
0.0
 11
43.20193154623917
 21
211.9046654128199
 31
0.0
  0
LINE
  5
83DF
  8
0
 10
43.20193154623917
 20
211.9046654128199
 30
0.0
 11
43.20193154623917
 21
211.5706815128199
 31
0.0
  0
LINE
  5
83E0
  8
0
 10
44.53744154623917
 20
211.5706815128199
 30
0.0
 11
44.87142544623919
 21
211.5706815128199
 31
0.0
  0
LINE
  5
83E1
  8
0
 10
44.87142544623919
 20
211.5706815128199
 30
0.0
 11
44.87142544623919
 21
211.9046654128199
 31
0.0
  0
LINE
  5
83E2
  8
0
 10
44.87142544623919
 20
211.9046654128199
 30
0.0
 11
44.53744154623917
 21
211.9046654128199
 31
0.0
  0
LINE
  5
83E3
  8
0
 10
44.53744154623917
 20
211.9046654128199
 30
0.0
 11
44.53744154623917
 21
211.5706815128199
 31
0.0
  0
LINE
  5
83E4
  8
0
 10
45.20510154623918
 20
211.5706815128199
 30
0.0
 11
45.53908639623921
 21
211.5706815128199
 31
0.0
  0
LINE
  5
83E5
  8
0
 10
45.53908639623921
 20
211.5706815128199
 30
0.0
 11
45.53908639623921
 21
211.9046654128199
 31
0.0
  0
LINE
  5
83E6
  8
0
 10
45.53908639623921
 20
211.9046654128199
 30
0.0
 11
45.20510154623918
 21
211.9046654128199
 31
0.0
  0
LINE
  5
83E7
  8
0
 10
45.20510154623918
 20
211.9046654128199
 30
0.0
 11
45.20510154623918
 21
211.5706815128199
 31
0.0
  0
LINE
  5
83E8
  8
0
 10
48.87666154623918
 20
211.5706815128199
 30
0.0
 11
49.2106454462392
 21
211.5706815128199
 31
0.0
  0
LINE
  5
83E9
  8
0
 10
49.2106454462392
 20
211.5706815128199
 30
0.0
 11
49.2106454462392
 21
211.9046654128199
 31
0.0
  0
LINE
  5
83EA
  8
0
 10
49.2106454462392
 20
211.9046654128199
 30
0.0
 11
48.87666154623918
 21
211.9046654128199
 31
0.0
  0
LINE
  5
83EB
  8
0
 10
48.87666154623918
 20
211.9046654128199
 30
0.0
 11
48.87666154623918
 21
211.5706815128199
 31
0.0
  0
LINE
  5
83EC
  8
0
 10
49.54432154623919
 20
211.5706815128199
 30
0.0
 11
50.87914754623921
 21
211.5706815128199
 31
0.0
  0
LINE
  5
83ED
  8
0
 10
50.87914754623921
 20
211.5706815128199
 30
0.0
 11
50.87914754623921
 21
211.9046654128199
 31
0.0
  0
LINE
  5
83EE
  8
0
 10
50.87914754623921
 20
211.9046654128199
 30
0.0
 11
49.54432154623919
 21
211.9046654128199
 31
0.0
  0
LINE
  5
83EF
  8
0
 10
49.54432154623919
 20
211.9046654128199
 30
0.0
 11
49.54432154623919
 21
211.5706815128199
 31
0.0
  0
LINE
  5
83F0
  8
0
 10
42.5343665462392
 20
211.2367565128199
 30
0.0
 11
42.86872189623921
 21
211.2367565128199
 31
0.0
  0
LINE
  5
83F1
  8
0
 10
42.86872189623921
 20
211.2367565128199
 30
0.0
 11
42.86872189623921
 21
211.5707413628199
 31
0.0
  0
LINE
  5
83F2
  8
0
 10
42.86872189623921
 20
211.5707413628199
 30
0.0
 11
42.5343665462392
 21
211.5707413628199
 31
0.0
  0
LINE
  5
83F3
  8
0
 10
42.5343665462392
 20
211.5707413628199
 30
0.0
 11
42.5343665462392
 21
211.2367565128199
 31
0.0
  0
LINE
  5
83F4
  8
0
 10
43.20193154623917
 20
211.2367565128199
 30
0.0
 11
44.2035165462392
 21
211.2367565128199
 31
0.0
  0
LINE
  5
83F5
  8
0
 10
44.2035165462392
 20
211.2367565128199
 30
0.0
 11
44.2035165462392
 21
211.5707413628199
 31
0.0
  0
LINE
  5
83F6
  8
0
 10
44.2035165462392
 20
211.5707413628199
 30
0.0
 11
43.20193154623917
 21
211.5707413628199
 31
0.0
  0
LINE
  5
83F7
  8
0
 10
43.20193154623917
 20
211.5707413628199
 30
0.0
 11
43.20193154623917
 21
211.2367565128199
 31
0.0
  0
LINE
  5
83F8
  8
0
 10
44.53744154623917
 20
211.2367565128199
 30
0.0
 11
44.87142544623919
 21
211.2367565128199
 31
0.0
  0
LINE
  5
83F9
  8
0
 10
44.87142544623919
 20
211.2367565128199
 30
0.0
 11
44.87142544623919
 21
211.5707413628199
 31
0.0
  0
LINE
  5
83FA
  8
0
 10
44.87142544623919
 20
211.5707413628199
 30
0.0
 11
44.53744154623917
 21
211.5707413628199
 31
0.0
  0
LINE
  5
83FB
  8
0
 10
44.53744154623917
 20
211.5707413628199
 30
0.0
 11
44.53744154623917
 21
211.2367565128199
 31
0.0
  0
LINE
  5
83FC
  8
0
 10
45.53874154623918
 20
211.2367565128199
 30
0.0
 11
45.87272639623916
 21
211.2367565128199
 31
0.0
  0
LINE
  5
83FD
  8
0
 10
45.87272639623916
 20
211.2367565128199
 30
0.0
 11
45.87272639623916
 21
211.5707413628199
 31
0.0
  0
LINE
  5
83FE
  8
0
 10
45.87272639623916
 20
211.5707413628199
 30
0.0
 11
45.53874154623918
 21
211.5707413628199
 31
0.0
  0
LINE
  5
83FF
  8
0
 10
45.53874154623918
 20
211.5707413628199
 30
0.0
 11
45.53874154623918
 21
211.2367565128199
 31
0.0
  0
LINE
  5
8400
  8
0
 10
46.2059265462392
 20
211.2367565128199
 30
0.0
 11
47.20751154623918
 21
211.2367565128199
 31
0.0
  0
LINE
  5
8401
  8
0
 10
47.20751154623918
 20
211.2367565128199
 30
0.0
 11
47.20751154623918
 21
211.5707413628199
 31
0.0
  0
LINE
  5
8402
  8
0
 10
47.20751154623918
 20
211.5707413628199
 30
0.0
 11
46.2059265462392
 21
211.5707413628199
 31
0.0
  0
LINE
  5
8403
  8
0
 10
46.2059265462392
 20
211.5707413628199
 30
0.0
 11
46.2059265462392
 21
211.2367565128199
 31
0.0
  0
LINE
  5
8404
  8
0
 10
47.54153154623918
 20
211.2367565128199
 30
0.0
 11
47.87588689623919
 21
211.2367565128199
 31
0.0
  0
LINE
  5
8405
  8
0
 10
47.87588689623919
 20
211.2367565128199
 30
0.0
 11
47.87588689623919
 21
211.5707413628199
 31
0.0
  0
LINE
  5
8406
  8
0
 10
47.87588689623919
 20
211.5707413628199
 30
0.0
 11
47.54153154623918
 21
211.5707413628199
 31
0.0
  0
LINE
  5
8407
  8
0
 10
47.54153154623918
 20
211.5707413628199
 30
0.0
 11
47.54153154623918
 21
211.2367565128199
 31
0.0
  0
LINE
  5
8408
  8
0
 10
48.20909654623921
 20
211.2367565128199
 30
0.0
 11
48.87669384623916
 21
211.2367565128199
 31
0.0
  0
LINE
  5
8409
  8
0
 10
48.87669384623916
 20
211.2367565128199
 30
0.0
 11
48.87669384623916
 21
211.5707413628199
 31
0.0
  0
LINE
  5
840A
  8
0
 10
48.87669384623916
 20
211.5707413628199
 30
0.0
 11
48.20909654623921
 21
211.5707413628199
 31
0.0
  0
LINE
  5
840B
  8
0
 10
48.20909654623921
 20
211.5707413628199
 30
0.0
 11
48.20909654623921
 21
211.2367565128199
 31
0.0
  0
LINE
  5
840C
  8
0
 10
50.21150654623921
 20
211.2367565128199
 30
0.0
 11
50.54586189623922
 21
211.2367565128199
 31
0.0
  0
LINE
  5
840D
  8
0
 10
50.54586189623922
 20
211.2367565128199
 30
0.0
 11
50.54586189623922
 21
211.5707413628199
 31
0.0
  0
LINE
  5
840E
  8
0
 10
50.54586189623922
 20
211.5707413628199
 30
0.0
 11
50.21150654623921
 21
211.5707413628199
 31
0.0
  0
LINE
  5
840F
  8
0
 10
50.21150654623921
 20
211.5707413628199
 30
0.0
 11
50.21150654623921
 21
211.2367565128199
 31
0.0
  0
LINE
  5
8410
  8
0
 10
51.88065654623921
 20
211.2367565128199
 30
0.0
 11
52.88224154623919
 21
211.2367565128199
 31
0.0
  0
LINE
  5
8411
  8
0
 10
42.5343665462392
 20
210.9031165128199
 30
0.0
 11
42.86872189623921
 21
210.9031165128199
 31
0.0
  0
LINE
  5
8412
  8
0
 10
42.86872189623921
 20
210.9031165128199
 30
0.0
 11
42.86872189623921
 21
211.2371013628199
 31
0.0
  0
LINE
  5
8413
  8
0
 10
42.86872189623921
 20
211.2371013628199
 30
0.0
 11
42.5343665462392
 21
211.2371013628199
 31
0.0
  0
LINE
  5
8414
  8
0
 10
42.5343665462392
 20
211.2371013628199
 30
0.0
 11
42.5343665462392
 21
210.9031165128199
 31
0.0
  0
LINE
  5
8415
  8
0
 10
44.53744154623917
 20
210.9031165128199
 30
0.0
 11
44.87142544623919
 21
210.9031165128199
 31
0.0
  0
LINE
  5
8416
  8
0
 10
44.87142544623919
 20
210.9031165128199
 30
0.0
 11
44.87142544623919
 21
211.2371013628199
 31
0.0
  0
LINE
  5
8417
  8
0
 10
44.87142544623919
 20
211.2371013628199
 30
0.0
 11
44.53744154623917
 21
211.2371013628199
 31
0.0
  0
LINE
  5
8418
  8
0
 10
44.53744154623917
 20
211.2371013628199
 30
0.0
 11
44.53744154623917
 21
210.9031165128199
 31
0.0
  0
LINE
  5
8419
  8
0
 10
46.87349154623917
 20
210.9031165128199
 30
0.0
 11
47.54108979623919
 21
210.9031165128199
 31
0.0
  0
LINE
  5
841A
  8
0
 10
47.54108979623919
 20
210.9031165128199
 30
0.0
 11
47.54108979623919
 21
211.2371013628199
 31
0.0
  0
LINE
  5
841B
  8
0
 10
47.54108979623919
 20
211.2371013628199
 30
0.0
 11
46.87349154623917
 21
211.2371013628199
 31
0.0
  0
LINE
  5
841C
  8
0
 10
46.87349154623917
 20
211.2371013628199
 30
0.0
 11
46.87349154623917
 21
210.9031165128199
 31
0.0
  0
LINE
  5
841D
  8
0
 10
47.8750765462392
 20
210.9031165128199
 30
0.0
 11
48.20906139623918
 21
210.9031165128199
 31
0.0
  0
LINE
  5
841E
  8
0
 10
48.20906139623918
 20
210.9031165128199
 30
0.0
 11
48.20906139623918
 21
211.2371013628199
 31
0.0
  0
LINE
  5
841F
  8
0
 10
48.20906139623918
 20
211.2371013628199
 30
0.0
 11
47.8750765462392
 21
211.2371013628199
 31
0.0
  0
LINE
  5
8420
  8
0
 10
47.8750765462392
 20
211.2371013628199
 30
0.0
 11
47.8750765462392
 21
210.9031165128199
 31
0.0
  0
LINE
  5
8421
  8
0
 10
48.54273654623921
 20
210.9031165128199
 30
0.0
 11
48.87672139623919
 21
210.9031165128199
 31
0.0
  0
LINE
  5
8422
  8
0
 10
48.87672139623919
 20
210.9031165128199
 30
0.0
 11
48.87672139623919
 21
211.2371013628199
 31
0.0
  0
LINE
  5
8423
  8
0
 10
48.87672139623919
 20
211.2371013628199
 30
0.0
 11
48.54273654623921
 21
211.2371013628199
 31
0.0
  0
LINE
  5
8424
  8
0
 10
48.54273654623921
 20
211.2371013628199
 30
0.0
 11
48.54273654623921
 21
210.9031165128199
 31
0.0
  0
LINE
  5
8425
  8
0
 10
49.20992154623917
 20
210.9031165128199
 30
0.0
 11
49.54427689623918
 21
210.9031165128199
 31
0.0
  0
LINE
  5
8426
  8
0
 10
49.54427689623918
 20
210.9031165128199
 30
0.0
 11
49.54427689623918
 21
211.2371013628199
 31
0.0
  0
LINE
  5
8427
  8
0
 10
49.54427689623918
 20
211.2371013628199
 30
0.0
 11
49.20992154623917
 21
211.2371013628199
 31
0.0
  0
LINE
  5
8428
  8
0
 10
49.20992154623917
 20
211.2371013628199
 30
0.0
 11
49.20992154623917
 21
210.9031165128199
 31
0.0
  0
LINE
  5
8429
  8
0
 10
51.54707544623921
 20
210.9030804128199
 30
0.0
 11
51.54707544623921
 21
212.5722665128199
 31
0.0
  0
LINE
  5
842A
  8
0
 10
53.21550154623918
 20
212.5722665128199
 30
0.0
 11
53.21550154623918
 21
210.9030804128199
 31
0.0
  0
LINE
  5
842B
  8
0
 10
42.5343665462392
 20
210.5690965128199
 30
0.0
 11
44.87114804623923
 21
210.5690965128199
 31
0.0
  0
LINE
  5
842C
  8
0
 10
44.87114804623923
 20
210.5690965128199
 30
0.0
 11
44.87114804623923
 21
210.9030804128199
 31
0.0
  0
LINE
  5
842D
  8
0
 10
44.87114804623923
 20
210.9030804128199
 30
0.0
 11
42.5343665462392
 21
210.9030804128199
 31
0.0
  0
LINE
  5
842E
  8
0
 10
42.5343665462392
 20
210.9030804128199
 30
0.0
 11
42.5343665462392
 21
210.5690965128199
 31
0.0
  0
LINE
  5
842F
  8
0
 10
45.20510154623918
 20
210.5690965128199
 30
0.0
 11
45.53908639623921
 21
210.5690965128199
 31
0.0
  0
LINE
  5
8430
  8
0
 10
45.53908639623921
 20
210.5690965128199
 30
0.0
 11
45.53908639623921
 21
210.9030804128199
 31
0.0
  0
LINE
  5
8431
  8
0
 10
45.53908639623921
 20
210.9030804128199
 30
0.0
 11
45.20510154623918
 21
210.9030804128199
 31
0.0
  0
LINE
  5
8432
  8
0
 10
45.20510154623918
 20
210.9030804128199
 30
0.0
 11
45.20510154623918
 21
210.5690965128199
 31
0.0
  0
LINE
  5
8433
  8
0
 10
45.8726665462392
 20
210.5690965128199
 30
0.0
 11
46.20665044623922
 21
210.5690965128199
 31
0.0
  0
LINE
  5
8434
  8
0
 10
46.20665044623922
 20
210.5690965128199
 30
0.0
 11
46.20665044623922
 21
210.9030804128199
 31
0.0
  0
LINE
  5
8435
  8
0
 10
46.20665044623922
 20
210.9030804128199
 30
0.0
 11
45.8726665462392
 21
210.9030804128199
 31
0.0
  0
LINE
  5
8436
  8
0
 10
45.8726665462392
 20
210.9030804128199
 30
0.0
 11
45.8726665462392
 21
210.5690965128199
 31
0.0
  0
LINE
  5
8437
  8
0
 10
46.54032654623921
 20
210.5690965128199
 30
0.0
 11
46.87431044623918
 21
210.5690965128199
 31
0.0
  0
LINE
  5
8438
  8
0
 10
46.87431044623918
 20
210.5690965128199
 30
0.0
 11
46.87431044623918
 21
210.9030804128199
 31
0.0
  0
LINE
  5
8439
  8
0
 10
46.87431044623918
 20
210.9030804128199
 30
0.0
 11
46.54032654623921
 21
210.9030804128199
 31
0.0
  0
LINE
  5
843A
  8
0
 10
46.54032654623921
 20
210.9030804128199
 30
0.0
 11
46.54032654623921
 21
210.5690965128199
 31
0.0
  0
LINE
  5
843B
  8
0
 10
47.20751154623918
 20
210.5690965128199
 30
0.0
 11
47.5414954462392
 21
210.5690965128199
 31
0.0
  0
LINE
  5
843C
  8
0
 10
47.5414954462392
 20
210.5690965128199
 30
0.0
 11
47.5414954462392
 21
210.9030804128199
 31
0.0
  0
LINE
  5
843D
  8
0
 10
47.5414954462392
 20
210.9030804128199
 30
0.0
 11
47.20751154623918
 21
210.9030804128199
 31
0.0
  0
LINE
  5
843E
  8
0
 10
47.20751154623918
 20
210.9030804128199
 30
0.0
 11
47.20751154623918
 21
210.5690965128199
 31
0.0
  0
LINE
  5
843F
  8
0
 10
47.8750765462392
 20
210.5690965128199
 30
0.0
 11
48.20906139623918
 21
210.5690965128199
 31
0.0
  0
LINE
  5
8440
  8
0
 10
48.20906139623918
 20
210.5690965128199
 30
0.0
 11
48.20906139623918
 21
210.9030804128199
 31
0.0
  0
LINE
  5
8441
  8
0
 10
48.20906139623918
 20
210.9030804128199
 30
0.0
 11
47.8750765462392
 21
210.9030804128199
 31
0.0
  0
LINE
  5
8442
  8
0
 10
47.8750765462392
 20
210.9030804128199
 30
0.0
 11
47.8750765462392
 21
210.5690965128199
 31
0.0
  0
LINE
  5
8443
  8
0
 10
48.54273654623921
 20
210.5690965128199
 30
0.0
 11
48.87672139623919
 21
210.5690965128199
 31
0.0
  0
LINE
  5
8444
  8
0
 10
48.87672139623919
 20
210.5690965128199
 30
0.0
 11
48.87672139623919
 21
210.9030804128199
 31
0.0
  0
LINE
  5
8445
  8
0
 10
48.87672139623919
 20
210.9030804128199
 30
0.0
 11
48.54273654623921
 21
210.9030804128199
 31
0.0
  0
LINE
  5
8446
  8
0
 10
48.54273654623921
 20
210.9030804128199
 30
0.0
 11
48.54273654623921
 21
210.5690965128199
 31
0.0
  0
LINE
  5
8447
  8
0
 10
49.20992154623917
 20
210.5690965128199
 30
0.0
 11
49.54427689623918
 21
210.5690965128199
 31
0.0
  0
LINE
  5
8448
  8
0
 10
49.54427689623918
 20
210.5690965128199
 30
0.0
 11
49.54427689623918
 21
210.9030804128199
 31
0.0
  0
LINE
  5
8449
  8
0
 10
49.54427689623918
 20
210.9030804128199
 30
0.0
 11
49.20992154623917
 21
210.9030804128199
 31
0.0
  0
LINE
  5
844A
  8
0
 10
49.20992154623917
 20
210.9030804128199
 30
0.0
 11
49.20992154623917
 21
210.5690965128199
 31
0.0
  0
LINE
  5
844B
  8
0
 10
49.8774865462392
 20
210.5690965128199
 30
0.0
 11
50.21147044623922
 21
210.5690965128199
 31
0.0
  0
LINE
  5
844C
  8
0
 10
50.21147044623922
 20
210.5690965128199
 30
0.0
 11
50.21147044623922
 21
210.9030804128199
 31
0.0
  0
LINE
  5
844D
  8
0
 10
50.21147044623922
 20
210.9030804128199
 30
0.0
 11
49.8774865462392
 21
210.9030804128199
 31
0.0
  0
LINE
  5
844E
  8
0
 10
49.8774865462392
 20
210.9030804128199
 30
0.0
 11
49.8774865462392
 21
210.5690965128199
 31
0.0
  0
LINE
  5
844F
  8
0
 10
50.54590654623917
 20
210.5690965128199
 30
0.0
 11
50.8798913962392
 21
210.5690965128199
 31
0.0
  0
LINE
  5
8450
  8
0
 10
50.8798913962392
 20
210.5690965128199
 30
0.0
 11
50.8798913962392
 21
210.9030804128199
 31
0.0
  0
LINE
  5
8451
  8
0
 10
50.8798913962392
 20
210.9030804128199
 30
0.0
 11
50.54590654623917
 21
210.9030804128199
 31
0.0
  0
LINE
  5
8452
  8
0
 10
50.54590654623917
 20
210.9030804128199
 30
0.0
 11
50.54590654623917
 21
210.5690965128199
 31
0.0
  0
LINE
  5
8453
  8
0
 10
51.21309154623918
 20
210.5690965128199
 30
0.0
 11
53.54987304623921
 21
210.5690965128199
 31
0.0
  0
LINE
  5
8454
  8
0
 10
53.21550154623918
 20
210.9030804128199
 30
0.0
 11
51.54707544623921
 21
210.9030804128199
 31
0.0
  0
LINE
  5
8455
  8
0
 10
45.20510154623918
 20
210.2359315128199
 30
0.0
 11
45.53908639623921
 21
210.2359315128199
 31
0.0
  0
LINE
  5
8456
  8
0
 10
45.53908639623921
 20
210.2359315128199
 30
0.0
 11
45.53908639623921
 21
210.5699154128199
 31
0.0
  0
LINE
  5
8457
  8
0
 10
45.53908639623921
 20
210.5699154128199
 30
0.0
 11
45.20510154623918
 21
210.5699154128199
 31
0.0
  0
LINE
  5
8458
  8
0
 10
45.20510154623918
 20
210.5699154128199
 30
0.0
 11
45.20510154623918
 21
210.2359315128199
 31
0.0
  0
LINE
  5
8459
  8
0
 10
46.54032654623921
 20
210.2359315128199
 30
0.0
 11
46.87431044623918
 21
210.2359315128199
 31
0.0
  0
LINE
  5
845A
  8
0
 10
46.87431044623918
 20
210.2359315128199
 30
0.0
 11
46.87431044623918
 21
210.5699154128199
 31
0.0
  0
LINE
  5
845B
  8
0
 10
46.87431044623918
 20
210.5699154128199
 30
0.0
 11
46.54032654623921
 21
210.5699154128199
 31
0.0
  0
LINE
  5
845C
  8
0
 10
46.54032654623921
 20
210.5699154128199
 30
0.0
 11
46.54032654623921
 21
210.2359315128199
 31
0.0
  0
LINE
  5
845D
  8
0
 10
47.20751154623918
 20
210.2359315128199
 30
0.0
 11
47.5414954462392
 21
210.2359315128199
 31
0.0
  0
LINE
  5
845E
  8
0
 10
47.5414954462392
 20
210.2359315128199
 30
0.0
 11
47.5414954462392
 21
210.5699154128199
 31
0.0
  0
LINE
  5
845F
  8
0
 10
47.5414954462392
 20
210.5699154128199
 30
0.0
 11
47.20751154623918
 21
210.5699154128199
 31
0.0
  0
LINE
  5
8460
  8
0
 10
47.20751154623918
 20
210.5699154128199
 30
0.0
 11
47.20751154623918
 21
210.2359315128199
 31
0.0
  0
LINE
  5
8461
  8
0
 10
49.8774865462392
 20
210.2359315128199
 30
0.0
 11
50.21147044623922
 21
210.2359315128199
 31
0.0
  0
LINE
  5
8462
  8
0
 10
50.21147044623922
 20
210.2359315128199
 30
0.0
 11
50.21147044623922
 21
210.5699154128199
 31
0.0
  0
LINE
  5
8463
  8
0
 10
50.21147044623922
 20
210.5699154128199
 30
0.0
 11
49.8774865462392
 21
210.5699154128199
 31
0.0
  0
LINE
  5
8464
  8
0
 10
49.8774865462392
 20
210.5699154128199
 30
0.0
 11
49.8774865462392
 21
210.2359315128199
 31
0.0
  0
LINE
  5
8465
  8
0
 10
50.54590654623917
 20
210.2359315128199
 30
0.0
 11
50.8798913962392
 21
210.2359315128199
 31
0.0
  0
LINE
  5
8466
  8
0
 10
50.8798913962392
 20
210.2359315128199
 30
0.0
 11
50.8798913962392
 21
210.5699154128199
 31
0.0
  0
LINE
  5
8467
  8
0
 10
50.8798913962392
 20
210.5699154128199
 30
0.0
 11
50.54590654623917
 21
210.5699154128199
 31
0.0
  0
LINE
  5
8468
  8
0
 10
50.54590654623917
 20
210.5699154128199
 30
0.0
 11
50.54590654623917
 21
210.2359315128199
 31
0.0
  0
LINE
  5
8469
  8
0
 10
42.5343665462392
 20
209.9015315128199
 30
0.0
 11
42.86872189623921
 21
209.9015315128199
 31
0.0
  0
LINE
  5
846A
  8
0
 10
42.86872189623921
 20
209.9015315128199
 30
0.0
 11
42.86872189623921
 21
210.2358868628199
 31
0.0
  0
LINE
  5
846B
  8
0
 10
42.86872189623921
 20
210.2358868628199
 30
0.0
 11
42.5343665462392
 21
210.2358868628199
 31
0.0
  0
LINE
  5
846C
  8
0
 10
42.5343665462392
 20
210.2358868628199
 30
0.0
 11
42.5343665462392
 21
209.9015315128199
 31
0.0
  0
LINE
  5
846D
  8
0
 10
44.53744154623917
 20
209.9015315128199
 30
0.0
 11
44.87142544623919
 21
209.9015315128199
 31
0.0
  0
LINE
  5
846E
  8
0
 10
44.87142544623919
 20
209.9015315128199
 30
0.0
 11
44.87142544623919
 21
210.2358868628199
 31
0.0
  0
LINE
  5
846F
  8
0
 10
44.87142544623919
 20
210.2358868628199
 30
0.0
 11
44.53744154623917
 21
210.2358868628199
 31
0.0
  0
LINE
  5
8470
  8
0
 10
44.53744154623917
 20
210.2358868628199
 30
0.0
 11
44.53744154623917
 21
209.9015315128199
 31
0.0
  0
LINE
  5
8471
  8
0
 10
45.20510154623918
 20
209.9015315128199
 30
0.0
 11
46.20668654623921
 21
209.9015315128199
 31
0.0
  0
LINE
  5
8472
  8
0
 10
46.20668654623921
 20
209.9015315128199
 30
0.0
 11
46.20668654623921
 21
210.2358868628199
 31
0.0
  0
LINE
  5
8473
  8
0
 10
46.20668654623921
 20
210.2358868628199
 30
0.0
 11
45.20510154623918
 21
210.2358868628199
 31
0.0
  0
LINE
  5
8474
  8
0
 10
45.20510154623918
 20
210.2358868628199
 30
0.0
 11
45.20510154623918
 21
209.9015315128199
 31
0.0
  0
LINE
  5
8475
  8
0
 10
46.87349154623917
 20
209.9015315128199
 30
0.0
 11
48.54267004623921
 21
209.9015315128199
 31
0.0
  0
LINE
  5
8476
  8
0
 10
48.54267004623921
 20
209.9015315128199
 30
0.0
 11
48.54267004623921
 21
210.2358868628199
 31
0.0
  0
LINE
  5
8477
  8
0
 10
48.54267004623921
 20
210.2358868628199
 30
0.0
 11
46.87349154623917
 21
210.2358868628199
 31
0.0
  0
LINE
  5
8478
  8
0
 10
46.87349154623917
 20
210.2358868628199
 30
0.0
 11
46.87349154623917
 21
209.9015315128199
 31
0.0
  0
LINE
  5
8479
  8
0
 10
49.8774865462392
 20
209.9015315128199
 30
0.0
 11
50.21147044623922
 21
209.9015315128199
 31
0.0
  0
LINE
  5
847A
  8
0
 10
50.21147044623922
 20
209.9015315128199
 30
0.0
 11
50.21147044623922
 21
210.2358868628199
 31
0.0
  0
LINE
  5
847B
  8
0
 10
50.21147044623922
 20
210.2358868628199
 30
0.0
 11
49.8774865462392
 21
210.2358868628199
 31
0.0
  0
LINE
  5
847C
  8
0
 10
49.8774865462392
 20
210.2358868628199
 30
0.0
 11
49.8774865462392
 21
209.9015315128199
 31
0.0
  0
LINE
  5
847D
  8
0
 10
50.54590654623917
 20
209.9015315128199
 30
0.0
 11
51.54712104623917
 21
209.9015315128199
 31
0.0
  0
LINE
  5
847E
  8
0
 10
51.54712104623917
 20
209.9015315128199
 30
0.0
 11
51.54712104623917
 21
210.2358868628199
 31
0.0
  0
LINE
  5
847F
  8
0
 10
51.54712104623917
 20
210.2358868628199
 30
0.0
 11
50.54590654623917
 21
210.2358868628199
 31
0.0
  0
LINE
  5
8480
  8
0
 10
50.54590654623917
 20
210.2358868628199
 30
0.0
 11
50.54590654623917
 21
209.9015315128199
 31
0.0
  0
LINE
  5
8481
  8
0
 10
52.2139165462392
 20
209.9015315128199
 30
0.0
 11
53.21550154623918
 21
209.9015315128199
 31
0.0
  0
LINE
  5
8482
  8
0
 10
53.21550154623918
 20
209.9015315128199
 30
0.0
 11
53.21550154623918
 21
210.2358868628199
 31
0.0
  0
LINE
  5
8483
  8
0
 10
53.21550154623918
 20
210.2358868628199
 30
0.0
 11
52.2139165462392
 21
210.2358868628199
 31
0.0
  0
LINE
  5
8484
  8
0
 10
52.2139165462392
 20
210.2358868628199
 30
0.0
 11
52.2139165462392
 21
209.9015315128199
 31
0.0
  0
LINE
  5
8485
  8
0
 10
42.5343665462392
 20
209.5682715128199
 30
0.0
 11
42.86872189623921
 21
209.5682715128199
 31
0.0
  0
LINE
  5
8486
  8
0
 10
42.86872189623921
 20
209.5682715128199
 30
0.0
 11
42.86872189623921
 21
209.9022563628199
 31
0.0
  0
LINE
  5
8487
  8
0
 10
42.86872189623921
 20
209.9022563628199
 30
0.0
 11
42.5343665462392
 21
209.9022563628199
 31
0.0
  0
LINE
  5
8488
  8
0
 10
42.5343665462392
 20
209.9022563628199
 30
0.0
 11
42.5343665462392
 21
209.5682715128199
 31
0.0
  0
LINE
  5
8489
  8
0
 10
44.2035165462392
 20
209.5682715128199
 30
0.0
 11
44.53750139623918
 21
209.5682715128199
 31
0.0
  0
LINE
  5
848A
  8
0
 10
44.53750139623918
 20
209.5682715128199
 30
0.0
 11
44.53750139623918
 21
209.9022563628199
 31
0.0
  0
LINE
  5
848B
  8
0
 10
44.53750139623918
 20
209.9022563628199
 30
0.0
 11
44.2035165462392
 21
209.9022563628199
 31
0.0
  0
LINE
  5
848C
  8
0
 10
44.2035165462392
 20
209.9022563628199
 30
0.0
 11
44.2035165462392
 21
209.5682715128199
 31
0.0
  0
LINE
  5
848D
  8
0
 10
45.20510154623918
 20
209.5682715128199
 30
0.0
 11
45.53908639623921
 21
209.5682715128199
 31
0.0
  0
LINE
  5
848E
  8
0
 10
45.53908639623921
 20
209.5682715128199
 30
0.0
 11
45.53908639623921
 21
209.9022563628199
 31
0.0
  0
LINE
  5
848F
  8
0
 10
45.53908639623921
 20
209.9022563628199
 30
0.0
 11
45.20510154623918
 21
209.9022563628199
 31
0.0
  0
LINE
  5
8490
  8
0
 10
45.20510154623918
 20
209.9022563628199
 30
0.0
 11
45.20510154623918
 21
209.5682715128199
 31
0.0
  0
LINE
  5
8491
  8
0
 10
45.8726665462392
 20
209.5682715128199
 30
0.0
 11
46.87388104623921
 21
209.5682715128199
 31
0.0
  0
LINE
  5
8492
  8
0
 10
46.87388104623921
 20
209.5682715128199
 30
0.0
 11
46.87388104623921
 21
209.9022563628199
 31
0.0
  0
LINE
  5
8493
  8
0
 10
46.87388104623921
 20
209.9022563628199
 30
0.0
 11
45.8726665462392
 21
209.9022563628199
 31
0.0
  0
LINE
  5
8494
  8
0
 10
45.8726665462392
 20
209.9022563628199
 30
0.0
 11
45.8726665462392
 21
209.5682715128199
 31
0.0
  0
LINE
  5
8495
  8
0
 10
47.54153154623918
 20
209.5682715128199
 30
0.0
 11
47.87588689623919
 21
209.5682715128199
 31
0.0
  0
LINE
  5
8496
  8
0
 10
47.87588689623919
 20
209.5682715128199
 30
0.0
 11
47.87588689623919
 21
209.9022563628199
 31
0.0
  0
LINE
  5
8497
  8
0
 10
47.87588689623919
 20
209.9022563628199
 30
0.0
 11
47.54153154623918
 21
209.9022563628199
 31
0.0
  0
LINE
  5
8498
  8
0
 10
47.54153154623918
 20
209.9022563628199
 30
0.0
 11
47.54153154623918
 21
209.5682715128199
 31
0.0
  0
LINE
  5
8499
  8
0
 10
48.54273654623921
 20
209.5682715128199
 30
0.0
 11
49.20996334623919
 21
209.5682715128199
 31
0.0
  0
LINE
  5
849A
  8
0
 10
49.20996334623919
 20
209.5682715128199
 30
0.0
 11
49.20996334623919
 21
209.9022563628199
 31
0.0
  0
LINE
  5
849B
  8
0
 10
49.20996334623919
 20
209.9022563628199
 30
0.0
 11
48.54273654623921
 21
209.9022563628199
 31
0.0
  0
LINE
  5
849C
  8
0
 10
48.54273654623921
 20
209.9022563628199
 30
0.0
 11
48.54273654623921
 21
209.5682715128199
 31
0.0
  0
LINE
  5
849D
  8
0
 10
49.54432154623919
 20
209.5682715128199
 30
0.0
 11
50.54590654623917
 21
209.5682715128199
 31
0.0
  0
LINE
  5
849E
  8
0
 10
50.54590654623917
 20
209.5682715128199
 30
0.0
 11
50.54590654623917
 21
209.9022563628199
 31
0.0
  0
LINE
  5
849F
  8
0
 10
50.54590654623917
 20
209.9022563628199
 30
0.0
 11
49.54432154623919
 21
209.9022563628199
 31
0.0
  0
LINE
  5
84A0
  8
0
 10
49.54432154623919
 20
209.9022563628199
 30
0.0
 11
49.54432154623919
 21
209.5682715128199
 31
0.0
  0
LINE
  5
84A1
  8
0
 10
51.88065654623921
 20
209.5682715128199
 30
0.0
 11
52.88224154623919
 21
209.5682715128199
 31
0.0
  0
LINE
  5
84A2
  8
0
 10
52.88224154623919
 20
209.5682715128199
 30
0.0
 11
52.88224154623919
 21
209.9022563628199
 31
0.0
  0
LINE
  5
84A3
  8
0
 10
52.88224154623919
 20
209.9022563628199
 30
0.0
 11
51.88065654623921
 21
209.9022563628199
 31
0.0
  0
LINE
  5
84A4
  8
0
 10
51.88065654623921
 20
209.9022563628199
 30
0.0
 11
51.88065654623921
 21
209.5682715128199
 31
0.0
  0
LINE
  5
84A5
  8
0
 10
43.20193154623917
 20
209.2343465128199
 30
0.0
 11
43.53628784623919
 21
209.2343465128199
 31
0.0
  0
LINE
  5
84A6
  8
0
 10
43.53628784623919
 20
209.2343465128199
 30
0.0
 11
43.53628784623919
 21
209.5683304128199
 31
0.0
  0
LINE
  5
84A7
  8
0
 10
43.53628784623919
 20
209.5683304128199
 30
0.0
 11
43.20193154623917
 21
209.5683304128199
 31
0.0
  0
LINE
  5
84A8
  8
0
 10
43.20193154623917
 20
209.5683304128199
 30
0.0
 11
43.20193154623917
 21
209.2343465128199
 31
0.0
  0
LINE
  5
84A9
  8
0
 10
43.86949654623919
 20
209.2343465128199
 30
0.0
 11
45.20469304623919
 21
209.2343465128199
 31
0.0
  0
LINE
  5
84AA
  8
0
 10
45.20469304623919
 20
209.2343465128199
 30
0.0
 11
45.20469304623919
 21
209.5683304128199
 31
0.0
  0
LINE
  5
84AB
  8
0
 10
45.20469304623919
 20
209.5683304128199
 30
0.0
 11
43.86949654623919
 21
209.5683304128199
 31
0.0
  0
LINE
  5
84AC
  8
0
 10
43.86949654623919
 20
209.5683304128199
 30
0.0
 11
43.86949654623919
 21
209.2343465128199
 31
0.0
  0
LINE
  5
84AD
  8
0
 10
45.53874154623918
 20
209.2343465128199
 30
0.0
 11
46.20596834623922
 21
209.2343465128199
 31
0.0
  0
LINE
  5
84AE
  8
0
 10
46.20596834623922
 20
209.2343465128199
 30
0.0
 11
46.20596834623922
 21
209.5683304128199
 31
0.0
  0
LINE
  5
84AF
  8
0
 10
46.20596834623922
 20
209.5683304128199
 30
0.0
 11
45.53874154623918
 21
209.5683304128199
 31
0.0
  0
LINE
  5
84B0
  8
0
 10
45.53874154623918
 20
209.5683304128199
 30
0.0
 11
45.53874154623918
 21
209.2343465128199
 31
0.0
  0
LINE
  5
84B1
  8
0
 10
46.54032654623921
 20
209.2343465128199
 30
0.0
 11
46.87431044623918
 21
209.2343465128199
 31
0.0
  0
LINE
  5
84B2
  8
0
 10
46.87431044623918
 20
209.2343465128199
 30
0.0
 11
46.87431044623918
 21
209.5683304128199
 31
0.0
  0
LINE
  5
84B3
  8
0
 10
46.87431044623918
 20
209.5683304128199
 30
0.0
 11
46.54032654623921
 21
209.5683304128199
 31
0.0
  0
LINE
  5
84B4
  8
0
 10
46.54032654623921
 20
209.5683304128199
 30
0.0
 11
46.54032654623921
 21
209.2343465128199
 31
0.0
  0
LINE
  5
84B5
  8
0
 10
47.54153154623918
 20
209.2343465128199
 30
0.0
 11
47.87588689623919
 21
209.2343465128199
 31
0.0
  0
LINE
  5
84B6
  8
0
 10
47.87588689623919
 20
209.2343465128199
 30
0.0
 11
47.87588689623919
 21
209.5683304128199
 31
0.0
  0
LINE
  5
84B7
  8
0
 10
47.87588689623919
 20
209.5683304128199
 30
0.0
 11
47.54153154623918
 21
209.5683304128199
 31
0.0
  0
LINE
  5
84B8
  8
0
 10
47.54153154623918
 20
209.5683304128199
 30
0.0
 11
47.54153154623918
 21
209.2343465128199
 31
0.0
  0
LINE
  5
84B9
  8
0
 10
48.54273654623921
 20
209.2343465128199
 30
0.0
 11
48.87672139623919
 21
209.2343465128199
 31
0.0
  0
LINE
  5
84BA
  8
0
 10
48.87672139623919
 20
209.2343465128199
 30
0.0
 11
48.87672139623919
 21
209.5683304128199
 31
0.0
  0
LINE
  5
84BB
  8
0
 10
48.87672139623919
 20
209.5683304128199
 30
0.0
 11
48.54273654623921
 21
209.5683304128199
 31
0.0
  0
LINE
  5
84BC
  8
0
 10
48.54273654623921
 20
209.5683304128199
 30
0.0
 11
48.54273654623921
 21
209.2343465128199
 31
0.0
  0
LINE
  5
84BD
  8
0
 10
49.20992154623917
 20
209.2343465128199
 30
0.0
 11
49.54427689623918
 21
209.2343465128199
 31
0.0
  0
LINE
  5
84BE
  8
0
 10
49.54427689623918
 20
209.2343465128199
 30
0.0
 11
49.54427689623918
 21
209.5683304128199
 31
0.0
  0
LINE
  5
84BF
  8
0
 10
49.54427689623918
 20
209.5683304128199
 30
0.0
 11
49.20992154623917
 21
209.5683304128199
 31
0.0
  0
LINE
  5
84C0
  8
0
 10
49.20992154623917
 20
209.5683304128199
 30
0.0
 11
49.20992154623917
 21
209.2343465128199
 31
0.0
  0
LINE
  5
84C1
  8
0
 10
49.8774865462392
 20
209.2343465128199
 30
0.0
 11
50.21147044623922
 21
209.2343465128199
 31
0.0
  0
LINE
  5
84C2
  8
0
 10
50.21147044623922
 20
209.2343465128199
 30
0.0
 11
50.21147044623922
 21
209.5683304128199
 31
0.0
  0
LINE
  5
84C3
  8
0
 10
50.21147044623922
 20
209.5683304128199
 30
0.0
 11
49.8774865462392
 21
209.5683304128199
 31
0.0
  0
LINE
  5
84C4
  8
0
 10
49.8774865462392
 20
209.5683304128199
 30
0.0
 11
49.8774865462392
 21
209.2343465128199
 31
0.0
  0
LINE
  5
84C5
  8
0
 10
50.54590654623917
 20
209.2343465128199
 30
0.0
 11
51.54712104623917
 21
209.2343465128199
 31
0.0
  0
LINE
  5
84C6
  8
0
 10
51.54712104623917
 20
209.2343465128199
 30
0.0
 11
51.54712104623917
 21
209.5683304128199
 31
0.0
  0
LINE
  5
84C7
  8
0
 10
51.54712104623917
 20
209.5683304128199
 30
0.0
 11
50.54590654623917
 21
209.5683304128199
 31
0.0
  0
LINE
  5
84C8
  8
0
 10
50.54590654623917
 20
209.5683304128199
 30
0.0
 11
50.54590654623917
 21
209.2343465128199
 31
0.0
  0
LINE
  5
84C9
  8
0
 10
51.88065654623921
 20
209.2343465128199
 30
0.0
 11
52.21464139623919
 21
209.2343465128199
 31
0.0
  0
LINE
  5
84CA
  8
0
 10
52.21464139623919
 20
209.2343465128199
 30
0.0
 11
52.21464139623919
 21
209.5683304128199
 31
0.0
  0
LINE
  5
84CB
  8
0
 10
52.21464139623919
 20
209.5683304128199
 30
0.0
 11
51.88065654623921
 21
209.5683304128199
 31
0.0
  0
LINE
  5
84CC
  8
0
 10
51.88065654623921
 20
209.5683304128199
 30
0.0
 11
51.88065654623921
 21
209.2343465128199
 31
0.0
  0
LINE
  5
84CD
  8
0
 10
52.54831654623916
 20
209.2343465128199
 30
0.0
 11
53.21554239623919
 21
209.2343465128199
 31
0.0
  0
LINE
  5
84CE
  8
0
 10
53.21554239623919
 20
209.2343465128199
 30
0.0
 11
53.21554239623919
 21
209.5683304128199
 31
0.0
  0
LINE
  5
84CF
  8
0
 10
53.21554239623919
 20
209.5683304128199
 30
0.0
 11
52.54831654623916
 21
209.5683304128199
 31
0.0
  0
LINE
  5
84D0
  8
0
 10
52.54831654623916
 20
209.5683304128199
 30
0.0
 11
52.54831654623916
 21
209.2343465128199
 31
0.0
  0
LINE
  5
84D1
  8
0
 10
42.5343665462392
 20
208.8999465128199
 30
0.0
 11
43.20196384623915
 21
208.8999465128199
 31
0.0
  0
LINE
  5
84D2
  8
0
 10
43.20196384623915
 20
208.8999465128199
 30
0.0
 11
43.20196384623915
 21
209.2343018628199
 31
0.0
  0
LINE
  5
84D3
  8
0
 10
43.20196384623915
 20
209.2343018628199
 30
0.0
 11
42.5343665462392
 21
209.2343018628199
 31
0.0
  0
LINE
  5
84D4
  8
0
 10
42.5343665462392
 20
209.2343018628199
 30
0.0
 11
42.5343665462392
 21
208.8999465128199
 31
0.0
  0
LINE
  5
84D5
  8
0
 10
43.53585654623919
 20
208.8999465128199
 30
0.0
 11
44.2034538462392
 21
208.8999465128199
 31
0.0
  0
LINE
  5
84D6
  8
0
 10
44.2034538462392
 20
208.8999465128199
 30
0.0
 11
44.2034538462392
 21
209.2343018628199
 31
0.0
  0
LINE
  5
84D7
  8
0
 10
44.2034538462392
 20
209.2343018628199
 30
0.0
 11
43.53585654623919
 21
209.2343018628199
 31
0.0
  0
LINE
  5
84D8
  8
0
 10
43.53585654623919
 20
209.2343018628199
 30
0.0
 11
43.53585654623919
 21
208.8999465128199
 31
0.0
  0
LINE
  5
84D9
  8
0
 10
44.87108154623917
 20
208.8999465128199
 30
0.0
 11
45.20506544623919
 21
208.8999465128199
 31
0.0
  0
LINE
  5
84DA
  8
0
 10
45.20506544623919
 20
208.8999465128199
 30
0.0
 11
45.20506544623919
 21
209.2343018628199
 31
0.0
  0
LINE
  5
84DB
  8
0
 10
45.20506544623919
 20
209.2343018628199
 30
0.0
 11
44.87108154623917
 21
209.2343018628199
 31
0.0
  0
LINE
  5
84DC
  8
0
 10
44.87108154623917
 20
209.2343018628199
 30
0.0
 11
44.87108154623917
 21
208.8999465128199
 31
0.0
  0
LINE
  5
84DD
  8
0
 10
45.8726665462392
 20
208.8999465128199
 30
0.0
 11
46.53989239623917
 21
208.8999465128199
 31
0.0
  0
LINE
  5
84DE
  8
0
 10
46.53989239623917
 20
208.8999465128199
 30
0.0
 11
46.53989239623917
 21
209.2343018628199
 31
0.0
  0
LINE
  5
84DF
  8
0
 10
46.53989239623917
 20
209.2343018628199
 30
0.0
 11
45.8726665462392
 21
209.2343018628199
 31
0.0
  0
LINE
  5
84E0
  8
0
 10
45.8726665462392
 20
209.2343018628199
 30
0.0
 11
45.8726665462392
 21
208.8999465128199
 31
0.0
  0
LINE
  5
84E1
  8
0
 10
47.20751154623918
 20
208.8999465128199
 30
0.0
 11
47.87510884623919
 21
208.8999465128199
 31
0.0
  0
LINE
  5
84E2
  8
0
 10
47.87510884623919
 20
208.8999465128199
 30
0.0
 11
47.87510884623919
 21
209.2343018628199
 31
0.0
  0
LINE
  5
84E3
  8
0
 10
47.87510884623919
 20
209.2343018628199
 30
0.0
 11
47.20751154623918
 21
209.2343018628199
 31
0.0
  0
LINE
  5
84E4
  8
0
 10
47.20751154623918
 20
209.2343018628199
 30
0.0
 11
47.20751154623918
 21
208.8999465128199
 31
0.0
  0
LINE
  5
84E5
  8
0
 10
48.87666154623918
 20
208.8999465128199
 30
0.0
 11
49.54425884623919
 21
208.8999465128199
 31
0.0
  0
LINE
  5
84E6
  8
0
 10
49.54425884623919
 20
208.8999465128199
 30
0.0
 11
49.54425884623919
 21
209.2343018628199
 31
0.0
  0
LINE
  5
84E7
  8
0
 10
49.54425884623919
 20
209.2343018628199
 30
0.0
 11
48.87666154623918
 21
209.2343018628199
 31
0.0
  0
LINE
  5
84E8
  8
0
 10
48.87666154623918
 20
209.2343018628199
 30
0.0
 11
48.87666154623918
 21
208.8999465128199
 31
0.0
  0
LINE
  5
84E9
  8
0
 10
49.8774865462392
 20
208.8999465128199
 30
0.0
 11
50.54508384623921
 21
208.8999465128199
 31
0.0
  0
LINE
  5
84EA
  8
0
 10
50.54508384623921
 20
208.8999465128199
 30
0.0
 11
50.54508384623921
 21
209.2343018628199
 31
0.0
  0
LINE
  5
84EB
  8
0
 10
50.54508384623921
 20
209.2343018628199
 30
0.0
 11
49.8774865462392
 21
209.2343018628199
 31
0.0
  0
LINE
  5
84EC
  8
0
 10
49.8774865462392
 20
209.2343018628199
 30
0.0
 11
49.8774865462392
 21
208.8999465128199
 31
0.0
  0
LINE
  5
84ED
  8
0
 10
50.87907154623917
 20
208.8999465128199
 30
0.0
 11
51.21305639623921
 21
208.8999465128199
 31
0.0
  0
LINE
  5
84EE
  8
0
 10
51.21305639623921
 20
208.8999465128199
 30
0.0
 11
51.21305639623921
 21
209.2343018628199
 31
0.0
  0
LINE
  5
84EF
  8
0
 10
51.21305639623921
 20
209.2343018628199
 30
0.0
 11
50.87907154623917
 21
209.2343018628199
 31
0.0
  0
LINE
  5
84F0
  8
0
 10
50.87907154623917
 20
209.2343018628199
 30
0.0
 11
50.87907154623917
 21
208.8999465128199
 31
0.0
  0
LINE
  5
84F1
  8
0
 10
51.54673154623919
 20
208.8999465128199
 30
0.0
 11
53.54915104623922
 21
208.8999465128199
 31
0.0
  0
LINE
  5
84F2
  8
0
 10
53.54915104623922
 20
208.8999465128199
 30
0.0
 11
53.54915104623922
 21
209.2343018628199
 31
0.0
  0
LINE
  5
84F3
  8
0
 10
53.54915104623922
 20
209.2343018628199
 30
0.0
 11
51.54673154623919
 21
209.2343018628199
 31
0.0
  0
LINE
  5
84F4
  8
0
 10
51.54673154623919
 20
209.2343018628199
 30
0.0
 11
51.54673154623919
 21
208.8999465128199
 31
0.0
  0
LINE
  5
84F5
  8
0
 10
42.86867154623917
 20
208.5666865128199
 30
0.0
 11
43.20265639623921
 21
208.5666865128199
 31
0.0
  0
LINE
  5
84F6
  8
0
 10
43.20265639623921
 20
208.5666865128199
 30
0.0
 11
43.20265639623921
 21
208.9006713628199
 31
0.0
  0
LINE
  5
84F7
  8
0
 10
43.20265639623921
 20
208.9006713628199
 30
0.0
 11
42.86867154623917
 21
208.9006713628199
 31
0.0
  0
LINE
  5
84F8
  8
0
 10
42.86867154623917
 20
208.9006713628199
 30
0.0
 11
42.86867154623917
 21
208.5666865128199
 31
0.0
  0
LINE
  5
84F9
  8
0
 10
43.53585654623919
 20
208.5666865128199
 30
0.0
 11
43.86984044623921
 21
208.5666865128199
 31
0.0
  0
LINE
  5
84FA
  8
0
 10
43.86984044623921
 20
208.5666865128199
 30
0.0
 11
43.86984044623921
 21
208.9006713628199
 31
0.0
  0
LINE
  5
84FB
  8
0
 10
43.86984044623921
 20
208.9006713628199
 30
0.0
 11
43.53585654623919
 21
208.9006713628199
 31
0.0
  0
LINE
  5
84FC
  8
0
 10
43.53585654623919
 20
208.9006713628199
 30
0.0
 11
43.53585654623919
 21
208.5666865128199
 31
0.0
  0
LINE
  5
84FD
  8
0
 10
44.53744154623917
 20
208.5666865128199
 30
0.0
 11
45.5390265462392
 21
208.5666865128199
 31
0.0
  0
LINE
  5
84FE
  8
0
 10
45.5390265462392
 20
208.5666865128199
 30
0.0
 11
45.5390265462392
 21
208.9006713628199
 31
0.0
  0
LINE
  5
84FF
  8
0
 10
45.5390265462392
 20
208.9006713628199
 30
0.0
 11
44.53744154623917
 21
208.9006713628199
 31
0.0
  0
LINE
  5
8500
  8
0
 10
44.53744154623917
 20
208.9006713628199
 30
0.0
 11
44.53744154623917
 21
208.5666865128199
 31
0.0
  0
LINE
  5
8501
  8
0
 10
46.87349154623917
 20
208.5666865128199
 30
0.0
 11
47.54108979623919
 21
208.5666865128199
 31
0.0
  0
LINE
  5
8502
  8
0
 10
47.54108979623919
 20
208.5666865128199
 30
0.0
 11
47.54108979623919
 21
208.9006713628199
 31
0.0
  0
LINE
  5
8503
  8
0
 10
47.54108979623919
 20
208.9006713628199
 30
0.0
 11
46.87349154623917
 21
208.9006713628199
 31
0.0
  0
LINE
  5
8504
  8
0
 10
46.87349154623917
 20
208.9006713628199
 30
0.0
 11
46.87349154623917
 21
208.5666865128199
 31
0.0
  0
LINE
  5
8505
  8
0
 10
47.8750765462392
 20
208.5666865128199
 30
0.0
 11
48.87666154623918
 21
208.5666865128199
 31
0.0
  0
LINE
  5
8506
  8
0
 10
48.87666154623918
 20
208.5666865128199
 30
0.0
 11
48.87666154623918
 21
208.9006713628199
 31
0.0
  0
LINE
  5
8507
  8
0
 10
48.87666154623918
 20
208.9006713628199
 30
0.0
 11
47.8750765462392
 21
208.9006713628199
 31
0.0
  0
LINE
  5
8508
  8
0
 10
47.8750765462392
 20
208.9006713628199
 30
0.0
 11
47.8750765462392
 21
208.5666865128199
 31
0.0
  0
LINE
  5
8509
  8
0
 10
49.20992154623917
 20
208.5666865128199
 30
0.0
 11
50.21150654623921
 21
208.5666865128199
 31
0.0
  0
LINE
  5
850A
  8
0
 10
50.21150654623921
 20
208.5666865128199
 30
0.0
 11
50.21150654623921
 21
208.9006713628199
 31
0.0
  0
LINE
  5
850B
  8
0
 10
50.21150654623921
 20
208.9006713628199
 30
0.0
 11
49.20992154623917
 21
208.9006713628199
 31
0.0
  0
LINE
  5
850C
  8
0
 10
49.20992154623917
 20
208.9006713628199
 30
0.0
 11
49.20992154623917
 21
208.5666865128199
 31
0.0
  0
LINE
  5
850D
  8
0
 10
50.54590654623917
 20
208.5666865128199
 30
0.0
 11
50.8798913962392
 21
208.5666865128199
 31
0.0
  0
LINE
  5
850E
  8
0
 10
50.8798913962392
 20
208.5666865128199
 30
0.0
 11
50.8798913962392
 21
208.9006713628199
 31
0.0
  0
LINE
  5
850F
  8
0
 10
50.8798913962392
 20
208.9006713628199
 30
0.0
 11
50.54590654623917
 21
208.9006713628199
 31
0.0
  0
LINE
  5
8510
  8
0
 10
50.54590654623917
 20
208.9006713628199
 30
0.0
 11
50.54590654623917
 21
208.5666865128199
 31
0.0
  0
LINE
  5
8511
  8
0
 10
51.21309154623918
 20
208.5666865128199
 30
0.0
 11
51.8806888462392
 21
208.5666865128199
 31
0.0
  0
LINE
  5
8512
  8
0
 10
51.8806888462392
 20
208.5666865128199
 30
0.0
 11
51.8806888462392
 21
208.9006713628199
 31
0.0
  0
LINE
  5
8513
  8
0
 10
51.8806888462392
 20
208.9006713628199
 30
0.0
 11
51.21309154623918
 21
208.9006713628199
 31
0.0
  0
LINE
  5
8514
  8
0
 10
51.21309154623918
 20
208.9006713628199
 30
0.0
 11
51.21309154623918
 21
208.5666865128199
 31
0.0
  0
LINE
  5
8515
  8
0
 10
42.5343665462392
 20
208.2327615128199
 30
0.0
 11
43.20196384623915
 21
208.2327615128199
 31
0.0
  0
LINE
  5
8516
  8
0
 10
43.20196384623915
 20
208.2327615128199
 30
0.0
 11
43.20196384623915
 21
208.5667454128199
 31
0.0
  0
LINE
  5
8517
  8
0
 10
43.20196384623915
 20
208.5667454128199
 30
0.0
 11
42.5343665462392
 21
208.5667454128199
 31
0.0
  0
LINE
  5
8518
  8
0
 10
42.5343665462392
 20
208.5667454128199
 30
0.0
 11
42.5343665462392
 21
208.2327615128199
 31
0.0
  0
LINE
  5
8519
  8
0
 10
43.53585654623919
 20
208.2327615128199
 30
0.0
 11
44.2034538462392
 21
208.2327615128199
 31
0.0
  0
LINE
  5
851A
  8
0
 10
44.2034538462392
 20
208.2327615128199
 30
0.0
 11
44.2034538462392
 21
208.5667454128199
 31
0.0
  0
LINE
  5
851B
  8
0
 10
44.2034538462392
 20
208.5667454128199
 30
0.0
 11
43.53585654623919
 21
208.5667454128199
 31
0.0
  0
LINE
  5
851C
  8
0
 10
43.53585654623919
 20
208.5667454128199
 30
0.0
 11
43.53585654623919
 21
208.2327615128199
 31
0.0
  0
LINE
  5
851D
  8
0
 10
44.87108154623917
 20
208.2327615128199
 30
0.0
 11
45.53867884623918
 21
208.2327615128199
 31
0.0
  0
LINE
  5
851E
  8
0
 10
45.53867884623918
 20
208.2327615128199
 30
0.0
 11
45.53867884623918
 21
208.5667454128199
 31
0.0
  0
LINE
  5
851F
  8
0
 10
45.53867884623918
 20
208.5667454128199
 30
0.0
 11
44.87108154623917
 21
208.5667454128199
 31
0.0
  0
LINE
  5
8520
  8
0
 10
44.87108154623917
 20
208.5667454128199
 30
0.0
 11
44.87108154623917
 21
208.2327615128199
 31
0.0
  0
LINE
  5
8521
  8
0
 10
46.2059265462392
 20
208.2327615128199
 30
0.0
 11
46.87352384623921
 21
208.2327615128199
 31
0.0
  0
LINE
  5
8522
  8
0
 10
46.87352384623921
 20
208.2327615128199
 30
0.0
 11
46.87352384623921
 21
208.5667454128199
 31
0.0
  0
LINE
  5
8523
  8
0
 10
46.87352384623921
 20
208.5667454128199
 30
0.0
 11
46.2059265462392
 21
208.5667454128199
 31
0.0
  0
LINE
  5
8524
  8
0
 10
46.2059265462392
 20
208.5667454128199
 30
0.0
 11
46.2059265462392
 21
208.2327615128199
 31
0.0
  0
LINE
  5
8525
  8
0
 10
47.20751154623918
 20
208.2327615128199
 30
0.0
 11
47.5414954462392
 21
208.2327615128199
 31
0.0
  0
LINE
  5
8526
  8
0
 10
47.5414954462392
 20
208.2327615128199
 30
0.0
 11
47.5414954462392
 21
208.5667454128199
 31
0.0
  0
LINE
  5
8527
  8
0
 10
47.5414954462392
 20
208.5667454128199
 30
0.0
 11
47.20751154623918
 21
208.5667454128199
 31
0.0
  0
LINE
  5
8528
  8
0
 10
47.20751154623918
 20
208.5667454128199
 30
0.0
 11
47.20751154623918
 21
208.2327615128199
 31
0.0
  0
LINE
  5
8529
  8
0
 10
47.8750765462392
 20
208.2327615128199
 30
0.0
 11
48.54267384623921
 21
208.2327615128199
 31
0.0
  0
LINE
  5
852A
  8
0
 10
48.54267384623921
 20
208.2327615128199
 30
0.0
 11
48.54267384623921
 21
208.5667454128199
 31
0.0
  0
LINE
  5
852B
  8
0
 10
48.54267384623921
 20
208.5667454128199
 30
0.0
 11
47.8750765462392
 21
208.5667454128199
 31
0.0
  0
LINE
  5
852C
  8
0
 10
47.8750765462392
 20
208.5667454128199
 30
0.0
 11
47.8750765462392
 21
208.2327615128199
 31
0.0
  0
LINE
  5
852D
  8
0
 10
49.20992154623917
 20
208.2327615128199
 30
0.0
 11
49.8775197962392
 21
208.2327615128199
 31
0.0
  0
LINE
  5
852E
  8
0
 10
49.8775197962392
 20
208.2327615128199
 30
0.0
 11
49.8775197962392
 21
208.5667454128199
 31
0.0
  0
LINE
  5
852F
  8
0
 10
49.8775197962392
 20
208.5667454128199
 30
0.0
 11
49.20992154623917
 21
208.5667454128199
 31
0.0
  0
LINE
  5
8530
  8
0
 10
49.20992154623917
 20
208.5667454128199
 30
0.0
 11
49.20992154623917
 21
208.2327615128199
 31
0.0
  0
LINE
  5
8531
  8
0
 10
50.21150654623921
 20
208.2327615128199
 30
0.0
 11
50.54586189623922
 21
208.2327615128199
 31
0.0
  0
LINE
  5
8532
  8
0
 10
50.54586189623922
 20
208.2327615128199
 30
0.0
 11
50.54586189623922
 21
208.5667454128199
 31
0.0
  0
LINE
  5
8533
  8
0
 10
50.54586189623922
 20
208.5667454128199
 30
0.0
 11
50.21150654623921
 21
208.5667454128199
 31
0.0
  0
LINE
  5
8534
  8
0
 10
50.21150654623921
 20
208.5667454128199
 30
0.0
 11
50.21150654623921
 21
208.2327615128199
 31
0.0
  0
LINE
  5
8535
  8
0
 10
51.21309154623918
 20
208.2327615128199
 30
0.0
 11
51.54707544623921
 21
208.2327615128199
 31
0.0
  0
LINE
  5
8536
  8
0
 10
51.54707544623921
 20
208.2327615128199
 30
0.0
 11
51.54707544623921
 21
208.5667454128199
 31
0.0
  0
LINE
  5
8537
  8
0
 10
51.54707544623921
 20
208.5667454128199
 30
0.0
 11
51.21309154623918
 21
208.5667454128199
 31
0.0
  0
LINE
  5
8538
  8
0
 10
51.21309154623918
 20
208.5667454128199
 30
0.0
 11
51.21309154623918
 21
208.2327615128199
 31
0.0
  0
LINE
  5
8539
  8
0
 10
52.2139165462392
 20
208.2327615128199
 30
0.0
 11
53.5491130462392
 21
208.2327615128199
 31
0.0
  0
LINE
  5
853A
  8
0
 10
53.5491130462392
 20
208.2327615128199
 30
0.0
 11
53.5491130462392
 21
208.5667454128199
 31
0.0
  0
LINE
  5
853B
  8
0
 10
53.5491130462392
 20
208.5667454128199
 30
0.0
 11
52.2139165462392
 21
208.5667454128199
 31
0.0
  0
LINE
  5
853C
  8
0
 10
52.2139165462392
 20
208.5667454128199
 30
0.0
 11
52.2139165462392
 21
208.2327615128199
 31
0.0
  0
LINE
  5
853D
  8
0
 10
42.86867154623917
 20
207.8991215128199
 30
0.0
 11
46.20665804623917
 21
207.8991215128199
 31
0.0
  0
LINE
  5
853E
  8
0
 10
46.20665804623917
 20
207.8991215128199
 30
0.0
 11
46.20665804623917
 21
208.2331063628199
 31
0.0
  0
LINE
  5
853F
  8
0
 10
46.20665804623917
 20
208.2331063628199
 30
0.0
 11
42.86867154623917
 21
208.2331063628199
 31
0.0
  0
LINE
  5
8540
  8
0
 10
42.86867154623917
 20
208.2331063628199
 30
0.0
 11
42.86867154623917
 21
207.8991215128199
 31
0.0
  0
LINE
  5
8541
  8
0
 10
46.87349154623917
 20
207.8991215128199
 30
0.0
 11
47.2074763962392
 21
207.8991215128199
 31
0.0
  0
LINE
  5
8542
  8
0
 10
47.2074763962392
 20
207.8991215128199
 30
0.0
 11
47.2074763962392
 21
208.2331063628199
 31
0.0
  0
LINE
  5
8543
  8
0
 10
47.2074763962392
 20
208.2331063628199
 30
0.0
 11
46.87349154623917
 21
208.2331063628199
 31
0.0
  0
LINE
  5
8544
  8
0
 10
46.87349154623917
 20
208.2331063628199
 30
0.0
 11
46.87349154623917
 21
207.8991215128199
 31
0.0
  0
LINE
  5
8545
  8
0
 10
48.20909654623921
 20
207.8991215128199
 30
0.0
 11
48.54308044623917
 21
207.8991215128199
 31
0.0
  0
LINE
  5
8546
  8
0
 10
48.54308044623917
 20
207.8991215128199
 30
0.0
 11
48.54308044623917
 21
208.2331063628199
 31
0.0
  0
LINE
  5
8547
  8
0
 10
48.54308044623917
 20
208.2331063628199
 30
0.0
 11
48.20909654623921
 21
208.2331063628199
 31
0.0
  0
LINE
  5
8548
  8
0
 10
48.20909654623921
 20
208.2331063628199
 30
0.0
 11
48.20909654623921
 21
207.8991215128199
 31
0.0
  0
LINE
  5
8549
  8
0
 10
48.87666154623918
 20
207.8991215128199
 30
0.0
 11
49.2106454462392
 21
207.8991215128199
 31
0.0
  0
LINE
  5
854A
  8
0
 10
49.2106454462392
 20
207.8991215128199
 30
0.0
 11
49.2106454462392
 21
208.2331063628199
 31
0.0
  0
LINE
  5
854B
  8
0
 10
49.2106454462392
 20
208.2331063628199
 30
0.0
 11
48.87666154623918
 21
208.2331063628199
 31
0.0
  0
LINE
  5
854C
  8
0
 10
48.87666154623918
 20
208.2331063628199
 30
0.0
 11
48.87666154623918
 21
207.8991215128199
 31
0.0
  0
LINE
  5
854D
  8
0
 10
50.87907154623917
 20
207.8991215128199
 30
0.0
 11
51.5466697962392
 21
207.8991215128199
 31
0.0
  0
LINE
  5
854E
  8
0
 10
51.5466697962392
 20
207.8991215128199
 30
0.0
 11
51.5466697962392
 21
208.2331063628199
 31
0.0
  0
LINE
  5
854F
  8
0
 10
51.5466697962392
 20
208.2331063628199
 30
0.0
 11
50.87907154623917
 21
208.2331063628199
 31
0.0
  0
LINE
  5
8550
  8
0
 10
50.87907154623917
 20
208.2331063628199
 30
0.0
 11
50.87907154623917
 21
207.8991215128199
 31
0.0
  0
LINE
  5
8551
  8
0
 10
51.88065654623921
 20
207.8991215128199
 30
0.0
 11
52.21464139623919
 21
207.8991215128199
 31
0.0
  0
LINE
  5
8552
  8
0
 10
52.21464139623919
 20
207.8991215128199
 30
0.0
 11
52.21464139623919
 21
208.2331063628199
 31
0.0
  0
LINE
  5
8553
  8
0
 10
52.21464139623919
 20
208.2331063628199
 30
0.0
 11
51.88065654623921
 21
208.2331063628199
 31
0.0
  0
LINE
  5
8554
  8
0
 10
51.88065654623921
 20
208.2331063628199
 30
0.0
 11
51.88065654623921
 21
207.8991215128199
 31
0.0
  0
LINE
  5
8555
  8
0
 10
52.54831654623916
 20
207.8991215128199
 30
0.0
 11
53.21554239623919
 21
207.8991215128199
 31
0.0
  0
LINE
  5
8556
  8
0
 10
53.21554239623919
 20
207.8991215128199
 30
0.0
 11
53.21554239623919
 21
208.2331063628199
 31
0.0
  0
LINE
  5
8557
  8
0
 10
53.21554239623919
 20
208.2331063628199
 30
0.0
 11
52.54831654623916
 21
208.2331063628199
 31
0.0
  0
LINE
  5
8558
  8
0
 10
52.54831654623916
 20
208.2331063628199
 30
0.0
 11
52.54831654623916
 21
207.8991215128199
 31
0.0
  0
LINE
  5
8559
  8
0
 10
42.5343665462392
 20
207.5651015128199
 30
0.0
 11
43.20196384623915
 21
207.5651015128199
 31
0.0
  0
LINE
  5
855A
  8
0
 10
43.20196384623915
 20
207.5651015128199
 30
0.0
 11
43.20196384623915
 21
207.8991215128199
 31
0.0
  0
LINE
  5
855B
  8
0
 10
43.20196384623915
 20
207.8991215128199
 30
0.0
 11
42.5343665462392
 21
207.8991215128199
 31
0.0
  0
LINE
  5
855C
  8
0
 10
42.5343665462392
 20
207.8991215128199
 30
0.0
 11
42.5343665462392
 21
207.5651015128199
 31
0.0
  0
LINE
  5
855D
  8
0
 10
43.53585654623919
 20
207.5651015128199
 30
0.0
 11
44.2034538462392
 21
207.5651015128199
 31
0.0
  0
LINE
  5
855E
  8
0
 10
44.2034538462392
 20
207.5651015128199
 30
0.0
 11
44.2034538462392
 21
207.8991215128199
 31
0.0
  0
LINE
  5
855F
  8
0
 10
44.2034538462392
 20
207.8991215128199
 30
0.0
 11
43.53585654623919
 21
207.8991215128199
 31
0.0
  0
LINE
  5
8560
  8
0
 10
43.53585654623919
 20
207.8991215128199
 30
0.0
 11
43.53585654623919
 21
207.5651015128199
 31
0.0
  0
LINE
  5
8561
  8
0
 10
45.53874154623918
 20
207.5651015128199
 30
0.0
 11
45.87272639623916
 21
207.5651015128199
 31
0.0
  0
LINE
  5
8562
  8
0
 10
45.87272639623916
 20
207.5651015128199
 30
0.0
 11
45.87272639623916
 21
207.8991215128199
 31
0.0
  0
LINE
  5
8563
  8
0
 10
45.87272639623916
 20
207.8991215128199
 30
0.0
 11
45.53874154623918
 21
207.8991215128199
 31
0.0
  0
LINE
  5
8564
  8
0
 10
45.53874154623918
 20
207.8991215128199
 30
0.0
 11
45.53874154623918
 21
207.5651015128199
 31
0.0
  0
LINE
  5
8565
  8
0
 10
46.54032654623921
 20
207.5651015128199
 30
0.0
 11
46.87431044623918
 21
207.5651015128199
 31
0.0
  0
LINE
  5
8566
  8
0
 10
46.87431044623918
 20
207.5651015128199
 30
0.0
 11
46.87431044623918
 21
207.8991215128199
 31
0.0
  0
LINE
  5
8567
  8
0
 10
46.87431044623918
 20
207.8991215128199
 30
0.0
 11
46.54032654623921
 21
207.8991215128199
 31
0.0
  0
LINE
  5
8568
  8
0
 10
46.54032654623921
 20
207.8991215128199
 30
0.0
 11
46.54032654623921
 21
207.5651015128199
 31
0.0
  0
LINE
  5
8569
  8
0
 10
47.20751154623918
 20
207.5651015128199
 30
0.0
 11
47.87510884623919
 21
207.5651015128199
 31
0.0
  0
LINE
  5
856A
  8
0
 10
47.87510884623919
 20
207.5651015128199
 30
0.0
 11
47.87510884623919
 21
207.8991215128199
 31
0.0
  0
LINE
  5
856B
  8
0
 10
47.87510884623919
 20
207.8991215128199
 30
0.0
 11
47.20751154623918
 21
207.8991215128199
 31
0.0
  0
LINE
  5
856C
  8
0
 10
47.20751154623918
 20
207.8991215128199
 30
0.0
 11
47.20751154623918
 21
207.5651015128199
 31
0.0
  0
LINE
  5
856D
  8
0
 10
48.54273654623921
 20
207.5651015128199
 30
0.0
 11
49.20996334623919
 21
207.5651015128199
 31
0.0
  0
LINE
  5
856E
  8
0
 10
49.20996334623919
 20
207.5651015128199
 30
0.0
 11
49.20996334623919
 21
207.8991215128199
 31
0.0
  0
LINE
  5
856F
  8
0
 10
49.20996334623919
 20
207.8991215128199
 30
0.0
 11
48.54273654623921
 21
207.8991215128199
 31
0.0
  0
LINE
  5
8570
  8
0
 10
48.54273654623921
 20
207.8991215128199
 30
0.0
 11
48.54273654623921
 21
207.5651015128199
 31
0.0
  0
LINE
  5
8571
  8
0
 10
50.87907154623917
 20
207.5651015128199
 30
0.0
 11
51.21309154623918
 21
207.5651015128199
 31
0.0
  0
LINE
  5
8572
  8
0
 10
51.21309154623918
 20
207.5651015128199
 30
0.0
 11
51.21309154623918
 21
207.8991215128199
 31
0.0
  0
LINE
  5
8573
  8
0
 10
51.21309154623918
 20
207.8991215128199
 30
0.0
 11
50.87910669623921
 21
207.8991215128199
 31
0.0
  0
LINE
  5
8574
  8
0
 10
50.87910669623921
 20
207.8991215128199
 30
0.0
 11
50.87907154623917
 21
207.5651015128199
 31
0.0
  0
LINE
  5
8575
  8
0
 10
51.88065654623921
 20
207.5651015128199
 30
0.0
 11
52.88224154623919
 21
207.5651015128199
 31
0.0
  0
LINE
  5
8576
  8
0
 10
52.88224154623919
 20
207.5651015128199
 30
0.0
 11
52.88224154623919
 21
207.8991215128199
 31
0.0
  0
LINE
  5
8577
  8
0
 10
52.88224154623919
 20
207.8991215128199
 30
0.0
 11
51.88065654623921
 21
207.8991215128199
 31
0.0
  0
LINE
  5
8578
  8
0
 10
51.88065654623921
 20
207.8991215128199
 30
0.0
 11
51.88065654623921
 21
207.5651015128199
 31
0.0
  0
LINE
  5
8579
  8
0
 10
53.21550154623918
 20
207.5651015128199
 30
0.0
 11
53.54985784623921
 21
207.5651015128199
 31
0.0
  0
LINE
  5
857A
  8
0
 10
53.54985784623921
 20
207.5651015128199
 30
0.0
 11
53.54985784623921
 21
207.8991215128199
 31
0.0
  0
LINE
  5
857B
  8
0
 10
53.54985784623921
 20
207.8991215128199
 30
0.0
 11
53.21550154623918
 21
207.8991215128199
 31
0.0
  0
LINE
  5
857C
  8
0
 10
53.21550154623918
 20
207.8991215128199
 30
0.0
 11
53.21550154623918
 21
207.5651015128199
 31
0.0
  0
LINE
  5
857D
  8
0
 10
42.86867154623917
 20
207.2315565128199
 30
0.0
 11
43.20265639623921
 21
207.2315565128199
 31
0.0
  0
LINE
  5
857E
  8
0
 10
43.20265639623921
 20
207.2315565128199
 30
0.0
 11
43.20265639623921
 21
207.5659118628199
 31
0.0
  0
LINE
  5
857F
  8
0
 10
43.20265639623921
 20
207.5659118628199
 30
0.0
 11
42.86867154623917
 21
207.5659118628199
 31
0.0
  0
LINE
  5
8580
  8
0
 10
42.86867154623917
 20
207.5659118628199
 30
0.0
 11
42.86867154623917
 21
207.2315565128199
 31
0.0
  0
LINE
  5
8581
  8
0
 10
44.53744154623917
 20
207.2315565128199
 30
0.0
 11
44.87142544623919
 21
207.2315565128199
 31
0.0
  0
LINE
  5
8582
  8
0
 10
44.87142544623919
 20
207.2315565128199
 30
0.0
 11
44.87142544623919
 21
207.5659118628199
 31
0.0
  0
LINE
  5
8583
  8
0
 10
44.87142544623919
 20
207.5659118628199
 30
0.0
 11
44.53744154623917
 21
207.5659118628199
 31
0.0
  0
LINE
  5
8584
  8
0
 10
44.53744154623917
 20
207.5659118628199
 30
0.0
 11
44.53744154623917
 21
207.2315565128199
 31
0.0
  0
LINE
  5
8585
  8
0
 10
45.53874154623918
 20
207.2315565128199
 30
0.0
 11
46.20596834623922
 21
207.2315565128199
 31
0.0
  0
LINE
  5
8586
  8
0
 10
46.20596834623922
 20
207.2315565128199
 30
0.0
 11
46.20596834623922
 21
207.5659118628199
 31
0.0
  0
LINE
  5
8587
  8
0
 10
46.20596834623922
 20
207.5659118628199
 30
0.0
 11
45.53874154623918
 21
207.5659118628199
 31
0.0
  0
LINE
  5
8588
  8
0
 10
45.53874154623918
 20
207.5659118628199
 30
0.0
 11
45.53874154623918
 21
207.2315565128199
 31
0.0
  0
LINE
  5
8589
  8
0
 10
46.54032654623921
 20
207.2315565128199
 30
0.0
 11
47.20755334623919
 21
207.2315565128199
 31
0.0
  0
LINE
  5
858A
  8
0
 10
47.20755334623919
 20
207.2315565128199
 30
0.0
 11
47.20755334623919
 21
207.5659118628199
 31
0.0
  0
LINE
  5
858B
  8
0
 10
47.20755334623919
 20
207.5659118628199
 30
0.0
 11
46.54032654623921
 21
207.5659118628199
 31
0.0
  0
LINE
  5
858C
  8
0
 10
46.54032654623921
 20
207.5659118628199
 30
0.0
 11
46.54032654623921
 21
207.2315565128199
 31
0.0
  0
LINE
  5
858D
  8
0
 10
48.20909654623921
 20
207.2315565128199
 30
0.0
 11
49.21068154623919
 21
207.2315565128199
 31
0.0
  0
LINE
  5
858E
  8
0
 10
49.21068154623919
 20
207.2315565128199
 30
0.0
 11
49.21068154623919
 21
207.5659118628199
 31
0.0
  0
LINE
  5
858F
  8
0
 10
49.21068154623919
 20
207.5659118628199
 30
0.0
 11
48.20909654623921
 21
207.5659118628199
 31
0.0
  0
LINE
  5
8590
  8
0
 10
48.20909654623921
 20
207.5659118628199
 30
0.0
 11
48.20909654623921
 21
207.2315565128199
 31
0.0
  0
LINE
  5
8591
  8
0
 10
49.8774865462392
 20
207.2315565128199
 30
0.0
 11
50.21147044623922
 21
207.2315565128199
 31
0.0
  0
LINE
  5
8592
  8
0
 10
50.21147044623922
 20
207.2315565128199
 30
0.0
 11
50.21147044623922
 21
207.5659118628199
 31
0.0
  0
LINE
  5
8593
  8
0
 10
50.21147044623922
 20
207.5659118628199
 30
0.0
 11
49.8774865462392
 21
207.5659118628199
 31
0.0
  0
LINE
  5
8594
  8
0
 10
49.8774865462392
 20
207.5659118628199
 30
0.0
 11
49.8774865462392
 21
207.2315565128199
 31
0.0
  0
LINE
  5
8595
  8
0
 10
50.54590654623917
 20
207.2315565128199
 30
0.0
 11
51.2131333462392
 21
207.2315565128199
 31
0.0
  0
LINE
  5
8596
  8
0
 10
51.2131333462392
 20
207.2315565128199
 30
0.0
 11
51.2131333462392
 21
207.5659118628199
 31
0.0
  0
LINE
  5
8597
  8
0
 10
51.2131333462392
 20
207.5659118628199
 30
0.0
 11
50.54590654623917
 21
207.5659118628199
 31
0.0
  0
LINE
  5
8598
  8
0
 10
50.54590654623917
 20
207.5659118628199
 30
0.0
 11
50.54590654623917
 21
207.2315565128199
 31
0.0
  0
LINE
  5
8599
  8
0
 10
51.54673154623919
 20
207.2315565128199
 30
0.0
 11
52.54831654623916
 21
207.2315565128199
 31
0.0
  0
LINE
  5
859A
  8
0
 10
52.54831654623916
 20
207.2315565128199
 30
0.0
 11
52.54831654623916
 21
207.5659118628199
 31
0.0
  0
LINE
  5
859B
  8
0
 10
52.54831654623916
 20
207.5659118628199
 30
0.0
 11
51.54673154623919
 21
207.5659118628199
 31
0.0
  0
LINE
  5
859C
  8
0
 10
51.54673154623919
 20
207.5659118628199
 30
0.0
 11
51.54673154623919
 21
207.2315565128199
 31
0.0
  0
LINE
  5
859D
  8
0
 10
53.21550154623918
 20
207.2315565128199
 30
0.0
 11
53.54985784623921
 21
207.2315565128199
 31
0.0
  0
LINE
  5
859E
  8
0
 10
53.54985784623921
 20
207.2315565128199
 30
0.0
 11
53.54985784623921
 21
207.5659118628199
 31
0.0
  0
LINE
  5
859F
  8
0
 10
53.54985784623921
 20
207.5659118628199
 30
0.0
 11
53.21550154623918
 21
207.5659118628199
 31
0.0
  0
LINE
  5
85A0
  8
0
 10
53.21550154623918
 20
207.5659118628199
 30
0.0
 11
53.21550154623918
 21
207.2315565128199
 31
0.0
  0
LINE
  5
85A1
  8
0
 10
42.86867154623917
 20
206.8975365128199
 30
0.0
 11
43.53589834623921
 21
206.8975365128199
 31
0.0
  0
LINE
  5
85A2
  8
0
 10
43.53589834623921
 20
206.8975365128199
 30
0.0
 11
43.53589834623921
 21
207.2315213628199
 31
0.0
  0
LINE
  5
85A3
  8
0
 10
43.53589834623921
 20
207.2315213628199
 30
0.0
 11
42.86867154623917
 21
207.2315213628199
 31
0.0
  0
LINE
  5
85A4
  8
0
 10
42.86867154623917
 20
207.2315213628199
 30
0.0
 11
42.86867154623917
 21
206.8975365128199
 31
0.0
  0
LINE
  5
85A5
  8
0
 10
43.86949654623919
 20
206.8975365128199
 30
0.0
 11
44.20348044623921
 21
206.8975365128199
 31
0.0
  0
LINE
  5
85A6
  8
0
 10
44.20348044623921
 20
206.8975365128199
 30
0.0
 11
44.20348044623921
 21
207.2315213628199
 31
0.0
  0
LINE
  5
85A7
  8
0
 10
44.20348044623921
 20
207.2315213628199
 30
0.0
 11
43.86949654623919
 21
207.2315213628199
 31
0.0
  0
LINE
  5
85A8
  8
0
 10
43.86949654623919
 20
207.2315213628199
 30
0.0
 11
43.86949654623919
 21
206.8975365128199
 31
0.0
  0
LINE
  5
85A9
  8
0
 10
46.2059265462392
 20
206.8975365128199
 30
0.0
 11
46.53991044623922
 21
206.8975365128199
 31
0.0
  0
LINE
  5
85AA
  8
0
 10
46.53991044623922
 20
206.8975365128199
 30
0.0
 11
46.53991044623922
 21
207.2315213628199
 31
0.0
  0
LINE
  5
85AB
  8
0
 10
46.53991044623922
 20
207.2315213628199
 30
0.0
 11
46.2059265462392
 21
207.2315213628199
 31
0.0
  0
LINE
  5
85AC
  8
0
 10
46.2059265462392
 20
207.2315213628199
 30
0.0
 11
46.2059265462392
 21
206.8975365128199
 31
0.0
  0
LINE
  5
85AD
  8
0
 10
46.87349154623917
 20
206.8975365128199
 30
0.0
 11
49.87749604623917
 21
206.8975365128199
 31
0.0
  0
LINE
  5
85AE
  8
0
 10
49.87749604623917
 20
206.8975365128199
 30
0.0
 11
49.87749604623917
 21
207.2315213628199
 31
0.0
  0
LINE
  5
85AF
  8
0
 10
49.87749604623917
 20
207.2315213628199
 30
0.0
 11
46.87349154623917
 21
207.2315213628199
 31
0.0
  0
LINE
  5
85B0
  8
0
 10
46.87349154623917
 20
207.2315213628199
 30
0.0
 11
46.87349154623917
 21
206.8975365128199
 31
0.0
  0
LINE
  5
85B1
  8
0
 10
50.21150654623921
 20
206.8975365128199
 30
0.0
 11
51.5467030462392
 21
206.8975365128199
 31
0.0
  0
LINE
  5
85B2
  8
0
 10
51.5467030462392
 20
206.8975365128199
 30
0.0
 11
51.5467030462392
 21
207.2315213628199
 31
0.0
  0
LINE
  5
85B3
  8
0
 10
51.5467030462392
 20
207.2315213628199
 30
0.0
 11
50.21150654623921
 21
207.2315213628199
 31
0.0
  0
LINE
  5
85B4
  8
0
 10
50.21150654623921
 20
207.2315213628199
 30
0.0
 11
50.21150654623921
 21
206.8975365128199
 31
0.0
  0
LINE
  5
85B5
  8
0
 10
52.2139165462392
 20
206.8975365128199
 30
0.0
 11
52.88151384623916
 21
206.8975365128199
 31
0.0
  0
LINE
  5
85B6
  8
0
 10
52.88151384623916
 20
206.8975365128199
 30
0.0
 11
52.88151384623916
 21
207.2315213628199
 31
0.0
  0
LINE
  5
85B7
  8
0
 10
52.88151384623916
 20
207.2315213628199
 30
0.0
 11
52.2139165462392
 21
207.2315213628199
 31
0.0
  0
LINE
  5
85B8
  8
0
 10
52.2139165462392
 20
207.2315213628199
 30
0.0
 11
52.2139165462392
 21
206.8975365128199
 31
0.0
  0
LINE
  5
85B9
  8
0
 10
53.21550154623918
 20
206.8975365128199
 30
0.0
 11
53.54985784623921
 21
206.8975365128199
 31
0.0
  0
LINE
  5
85BA
  8
0
 10
53.54985784623921
 20
206.8975365128199
 30
0.0
 11
53.54985784623921
 21
207.2315213628199
 31
0.0
  0
LINE
  5
85BB
  8
0
 10
53.54985784623921
 20
207.2315213628199
 30
0.0
 11
53.21550154623918
 21
207.2315213628199
 31
0.0
  0
LINE
  5
85BC
  8
0
 10
53.21550154623918
 20
207.2315213628199
 30
0.0
 11
53.21550154623918
 21
206.8975365128199
 31
0.0
  0
LINE
  5
85BD
  8
0
 10
43.20193154623917
 20
206.5642765128199
 30
0.0
 11
43.53628784623919
 21
206.5642765128199
 31
0.0
  0
LINE
  5
85BE
  8
0
 10
43.53628784623919
 20
206.5642765128199
 30
0.0
 11
43.53628784623919
 21
206.8982604128199
 31
0.0
  0
LINE
  5
85BF
  8
0
 10
43.53628784623919
 20
206.8982604128199
 30
0.0
 11
43.20193154623917
 21
206.8982604128199
 31
0.0
  0
LINE
  5
85C0
  8
0
 10
43.20193154623917
 20
206.8982604128199
 30
0.0
 11
43.20193154623917
 21
206.5642765128199
 31
0.0
  0
LINE
  5
85C1
  8
0
 10
43.86949654623919
 20
206.5642765128199
 30
0.0
 11
44.20348044623921
 21
206.5642765128199
 31
0.0
  0
LINE
  5
85C2
  8
0
 10
44.20348044623921
 20
206.5642765128199
 30
0.0
 11
44.20348044623921
 21
206.8982604128199
 31
0.0
  0
LINE
  5
85C3
  8
0
 10
44.20348044623921
 20
206.8982604128199
 30
0.0
 11
43.86949654623919
 21
206.8982604128199
 31
0.0
  0
LINE
  5
85C4
  8
0
 10
43.86949654623919
 20
206.8982604128199
 30
0.0
 11
43.86949654623919
 21
206.5642765128199
 31
0.0
  0
LINE
  5
85C5
  8
0
 10
44.53744154623917
 20
206.5642765128199
 30
0.0
 11
46.54023154623917
 21
206.5642765128199
 31
0.0
  0
LINE
  5
85C6
  8
0
 10
46.54023154623917
 20
206.5642765128199
 30
0.0
 11
46.54023154623917
 21
206.8982604128199
 31
0.0
  0
LINE
  5
85C7
  8
0
 10
46.54023154623917
 20
206.8982604128199
 30
0.0
 11
44.53744154623917
 21
206.8982604128199
 31
0.0
  0
LINE
  5
85C8
  8
0
 10
44.53744154623917
 20
206.8982604128199
 30
0.0
 11
44.53744154623917
 21
206.5642765128199
 31
0.0
  0
LINE
  5
85C9
  8
0
 10
46.87349154623917
 20
206.5642765128199
 30
0.0
 11
47.2074763962392
 21
206.5642765128199
 31
0.0
  0
LINE
  5
85CA
  8
0
 10
47.2074763962392
 20
206.5642765128199
 30
0.0
 11
47.2074763962392
 21
206.8982604128199
 31
0.0
  0
LINE
  5
85CB
  8
0
 10
47.2074763962392
 20
206.8982604128199
 30
0.0
 11
46.87349154623917
 21
206.8982604128199
 31
0.0
  0
LINE
  5
85CC
  8
0
 10
46.87349154623917
 20
206.8982604128199
 30
0.0
 11
46.87349154623917
 21
206.5642765128199
 31
0.0
  0
LINE
  5
85CD
  8
0
 10
47.54153154623918
 20
206.5642765128199
 30
0.0
 11
48.20912979623915
 21
206.5642765128199
 31
0.0
  0
LINE
  5
85CE
  8
0
 10
48.20912979623915
 20
206.5642765128199
 30
0.0
 11
48.20912979623915
 21
206.8982604128199
 31
0.0
  0
LINE
  5
85CF
  8
0
 10
48.20912979623915
 20
206.8982604128199
 30
0.0
 11
47.54153154623918
 21
206.8982604128199
 31
0.0
  0
LINE
  5
85D0
  8
0
 10
47.54153154623918
 20
206.8982604128199
 30
0.0
 11
47.54153154623918
 21
206.5642765128199
 31
0.0
  0
LINE
  5
85D1
  8
0
 10
48.87666154623918
 20
206.5642765128199
 30
0.0
 11
49.2106454462392
 21
206.5642765128199
 31
0.0
  0
LINE
  5
85D2
  8
0
 10
49.2106454462392
 20
206.5642765128199
 30
0.0
 11
49.2106454462392
 21
206.8982604128199
 31
0.0
  0
LINE
  5
85D3
  8
0
 10
49.2106454462392
 20
206.8982604128199
 30
0.0
 11
48.87666154623918
 21
206.8982604128199
 31
0.0
  0
LINE
  5
85D4
  8
0
 10
48.87666154623918
 20
206.8982604128199
 30
0.0
 11
48.87666154623918
 21
206.5642765128199
 31
0.0
  0
LINE
  5
85D5
  8
0
 10
50.21150654623921
 20
206.5642765128199
 30
0.0
 11
50.54586189623922
 21
206.5642765128199
 31
0.0
  0
LINE
  5
85D6
  8
0
 10
50.54586189623922
 20
206.5642765128199
 30
0.0
 11
50.54586189623922
 21
206.8982604128199
 31
0.0
  0
LINE
  5
85D7
  8
0
 10
50.54586189623922
 20
206.8982604128199
 30
0.0
 11
50.21150654623921
 21
206.8982604128199
 31
0.0
  0
LINE
  5
85D8
  8
0
 10
50.21150654623921
 20
206.8982604128199
 30
0.0
 11
50.21150654623921
 21
206.5642765128199
 31
0.0
  0
LINE
  5
85D9
  8
0
 10
51.54673154623919
 20
206.5642765128199
 30
0.0
 11
51.88071544623921
 21
206.5642765128199
 31
0.0
  0
LINE
  5
85DA
  8
0
 10
51.88071544623921
 20
206.5642765128199
 30
0.0
 11
51.88071544623921
 21
206.8982604128199
 31
0.0
  0
LINE
  5
85DB
  8
0
 10
51.88071544623921
 20
206.8982604128199
 30
0.0
 11
51.54673154623919
 21
206.8982604128199
 31
0.0
  0
LINE
  5
85DC
  8
0
 10
51.54673154623919
 20
206.8982604128199
 30
0.0
 11
51.54673154623919
 21
206.5642765128199
 31
0.0
  0
LINE
  5
85DD
  8
0
 10
52.2139165462392
 20
206.5642765128199
 30
0.0
 11
52.88151384623916
 21
206.5642765128199
 31
0.0
  0
LINE
  5
85DE
  8
0
 10
52.88151384623916
 20
206.5642765128199
 30
0.0
 11
52.88151384623916
 21
206.8982604128199
 31
0.0
  0
LINE
  5
85DF
  8
0
 10
52.88151384623916
 20
206.8982604128199
 30
0.0
 11
52.2139165462392
 21
206.8982604128199
 31
0.0
  0
LINE
  5
85E0
  8
0
 10
52.2139165462392
 20
206.8982604128199
 30
0.0
 11
52.2139165462392
 21
206.5642765128199
 31
0.0
  0
LINE
  5
85E1
  8
0
 10
53.21550154623918
 20
206.5642765128199
 30
0.0
 11
53.54985784623921
 21
206.5642765128199
 31
0.0
  0
LINE
  5
85E2
  8
0
 10
53.54985784623921
 20
206.5642765128199
 30
0.0
 11
53.54985784623921
 21
206.8982604128199
 31
0.0
  0
LINE
  5
85E3
  8
0
 10
53.54985784623921
 20
206.8982604128199
 30
0.0
 11
53.21550154623918
 21
206.8982604128199
 31
0.0
  0
LINE
  5
85E4
  8
0
 10
53.21550154623918
 20
206.8982604128199
 30
0.0
 11
53.21550154623918
 21
206.5642765128199
 31
0.0
  0
LINE
  5
85E5
  8
0
 10
42.86867154623917
 20
206.2303515128199
 30
0.0
 11
43.20265639623921
 21
206.2303515128199
 31
0.0
  0
LINE
  5
85E6
  8
0
 10
43.20265639623921
 20
206.2303515128199
 30
0.0
 11
43.20265639623921
 21
206.5643363628199
 31
0.0
  0
LINE
  5
85E7
  8
0
 10
43.20265639623921
 20
206.5643363628199
 30
0.0
 11
42.86867154623917
 21
206.5643363628199
 31
0.0
  0
LINE
  5
85E8
  8
0
 10
42.86867154623917
 20
206.5643363628199
 30
0.0
 11
42.86867154623917
 21
206.2303515128199
 31
0.0
  0
LINE
  5
85E9
  8
0
 10
43.53585654623919
 20
206.2303515128199
 30
0.0
 11
44.53744154623917
 21
206.2303515128199
 31
0.0
  0
LINE
  5
85EA
  8
0
 10
44.53744154623917
 20
206.2303515128199
 30
0.0
 11
44.53744154623917
 21
206.5643363628199
 31
0.0
  0
LINE
  5
85EB
  8
0
 10
44.53744154623917
 20
206.5643363628199
 30
0.0
 11
43.53585654623919
 21
206.5643363628199
 31
0.0
  0
LINE
  5
85EC
  8
0
 10
43.53585654623919
 20
206.5643363628199
 30
0.0
 11
43.53585654623919
 21
206.2303515128199
 31
0.0
  0
LINE
  5
85ED
  8
0
 10
44.87108154623917
 20
206.2303515128199
 30
0.0
 11
45.53867884623918
 21
206.2303515128199
 31
0.0
  0
LINE
  5
85EE
  8
0
 10
45.53867884623918
 20
206.2303515128199
 30
0.0
 11
45.53867884623918
 21
206.5643363628199
 31
0.0
  0
LINE
  5
85EF
  8
0
 10
45.53867884623918
 20
206.5643363628199
 30
0.0
 11
44.87108154623917
 21
206.5643363628199
 31
0.0
  0
LINE
  5
85F0
  8
0
 10
44.87108154623917
 20
206.5643363628199
 30
0.0
 11
44.87108154623917
 21
206.2303515128199
 31
0.0
  0
LINE
  5
85F1
  8
0
 10
45.8726665462392
 20
206.2303515128199
 30
0.0
 11
46.20665044623922
 21
206.2303515128199
 31
0.0
  0
LINE
  5
85F2
  8
0
 10
46.20665044623922
 20
206.2303515128199
 30
0.0
 11
46.20665044623922
 21
206.5643363628199
 31
0.0
  0
LINE
  5
85F3
  8
0
 10
46.20665044623922
 20
206.5643363628199
 30
0.0
 11
45.8726665462392
 21
206.5643363628199
 31
0.0
  0
LINE
  5
85F4
  8
0
 10
45.8726665462392
 20
206.5643363628199
 30
0.0
 11
45.8726665462392
 21
206.2303515128199
 31
0.0
  0
LINE
  5
85F5
  8
0
 10
47.54153154623918
 20
206.2303515128199
 30
0.0
 11
49.87831304623921
 21
206.2303515128199
 31
0.0
  0
LINE
  5
85F6
  8
0
 10
49.87831304623921
 20
206.2303515128199
 30
0.0
 11
49.87831304623921
 21
206.5643363628199
 31
0.0
  0
LINE
  5
85F7
  8
0
 10
49.87831304623921
 20
206.5643363628199
 30
0.0
 11
47.54153154623918
 21
206.5643363628199
 31
0.0
  0
LINE
  5
85F8
  8
0
 10
47.54153154623918
 20
206.5643363628199
 30
0.0
 11
47.54153154623918
 21
206.2303515128199
 31
0.0
  0
LINE
  5
85F9
  8
0
 10
50.21150654623921
 20
206.2303515128199
 30
0.0
 11
50.54586189623922
 21
206.2303515128199
 31
0.0
  0
LINE
  5
85FA
  8
0
 10
50.54586189623922
 20
206.2303515128199
 30
0.0
 11
50.54586189623922
 21
206.5643363628199
 31
0.0
  0
LINE
  5
85FB
  8
0
 10
50.54586189623922
 20
206.5643363628199
 30
0.0
 11
50.21150654623921
 21
206.5643363628199
 31
0.0
  0
LINE
  5
85FC
  8
0
 10
50.21150654623921
 20
206.5643363628199
 30
0.0
 11
50.21150654623921
 21
206.2303515128199
 31
0.0
  0
LINE
  5
85FD
  8
0
 10
50.87907154623917
 20
206.2303515128199
 30
0.0
 11
51.21305639623921
 21
206.2303515128199
 31
0.0
  0
LINE
  5
85FE
  8
0
 10
51.21305639623921
 20
206.2303515128199
 30
0.0
 11
51.21305639623921
 21
206.5643363628199
 31
0.0
  0
LINE
  5
85FF
  8
0
 10
51.21305639623921
 20
206.5643363628199
 30
0.0
 11
50.87907154623917
 21
206.5643363628199
 31
0.0
  0
LINE
  5
8600
  8
0
 10
50.87907154623917
 20
206.5643363628199
 30
0.0
 11
50.87907154623917
 21
206.2303515128199
 31
0.0
  0
LINE
  5
8601
  8
0
 10
51.88065654623921
 20
206.2303515128199
 30
0.0
 11
52.88224154623919
 21
206.2303515128199
 31
0.0
  0
LINE
  5
8602
  8
0
 10
52.88224154623919
 20
206.2303515128199
 30
0.0
 11
52.88224154623919
 21
206.5643363628199
 31
0.0
  0
LINE
  5
8603
  8
0
 10
52.88224154623919
 20
206.5643363628199
 30
0.0
 11
51.88065654623921
 21
206.5643363628199
 31
0.0
  0
LINE
  5
8604
  8
0
 10
51.88065654623921
 20
206.5643363628199
 30
0.0
 11
51.88065654623921
 21
206.2303515128199
 31
0.0
  0
LINE
  5
8605
  8
0
 10
53.21550154623918
 20
206.2303515128199
 30
0.0
 11
53.54985784623921
 21
206.2303515128199
 31
0.0
  0
LINE
  5
8606
  8
0
 10
53.54985784623921
 20
206.2303515128199
 30
0.0
 11
53.54985784623921
 21
206.5643363628199
 31
0.0
  0
LINE
  5
8607
  8
0
 10
53.54985784623921
 20
206.5643363628199
 30
0.0
 11
53.21550154623918
 21
206.5643363628199
 31
0.0
  0
LINE
  5
8608
  8
0
 10
53.21550154623918
 20
206.5643363628199
 30
0.0
 11
53.21550154623918
 21
206.2303515128199
 31
0.0
  0
LINE
  5
8609
  8
0
 10
42.5343665462392
 20
205.8959515128199
 30
0.0
 11
43.86956304623919
 21
205.8959515128199
 31
0.0
  0
LINE
  5
860A
  8
0
 10
43.86956304623919
 20
205.8959515128199
 30
0.0
 11
43.86956304623919
 21
206.2303068628199
 31
0.0
  0
LINE
  5
860B
  8
0
 10
43.86956304623919
 20
206.2303068628199
 30
0.0
 11
42.5343665462392
 21
206.2303068628199
 31
0.0
  0
LINE
  5
860C
  8
0
 10
42.5343665462392
 20
206.2303068628199
 30
0.0
 11
42.5343665462392
 21
205.8959515128199
 31
0.0
  0
LINE
  5
860D
  8
0
 10
44.53744154623917
 20
205.8959515128199
 30
0.0
 11
44.87142544623919
 21
205.8959515128199
 31
0.0
  0
LINE
  5
860E
  8
0
 10
44.87142544623919
 20
205.8959515128199
 30
0.0
 11
44.87142544623919
 21
206.2303068628199
 31
0.0
  0
LINE
  5
860F
  8
0
 10
44.87142544623919
 20
206.2303068628199
 30
0.0
 11
44.53744154623917
 21
206.2303068628199
 31
0.0
  0
LINE
  5
8610
  8
0
 10
44.53744154623917
 20
206.2303068628199
 30
0.0
 11
44.53744154623917
 21
205.8959515128199
 31
0.0
  0
LINE
  5
8611
  8
0
 10
45.20510154623918
 20
205.8959515128199
 30
0.0
 11
45.53908639623921
 21
205.8959515128199
 31
0.0
  0
LINE
  5
8612
  8
0
 10
45.53908639623921
 20
205.8959515128199
 30
0.0
 11
45.53908639623921
 21
206.2303068628199
 31
0.0
  0
LINE
  5
8613
  8
0
 10
45.53908639623921
 20
206.2303068628199
 30
0.0
 11
45.20510154623918
 21
206.2303068628199
 31
0.0
  0
LINE
  5
8614
  8
0
 10
45.20510154623918
 20
206.2303068628199
 30
0.0
 11
45.20510154623918
 21
205.8959515128199
 31
0.0
  0
LINE
  5
8615
  8
0
 10
45.8726665462392
 20
205.8959515128199
 30
0.0
 11
46.20665044623922
 21
205.8959515128199
 31
0.0
  0
LINE
  5
8616
  8
0
 10
46.20665044623922
 20
205.8959515128199
 30
0.0
 11
46.20665044623922
 21
206.2303068628199
 31
0.0
  0
LINE
  5
8617
  8
0
 10
46.20665044623922
 20
206.2303068628199
 30
0.0
 11
45.8726665462392
 21
206.2303068628199
 31
0.0
  0
LINE
  5
8618
  8
0
 10
45.8726665462392
 20
206.2303068628199
 30
0.0
 11
45.8726665462392
 21
205.8959515128199
 31
0.0
  0
LINE
  5
8619
  8
0
 10
46.54032654623921
 20
205.8959515128199
 30
0.0
 11
47.54154104623922
 21
205.8959515128199
 31
0.0
  0
LINE
  5
861A
  8
0
 10
47.54154104623922
 20
205.8959515128199
 30
0.0
 11
47.54154104623922
 21
206.2303068628199
 31
0.0
  0
LINE
  5
861B
  8
0
 10
47.54154104623922
 20
206.2303068628199
 30
0.0
 11
46.54032654623921
 21
206.2303068628199
 31
0.0
  0
LINE
  5
861C
  8
0
 10
46.54032654623921
 20
206.2303068628199
 30
0.0
 11
46.54032654623921
 21
205.8959515128199
 31
0.0
  0
LINE
  5
861D
  8
0
 10
47.8750765462392
 20
205.8959515128199
 30
0.0
 11
48.20906139623918
 21
205.8959515128199
 31
0.0
  0
LINE
  5
861E
  8
0
 10
48.20906139623918
 20
205.8959515128199
 30
0.0
 11
48.20906139623918
 21
206.2303068628199
 31
0.0
  0
LINE
  5
861F
  8
0
 10
48.20906139623918
 20
206.2303068628199
 30
0.0
 11
47.8750765462392
 21
206.2303068628199
 31
0.0
  0
LINE
  5
8620
  8
0
 10
47.8750765462392
 20
206.2303068628199
 30
0.0
 11
47.8750765462392
 21
205.8959515128199
 31
0.0
  0
LINE
  5
8621
  8
0
 10
49.20992154623917
 20
205.8959515128199
 30
0.0
 11
50.21150654623921
 21
205.8959515128199
 31
0.0
  0
LINE
  5
8622
  8
0
 10
50.21150654623921
 20
205.8959515128199
 30
0.0
 11
50.21150654623921
 21
206.2303068628199
 31
0.0
  0
LINE
  5
8623
  8
0
 10
50.21150654623921
 20
206.2303068628199
 30
0.0
 11
49.20992154623917
 21
206.2303068628199
 31
0.0
  0
LINE
  5
8624
  8
0
 10
49.20992154623917
 20
206.2303068628199
 30
0.0
 11
49.20992154623917
 21
205.8959515128199
 31
0.0
  0
LINE
  5
8625
  8
0
 10
50.87907154623917
 20
205.8959515128199
 30
0.0
 11
51.21305639623921
 21
205.8959515128199
 31
0.0
  0
LINE
  5
8626
  8
0
 10
51.21305639623921
 20
205.8959515128199
 30
0.0
 11
51.21305639623921
 21
206.2303068628199
 31
0.0
  0
LINE
  5
8627
  8
0
 10
51.21305639623921
 20
206.2303068628199
 30
0.0
 11
50.87907154623917
 21
206.2303068628199
 31
0.0
  0
LINE
  5
8628
  8
0
 10
50.87907154623917
 20
206.2303068628199
 30
0.0
 11
50.87907154623917
 21
205.8959515128199
 31
0.0
  0
LINE
  5
8629
  8
0
 10
51.88065654623921
 20
205.8959515128199
 30
0.0
 11
52.54788334623919
 21
205.8959515128199
 31
0.0
  0
LINE
  5
862A
  8
0
 10
52.54788334623919
 20
205.8959515128199
 30
0.0
 11
52.54788334623919
 21
206.2303068628199
 31
0.0
  0
LINE
  5
862B
  8
0
 10
52.54788334623919
 20
206.2303068628199
 30
0.0
 11
51.88065654623921
 21
206.2303068628199
 31
0.0
  0
LINE
  5
862C
  8
0
 10
51.88065654623921
 20
206.2303068628199
 30
0.0
 11
51.88065654623921
 21
205.8959515128199
 31
0.0
  0
LINE
  5
862D
  8
0
 10
42.5343665462392
 20
205.5626915128199
 30
0.0
 11
43.20196384623915
 21
205.5626915128199
 31
0.0
  0
LINE
  5
862E
  8
0
 10
43.20196384623915
 20
205.5626915128199
 30
0.0
 11
43.20196384623915
 21
205.8966763628199
 31
0.0
  0
LINE
  5
862F
  8
0
 10
43.20196384623915
 20
205.8966763628199
 30
0.0
 11
42.5343665462392
 21
205.8966763628199
 31
0.0
  0
LINE
  5
8630
  8
0
 10
42.5343665462392
 20
205.8966763628199
 30
0.0
 11
42.5343665462392
 21
205.5626915128199
 31
0.0
  0
LINE
  5
8631
  8
0
 10
43.53585654623919
 20
205.5626915128199
 30
0.0
 11
43.86984044623921
 21
205.5626915128199
 31
0.0
  0
LINE
  5
8632
  8
0
 10
43.86984044623921
 20
205.5626915128199
 30
0.0
 11
43.86984044623921
 21
205.8966763628199
 31
0.0
  0
LINE
  5
8633
  8
0
 10
43.86984044623921
 20
205.8966763628199
 30
0.0
 11
43.53585654623919
 21
205.8966763628199
 31
0.0
  0
LINE
  5
8634
  8
0
 10
43.53585654623919
 20
205.8966763628199
 30
0.0
 11
43.53585654623919
 21
205.5626915128199
 31
0.0
  0
LINE
  5
8635
  8
0
 10
44.2035165462392
 20
205.5626915128199
 30
0.0
 11
44.53750139623918
 21
205.5626915128199
 31
0.0
  0
LINE
  5
8636
  8
0
 10
44.53750139623918
 20
205.5626915128199
 30
0.0
 11
44.53750139623918
 21
205.8966763628199
 31
0.0
  0
LINE
  5
8637
  8
0
 10
44.53750139623918
 20
205.8966763628199
 30
0.0
 11
44.2035165462392
 21
205.8966763628199
 31
0.0
  0
LINE
  5
8638
  8
0
 10
44.2035165462392
 20
205.8966763628199
 30
0.0
 11
44.2035165462392
 21
205.5626915128199
 31
0.0
  0
LINE
  5
8639
  8
0
 10
45.20510154623918
 20
205.5626915128199
 30
0.0
 11
45.53908639623921
 21
205.5626915128199
 31
0.0
  0
LINE
  5
863A
  8
0
 10
45.53908639623921
 20
205.5626915128199
 30
0.0
 11
45.53908639623921
 21
205.8966763628199
 31
0.0
  0
LINE
  5
863B
  8
0
 10
45.53908639623921
 20
205.8966763628199
 30
0.0
 11
45.20510154623918
 21
205.8966763628199
 31
0.0
  0
LINE
  5
863C
  8
0
 10
45.20510154623918
 20
205.8966763628199
 30
0.0
 11
45.20510154623918
 21
205.5626915128199
 31
0.0
  0
LINE
  5
863D
  8
0
 10
45.8726665462392
 20
205.5626915128199
 30
0.0
 11
46.87388104623921
 21
205.5626915128199
 31
0.0
  0
LINE
  5
863E
  8
0
 10
46.87388104623921
 20
205.5626915128199
 30
0.0
 11
46.87388104623921
 21
205.8966763628199
 31
0.0
  0
LINE
  5
863F
  8
0
 10
46.87388104623921
 20
205.8966763628199
 30
0.0
 11
45.8726665462392
 21
205.8966763628199
 31
0.0
  0
LINE
  5
8640
  8
0
 10
45.8726665462392
 20
205.8966763628199
 30
0.0
 11
45.8726665462392
 21
205.5626915128199
 31
0.0
  0
LINE
  5
8641
  8
0
 10
47.20751154623918
 20
205.5626915128199
 30
0.0
 11
47.5414954462392
 21
205.5626915128199
 31
0.0
  0
LINE
  5
8642
  8
0
 10
47.5414954462392
 20
205.5626915128199
 30
0.0
 11
47.5414954462392
 21
205.8966763628199
 31
0.0
  0
LINE
  5
8643
  8
0
 10
47.5414954462392
 20
205.8966763628199
 30
0.0
 11
47.20751154623918
 21
205.8966763628199
 31
0.0
  0
LINE
  5
8644
  8
0
 10
47.20751154623918
 20
205.8966763628199
 30
0.0
 11
47.20751154623918
 21
205.5626915128199
 31
0.0
  0
LINE
  5
8645
  8
0
 10
47.8750765462392
 20
205.5626915128199
 30
0.0
 11
48.87666154623918
 21
205.5626915128199
 31
0.0
  0
LINE
  5
8646
  8
0
 10
48.87666154623918
 20
205.5626915128199
 30
0.0
 11
48.87666154623918
 21
205.8966763628199
 31
0.0
  0
LINE
  5
8647
  8
0
 10
48.87666154623918
 20
205.8966763628199
 30
0.0
 11
47.8750765462392
 21
205.8966763628199
 31
0.0
  0
LINE
  5
8648
  8
0
 10
47.8750765462392
 20
205.8966763628199
 30
0.0
 11
47.8750765462392
 21
205.5626915128199
 31
0.0
  0
LINE
  5
8649
  8
0
 10
49.20992154623917
 20
205.5626915128199
 30
0.0
 11
49.54427689623918
 21
205.5626915128199
 31
0.0
  0
LINE
  5
864A
  8
0
 10
49.54427689623918
 20
205.5626915128199
 30
0.0
 11
49.54427689623918
 21
205.8966763628199
 31
0.0
  0
LINE
  5
864B
  8
0
 10
49.54427689623918
 20
205.8966763628199
 30
0.0
 11
49.20992154623917
 21
205.8966763628199
 31
0.0
  0
LINE
  5
864C
  8
0
 10
49.20992154623917
 20
205.8966763628199
 30
0.0
 11
49.20992154623917
 21
205.5626915128199
 31
0.0
  0
LINE
  5
864D
  8
0
 10
49.8774865462392
 20
205.5626915128199
 30
0.0
 11
50.54508384623921
 21
205.5626915128199
 31
0.0
  0
LINE
  5
864E
  8
0
 10
50.54508384623921
 20
205.5626915128199
 30
0.0
 11
50.54508384623921
 21
205.8966763628199
 31
0.0
  0
LINE
  5
864F
  8
0
 10
50.54508384623921
 20
205.8966763628199
 30
0.0
 11
49.8774865462392
 21
205.8966763628199
 31
0.0
  0
LINE
  5
8650
  8
0
 10
49.8774865462392
 20
205.8966763628199
 30
0.0
 11
49.8774865462392
 21
205.5626915128199
 31
0.0
  0
LINE
  5
8651
  8
0
 10
51.54673154623919
 20
205.5626915128199
 30
0.0
 11
52.88155754623921
 21
205.5626915128199
 31
0.0
  0
LINE
  5
8652
  8
0
 10
52.88155754623921
 20
205.5626915128199
 30
0.0
 11
52.88155754623921
 21
205.8966763628199
 31
0.0
  0
LINE
  5
8653
  8
0
 10
52.88155754623921
 20
205.8966763628199
 30
0.0
 11
51.54673154623919
 21
205.8966763628199
 31
0.0
  0
LINE
  5
8654
  8
0
 10
51.54673154623919
 20
205.8966763628199
 30
0.0
 11
51.54673154623919
 21
205.5626915128199
 31
0.0
  0
LINE
  5
8655
  8
0
 10
42.5343665462392
 20
205.2287665128199
 30
0.0
 11
42.86872189623921
 21
205.2287665128199
 31
0.0
  0
LINE
  5
8656
  8
0
 10
42.86872189623921
 20
205.2287665128199
 30
0.0
 11
42.86872189623921
 21
205.5627504128199
 31
0.0
  0
LINE
  5
8657
  8
0
 10
42.86872189623921
 20
205.5627504128199
 30
0.0
 11
42.5343665462392
 21
205.5627504128199
 31
0.0
  0
LINE
  5
8658
  8
0
 10
42.5343665462392
 20
205.5627504128199
 30
0.0
 11
42.5343665462392
 21
205.2287665128199
 31
0.0
  0
LINE
  5
8659
  8
0
 10
43.20193154623917
 20
205.2287665128199
 30
0.0
 11
43.53628784623919
 21
205.2287665128199
 31
0.0
  0
LINE
  5
865A
  8
0
 10
43.53628784623919
 20
205.2287665128199
 30
0.0
 11
43.53628784623919
 21
205.5627504128199
 31
0.0
  0
LINE
  5
865B
  8
0
 10
43.53628784623919
 20
205.5627504128199
 30
0.0
 11
43.20193154623917
 21
205.5627504128199
 31
0.0
  0
LINE
  5
865C
  8
0
 10
43.20193154623917
 20
205.5627504128199
 30
0.0
 11
43.20193154623917
 21
205.2287665128199
 31
0.0
  0
LINE
  5
865D
  8
0
 10
43.86949654623919
 20
205.2287665128199
 30
0.0
 11
44.87108154623917
 21
205.2287665128199
 31
0.0
  0
LINE
  5
865E
  8
0
 10
44.87108154623917
 20
205.2287665128199
 30
0.0
 11
44.87108154623917
 21
205.5627504128199
 31
0.0
  0
LINE
  5
865F
  8
0
 10
44.87108154623917
 20
205.5627504128199
 30
0.0
 11
43.86949654623919
 21
205.5627504128199
 31
0.0
  0
LINE
  5
8660
  8
0
 10
43.86949654623919
 20
205.5627504128199
 30
0.0
 11
43.86949654623919
 21
205.2287665128199
 31
0.0
  0
LINE
  5
8661
  8
0
 10
45.53874154623918
 20
205.2287665128199
 30
0.0
 11
45.87272639623916
 21
205.2287665128199
 31
0.0
  0
LINE
  5
8662
  8
0
 10
45.87272639623916
 20
205.2287665128199
 30
0.0
 11
45.87272639623916
 21
205.5627504128199
 31
0.0
  0
LINE
  5
8663
  8
0
 10
45.87272639623916
 20
205.5627504128199
 30
0.0
 11
45.53874154623918
 21
205.5627504128199
 31
0.0
  0
LINE
  5
8664
  8
0
 10
45.53874154623918
 20
205.5627504128199
 30
0.0
 11
45.53874154623918
 21
205.2287665128199
 31
0.0
  0
LINE
  5
8665
  8
0
 10
46.2059265462392
 20
205.2287665128199
 30
0.0
 11
46.53991044623922
 21
205.2287665128199
 31
0.0
  0
LINE
  5
8666
  8
0
 10
46.53991044623922
 20
205.2287665128199
 30
0.0
 11
46.53991044623922
 21
205.5627504128199
 31
0.0
  0
LINE
  5
8667
  8
0
 10
46.53991044623922
 20
205.5627504128199
 30
0.0
 11
46.2059265462392
 21
205.5627504128199
 31
0.0
  0
LINE
  5
8668
  8
0
 10
46.2059265462392
 20
205.5627504128199
 30
0.0
 11
46.2059265462392
 21
205.2287665128199
 31
0.0
  0
LINE
  5
8669
  8
0
 10
47.54153154623918
 20
205.2287665128199
 30
0.0
 11
48.54311654623916
 21
205.2287665128199
 31
0.0
  0
LINE
  5
866A
  8
0
 10
48.54311654623916
 20
205.2287665128199
 30
0.0
 11
48.54311654623916
 21
205.5627504128199
 31
0.0
  0
LINE
  5
866B
  8
0
 10
48.54311654623916
 20
205.5627504128199
 30
0.0
 11
47.54153154623918
 21
205.5627504128199
 31
0.0
  0
LINE
  5
866C
  8
0
 10
47.54153154623918
 20
205.5627504128199
 30
0.0
 11
47.54153154623918
 21
205.2287665128199
 31
0.0
  0
LINE
  5
866D
  8
0
 10
49.20992154623917
 20
205.2287665128199
 30
0.0
 11
49.8775197962392
 21
205.2287665128199
 31
0.0
  0
LINE
  5
866E
  8
0
 10
49.8775197962392
 20
205.2287665128199
 30
0.0
 11
49.8775197962392
 21
205.5627504128199
 31
0.0
  0
LINE
  5
866F
  8
0
 10
49.8775197962392
 20
205.5627504128199
 30
0.0
 11
49.20992154623917
 21
205.5627504128199
 31
0.0
  0
LINE
  5
8670
  8
0
 10
49.20992154623917
 20
205.5627504128199
 30
0.0
 11
49.20992154623917
 21
205.2287665128199
 31
0.0
  0
LINE
  5
8671
  8
0
 10
50.54590654623917
 20
205.2287665128199
 30
0.0
 11
51.2131333462392
 21
205.2287665128199
 31
0.0
  0
LINE
  5
8672
  8
0
 10
51.2131333462392
 20
205.2287665128199
 30
0.0
 11
51.2131333462392
 21
205.5627504128199
 31
0.0
  0
LINE
  5
8673
  8
0
 10
51.2131333462392
 20
205.5627504128199
 30
0.0
 11
50.54590654623917
 21
205.5627504128199
 31
0.0
  0
LINE
  5
8674
  8
0
 10
50.54590654623917
 20
205.5627504128199
 30
0.0
 11
50.54590654623917
 21
205.2287665128199
 31
0.0
  0
LINE
  5
8675
  8
0
 10
51.54673154623919
 20
205.2287665128199
 30
0.0
 11
51.88071544623921
 21
205.2287665128199
 31
0.0
  0
LINE
  5
8676
  8
0
 10
51.88071544623921
 20
205.2287665128199
 30
0.0
 11
51.88071544623921
 21
205.5627504128199
 31
0.0
  0
LINE
  5
8677
  8
0
 10
51.88071544623921
 20
205.5627504128199
 30
0.0
 11
51.54673154623919
 21
205.5627504128199
 31
0.0
  0
LINE
  5
8678
  8
0
 10
51.54673154623919
 20
205.5627504128199
 30
0.0
 11
51.54673154623919
 21
205.2287665128199
 31
0.0
  0
LINE
  5
8679
  8
0
 10
52.2139165462392
 20
205.2287665128199
 30
0.0
 11
53.21550154623918
 21
205.2287665128199
 31
0.0
  0
LINE
  5
867A
  8
0
 10
53.21550154623918
 20
205.2287665128199
 30
0.0
 11
53.21550154623918
 21
205.5627504128199
 31
0.0
  0
LINE
  5
867B
  8
0
 10
53.21550154623918
 20
205.5627504128199
 30
0.0
 11
52.2139165462392
 21
205.5627504128199
 31
0.0
  0
LINE
  5
867C
  8
0
 10
52.2139165462392
 20
205.5627504128199
 30
0.0
 11
52.2139165462392
 21
205.2287665128199
 31
0.0
  0
LINE
  5
867D
  8
0
 10
42.5343665462392
 20
204.8951265128199
 30
0.0
 11
42.86872189623921
 21
204.8951265128199
 31
0.0
  0
LINE
  5
867E
  8
0
 10
42.86872189623921
 20
204.8951265128199
 30
0.0
 11
42.86872189623921
 21
205.2291104128199
 31
0.0
  0
LINE
  5
867F
  8
0
 10
42.86872189623921
 20
205.2291104128199
 30
0.0
 11
42.5343665462392
 21
205.2291104128199
 31
0.0
  0
LINE
  5
8680
  8
0
 10
42.5343665462392
 20
205.2291104128199
 30
0.0
 11
42.5343665462392
 21
204.8951265128199
 31
0.0
  0
LINE
  5
8681
  8
0
 10
43.86949654623919
 20
204.8951265128199
 30
0.0
 11
44.5370938462392
 21
204.8951265128199
 31
0.0
  0
LINE
  5
8682
  8
0
 10
44.5370938462392
 20
204.8951265128199
 30
0.0
 11
44.5370938462392
 21
205.2291104128199
 31
0.0
  0
LINE
  5
8683
  8
0
 10
44.5370938462392
 20
205.2291104128199
 30
0.0
 11
43.86949654623919
 21
205.2291104128199
 31
0.0
  0
LINE
  5
8684
  8
0
 10
43.86949654623919
 20
205.2291104128199
 30
0.0
 11
43.86949654623919
 21
204.8951265128199
 31
0.0
  0
LINE
  5
8685
  8
0
 10
44.87108154623917
 20
204.8951265128199
 30
0.0
 11
46.8735010462392
 21
204.8951265128199
 31
0.0
  0
LINE
  5
8686
  8
0
 10
46.8735010462392
 20
204.8951265128199
 30
0.0
 11
46.8735010462392
 21
205.2291104128199
 31
0.0
  0
LINE
  5
8687
  8
0
 10
46.8735010462392
 20
205.2291104128199
 30
0.0
 11
44.87108154623917
 21
205.2291104128199
 31
0.0
  0
LINE
  5
8688
  8
0
 10
44.87108154623917
 20
205.2291104128199
 30
0.0
 11
44.87108154623917
 21
204.8951265128199
 31
0.0
  0
LINE
  5
8689
  8
0
 10
48.54273654623921
 20
204.8951265128199
 30
0.0
 11
48.87672139623919
 21
204.8951265128199
 31
0.0
  0
LINE
  5
868A
  8
0
 10
48.87672139623919
 20
204.8951265128199
 30
0.0
 11
48.87672139623919
 21
205.2291104128199
 31
0.0
  0
LINE
  5
868B
  8
0
 10
48.87672139623919
 20
205.2291104128199
 30
0.0
 11
48.54273654623921
 21
205.2291104128199
 31
0.0
  0
LINE
  5
868C
  8
0
 10
48.54273654623921
 20
205.2291104128199
 30
0.0
 11
48.54273654623921
 21
204.8951265128199
 31
0.0
  0
LINE
  5
868D
  8
0
 10
49.8774865462392
 20
204.8951265128199
 30
0.0
 11
50.54508384623921
 21
204.8951265128199
 31
0.0
  0
LINE
  5
868E
  8
0
 10
50.54508384623921
 20
204.8951265128199
 30
0.0
 11
50.54508384623921
 21
205.2291104128199
 31
0.0
  0
LINE
  5
868F
  8
0
 10
50.54508384623921
 20
205.2291104128199
 30
0.0
 11
49.8774865462392
 21
205.2291104128199
 31
0.0
  0
LINE
  5
8690
  8
0
 10
49.8774865462392
 20
205.2291104128199
 30
0.0
 11
49.8774865462392
 21
204.8951265128199
 31
0.0
  0
LINE
  5
8691
  8
0
 10
50.87907154623917
 20
204.8951265128199
 30
0.0
 11
51.88065654623921
 21
204.8951265128199
 31
0.0
  0
LINE
  5
8692
  8
0
 10
51.88065654623921
 20
204.8951265128199
 30
0.0
 11
51.88065654623921
 21
205.2291104128199
 31
0.0
  0
LINE
  5
8693
  8
0
 10
51.88065654623921
 20
205.2291104128199
 30
0.0
 11
50.87907154623917
 21
205.2291104128199
 31
0.0
  0
LINE
  5
8694
  8
0
 10
50.87907154623917
 20
205.2291104128199
 30
0.0
 11
50.87907154623917
 21
204.8951265128199
 31
0.0
  0
LINE
  5
8695
  8
0
 10
52.2139165462392
 20
204.8951265128199
 30
0.0
 11
52.88151384623916
 21
204.8951265128199
 31
0.0
  0
LINE
  5
8696
  8
0
 10
52.88151384623916
 20
204.8951265128199
 30
0.0
 11
52.88151384623916
 21
205.2291104128199
 31
0.0
  0
LINE
  5
8697
  8
0
 10
52.88151384623916
 20
205.2291104128199
 30
0.0
 11
52.2139165462392
 21
205.2291104128199
 31
0.0
  0
LINE
  5
8698
  8
0
 10
52.2139165462392
 20
205.2291104128199
 30
0.0
 11
52.2139165462392
 21
204.8951265128199
 31
0.0
  0
LINE
  5
8699
  8
0
 10
53.21550154623918
 20
204.8951265128199
 30
0.0
 11
53.54985784623921
 21
204.8951265128199
 31
0.0
  0
LINE
  5
869A
  8
0
 10
53.54985784623921
 20
204.8951265128199
 30
0.0
 11
53.54985784623921
 21
205.2291104128199
 31
0.0
  0
LINE
  5
869B
  8
0
 10
53.54985784623921
 20
205.2291104128199
 30
0.0
 11
53.21550154623918
 21
205.2291104128199
 31
0.0
  0
LINE
  5
869C
  8
0
 10
53.21550154623918
 20
205.2291104128199
 30
0.0
 11
53.21550154623918
 21
204.8951265128199
 31
0.0
  0
LINE
  5
869D
  8
0
 10
42.5343665462392
 20
204.5611065128199
 30
0.0
 11
43.20196384623915
 21
204.5611065128199
 31
0.0
  0
LINE
  5
869E
  8
0
 10
43.20196384623915
 20
204.5611065128199
 30
0.0
 11
43.20196384623915
 21
204.8950913628199
 31
0.0
  0
LINE
  5
869F
  8
0
 10
43.20196384623915
 20
204.8950913628199
 30
0.0
 11
42.5343665462392
 21
204.8950913628199
 31
0.0
  0
LINE
  5
86A0
  8
0
 10
42.5343665462392
 20
204.8950913628199
 30
0.0
 11
42.5343665462392
 21
204.5611065128199
 31
0.0
  0
LINE
  5
86A1
  8
0
 10
43.53585654623919
 20
204.5611065128199
 30
0.0
 11
43.86984044623921
 21
204.5611065128199
 31
0.0
  0
LINE
  5
86A2
  8
0
 10
43.86984044623921
 20
204.5611065128199
 30
0.0
 11
43.86984044623921
 21
204.8950913628199
 31
0.0
  0
LINE
  5
86A3
  8
0
 10
43.86984044623921
 20
204.8950913628199
 30
0.0
 11
43.53585654623919
 21
204.8950913628199
 31
0.0
  0
LINE
  5
86A4
  8
0
 10
43.53585654623919
 20
204.8950913628199
 30
0.0
 11
43.53585654623919
 21
204.5611065128199
 31
0.0
  0
LINE
  5
86A5
  8
0
 10
44.2035165462392
 20
204.5611065128199
 30
0.0
 11
46.20593604623917
 21
204.5611065128199
 31
0.0
  0
LINE
  5
86A6
  8
0
 10
46.20593604623917
 20
204.5611065128199
 30
0.0
 11
46.20593604623917
 21
204.8950913628199
 31
0.0
  0
LINE
  5
86A7
  8
0
 10
46.20593604623917
 20
204.8950913628199
 30
0.0
 11
44.2035165462392
 21
204.8950913628199
 31
0.0
  0
LINE
  5
86A8
  8
0
 10
44.2035165462392
 20
204.8950913628199
 30
0.0
 11
44.2035165462392
 21
204.5611065128199
 31
0.0
  0
LINE
  5
86A9
  8
0
 10
47.54153154623918
 20
204.5611065128199
 30
0.0
 11
48.20912979623915
 21
204.5611065128199
 31
0.0
  0
LINE
  5
86AA
  8
0
 10
48.20912979623915
 20
204.5611065128199
 30
0.0
 11
48.20912979623915
 21
204.8950913628199
 31
0.0
  0
LINE
  5
86AB
  8
0
 10
48.20912979623915
 20
204.8950913628199
 30
0.0
 11
47.54153154623918
 21
204.8950913628199
 31
0.0
  0
LINE
  5
86AC
  8
0
 10
47.54153154623918
 20
204.8950913628199
 30
0.0
 11
47.54153154623918
 21
204.5611065128199
 31
0.0
  0
LINE
  5
86AD
  8
0
 10
48.87666154623918
 20
204.5611065128199
 30
0.0
 11
49.54425884623919
 21
204.5611065128199
 31
0.0
  0
LINE
  5
86AE
  8
0
 10
49.54425884623919
 20
204.5611065128199
 30
0.0
 11
49.54425884623919
 21
204.8950913628199
 31
0.0
  0
LINE
  5
86AF
  8
0
 10
49.54425884623919
 20
204.8950913628199
 30
0.0
 11
48.87666154623918
 21
204.8950913628199
 31
0.0
  0
LINE
  5
86B0
  8
0
 10
48.87666154623918
 20
204.8950913628199
 30
0.0
 11
48.87666154623918
 21
204.5611065128199
 31
0.0
  0
LINE
  5
86B1
  8
0
 10
50.54590654623917
 20
204.5611065128199
 30
0.0
 11
52.5483260462392
 21
204.5611065128199
 31
0.0
  0
LINE
  5
86B2
  8
0
 10
52.5483260462392
 20
204.5611065128199
 30
0.0
 11
52.5483260462392
 21
204.8950913628199
 31
0.0
  0
LINE
  5
86B3
  8
0
 10
52.5483260462392
 20
204.8950913628199
 30
0.0
 11
50.54590654623917
 21
204.8950913628199
 31
0.0
  0
LINE
  5
86B4
  8
0
 10
50.54590654623917
 20
204.8950913628199
 30
0.0
 11
50.54590654623917
 21
204.5611065128199
 31
0.0
  0
LINE
  5
86B5
  8
0
 10
45.20510154623918
 20
204.2275615128199
 30
0.0
 11
45.53908639623921
 21
204.2275615128199
 31
0.0
  0
LINE
  5
86B6
  8
0
 10
45.53908639623921
 20
204.2275615128199
 30
0.0
 11
45.53908639623921
 21
204.5615463628199
 31
0.0
  0
LINE
  5
86B7
  8
0
 10
45.53908639623921
 20
204.5615463628199
 30
0.0
 11
45.20510154623918
 21
204.5615463628199
 31
0.0
  0
LINE
  5
86B8
  8
0
 10
45.20510154623918
 20
204.5615463628199
 30
0.0
 11
45.20510154623918
 21
204.2275615128199
 31
0.0
  0
LINE
  5
86B9
  8
0
 10
46.2059265462392
 20
204.2275615128199
 30
0.0
 11
46.53991044623922
 21
204.2275615128199
 31
0.0
  0
LINE
  5
86BA
  8
0
 10
46.53991044623922
 20
204.2275615128199
 30
0.0
 11
46.53991044623922
 21
204.5615463628199
 31
0.0
  0
LINE
  5
86BB
  8
0
 10
46.53991044623922
 20
204.5615463628199
 30
0.0
 11
46.2059265462392
 21
204.5615463628199
 31
0.0
  0
LINE
  5
86BC
  8
0
 10
46.2059265462392
 20
204.5615463628199
 30
0.0
 11
46.2059265462392
 21
204.2275615128199
 31
0.0
  0
LINE
  5
86BD
  8
0
 10
46.87349154623917
 20
204.2275615128199
 30
0.0
 11
47.2074763962392
 21
204.2275615128199
 31
0.0
  0
LINE
  5
86BE
  8
0
 10
47.2074763962392
 20
204.2275615128199
 30
0.0
 11
47.2074763962392
 21
204.5615463628199
 31
0.0
  0
LINE
  5
86BF
  8
0
 10
47.2074763962392
 20
204.5615463628199
 30
0.0
 11
46.87349154623917
 21
204.5615463628199
 31
0.0
  0
LINE
  5
86C0
  8
0
 10
46.87349154623917
 20
204.5615463628199
 30
0.0
 11
46.87349154623917
 21
204.2275615128199
 31
0.0
  0
LINE
  5
86C1
  8
0
 10
47.54153154623918
 20
204.2275615128199
 30
0.0
 11
47.87588689623919
 21
204.2275615128199
 31
0.0
  0
LINE
  5
86C2
  8
0
 10
47.87588689623919
 20
204.2275615128199
 30
0.0
 11
47.87588689623919
 21
204.5615463628199
 31
0.0
  0
LINE
  5
86C3
  8
0
 10
47.87588689623919
 20
204.5615463628199
 30
0.0
 11
47.54153154623918
 21
204.5615463628199
 31
0.0
  0
LINE
  5
86C4
  8
0
 10
47.54153154623918
 20
204.5615463628199
 30
0.0
 11
47.54153154623918
 21
204.2275615128199
 31
0.0
  0
LINE
  5
86C5
  8
0
 10
48.54273654623921
 20
204.2275615128199
 30
0.0
 11
49.54395104623921
 21
204.2275615128199
 31
0.0
  0
LINE
  5
86C6
  8
0
 10
49.54395104623921
 20
204.2275615128199
 30
0.0
 11
49.54395104623921
 21
204.5615463628199
 31
0.0
  0
LINE
  5
86C7
  8
0
 10
49.54395104623921
 20
204.5615463628199
 30
0.0
 11
48.54273654623921
 21
204.5615463628199
 31
0.0
  0
LINE
  5
86C8
  8
0
 10
48.54273654623921
 20
204.5615463628199
 30
0.0
 11
48.54273654623921
 21
204.2275615128199
 31
0.0
  0
LINE
  5
86C9
  8
0
 10
49.8774865462392
 20
204.2275615128199
 30
0.0
 11
50.87907154623917
 21
204.2275615128199
 31
0.0
  0
LINE
  5
86CA
  8
0
 10
50.87907154623917
 20
204.2275615128199
 30
0.0
 11
50.87907154623917
 21
204.5615463628199
 31
0.0
  0
LINE
  5
86CB
  8
0
 10
50.87907154623917
 20
204.5615463628199
 30
0.0
 11
49.8774865462392
 21
204.5615463628199
 31
0.0
  0
LINE
  5
86CC
  8
0
 10
49.8774865462392
 20
204.5615463628199
 30
0.0
 11
49.8774865462392
 21
204.2275615128199
 31
0.0
  0
LINE
  5
86CD
  8
0
 10
51.88065654623921
 20
204.2275615128199
 30
0.0
 11
52.21464139623919
 21
204.2275615128199
 31
0.0
  0
LINE
  5
86CE
  8
0
 10
52.21464139623919
 20
204.2275615128199
 30
0.0
 11
52.21464139623919
 21
204.5615463628199
 31
0.0
  0
LINE
  5
86CF
  8
0
 10
52.21464139623919
 20
204.5615463628199
 30
0.0
 11
51.88065654623921
 21
204.5615463628199
 31
0.0
  0
LINE
  5
86D0
  8
0
 10
51.88065654623921
 20
204.5615463628199
 30
0.0
 11
51.88065654623921
 21
204.2275615128199
 31
0.0
  0
LINE
  5
86D1
  8
0
 10
52.54831654623916
 20
204.2275615128199
 30
0.0
 11
53.5499015462392
 21
204.2275615128199
 31
0.0
  0
LINE
  5
86D2
  8
0
 10
53.5499015462392
 20
204.2275615128199
 30
0.0
 11
53.5499015462392
 21
204.5615463628199
 31
0.0
  0
LINE
  5
86D3
  8
0
 10
53.5499015462392
 20
204.5615463628199
 30
0.0
 11
52.54831654623916
 21
204.5615463628199
 31
0.0
  0
LINE
  5
86D4
  8
0
 10
52.54831654623916
 20
204.5615463628199
 30
0.0
 11
52.54831654623916
 21
204.2275615128199
 31
0.0
  0
LINE
  5
86D5
  8
0
 10
42.5343665462392
 20
203.8935415128199
 30
0.0
 11
44.87114804623923
 21
203.8935415128199
 31
0.0
  0
LINE
  5
86D6
  8
0
 10
44.87114804623923
 20
203.8935415128199
 30
0.0
 11
44.87114804623923
 21
204.2275254128199
 31
0.0
  0
LINE
  5
86D7
  8
0
 10
44.87114804623923
 20
204.2275254128199
 30
0.0
 11
42.5343665462392
 21
204.2275254128199
 31
0.0
  0
LINE
  5
86D8
  8
0
 10
42.5343665462392
 20
204.2275254128199
 30
0.0
 11
42.5343665462392
 21
203.8935415128199
 31
0.0
  0
LINE
  5
86D9
  8
0
 10
46.2059265462392
 20
203.8935415128199
 30
0.0
 11
47.20751154623918
 21
203.8935415128199
 31
0.0
  0
LINE
  5
86DA
  8
0
 10
47.20751154623918
 20
203.8935415128199
 30
0.0
 11
47.20751154623918
 21
204.2275254128199
 31
0.0
  0
LINE
  5
86DB
  8
0
 10
47.20751154623918
 20
204.2275254128199
 30
0.0
 11
46.2059265462392
 21
204.2275254128199
 31
0.0
  0
LINE
  5
86DC
  8
0
 10
46.2059265462392
 20
204.2275254128199
 30
0.0
 11
46.2059265462392
 21
203.8935415128199
 31
0.0
  0
LINE
  5
86DD
  8
0
 10
47.54153154623918
 20
203.8935415128199
 30
0.0
 11
48.20912979623915
 21
203.8935415128199
 31
0.0
  0
LINE
  5
86DE
  8
0
 10
48.20912979623915
 20
203.8935415128199
 30
0.0
 11
48.20912979623915
 21
204.2275254128199
 31
0.0
  0
LINE
  5
86DF
  8
0
 10
48.20912979623915
 20
204.2275254128199
 30
0.0
 11
47.54153154623918
 21
204.2275254128199
 31
0.0
  0
LINE
  5
86E0
  8
0
 10
47.54153154623918
 20
204.2275254128199
 30
0.0
 11
47.54153154623918
 21
203.8935415128199
 31
0.0
  0
LINE
  5
86E1
  8
0
 10
48.54273654623921
 20
203.8935415128199
 30
0.0
 11
48.87672139623919
 21
203.8935415128199
 31
0.0
  0
LINE
  5
86E2
  8
0
 10
48.87672139623919
 20
203.8935415128199
 30
0.0
 11
48.87672139623919
 21
204.2275254128199
 31
0.0
  0
LINE
  5
86E3
  8
0
 10
48.87672139623919
 20
204.2275254128199
 30
0.0
 11
48.54273654623921
 21
204.2275254128199
 31
0.0
  0
LINE
  5
86E4
  8
0
 10
48.54273654623921
 20
204.2275254128199
 30
0.0
 11
48.54273654623921
 21
203.8935415128199
 31
0.0
  0
LINE
  5
86E5
  8
0
 10
49.20992154623917
 20
203.8935415128199
 30
0.0
 11
49.8775197962392
 21
203.8935415128199
 31
0.0
  0
LINE
  5
86E6
  8
0
 10
49.8775197962392
 20
203.8935415128199
 30
0.0
 11
49.8775197962392
 21
204.2275254128199
 31
0.0
  0
LINE
  5
86E7
  8
0
 10
49.8775197962392
 20
204.2275254128199
 30
0.0
 11
49.20992154623917
 21
204.2275254128199
 31
0.0
  0
LINE
  5
86E8
  8
0
 10
49.20992154623917
 20
204.2275254128199
 30
0.0
 11
49.20992154623917
 21
203.8935415128199
 31
0.0
  0
LINE
  5
86E9
  8
0
 10
50.21150654623921
 20
203.8935415128199
 30
0.0
 11
50.87910384623916
 21
203.8935415128199
 31
0.0
  0
LINE
  5
86EA
  8
0
 10
50.87910384623916
 20
203.8935415128199
 30
0.0
 11
50.87910384623916
 21
204.2275254128199
 31
0.0
  0
LINE
  5
86EB
  8
0
 10
50.87910384623916
 20
204.2275254128199
 30
0.0
 11
50.21150654623921
 21
204.2275254128199
 31
0.0
  0
LINE
  5
86EC
  8
0
 10
50.21150654623921
 20
204.2275254128199
 30
0.0
 11
50.21150654623921
 21
203.8935415128199
 31
0.0
  0
LINE
  5
86ED
  8
0
 10
51.21309154623918
 20
203.8935415128199
 30
0.0
 11
51.54707544623921
 21
203.8935415128199
 31
0.0
  0
LINE
  5
86EE
  8
0
 10
51.54707544623921
 20
203.8935415128199
 30
0.0
 11
51.54707544623921
 21
204.2275254128199
 31
0.0
  0
LINE
  5
86EF
  8
0
 10
51.54707544623921
 20
204.2275254128199
 30
0.0
 11
51.21309154623918
 21
204.2275254128199
 31
0.0
  0
LINE
  5
86F0
  8
0
 10
51.21309154623918
 20
204.2275254128199
 30
0.0
 11
51.21309154623918
 21
203.8935415128199
 31
0.0
  0
LINE
  5
86F1
  8
0
 10
51.88065654623921
 20
203.8935415128199
 30
0.0
 11
52.21464139623919
 21
203.8935415128199
 31
0.0
  0
LINE
  5
86F2
  8
0
 10
52.21464139623919
 20
203.8935415128199
 30
0.0
 11
52.21464139623919
 21
204.2275254128199
 31
0.0
  0
LINE
  5
86F3
  8
0
 10
52.21464139623919
 20
204.2275254128199
 30
0.0
 11
51.88065654623921
 21
204.2275254128199
 31
0.0
  0
LINE
  5
86F4
  8
0
 10
51.88065654623921
 20
204.2275254128199
 30
0.0
 11
51.88065654623921
 21
203.8935415128199
 31
0.0
  0
LINE
  5
86F5
  8
0
 10
52.54831654623916
 20
203.8935415128199
 30
0.0
 11
53.21554239623919
 21
203.8935415128199
 31
0.0
  0
LINE
  5
86F6
  8
0
 10
53.21554239623919
 20
203.8935415128199
 30
0.0
 11
53.21554239623919
 21
204.2275254128199
 31
0.0
  0
LINE
  5
86F7
  8
0
 10
53.21554239623919
 20
204.2275254128199
 30
0.0
 11
52.54831654623916
 21
204.2275254128199
 31
0.0
  0
LINE
  5
86F8
  8
0
 10
52.54831654623916
 20
204.2275254128199
 30
0.0
 11
52.54831654623916
 21
203.8935415128199
 31
0.0
  0
LINE
  5
86F9
  8
0
 10
42.5343665462392
 20
203.5602815128199
 30
0.0
 11
42.86872189623921
 21
203.5602815128199
 31
0.0
  0
LINE
  5
86FA
  8
0
 10
42.86872189623921
 20
203.5602815128199
 30
0.0
 11
42.86872189623921
 21
203.8942654128199
 31
0.0
  0
LINE
  5
86FB
  8
0
 10
42.86872189623921
 20
203.8942654128199
 30
0.0
 11
42.5343665462392
 21
203.8942654128199
 31
0.0
  0
LINE
  5
86FC
  8
0
 10
42.5343665462392
 20
203.8942654128199
 30
0.0
 11
42.5343665462392
 21
203.5602815128199
 31
0.0
  0
LINE
  5
86FD
  8
0
 10
44.53744154623917
 20
203.5602815128199
 30
0.0
 11
44.87142544623919
 21
203.5602815128199
 31
0.0
  0
LINE
  5
86FE
  8
0
 10
44.87142544623919
 20
203.5602815128199
 30
0.0
 11
44.87142544623919
 21
203.8942654128199
 31
0.0
  0
LINE
  5
86FF
  8
0
 10
44.87142544623919
 20
203.8942654128199
 30
0.0
 11
44.53744154623917
 21
203.8942654128199
 31
0.0
  0
LINE
  5
8700
  8
0
 10
44.53744154623917
 20
203.8942654128199
 30
0.0
 11
44.53744154623917
 21
203.5602815128199
 31
0.0
  0
LINE
  5
8701
  8
0
 10
45.53874154623918
 20
203.5602815128199
 30
0.0
 11
46.53995604623918
 21
203.5602815128199
 31
0.0
  0
LINE
  5
8702
  8
0
 10
46.53995604623918
 20
203.5602815128199
 30
0.0
 11
46.53995604623918
 21
203.8942654128199
 31
0.0
  0
LINE
  5
8703
  8
0
 10
46.53995604623918
 20
203.8942654128199
 30
0.0
 11
45.53874154623918
 21
203.8942654128199
 31
0.0
  0
LINE
  5
8704
  8
0
 10
45.53874154623918
 20
203.8942654128199
 30
0.0
 11
45.53874154623918
 21
203.5602815128199
 31
0.0
  0
LINE
  5
8705
  8
0
 10
47.54153154623918
 20
203.5602815128199
 30
0.0
 11
47.87588689623919
 21
203.5602815128199
 31
0.0
  0
LINE
  5
8706
  8
0
 10
47.87588689623919
 20
203.5602815128199
 30
0.0
 11
47.87588689623919
 21
203.8942654128199
 31
0.0
  0
LINE
  5
8707
  8
0
 10
47.87588689623919
 20
203.8942654128199
 30
0.0
 11
47.54153154623918
 21
203.8942654128199
 31
0.0
  0
LINE
  5
8708
  8
0
 10
47.54153154623918
 20
203.8942654128199
 30
0.0
 11
47.54153154623918
 21
203.5602815128199
 31
0.0
  0
LINE
  5
8709
  8
0
 10
49.20992154623917
 20
203.5602815128199
 30
0.0
 11
49.54427689623918
 21
203.5602815128199
 31
0.0
  0
LINE
  5
870A
  8
0
 10
49.54427689623918
 20
203.5602815128199
 30
0.0
 11
49.54427689623918
 21
203.8942654128199
 31
0.0
  0
LINE
  5
870B
  8
0
 10
49.54427689623918
 20
203.8942654128199
 30
0.0
 11
49.20992154623917
 21
203.8942654128199
 31
0.0
  0
LINE
  5
870C
  8
0
 10
49.20992154623917
 20
203.8942654128199
 30
0.0
 11
49.20992154623917
 21
203.5602815128199
 31
0.0
  0
LINE
  5
870D
  8
0
 10
50.21150654623921
 20
203.5602815128199
 30
0.0
 11
50.87910384623916
 21
203.5602815128199
 31
0.0
  0
LINE
  5
870E
  8
0
 10
50.87910384623916
 20
203.5602815128199
 30
0.0
 11
50.87910384623916
 21
203.8942654128199
 31
0.0
  0
LINE
  5
870F
  8
0
 10
50.87910384623916
 20
203.8942654128199
 30
0.0
 11
50.21150654623921
 21
203.8942654128199
 31
0.0
  0
LINE
  5
8710
  8
0
 10
50.21150654623921
 20
203.8942654128199
 30
0.0
 11
50.21150654623921
 21
203.5602815128199
 31
0.0
  0
LINE
  5
8711
  8
0
 10
51.88065654623921
 20
203.5602815128199
 30
0.0
 11
52.88224154623919
 21
203.5602815128199
 31
0.0
  0
LINE
  5
8712
  8
0
 10
52.88224154623919
 20
203.5602815128199
 30
0.0
 11
52.88224154623919
 21
203.8942654128199
 31
0.0
  0
LINE
  5
8713
  8
0
 10
52.88224154623919
 20
203.8942654128199
 30
0.0
 11
51.88065654623921
 21
203.8942654128199
 31
0.0
  0
LINE
  5
8714
  8
0
 10
51.88065654623921
 20
203.8942654128199
 30
0.0
 11
51.88065654623921
 21
203.5602815128199
 31
0.0
  0
LINE
  5
8715
  8
0
 10
53.21550154623918
 20
203.5602815128199
 30
0.0
 11
53.54985784623921
 21
203.5602815128199
 31
0.0
  0
LINE
  5
8716
  8
0
 10
53.54985784623921
 20
203.5602815128199
 30
0.0
 11
53.54985784623921
 21
203.8942654128199
 31
0.0
  0
LINE
  5
8717
  8
0
 10
53.54985784623921
 20
203.8942654128199
 30
0.0
 11
53.21550154623918
 21
203.8942654128199
 31
0.0
  0
LINE
  5
8718
  8
0
 10
53.21550154623918
 20
203.8942654128199
 30
0.0
 11
53.21550154623918
 21
203.5602815128199
 31
0.0
  0
LINE
  5
8719
  8
0
 10
42.5343665462392
 20
203.2262615128199
 30
0.0
 11
42.86872189623921
 21
203.2262615128199
 31
0.0
  0
LINE
  5
871A
  8
0
 10
42.86872189623921
 20
203.2262615128199
 30
0.0
 11
42.86872189623921
 21
203.5602463628199
 31
0.0
  0
LINE
  5
871B
  8
0
 10
42.86872189623921
 20
203.5602463628199
 30
0.0
 11
42.5343665462392
 21
203.5602463628199
 31
0.0
  0
LINE
  5
871C
  8
0
 10
42.5343665462392
 20
203.5602463628199
 30
0.0
 11
42.5343665462392
 21
203.2262615128199
 31
0.0
  0
LINE
  5
871D
  8
0
 10
43.20193154623917
 20
203.2262615128199
 30
0.0
 11
44.2035165462392
 21
203.2262615128199
 31
0.0
  0
LINE
  5
871E
  8
0
 10
44.2035165462392
 20
203.2262615128199
 30
0.0
 11
44.2035165462392
 21
203.5602463628199
 31
0.0
  0
LINE
  5
871F
  8
0
 10
44.2035165462392
 20
203.5602463628199
 30
0.0
 11
43.20193154623917
 21
203.5602463628199
 31
0.0
  0
LINE
  5
8720
  8
0
 10
43.20193154623917
 20
203.5602463628199
 30
0.0
 11
43.20193154623917
 21
203.2262615128199
 31
0.0
  0
LINE
  5
8721
  8
0
 10
44.53744154623917
 20
203.2262615128199
 30
0.0
 11
44.87142544623919
 21
203.2262615128199
 31
0.0
  0
LINE
  5
8722
  8
0
 10
44.87142544623919
 20
203.2262615128199
 30
0.0
 11
44.87142544623919
 21
203.5602463628199
 31
0.0
  0
LINE
  5
8723
  8
0
 10
44.87142544623919
 20
203.5602463628199
 30
0.0
 11
44.53744154623917
 21
203.5602463628199
 31
0.0
  0
LINE
  5
8724
  8
0
 10
44.53744154623917
 20
203.5602463628199
 30
0.0
 11
44.53744154623917
 21
203.2262615128199
 31
0.0
  0
LINE
  5
8725
  8
0
 10
45.8726665462392
 20
203.2262615128199
 30
0.0
 11
46.53989239623917
 21
203.2262615128199
 31
0.0
  0
LINE
  5
8726
  8
0
 10
46.53989239623917
 20
203.2262615128199
 30
0.0
 11
46.53989239623917
 21
203.5602463628199
 31
0.0
  0
LINE
  5
8727
  8
0
 10
46.53989239623917
 20
203.5602463628199
 30
0.0
 11
45.8726665462392
 21
203.5602463628199
 31
0.0
  0
LINE
  5
8728
  8
0
 10
45.8726665462392
 20
203.5602463628199
 30
0.0
 11
45.8726665462392
 21
203.2262615128199
 31
0.0
  0
LINE
  5
8729
  8
0
 10
46.87349154623917
 20
203.2262615128199
 30
0.0
 11
47.54108979623919
 21
203.2262615128199
 31
0.0
  0
LINE
  5
872A
  8
0
 10
47.54108979623919
 20
203.2262615128199
 30
0.0
 11
47.54108979623919
 21
203.5602463628199
 31
0.0
  0
LINE
  5
872B
  8
0
 10
47.54108979623919
 20
203.5602463628199
 30
0.0
 11
46.87349154623917
 21
203.5602463628199
 31
0.0
  0
LINE
  5
872C
  8
0
 10
46.87349154623917
 20
203.5602463628199
 30
0.0
 11
46.87349154623917
 21
203.2262615128199
 31
0.0
  0
LINE
  5
872D
  8
0
 10
48.54273654623921
 20
203.2262615128199
 30
0.0
 11
49.20996334623919
 21
203.2262615128199
 31
0.0
  0
LINE
  5
872E
  8
0
 10
49.20996334623919
 20
203.2262615128199
 30
0.0
 11
49.20996334623919
 21
203.5602463628199
 31
0.0
  0
LINE
  5
872F
  8
0
 10
49.20996334623919
 20
203.5602463628199
 30
0.0
 11
48.54273654623921
 21
203.5602463628199
 31
0.0
  0
LINE
  5
8730
  8
0
 10
48.54273654623921
 20
203.5602463628199
 30
0.0
 11
48.54273654623921
 21
203.2262615128199
 31
0.0
  0
LINE
  5
8731
  8
0
 10
49.54432154623919
 20
203.2262615128199
 30
0.0
 11
49.87830639623917
 21
203.2262615128199
 31
0.0
  0
LINE
  5
8732
  8
0
 10
49.87830639623917
 20
203.2262615128199
 30
0.0
 11
49.87830639623917
 21
203.5602463628199
 31
0.0
  0
LINE
  5
8733
  8
0
 10
49.87830639623917
 20
203.5602463628199
 30
0.0
 11
49.54432154623919
 21
203.5602463628199
 31
0.0
  0
LINE
  5
8734
  8
0
 10
49.54432154623919
 20
203.5602463628199
 30
0.0
 11
49.54432154623919
 21
203.2262615128199
 31
0.0
  0
LINE
  5
8735
  8
0
 10
50.54590654623917
 20
203.2262615128199
 30
0.0
 11
52.5483260462392
 21
203.2262615128199
 31
0.0
  0
LINE
  5
8736
  8
0
 10
52.5483260462392
 20
203.2262615128199
 30
0.0
 11
52.5483260462392
 21
203.5602463628199
 31
0.0
  0
LINE
  5
8737
  8
0
 10
52.5483260462392
 20
203.5602463628199
 30
0.0
 11
50.54590654623917
 21
203.5602463628199
 31
0.0
  0
LINE
  5
8738
  8
0
 10
50.54590654623917
 20
203.5602463628199
 30
0.0
 11
50.54590654623917
 21
203.2262615128199
 31
0.0
  0
LINE
  5
8739
  8
0
 10
42.5343665462392
 20
202.8919565128199
 30
0.0
 11
42.86872189623921
 21
202.8919565128199
 31
0.0
  0
LINE
  5
873A
  8
0
 10
42.86872189623921
 20
202.8919565128199
 30
0.0
 11
42.86872189623921
 21
203.2263118628199
 31
0.0
  0
LINE
  5
873B
  8
0
 10
42.86872189623921
 20
203.2263118628199
 30
0.0
 11
42.5343665462392
 21
203.2263118628199
 31
0.0
  0
LINE
  5
873C
  8
0
 10
42.5343665462392
 20
203.2263118628199
 30
0.0
 11
42.5343665462392
 21
202.8919565128199
 31
0.0
  0
LINE
  5
873D
  8
0
 10
43.20193154623917
 20
202.8919565128199
 30
0.0
 11
44.2035165462392
 21
202.8919565128199
 31
0.0
  0
LINE
  5
873E
  8
0
 10
44.2035165462392
 20
202.8919565128199
 30
0.0
 11
44.2035165462392
 21
203.2263118628199
 31
0.0
  0
LINE
  5
873F
  8
0
 10
44.2035165462392
 20
203.2263118628199
 30
0.0
 11
43.20193154623917
 21
203.2263118628199
 31
0.0
  0
LINE
  5
8740
  8
0
 10
43.20193154623917
 20
203.2263118628199
 30
0.0
 11
43.20193154623917
 21
202.8919565128199
 31
0.0
  0
LINE
  5
8741
  8
0
 10
44.53744154623917
 20
202.8919565128199
 30
0.0
 11
44.87142544623919
 21
202.8919565128199
 31
0.0
  0
LINE
  5
8742
  8
0
 10
44.87142544623919
 20
202.8919565128199
 30
0.0
 11
44.87142544623919
 21
203.2263118628199
 31
0.0
  0
LINE
  5
8743
  8
0
 10
44.87142544623919
 20
203.2263118628199
 30
0.0
 11
44.53744154623917
 21
203.2263118628199
 31
0.0
  0
LINE
  5
8744
  8
0
 10
44.53744154623917
 20
203.2263118628199
 30
0.0
 11
44.53744154623917
 21
202.8919565128199
 31
0.0
  0
LINE
  5
8745
  8
0
 10
45.53874154623918
 20
202.8919565128199
 30
0.0
 11
46.8735675462392
 21
202.8919565128199
 31
0.0
  0
LINE
  5
8746
  8
0
 10
46.8735675462392
 20
202.8919565128199
 30
0.0
 11
46.8735675462392
 21
203.2263118628199
 31
0.0
  0
LINE
  5
8747
  8
0
 10
46.8735675462392
 20
203.2263118628199
 30
0.0
 11
45.53874154623918
 21
203.2263118628199
 31
0.0
  0
LINE
  5
8748
  8
0
 10
45.53874154623918
 20
203.2263118628199
 30
0.0
 11
45.53874154623918
 21
202.8919565128199
 31
0.0
  0
LINE
  5
8749
  8
0
 10
47.20751154623918
 20
202.8919565128199
 30
0.0
 11
47.5414954462392
 21
202.8919565128199
 31
0.0
  0
LINE
  5
874A
  8
0
 10
47.5414954462392
 20
202.8919565128199
 30
0.0
 11
47.5414954462392
 21
203.2263118628199
 31
0.0
  0
LINE
  5
874B
  8
0
 10
47.5414954462392
 20
203.2263118628199
 30
0.0
 11
47.20751154623918
 21
203.2263118628199
 31
0.0
  0
LINE
  5
874C
  8
0
 10
47.20751154623918
 20
203.2263118628199
 30
0.0
 11
47.20751154623918
 21
202.8919565128199
 31
0.0
  0
LINE
  5
874D
  8
0
 10
47.8750765462392
 20
202.8919565128199
 30
0.0
 11
48.20906139623918
 21
202.8919565128199
 31
0.0
  0
LINE
  5
874E
  8
0
 10
48.20906139623918
 20
202.8919565128199
 30
0.0
 11
48.20906139623918
 21
203.2263118628199
 31
0.0
  0
LINE
  5
874F
  8
0
 10
48.20906139623918
 20
203.2263118628199
 30
0.0
 11
47.8750765462392
 21
203.2263118628199
 31
0.0
  0
LINE
  5
8750
  8
0
 10
47.8750765462392
 20
203.2263118628199
 30
0.0
 11
47.8750765462392
 21
202.8919565128199
 31
0.0
  0
LINE
  5
8751
  8
0
 10
49.20992154623917
 20
202.8919565128199
 30
0.0
 11
49.54427689623918
 21
202.8919565128199
 31
0.0
  0
LINE
  5
8752
  8
0
 10
49.54427689623918
 20
202.8919565128199
 30
0.0
 11
49.54427689623918
 21
203.2263118628199
 31
0.0
  0
LINE
  5
8753
  8
0
 10
49.54427689623918
 20
203.2263118628199
 30
0.0
 11
49.20992154623917
 21
203.2263118628199
 31
0.0
  0
LINE
  5
8754
  8
0
 10
49.20992154623917
 20
203.2263118628199
 30
0.0
 11
49.20992154623917
 21
202.8919565128199
 31
0.0
  0
LINE
  5
8755
  8
0
 10
49.8774865462392
 20
202.8919565128199
 30
0.0
 11
50.54508384623921
 21
202.8919565128199
 31
0.0
  0
LINE
  5
8756
  8
0
 10
50.54508384623921
 20
202.8919565128199
 30
0.0
 11
50.54508384623921
 21
203.2263118628199
 31
0.0
  0
LINE
  5
8757
  8
0
 10
50.54508384623921
 20
203.2263118628199
 30
0.0
 11
49.8774865462392
 21
203.2263118628199
 31
0.0
  0
LINE
  5
8758
  8
0
 10
49.8774865462392
 20
203.2263118628199
 30
0.0
 11
49.8774865462392
 21
202.8919565128199
 31
0.0
  0
LINE
  5
8759
  8
0
 10
50.87907154623917
 20
202.8919565128199
 30
0.0
 11
51.21305639623921
 21
202.8919565128199
 31
0.0
  0
LINE
  5
875A
  8
0
 10
51.21305639623921
 20
202.8919565128199
 30
0.0
 11
51.21305639623921
 21
203.2263118628199
 31
0.0
  0
LINE
  5
875B
  8
0
 10
51.21305639623921
 20
203.2263118628199
 30
0.0
 11
50.87907154623917
 21
203.2263118628199
 31
0.0
  0
LINE
  5
875C
  8
0
 10
50.87907154623917
 20
203.2263118628199
 30
0.0
 11
50.87907154623917
 21
202.8919565128199
 31
0.0
  0
LINE
  5
875D
  8
0
 10
51.54673154623919
 20
202.8919565128199
 30
0.0
 11
52.21395834623922
 21
202.8919565128199
 31
0.0
  0
LINE
  5
875E
  8
0
 10
52.21395834623922
 20
202.8919565128199
 30
0.0
 11
52.21395834623922
 21
203.2263118628199
 31
0.0
  0
LINE
  5
875F
  8
0
 10
52.21395834623922
 20
203.2263118628199
 30
0.0
 11
51.54673154623919
 21
203.2263118628199
 31
0.0
  0
LINE
  5
8760
  8
0
 10
51.54673154623919
 20
203.2263118628199
 30
0.0
 11
51.54673154623919
 21
202.8919565128199
 31
0.0
  0
LINE
  5
8761
  8
0
 10
52.54831654623916
 20
202.8919565128199
 30
0.0
 11
52.88230044623919
 21
202.8919565128199
 31
0.0
  0
LINE
  5
8762
  8
0
 10
52.88230044623919
 20
202.8919565128199
 30
0.0
 11
52.88230044623919
 21
203.2263118628199
 31
0.0
  0
LINE
  5
8763
  8
0
 10
52.88230044623919
 20
203.2263118628199
 30
0.0
 11
52.54831654623916
 21
203.2263118628199
 31
0.0
  0
LINE
  5
8764
  8
0
 10
52.54831654623916
 20
203.2263118628199
 30
0.0
 11
52.54831654623916
 21
202.8919565128199
 31
0.0
  0
LINE
  5
8765
  8
0
 10
53.21550154623918
 20
202.8919565128199
 30
0.0
 11
53.54985784623921
 21
202.8919565128199
 31
0.0
  0
LINE
  5
8766
  8
0
 10
53.54985784623921
 20
202.8919565128199
 30
0.0
 11
53.54985784623921
 21
203.2263118628199
 31
0.0
  0
LINE
  5
8767
  8
0
 10
53.54985784623921
 20
203.2263118628199
 30
0.0
 11
53.21550154623918
 21
203.2263118628199
 31
0.0
  0
LINE
  5
8768
  8
0
 10
53.21550154623918
 20
203.2263118628199
 30
0.0
 11
53.21550154623918
 21
202.8919565128199
 31
0.0
  0
LINE
  5
8769
  8
0
 10
42.5343665462392
 20
202.5586965128199
 30
0.0
 11
42.86872189623921
 21
202.5586965128199
 31
0.0
  0
LINE
  5
876A
  8
0
 10
42.86872189623921
 20
202.5586965128199
 30
0.0
 11
42.86872189623921
 21
202.8926804128199
 31
0.0
  0
LINE
  5
876B
  8
0
 10
42.86872189623921
 20
202.8926804128199
 30
0.0
 11
42.5343665462392
 21
202.8926804128199
 31
0.0
  0
LINE
  5
876C
  8
0
 10
42.5343665462392
 20
202.8926804128199
 30
0.0
 11
42.5343665462392
 21
202.5586965128199
 31
0.0
  0
LINE
  5
876D
  8
0
 10
43.20193154623917
 20
202.5586965128199
 30
0.0
 11
44.2035165462392
 21
202.5586965128199
 31
0.0
  0
LINE
  5
876E
  8
0
 10
44.2035165462392
 20
202.5586965128199
 30
0.0
 11
44.2035165462392
 21
202.8926804128199
 31
0.0
  0
LINE
  5
876F
  8
0
 10
44.2035165462392
 20
202.8926804128199
 30
0.0
 11
43.20193154623917
 21
202.8926804128199
 31
0.0
  0
LINE
  5
8770
  8
0
 10
43.20193154623917
 20
202.8926804128199
 30
0.0
 11
43.20193154623917
 21
202.5586965128199
 31
0.0
  0
LINE
  5
8771
  8
0
 10
44.53744154623917
 20
202.5586965128199
 30
0.0
 11
44.87142544623919
 21
202.5586965128199
 31
0.0
  0
LINE
  5
8772
  8
0
 10
44.87142544623919
 20
202.5586965128199
 30
0.0
 11
44.87142544623919
 21
202.8926804128199
 31
0.0
  0
LINE
  5
8773
  8
0
 10
44.87142544623919
 20
202.8926804128199
 30
0.0
 11
44.53744154623917
 21
202.8926804128199
 31
0.0
  0
LINE
  5
8774
  8
0
 10
44.53744154623917
 20
202.8926804128199
 30
0.0
 11
44.53744154623917
 21
202.5586965128199
 31
0.0
  0
LINE
  5
8775
  8
0
 10
45.8726665462392
 20
202.5586965128199
 30
0.0
 11
47.20749254623917
 21
202.5586965128199
 31
0.0
  0
LINE
  5
8776
  8
0
 10
47.20749254623917
 20
202.5586965128199
 30
0.0
 11
47.20749254623917
 21
202.8926804128199
 31
0.0
  0
LINE
  5
8777
  8
0
 10
47.20749254623917
 20
202.8926804128199
 30
0.0
 11
45.8726665462392
 21
202.8926804128199
 31
0.0
  0
LINE
  5
8778
  8
0
 10
45.8726665462392
 20
202.8926804128199
 30
0.0
 11
45.8726665462392
 21
202.5586965128199
 31
0.0
  0
LINE
  5
8779
  8
0
 10
47.8750765462392
 20
202.5586965128199
 30
0.0
 11
48.20906139623918
 21
202.5586965128199
 31
0.0
  0
LINE
  5
877A
  8
0
 10
48.20906139623918
 20
202.5586965128199
 30
0.0
 11
48.20906139623918
 21
202.8926804128199
 31
0.0
  0
LINE
  5
877B
  8
0
 10
48.20906139623918
 20
202.8926804128199
 30
0.0
 11
47.8750765462392
 21
202.8926804128199
 31
0.0
  0
LINE
  5
877C
  8
0
 10
47.8750765462392
 20
202.8926804128199
 30
0.0
 11
47.8750765462392
 21
202.5586965128199
 31
0.0
  0
LINE
  5
877D
  8
0
 10
48.54273654623921
 20
202.5586965128199
 30
0.0
 11
48.87672139623919
 21
202.5586965128199
 31
0.0
  0
LINE
  5
877E
  8
0
 10
48.87672139623919
 20
202.5586965128199
 30
0.0
 11
48.87672139623919
 21
202.8926804128199
 31
0.0
  0
LINE
  5
877F
  8
0
 10
48.87672139623919
 20
202.8926804128199
 30
0.0
 11
48.54273654623921
 21
202.8926804128199
 31
0.0
  0
LINE
  5
8780
  8
0
 10
48.54273654623921
 20
202.8926804128199
 30
0.0
 11
48.54273654623921
 21
202.5586965128199
 31
0.0
  0
LINE
  5
8781
  8
0
 10
49.20992154623917
 20
202.5586965128199
 30
0.0
 11
49.54427689623918
 21
202.5586965128199
 31
0.0
  0
LINE
  5
8782
  8
0
 10
49.54427689623918
 20
202.5586965128199
 30
0.0
 11
49.54427689623918
 21
202.8926804128199
 31
0.0
  0
LINE
  5
8783
  8
0
 10
49.54427689623918
 20
202.8926804128199
 30
0.0
 11
49.20992154623917
 21
202.8926804128199
 31
0.0
  0
LINE
  5
8784
  8
0
 10
49.20992154623917
 20
202.8926804128199
 30
0.0
 11
49.20992154623917
 21
202.5586965128199
 31
0.0
  0
LINE
  5
8785
  8
0
 10
49.8774865462392
 20
202.5586965128199
 30
0.0
 11
50.21147044623922
 21
202.5586965128199
 31
0.0
  0
LINE
  5
8786
  8
0
 10
50.21147044623922
 20
202.5586965128199
 30
0.0
 11
50.21147044623922
 21
202.8926804128199
 31
0.0
  0
LINE
  5
8787
  8
0
 10
50.21147044623922
 20
202.8926804128199
 30
0.0
 11
49.8774865462392
 21
202.8926804128199
 31
0.0
  0
LINE
  5
8788
  8
0
 10
49.8774865462392
 20
202.8926804128199
 30
0.0
 11
49.8774865462392
 21
202.5586965128199
 31
0.0
  0
LINE
  5
8789
  8
0
 10
50.54590654623917
 20
202.5586965128199
 30
0.0
 11
50.8798913962392
 21
202.5586965128199
 31
0.0
  0
LINE
  5
878A
  8
0
 10
50.8798913962392
 20
202.5586965128199
 30
0.0
 11
50.8798913962392
 21
202.8926804128199
 31
0.0
  0
LINE
  5
878B
  8
0
 10
50.8798913962392
 20
202.8926804128199
 30
0.0
 11
50.54590654623917
 21
202.8926804128199
 31
0.0
  0
LINE
  5
878C
  8
0
 10
50.54590654623917
 20
202.8926804128199
 30
0.0
 11
50.54590654623917
 21
202.5586965128199
 31
0.0
  0
LINE
  5
878D
  8
0
 10
51.54673154623919
 20
202.5586965128199
 30
0.0
 11
52.21395834623922
 21
202.5586965128199
 31
0.0
  0
LINE
  5
878E
  8
0
 10
52.21395834623922
 20
202.5586965128199
 30
0.0
 11
52.21395834623922
 21
202.8926804128199
 31
0.0
  0
LINE
  5
878F
  8
0
 10
52.21395834623922
 20
202.8926804128199
 30
0.0
 11
51.54673154623919
 21
202.8926804128199
 31
0.0
  0
LINE
  5
8790
  8
0
 10
51.54673154623919
 20
202.8926804128199
 30
0.0
 11
51.54673154623919
 21
202.5586965128199
 31
0.0
  0
LINE
  5
8791
  8
0
 10
52.88157654623922
 20
202.5586965128199
 30
0.0
 11
53.54917384623917
 21
202.5586965128199
 31
0.0
  0
LINE
  5
8792
  8
0
 10
53.54917384623917
 20
202.5586965128199
 30
0.0
 11
53.54917384623917
 21
202.8926804128199
 31
0.0
  0
LINE
  5
8793
  8
0
 10
53.54917384623917
 20
202.8926804128199
 30
0.0
 11
52.88157654623922
 21
202.8926804128199
 31
0.0
  0
LINE
  5
8794
  8
0
 10
52.88157654623922
 20
202.8926804128199
 30
0.0
 11
52.88157654623922
 21
202.5586965128199
 31
0.0
  0
LINE
  5
8795
  8
0
 10
42.5343665462392
 20
202.2247715128199
 30
0.0
 11
42.86872189623921
 21
202.2247715128199
 31
0.0
  0
LINE
  5
8796
  8
0
 10
42.86872189623921
 20
202.2247715128199
 30
0.0
 11
42.86872189623921
 21
202.5587563628199
 31
0.0
  0
LINE
  5
8797
  8
0
 10
42.86872189623921
 20
202.5587563628199
 30
0.0
 11
42.5343665462392
 21
202.5587563628199
 31
0.0
  0
LINE
  5
8798
  8
0
 10
42.5343665462392
 20
202.5587563628199
 30
0.0
 11
42.5343665462392
 21
202.2247715128199
 31
0.0
  0
LINE
  5
8799
  8
0
 10
44.53744154623917
 20
202.2247715128199
 30
0.0
 11
44.87142544623919
 21
202.2247715128199
 31
0.0
  0
LINE
  5
879A
  8
0
 10
44.87142544623919
 20
202.2247715128199
 30
0.0
 11
44.87142544623919
 21
202.5587563628199
 31
0.0
  0
LINE
  5
879B
  8
0
 10
44.87142544623919
 20
202.5587563628199
 30
0.0
 11
44.53744154623917
 21
202.5587563628199
 31
0.0
  0
LINE
  5
879C
  8
0
 10
44.53744154623917
 20
202.5587563628199
 30
0.0
 11
44.53744154623917
 21
202.2247715128199
 31
0.0
  0
LINE
  5
879D
  8
0
 10
45.8726665462392
 20
202.2247715128199
 30
0.0
 11
46.53989239623917
 21
202.2247715128199
 31
0.0
  0
LINE
  5
879E
  8
0
 10
46.53989239623917
 20
202.2247715128199
 30
0.0
 11
46.53989239623917
 21
202.5587563628199
 31
0.0
  0
LINE
  5
879F
  8
0
 10
46.53989239623917
 20
202.5587563628199
 30
0.0
 11
45.8726665462392
 21
202.5587563628199
 31
0.0
  0
LINE
  5
87A0
  8
0
 10
45.8726665462392
 20
202.5587563628199
 30
0.0
 11
45.8726665462392
 21
202.2247715128199
 31
0.0
  0
LINE
  5
87A1
  8
0
 10
47.20751154623918
 20
202.2247715128199
 30
0.0
 11
48.20909654623921
 21
202.2247715128199
 31
0.0
  0
LINE
  5
87A2
  8
0
 10
48.20909654623921
 20
202.2247715128199
 30
0.0
 11
48.20909654623921
 21
202.5587563628199
 31
0.0
  0
LINE
  5
87A3
  8
0
 10
48.20909654623921
 20
202.5587563628199
 30
0.0
 11
47.20751154623918
 21
202.5587563628199
 31
0.0
  0
LINE
  5
87A4
  8
0
 10
47.20751154623918
 20
202.5587563628199
 30
0.0
 11
47.20751154623918
 21
202.2247715128199
 31
0.0
  0
LINE
  5
87A5
  8
0
 10
48.87666154623918
 20
202.2247715128199
 30
0.0
 11
49.54425884623919
 21
202.2247715128199
 31
0.0
  0
LINE
  5
87A6
  8
0
 10
49.54425884623919
 20
202.2247715128199
 30
0.0
 11
49.54425884623919
 21
202.5587563628199
 31
0.0
  0
LINE
  5
87A7
  8
0
 10
49.54425884623919
 20
202.5587563628199
 30
0.0
 11
48.87666154623918
 21
202.5587563628199
 31
0.0
  0
LINE
  5
87A8
  8
0
 10
48.87666154623918
 20
202.5587563628199
 30
0.0
 11
48.87666154623918
 21
202.2247715128199
 31
0.0
  0
LINE
  5
87A9
  8
0
 10
51.54673154623919
 20
202.2247715128199
 30
0.0
 11
52.88155754623921
 21
202.2247715128199
 31
0.0
  0
LINE
  5
87AA
  8
0
 10
52.88155754623921
 20
202.2247715128199
 30
0.0
 11
52.88155754623921
 21
202.5587563628199
 31
0.0
  0
LINE
  5
87AB
  8
0
 10
52.88155754623921
 20
202.5587563628199
 30
0.0
 11
51.54673154623919
 21
202.5587563628199
 31
0.0
  0
LINE
  5
87AC
  8
0
 10
51.54673154623919
 20
202.5587563628199
 30
0.0
 11
51.54673154623919
 21
202.2247715128199
 31
0.0
  0
LINE
  5
87AD
  8
0
 10
42.5343665462392
 20
201.8911315128199
 30
0.0
 11
44.87114804623923
 21
201.8911315128199
 31
0.0
  0
LINE
  5
87AE
  8
0
 10
44.87114804623923
 20
201.8911315128199
 30
0.0
 11
44.87114804623923
 21
202.2251163628199
 31
0.0
  0
LINE
  5
87AF
  8
0
 10
44.87114804623923
 20
202.2251163628199
 30
0.0
 11
42.5343665462392
 21
202.2251163628199
 31
0.0
  0
LINE
  5
87B0
  8
0
 10
42.5343665462392
 20
202.2251163628199
 30
0.0
 11
42.5343665462392
 21
201.8911315128199
 31
0.0
  0
LINE
  5
87B1
  8
0
 10
45.20510154623918
 20
201.8911315128199
 30
0.0
 11
45.53908639623921
 21
201.8911315128199
 31
0.0
  0
LINE
  5
87B2
  8
0
 10
45.53908639623921
 20
201.8911315128199
 30
0.0
 11
45.53908639623921
 21
202.2251163628199
 31
0.0
  0
LINE
  5
87B3
  8
0
 10
45.53908639623921
 20
202.2251163628199
 30
0.0
 11
45.20510154623918
 21
202.2251163628199
 31
0.0
  0
LINE
  5
87B4
  8
0
 10
45.20510154623918
 20
202.2251163628199
 30
0.0
 11
45.20510154623918
 21
201.8911315128199
 31
0.0
  0
LINE
  5
87B5
  8
0
 10
46.2059265462392
 20
201.8911315128199
 30
0.0
 11
46.53991044623922
 21
201.8911315128199
 31
0.0
  0
LINE
  5
87B6
  8
0
 10
46.53991044623922
 20
201.8911315128199
 30
0.0
 11
46.53991044623922
 21
202.2251163628199
 31
0.0
  0
LINE
  5
87B7
  8
0
 10
46.53991044623922
 20
202.2251163628199
 30
0.0
 11
46.2059265462392
 21
202.2251163628199
 31
0.0
  0
LINE
  5
87B8
  8
0
 10
46.2059265462392
 20
202.2251163628199
 30
0.0
 11
46.2059265462392
 21
201.8911315128199
 31
0.0
  0
LINE
  5
87B9
  8
0
 10
47.20751154623918
 20
201.8911315128199
 30
0.0
 11
47.5414954462392
 21
201.8911315128199
 31
0.0
  0
LINE
  5
87BA
  8
0
 10
47.5414954462392
 20
201.8911315128199
 30
0.0
 11
47.5414954462392
 21
202.2251163628199
 31
0.0
  0
LINE
  5
87BB
  8
0
 10
47.5414954462392
 20
202.2251163628199
 30
0.0
 11
47.20751154623918
 21
202.2251163628199
 31
0.0
  0
LINE
  5
87BC
  8
0
 10
47.20751154623918
 20
202.2251163628199
 30
0.0
 11
47.20751154623918
 21
201.8911315128199
 31
0.0
  0
LINE
  5
87BD
  8
0
 10
48.20909654623921
 20
201.8911315128199
 30
0.0
 11
48.54308044623917
 21
201.8911315128199
 31
0.0
  0
LINE
  5
87BE
  8
0
 10
48.54308044623917
 20
201.8911315128199
 30
0.0
 11
48.54308044623917
 21
202.2251163628199
 31
0.0
  0
LINE
  5
87BF
  8
0
 10
48.54308044623917
 20
202.2251163628199
 30
0.0
 11
48.20909654623921
 21
202.2251163628199
 31
0.0
  0
LINE
  5
87C0
  8
0
 10
48.20909654623921
 20
202.2251163628199
 30
0.0
 11
48.20909654623921
 21
201.8911315128199
 31
0.0
  0
LINE
  5
87C1
  8
0
 10
48.87666154623918
 20
201.8911315128199
 30
0.0
 11
49.2106454462392
 21
201.8911315128199
 31
0.0
  0
LINE
  5
87C2
  8
0
 10
49.2106454462392
 20
201.8911315128199
 30
0.0
 11
49.2106454462392
 21
202.2251163628199
 31
0.0
  0
LINE
  5
87C3
  8
0
 10
49.2106454462392
 20
202.2251163628199
 30
0.0
 11
48.87666154623918
 21
202.2251163628199
 31
0.0
  0
LINE
  5
87C4
  8
0
 10
48.87666154623918
 20
202.2251163628199
 30
0.0
 11
48.87666154623918
 21
201.8911315128199
 31
0.0
  0
LINE
  5
87C5
  8
0
 10
49.8774865462392
 20
201.8911315128199
 30
0.0
 11
51.21231254623916
 21
201.8911315128199
 31
0.0
  0
LINE
  5
87C6
  8
0
 10
51.21231254623916
 20
201.8911315128199
 30
0.0
 11
51.21231254623916
 21
202.2251163628199
 31
0.0
  0
LINE
  5
87C7
  8
0
 10
51.21231254623916
 20
202.2251163628199
 30
0.0
 11
49.8774865462392
 21
202.2251163628199
 31
0.0
  0
LINE
  5
87C8
  8
0
 10
49.8774865462392
 20
202.2251163628199
 30
0.0
 11
49.8774865462392
 21
201.8911315128199
 31
0.0
  0
LINE
  5
87C9
  8
0
 10
51.54673154623919
 20
201.8911315128199
 30
0.0
 11
51.88071544623921
 21
201.8911315128199
 31
0.0
  0
LINE
  5
87CA
  8
0
 10
51.88071544623921
 20
201.8911315128199
 30
0.0
 11
51.88071544623921
 21
202.2251163628199
 31
0.0
  0
LINE
  5
87CB
  8
0
 10
51.88071544623921
 20
202.2251163628199
 30
0.0
 11
51.54673154623919
 21
202.2251163628199
 31
0.0
  0
LINE
  5
87CC
  8
0
 10
51.54673154623919
 20
202.2251163628199
 30
0.0
 11
51.54673154623919
 21
201.8911315128199
 31
0.0
  0
LINE
  5
87CD
  8
0
 10
52.2139165462392
 20
201.8911315128199
 30
0.0
 11
52.54827189623921
 21
201.8911315128199
 31
0.0
  0
LINE
  5
87CE
  8
0
 10
52.54827189623921
 20
201.8911315128199
 30
0.0
 11
52.54827189623921
 21
202.2251163628199
 31
0.0
  0
LINE
  5
87CF
  8
0
 10
52.54827189623921
 20
202.2251163628199
 30
0.0
 11
52.2139165462392
 21
202.2251163628199
 31
0.0
  0
LINE
  5
87D0
  8
0
 10
52.2139165462392
 20
202.2251163628199
 30
0.0
 11
52.2139165462392
 21
201.8911315128199
 31
0.0
  0
LINE
  5
87D1
  8
0
 10
52.88157654623922
 20
201.8911315128199
 30
0.0
 11
53.21556044623918
 21
201.8911315128199
 31
0.0
  0
LINE
  5
87D2
  8
0
 10
53.21556044623918
 20
201.8911315128199
 30
0.0
 11
53.21556044623918
 21
202.2251163628199
 31
0.0
  0
LINE
  5
87D3
  8
0
 10
53.21556044623918
 20
202.2251163628199
 30
0.0
 11
52.88157654623922
 21
202.2251163628199
 31
0.0
  0
LINE
  5
87D4
  8
0
 10
52.88157654623922
 20
202.2251163628199
 30
0.0
 11
52.88157654623922
 21
201.8911315128199
 31
0.0
  0
CIRCLE
  5
89AA
  8
0
 10
63.52185615177405
 20
209.8911315128202
 30
0.0
 40
1.5
  0
TEXT
  5
89AB
  8
0
 10
44.47302297808428
 20
198.5567142991764
 30
0.0
 40
1.3
  1
冬期以外(凍結の心配がない期間)や長期間使用しないときは電源をOFFにしてください
  0
POLYLINE
  5
89AC
  8
0
 66
     1
 10
0.0
 20
0.0
 30
0.0
 70
     1
  0
VERTEX
  5
9FE5
  8
0
 10
42.75218928780055
 20
200.4403658406169
 30
0.0
  0
VERTEX
  5
9FE6
  8
0
 10
41.53975372250238
 20
198.3403658406165
 30
0.0
 42
0.5773502691896262
  0
VERTEX
  5
9FE7
  8
0
 10
41.62635626288079
 20
198.1903658406169
 30
0.0
  0
VERTEX
  5
9FE8
  8
0
 10
44.05122739347712
 20
198.1903658406169
 30
0.0
 42
0.577350269189628
  0
VERTEX
  5
9FE9
  8
0
 10
44.13782993385553
 20
198.3403658406165
 30
0.0
  0
VERTEX
  5
9FEA
  8
0
 10
42.92539436855736
 20
200.4403658406169
 30
0.0
 42
0.577350269189626
  0
SEQEND
  5
A00B
  8
0
  0
POLYLINE
  5
89AD
  8
0
 66
     1
 10
0.0
 20
0.0
 30
0.0
 70
     1
  0
VERTEX
  5
9FEB
  8
0
 10
42.79549055868506
 20
200.3153658406169
 30
0.0
  0
VERTEX
  5
9FEC
  8
0
 10
41.66965753310228
 20
198.365365840628
 30
0.0
 42
0.577350269275458
  0
VERTEX
  5
9FED
  8
0
 10
41.71295880328512
 20
198.2903658406163
 30
0.0
  0
VERTEX
  5
9FEE
  8
0
 10
43.96462485312463
 20
198.2903658406163
 30
0.0
 42
0.5773502691037941
  0
VERTEX
  5
9FEF
  8
0
 10
44.0079261233202
 20
198.3653658406053
 30
0.0
  0
VERTEX
  5
9FF0
  8
0
 10
42.88209309906347
 20
200.3153658406169
 30
0.0
 42
0.5773502691896244
  0
SEQEND
  5
A00C
  8
0
  0
CIRCLE
  5
89AE
  8
0
 10
42.83879182817896
 20
198.5903658406165
 30
0.0
 40
0.1
  0
LINE
  5
89AF
  8
0
 10
42.73879182817905
 20
199.5903658406165
 30
0.0
 11
42.78923430605505
 21
198.833728672476
 31
0.0
  0
LINE
  5
89B0
  8
0
 10
42.93879182817932
 20
199.5903658406165
 30
0.0
 11
42.88834935030286
 21
198.8337286724742
 31
0.0
  0
ARC
  5
89B1
  8
0
 10
42.83879182817896
 20
199.5903658406165
 30
0.0
 40
0.1
 50
0.0
 51
180.0
  0
ARC
  5
89B2
  8
0
 10
42.83879182817896
 20
198.8403658406165
 30
0.0
 40
0.05
 50
187.6281496673324
 51
352.3718503305627
  0
CIRCLE
  5
89B6
  8
0
 10
82.5218561517741
 20
213.8911315128202
 30
0.0
 40
1.5
  0
CIRCLE
  5
89B7
  8
0
 10
82.5218561517741
 20
205.8911315128202
 30
0.0
 40
1.5
  0
POLYLINE
  5
89B8
  8
0
 66
     1
 10
0.0
 20
0.0
 30
0.0
 70
     1
  0
VERTEX
  5
9FF1
  8
0
 10
77.47346969118877
 20
206.2009979616206
 30
0.0
  0
VERTEX
  5
9FF2
  8
0
 10
77.20511747474717
 20
206.0460647372205
 30
0.0
  0
VERTEX
  5
9FF3
  8
0
 10
77.20511747474717
 20
205.7361982884202
 30
0.0
  0
VERTEX
  5
9FF4
  8
0
 10
77.47346969118877
 20
205.58126506402
 30
0.0
  0
VERTEX
  5
9FF5
  8
0
 10
77.74182190763037
 20
205.7361982884202
 30
0.0
  0
VERTEX
  5
9FF6
  8
0
 10
77.74182190763037
 20
206.0460647372205
 30
0.0
  0
SEQEND
  5
A00D
  8
0
  0
POLYLINE
  5
89B9
  8
0
 66
     1
 10
0.0
 20
0.0
 30
0.0
  0
VERTEX
  5
9FF7
  8
0
 10
77.32346969118868
 20
206.4986483482096
 30
0.0
  0
VERTEX
  5
9FF8
  8
0
 10
77.02234467851514
 20
206.3247937410827
 30
0.0
  0
SEQEND
  5
A00E
  8
0
  0
LINE
  5
89BA
  8
0
 10
77.32346969118868
 20
202.7911315128202
 30
0.0
 11
77.32346969118868
 21
203.337578122227
 31
0.0
1001
GENIUS_GENODEF_13
1002
{
1000
HIER
1070
     0
1002
}
1002
{
1000
MANEDIT
1070
     0
1002
}
1002
{
1000
NOSEL
1070
     0
1002
}
1002
{
1000
BEHIND
1070
     0
1002
}
1002
{
1000
OTHER
1070
     0
1002
}
1002
{
1000
REACTOR
1002
}
1001
GENIUS_GENOBJ-N-CEN_13
1002
{
1000
OWNER
1000
GEN
1002
}
1001
GENIUS_GENCEN_19
1002
{
1040
3.0
1002
}
  0
LINE
  5
89BB
  8
0
 10
77.62346969118886
 20
202.7911315128202
 30
0.0
 11
77.62346969118886
 21
203.337578122227
 31
0.0
1001
GENIUS_GENODEF_13
1002
{
1000
HIER
1070
     0
1002
}
1002
{
1000
MANEDIT
1070
     0
1002
}
1002
{
1000
NOSEL
1070
     0
1002
}
1002
{
1000
BEHIND
1070
     0
1002
}
1002
{
1000
OTHER
1070
     0
1002
}
1002
{
1000
REACTOR
1002
}
1001
GENIUS_GENOBJ-N-CEN_13
1002
{
1000
OWNER
1000
GEN
1002
}
1001
GENIUS_GENCEN_19
1002
{
1040
3.0
1002
}
  0
LINE
  5
89BC
  8
0
 10
77.62346969118886
 20
206.8911315128204
 30
0.0
 11
78.26929649613572
 21
207.5369583177674
 31
0.0
  0
LINE
  5
89BD
  8
0
 10
77.62346969118886
 20
207.3911315128204
 30
0.0
 11
78.01929649613572
 21
207.7869583177674
 31
0.0
  0
ARC
  5
89BE
  8
0
 10
77.47346969118877
 20
208.9911315128203
 30
0.0
 40
0.1499999999999773
 50
0.0
 51
180.0
  0
ARC
  5
89BF
  8
0
 10
78.14429649613572
 20
207.6619583177674
 30
0.0
 40
0.1767766952966168
 50
315.0000000000326
 51
135.0000000000065
  0
LINE
  5
89C0
  8
0
 10
77.32346969118868
 20
206.8911315128204
 30
0.0
 11
76.67764288624181
 21
207.5369583177674
 31
0.0
  0
LINE
  5
89C1
  8
0
 10
77.32346969118868
 20
207.3911315128204
 30
0.0
 11
76.92764288624181
 21
207.7869583177674
 31
0.0
  0
ARC
  5
89C2
  8
0
 10
76.80264288624181
 20
207.6619583177674
 30
0.0
 40
0.1767766952966168
 50
44.99999999999348
 51
224.9999999999674
  0
LINE
  5
89C3
  8
0
 10
77.62346969118886
 20
208.0911315128203
 30
0.0
 11
78.02225558841025
 21
208.4899174100417
 31
0.0
  0
LINE
  5
89C4
  8
0
 10
77.62346969118886
 20
208.4446849034135
 30
0.0
 11
77.84547889311358
 21
208.6666941053383
 31
0.0
  0
ARC
  5
89C5
  8
0
 10
77.93386724076169
 20
208.5783057576901
 30
0.0
 40
0.1249999999999206
 50
314.9999999998987
 51
134.9999999999355
  0
LINE
  5
89C6
  8
0
 10
79.3037255795146
 20
204.6612277022527
 30
0.0
 11
79.44969134856848
 21
204.1164760359774
 31
0.0
  0
LINE
  5
89C7
  8
0
 10
79.60991179736249
 20
204.4844510069561
 30
0.0
 11
79.69117280514075
 21
204.1811807972531
 31
0.0
  0
ARC
  5
89C8
  8
0
 10
80.03082962642776
 20
204.9462603641558
 30
0.0
 40
0.1249999999999206
 50
285.0000000000046
 51
105.0000000000046
  0
LINE
  5
89C9
  8
0
 10
77.62346969118886
 20
204.8911315128204
 30
0.0
 11
77.62346969118886
 21
205.283614677431
 31
0.0
1001
GENIUS_GENODEF_13
1002
{
1000
HIER
1070
     0
1002
}
1002
{
1000
MANEDIT
1070
     0
1002
}
1002
{
1000
NOSEL
1070
     0
1002
}
1002
{
1000
BEHIND
1070
     0
1002
}
1002
{
1000
OTHER
1070
     0
1002
}
1002
{
1000
REACTOR
1002
}
1001
GENIUS_GENOBJ-N-CEN_13
1002
{
1000
OWNER
1000
GEN
1002
}
1001
GENIUS_GENCEN_19
1002
{
1040
3.0
1002
}
  0
LINE
  5
89CA
  8
0
 10
79.75991179736235
 20
204.7442586280914
 30
0.0
 11
80.06318200706556
 21
204.8255196358698
 31
0.0
  0
ARC
  5
89CB
  8
0
 10
79.57043207685484
 20
204.1488284166152
 30
0.0
 40
0.1249999999999206
 50
194.9999999999634
 51
14.99999999999198
  0
LINE
  5
89CC
  8
0
 10
79.45372557951447
 20
204.9210353233881
 30
0.0
 11
79.99847724578996
 21
205.0670010924421
 31
0.0
  0
LINE
  5
89CD
  8
0
 10
77.62346969118886
 20
203.6911315128203
 30
0.0
 11
77.62346969118886
 21
204.3911315128204
 31
0.0
1001
GENIUS_GENODEF_13
1002
{
1000
HIER
1070
     0
1002
}
1002
{
1000
MANEDIT
1070
     0
1002
}
1002
{
1000
NOSEL
1070
     0
1002
}
1002
{
1000
BEHIND
1070
     0
1002
}
1002
{
1000
OTHER
1070
     0
1002
}
1002
{
1000
REACTOR
1002
}
1001
GENIUS_GENOBJ-N-CEN_13
1002
{
1000
OWNER
1000
GEN
1002
}
1001
GENIUS_GENCEN_19
1002
{
1040
3.0
1002
}
  0
LINE
  5
89CE
  8
0
 10
77.32346969118868
 20
203.6911315128203
 30
0.0
 11
77.32346969118868
 21
204.3911315128204
 31
0.0
1001
GENIUS_GENODEF_13
1002
{
1000
HIER
1070
     0
1002
}
1002
{
1000
MANEDIT
1070
     0
1002
}
1002
{
1000
NOSEL
1070
     0
1002
}
1002
{
1000
BEHIND
1070
     0
1002
}
1002
{
1000
OTHER
1070
     0
1002
}
1002
{
1000
REACTOR
1002
}
1001
GENIUS_GENOBJ-N-CEN_13
1002
{
1000
OWNER
1000
GEN
1002
}
1001
GENIUS_GENCEN_19
1002
{
1040
3.0
1002
}
  0
LINE
  5
89CF
  8
0
 10
77.32346969118868
 20
208.4446849034135
 30
0.0
 11
77.32346969118868
 21
208.9911315128203
 31
0.0
1001
GENIUS_GENODEF_13
1002
{
1000
HIER
1070
     0
1002
}
1002
{
1000
MANEDIT
1070
     0
1002
}
1002
{
1000
NOSEL
1070
     0
1002
}
1002
{
1000
BEHIND
1070
     0
1002
}
1002
{
1000
OTHER
1070
     0
1002
}
1002
{
1000
REACTOR
1002
}
1001
GENIUS_GENOBJ-N-CEN_13
1002
{
1000
OWNER
1000
GEN
1002
}
1001
GENIUS_GENCEN_19
1002
{
1040
3.0
1002
}
  0
LINE
  5
89D0
  8
0
 10
77.62346969118886
 20
208.4446849034135
 30
0.0
 11
77.62346969118886
 21
208.9911315128203
 31
0.0
1001
GENIUS_GENODEF_13
1002
{
1000
HIER
1070
     0
1002
}
1002
{
1000
MANEDIT
1070
     0
1002
}
1002
{
1000
NOSEL
1070
     0
1002
}
1002
{
1000
BEHIND
1070
     0
1002
}
1002
{
1000
OTHER
1070
     0
1002
}
1002
{
1000
REACTOR
1002
}
1001
GENIUS_GENOBJ-N-CEN_13
1002
{
1000
OWNER
1000
GEN
1002
}
1001
GENIUS_GENCEN_19
1002
{
1040
3.0
1002
}
  0
ARC
  5
89D1
  8
0
 10
77.01307214161585
 20
208.5783057576901
 30
0.0
 40
0.1249999999999206
 50
45.00000000006448
 51
224.999999999954
  0
LINE
  5
89D2
  8
0
 10
77.32346969118868
 20
208.4446849034135
 30
0.0
 11
77.10146048926396
 21
208.6666941053383
 31
0.0
  0
LINE
  5
89D3
  8
0
 10
77.32346969118868
 20
208.0911315128203
 30
0.0
 11
76.92468379396729
 21
208.4899174100417
 31
0.0
  0
LINE
  5
89D4
  8
0
 10
77.62346969118886
 20
207.3911315128204
 30
0.0
 11
77.62346969118886
 21
208.0911315128203
 31
0.0
1001
GENIUS_GENODEF_13
1002
{
1000
HIER
1070
     0
1002
}
1002
{
1000
MANEDIT
1070
     0
1002
}
1002
{
1000
NOSEL
1070
     0
1002
}
1002
{
1000
BEHIND
1070
     0
1002
}
1002
{
1000
OTHER
1070
     0
1002
}
1002
{
1000
REACTOR
1002
}
1001
GENIUS_GENOBJ-N-CEN_13
1002
{
1000
OWNER
1000
GEN
1002
}
1001
GENIUS_GENCEN_19
1002
{
1040
3.0
1002
}
  0
LINE
  5
89D5
  8
0
 10
77.32346969118868
 20
207.3911315128204
 30
0.0
 11
77.32346969118868
 21
208.0911315128203
 31
0.0
1001
GENIUS_GENODEF_13
1002
{
1000
HIER
1070
     0
1002
}
1002
{
1000
MANEDIT
1070
     0
1002
}
1002
{
1000
NOSEL
1070
     0
1002
}
1002
{
1000
BEHIND
1070
     0
1002
}
1002
{
1000
OTHER
1070
     0
1002
}
1002
{
1000
REACTOR
1002
}
1001
GENIUS_GENOBJ-N-CEN_13
1002
{
1000
OWNER
1000
GEN
1002
}
1001
GENIUS_GENCEN_19
1002
{
1040
3.0
1002
}
  0
LINE
  5
89D6
  8
0
 10
77.62346969118886
 20
203.337578122227
 30
0.0
 11
77.84547889311358
 21
203.1155689203023
 31
0.0
  0
LINE
  5
89D7
  8
0
 10
77.32346969118868
 20
204.3911315128204
 30
0.0
 11
76.92764288624181
 21
203.9953047078733
 31
0.0
  0
ARC
  5
89D8
  8
0
 10
77.47346969118877
 20
202.7911315128202
 30
0.0
 40
0.1499999999999773
 50
180.0
 51
0.0
  0
ARC
  5
89D9
  8
0
 10
78.14429649613572
 20
204.1203047078733
 30
0.0
 40
0.1767766952966168
 50
224.9999999999935
 51
44.99999999999348
  0
ARC
  5
89DA
  8
0
 10
76.80264288624181
 20
204.1203047078733
 30
0.0
 40
0.1767766952966168
 50
135.0000000000065
 51
315.0000000000065
  0
LINE
  5
89DB
  8
0
 10
77.62346969118886
 20
204.3911315128204
 30
0.0
 11
78.01929649613572
 21
203.9953047078733
 31
0.0
  0
LINE
  5
89DC
  8
0
 10
77.32346969118868
 20
204.8911315128204
 30
0.0
 11
76.67764288624181
 21
204.2453047078733
 31
0.0
  0
ARC
  5
89DD
  8
0
 10
77.93386724076169
 20
203.2039572679505
 30
0.0
 40
0.1249999999999206
 50
225.0000000000645
 51
44.99999999995394
  0
LINE
  5
89DE
  8
0
 10
77.32346969118868
 20
203.6911315128203
 30
0.0
 11
76.92468379396729
 21
203.2923456155989
 31
0.0
  0
LINE
  5
89DF
  8
0
 10
77.62346969118886
 20
203.6911315128203
 30
0.0
 11
78.02225558841025
 21
203.2923456155989
 31
0.0
  0
LINE
  5
89E0
  8
0
 10
77.62346969118886
 20
204.8911315128204
 30
0.0
 11
78.26929649613572
 21
204.2453047078733
 31
0.0
  0
ARC
  5
89E1
  8
0
 10
77.01307214161585
 20
203.2039572679505
 30
0.0
 40
0.1249999999999206
 50
134.9999999998987
 51
314.9999999998987
  0
LINE
  5
89E2
  8
0
 10
77.32346969118868
 20
203.337578122227
 30
0.0
 11
77.10146048926396
 21
203.1155689203023
 31
0.0
  0
LINE
  5
89E3
  8
0
 10
78.69750779686552
 20
206.771035323388
 30
0.0
 11
78.84239046297495
 21
207.3117447944444
 31
0.0
  0
ARC
  5
89E4
  8
0
 10
78.67163728750194
 20
207.3574979699175
 30
0.0
 40
0.1767766952966168
 50
344.9999999999747
 51
164.9999999999747
  0
LINE
  5
89E5
  8
0
 10
75.33702758501505
 20
204.4844510069561
 30
0.0
 11
74.86379093945703
 21
204.2112277022527
 31
0.0
1001
GENIUS_GENODEF_13
1002
{
1000
HIER
1070
     0
1002
}
1002
{
1000
MANEDIT
1070
     0
1002
}
1002
{
1000
NOSEL
1070
     0
1002
}
1002
{
1000
BEHIND
1070
     0
1002
}
1002
{
1000
OTHER
1070
     0
1002
}
1002
{
1000
REACTOR
1002
}
1001
GENIUS_GENOBJ-N-CEN_13
1002
{
1000
OWNER
1000
GEN
1002
}
1001
GENIUS_GENCEN_19
1002
{
1040
3.0
1002
}
  0
LINE
  5
89E6
  8
0
 10
78.41449509497312
 20
206.2612277022527
 30
0.0
 11
79.29671091697588
 21
206.0248386851971
 31
0.0
  0
LINE
  5
89E7
  8
0
 10
79.45372557951447
 20
206.8612277022527
 30
0.0
 11
79.99847724578996
 21
206.7152619331987
 31
0.0
  0
LINE
  5
89E8
  8
0
 10
79.75991179736235
 20
207.0380043975493
 30
0.0
 11
80.06318200706556
 21
206.956743389771
 31
0.0
  0
ARC
  5
89E9
  8
0
 10
80.03082962642776
 20
206.8360026614849
 30
0.0
 40
0.1249999999999206
 50
254.9999999999954
 51
74.99999999999544
  0
LINE
  5
89EA
  8
0
 10
79.3037255795146
 20
207.121035323388
 30
0.0
 11
79.44969134856848
 21
207.6657869896634
 31
0.0
  0
LINE
  5
89EB
  8
0
 10
76.09943158551215
 20
205.271035323388
 30
0.0
 11
75.49321380286307
 21
204.921035323388
 31
0.0
1001
GENIUS_GENODEF_13
1002
{
1000
HIER
1070
     0
1002
}
1002
{
1000
MANEDIT
1070
     0
1002
}
1002
{
1000
NOSEL
1070
     0
1002
}
1002
{
1000
BEHIND
1070
     0
1002
}
1002
{
1000
OTHER
1070
     0
1002
}
1002
{
1000
REACTOR
1002
}
1001
GENIUS_GENOBJ-N-CEN_13
1002
{
1000
OWNER
1000
GEN
1002
}
1001
GENIUS_GENCEN_19
1002
{
1040
3.0
1002
}
  0
ARC
  5
89EC
  8
0
 10
76.2753020948756
 20
204.4247650557231
 30
0.0
 40
0.1767766952966168
 50
164.9999999999747
 51
345.000000000024
  0
LINE
  5
89ED
  8
0
 10
76.09943158551215
 20
205.271035323388
 30
0.0
 11
75.55872211445563
 21
205.4159179894974
 31
0.0
  0
ARC
  5
89EE
  8
0
 10
80.15814844292055
 20
207.4411315128203
 30
0.0
 40
0.1499999999999773
 50
300.0000000000254
 51
120.0000000000254
  0
LINE
  5
89EF
  8
0
 10
78.41449509497312
 20
206.2612277022527
 30
0.0
 11
78.07459470386249
 21
206.0649861199472
 31
0.0
1001
GENIUS_GENODEF_13
1002
{
1000
HIER
1070
     0
1002
}
1002
{
1000
MANEDIT
1070
     0
1002
}
1002
{
1000
NOSEL
1070
     0
1002
}
1002
{
1000
BEHIND
1070
     0
1002
}
1002
{
1000
OTHER
1070
     0
1002
}
1002
{
1000
REACTOR
1002
}
1001
GENIUS_GENOBJ-N-CEN_13
1002
{
1000
OWNER
1000
GEN
1002
}
1001
GENIUS_GENCEN_19
1002
{
1040
3.0
1002
}
  0
LINE
  5
89F0
  8
0
 10
78.26449509497326
 20
206.521035323388
 30
0.0
 11
77.92459470386262
 21
206.3247937410825
 31
0.0
1001
GENIUS_GENODEF_13
1002
{
1000
HIER
1070
     0
1002
}
1002
{
1000
MANEDIT
1070
     0
1002
}
1002
{
1000
NOSEL
1070
     0
1002
}
1002
{
1000
BEHIND
1070
     0
1002
}
1002
{
1000
OTHER
1070
     0
1002
}
1002
{
1000
REACTOR
1002
}
1001
GENIUS_GENOBJ-N-CEN_13
1002
{
1000
OWNER
1000
GEN
1002
}
1001
GENIUS_GENCEN_19
1002
{
1040
3.0
1002
}
  0
LINE
  5
89F1
  8
0
 10
76.24943158551201
 20
205.0112277022527
 30
0.0
 11
76.10454891940259
 21
204.4705182311963
 31
0.0
  0
LINE
  5
89F2
  8
0
 10
76.68244428740428
 20
205.2612277022527
 30
0.0
 11
76.44605527034884
 21
204.3790118802501
 31
0.0
  0
LINE
  5
89F3
  8
0
 10
80.2331484429206
 20
207.3112277022527
 30
0.0
 11
79.75991179736235
 21
207.0380043975493
 31
0.0
1001
GENIUS_GENODEF_13
1002
{
1000
HIER
1070
     0
1002
}
1002
{
1000
MANEDIT
1070
     0
1002
}
1002
{
1000
NOSEL
1070
     0
1002
}
1002
{
1000
BEHIND
1070
     0
1002
}
1002
{
1000
OTHER
1070
     0
1002
}
1002
{
1000
REACTOR
1002
}
1001
GENIUS_GENOBJ-N-CEN_13
1002
{
1000
OWNER
1000
GEN
1002
}
1001
GENIUS_GENCEN_19
1002
{
1040
3.0
1002
}
  0
ARC
  5
89F4
  8
0
 10
74.78879093945699
 20
204.3411315128203
 30
0.0
 40
0.1499999999999773
 50
120.0000000000254
 51
300.0000000000254
  0
ARC
  5
89F5
  8
0
 10
75.60447528992864
 20
205.5866711649704
 30
0.0
 40
0.1767766952966168
 50
75.0000000000127
 51
255.0000000000038
  0
LINE
  5
89F6
  8
0
 10
80.0831484429205
 20
207.5710353233881
 30
0.0
 11
79.60991179736249
 21
207.2978120186847
 31
0.0
1001
GENIUS_GENODEF_13
1002
{
1000
HIER
1070
     0
1002
}
1002
{
1000
MANEDIT
1070
     0
1002
}
1002
{
1000
NOSEL
1070
     0
1002
}
1002
{
1000
BEHIND
1070
     0
1002
}
1002
{
1000
OTHER
1070
     0
1002
}
1002
{
1000
REACTOR
1002
}
1001
GENIUS_GENOBJ-N-CEN_13
1002
{
1000
OWNER
1000
GEN
1002
}
1001
GENIUS_GENCEN_19
1002
{
1040
3.0
1002
}
  0
LINE
  5
89F7
  8
0
 10
79.3037255795146
 20
207.121035323388
 30
0.0
 11
78.69750779686552
 21
206.771035323388
 31
0.0
1001
GENIUS_GENODEF_13
1002
{
1000
HIER
1070
     0
1002
}
1002
{
1000
MANEDIT
1070
     0
1002
}
1002
{
1000
NOSEL
1070
     0
1002
}
1002
{
1000
BEHIND
1070
     0
1002
}
1002
{
1000
OTHER
1070
     0
1002
}
1002
{
1000
REACTOR
1002
}
1001
GENIUS_GENOBJ-N-CEN_13
1002
{
1000
OWNER
1000
GEN
1002
}
1001
GENIUS_GENCEN_19
1002
{
1040
3.0
1002
}
  0
LINE
  5
89F8
  8
0
 10
75.18702758501519
 20
204.7442586280914
 30
0.0
 11
74.71379093945694
 21
204.471035323388
 31
0.0
1001
GENIUS_GENODEF_13
1002
{
1000
HIER
1070
     0
1002
}
1002
{
1000
MANEDIT
1070
     0
1002
}
1002
{
1000
NOSEL
1070
     0
1002
}
1002
{
1000
BEHIND
1070
     0
1002
}
1002
{
1000
OTHER
1070
     0
1002
}
1002
{
1000
REACTOR
1002
}
1001
GENIUS_GENOBJ-N-CEN_13
1002
{
1000
OWNER
1000
GEN
1002
}
1001
GENIUS_GENCEN_19
1002
{
1040
3.0
1002
}
  0
LINE
  5
89F9
  8
0
 10
79.45372557951447
 20
206.8612277022527
 30
0.0
 11
78.84750779686539
 21
206.5112277022527
 31
0.0
1001
GENIUS_GENODEF_13
1002
{
1000
HIER
1070
     0
1002
}
1002
{
1000
MANEDIT
1070
     0
1002
}
1002
{
1000
NOSEL
1070
     0
1002
}
1002
{
1000
BEHIND
1070
     0
1002
}
1002
{
1000
OTHER
1070
     0
1002
}
1002
{
1000
REACTOR
1002
}
1001
GENIUS_GENOBJ-N-CEN_13
1002
{
1000
OWNER
1000
GEN
1002
}
1001
GENIUS_GENCEN_19
1002
{
1040
3.0
1002
}
  0
LINE
  5
89FA
  8
0
 10
75.64321380286293
 20
204.6612277022526
 30
0.0
 11
75.49724803380906
 21
204.1164760359773
 31
0.0
  0
LINE
  5
89FB
  8
0
 10
75.33702758501505
 20
204.4844510069561
 30
0.0
 11
75.25576657723678
 21
204.181180797253
 31
0.0
  0
ARC
  5
89FC
  8
0
 10
75.3765073055227
 20
204.1488284166151
 30
0.0
 40
0.1249999999999206
 50
165.000000000008
 51
345.0000000001188
  0
LINE
  5
89FD
  8
0
 10
75.49321380286307
 20
204.921035323388
 30
0.0
 11
74.94846213658758
 21
205.067001092442
 31
0.0
  0
LINE
  5
89FE
  8
0
 10
75.18702758501519
 20
204.7442586280914
 30
0.0
 11
74.88375737531197
 21
204.8255196358697
 31
0.0
  0
LINE
  5
89FF
  8
0
 10
76.24943158551201
 20
205.0112277022527
 30
0.0
 11
75.64321380286293
 21
204.6612277022526
 31
0.0
1001
GENIUS_GENODEF_13
1002
{
1000
HIER
1070
     0
1002
}
1002
{
1000
MANEDIT
1070
     0
1002
}
1002
{
1000
NOSEL
1070
     0
1002
}
1002
{
1000
BEHIND
1070
     0
1002
}
1002
{
1000
OTHER
1070
     0
1002
}
1002
{
1000
REACTOR
1002
}
1001
GENIUS_GENOBJ-N-CEN_13
1002
{
1000
OWNER
1000
GEN
1002
}
1001
GENIUS_GENCEN_19
1002
{
1040
3.0
1002
}
  0
LINE
  5
8A00
  8
0
 10
76.53244428740442
 20
205.521035323388
 30
0.0
 11
75.65022846540165
 21
205.7574243404435
 31
0.0
  0
ARC
  5
8A01
  8
0
 10
74.91610975594978
 20
204.9462603641557
 30
0.0
 40
0.1249999999999206
 50
74.99999999999544
 51
254.9999999999954
  0
LINE
  5
8A02
  8
0
 10
78.84750779686539
 20
206.5112277022527
 30
0.0
 11
79.3882172679219
 21
206.3663450361432
 31
0.0
  0
ARC
  5
8A03
  8
0
 10
79.34246409244889
 20
206.1955918606702
 30
0.0
 40
0.1767766952966168
 50
255.0000000000038
 51
75.0000000000127
  0
LINE
  5
8A04
  8
0
 10
78.26449509497326
 20
206.521035323388
 30
0.0
 11
78.50088411202893
 21
207.4032511453905
 31
0.0
  0
LINE
  5
8A05
  8
0
 10
77.32346969118868
 20
204.8911315128204
 30
0.0
 11
77.32346969118868
 21
205.283614677431
 31
0.0
1001
GENIUS_GENODEF_13
1002
{
1000
HIER
1070
     0
1002
}
1002
{
1000
MANEDIT
1070
     0
1002
}
1002
{
1000
NOSEL
1070
     0
1002
}
1002
{
1000
BEHIND
1070
     0
1002
}
1002
{
1000
OTHER
1070
     0
1002
}
1002
{
1000
REACTOR
1002
}
1001
GENIUS_GENOBJ-N-CEN_13
1002
{
1000
OWNER
1000
GEN
1002
}
1001
GENIUS_GENCEN_19
1002
{
1040
3.0
1002
}
  0
LINE
  5
8A06
  8
0
 10
79.60991179736249
 20
207.2978120186847
 30
0.0
 11
79.69117280514075
 21
207.6010822283877
 31
0.0
  0
ARC
  5
8A07
  8
0
 10
79.57043207685484
 20
207.6334346090256
 30
0.0
 40
0.1249999999999206
 50
345.000000000008
 51
165.0000000001188
  0
LINE
  5
8A08
  8
0
 10
75.33702758501505
 20
207.2978120186847
 30
0.0
 11
75.25576657723678
 21
207.6010822283878
 31
0.0
  0
LINE
  5
8A09
  8
0
 10
75.49321380286307
 20
206.8612277022527
 30
0.0
 11
74.94846213658758
 21
206.7152619331987
 31
0.0
  0
LINE
  5
8A0A
  8
0
 10
75.18702758501519
 20
207.0380043975493
 30
0.0
 11
74.88375737531197
 21
206.9567433897711
 31
0.0
  0
LINE
  5
8A0B
  8
0
 10
79.3037255795146
 20
204.6612277022527
 30
0.0
 11
78.69750779686552
 21
205.0112277022528
 31
0.0
1001
GENIUS_GENODEF_13
1002
{
1000
HIER
1070
     0
1002
}
1002
{
1000
MANEDIT
1070
     0
1002
}
1002
{
1000
NOSEL
1070
     0
1002
}
1002
{
1000
BEHIND
1070
     0
1002
}
1002
{
1000
OTHER
1070
     0
1002
}
1002
{
1000
REACTOR
1002
}
1001
GENIUS_GENOBJ-N-CEN_13
1002
{
1000
OWNER
1000
GEN
1002
}
1001
GENIUS_GENCEN_19
1002
{
1040
3.0
1002
}
  0
LINE
  5
8A0C
  8
0
 10
79.45372557951447
 20
204.9210353233881
 30
0.0
 11
78.84750779686539
 21
205.2710353233881
 31
0.0
1001
GENIUS_GENODEF_13
1002
{
1000
HIER
1070
     0
1002
}
1002
{
1000
MANEDIT
1070
     0
1002
}
1002
{
1000
NOSEL
1070
     0
1002
}
1002
{
1000
BEHIND
1070
     0
1002
}
1002
{
1000
OTHER
1070
     0
1002
}
1002
{
1000
REACTOR
1002
}
1001
GENIUS_GENOBJ-N-CEN_13
1002
{
1000
OWNER
1000
GEN
1002
}
1001
GENIUS_GENCEN_19
1002
{
1040
3.0
1002
}
  0
ARC
  5
8A0D
  8
0
 10
75.3765073055227
 20
207.6334346090256
 30
0.0
 40
0.1249999999999206
 50
14.99999999995087
 51
194.9999999999509
  0
ARC
  5
8A0E
  8
0
 10
74.91610975594978
 20
206.8360026614849
 30
0.0
 40
0.1249999999999206
 50
105.0000000000046
 51
285.0000000000046
  0
LINE
  5
8A0F
  8
0
 10
78.26449509497326
 20
205.2612277022528
 30
0.0
 11
77.92459470386262
 21
205.4574692845581
 31
0.0
1001
GENIUS_GENODEF_13
1002
{
1000
HIER
1070
     0
1002
}
1002
{
1000
MANEDIT
1070
     0
1002
}
1002
{
1000
NOSEL
1070
     0
1002
}
1002
{
1000
BEHIND
1070
     0
1002
}
1002
{
1000
OTHER
1070
     0
1002
}
1002
{
1000
REACTOR
1002
}
1001
GENIUS_GENOBJ-N-CEN_13
1002
{
1000
OWNER
1000
GEN
1002
}
1001
GENIUS_GENCEN_19
1002
{
1040
3.0
1002
}
  0
LINE
  5
8A10
  8
0
 10
75.33702758501505
 20
207.2978120186847
 30
0.0
 11
74.86379093945703
 21
207.5710353233881
 31
0.0
1001
GENIUS_GENODEF_13
1002
{
1000
HIER
1070
     0
1002
}
1002
{
1000
MANEDIT
1070
     0
1002
}
1002
{
1000
NOSEL
1070
     0
1002
}
1002
{
1000
BEHIND
1070
     0
1002
}
1002
{
1000
OTHER
1070
     0
1002
}
1002
{
1000
REACTOR
1002
}
1001
GENIUS_GENOBJ-N-CEN_13
1002
{
1000
OWNER
1000
GEN
1002
}
1001
GENIUS_GENCEN_19
1002
{
1040
3.0
1002
}
  0
LINE
  5
8A11
  8
0
 10
76.24943158551201
 20
206.7710353233881
 30
0.0
 11
76.10454891940259
 21
207.3117447944445
 31
0.0
  0
LINE
  5
8A12
  8
0
 10
78.41449509497312
 20
205.5210353233881
 30
0.0
 11
79.29671091697588
 21
205.7574243404435
 31
0.0
  0
ARC
  5
8A13
  8
0
 10
76.2753020948756
 20
207.3574979699175
 30
0.0
 40
0.1767766952966168
 50
15.00000000002528
 51
194.999999999976
  0
LINE
  5
8A14
  8
0
 10
80.0831484429205
 20
204.2112277022527
 30
0.0
 11
79.60991179736249
 21
204.4844510069561
 31
0.0
1001
GENIUS_GENODEF_13
1002
{
1000
HIER
1070
     0
1002
}
1002
{
1000
MANEDIT
1070
     0
1002
}
1002
{
1000
NOSEL
1070
     0
1002
}
1002
{
1000
BEHIND
1070
     0
1002
}
1002
{
1000
OTHER
1070
     0
1002
}
1002
{
1000
REACTOR
1002
}
1001
GENIUS_GENOBJ-N-CEN_13
1002
{
1000
OWNER
1000
GEN
1002
}
1001
GENIUS_GENCEN_19
1002
{
1040
3.0
1002
}
  0
LINE
  5
8A15
  8
0
 10
76.53244428740442
 20
206.2612277022528
 30
0.0
 11
75.65022846540165
 21
206.0248386851972
 31
0.0
  0
LINE
  5
8A16
  8
0
 10
78.41449509497312
 20
205.5210353233881
 30
0.0
 11
78.07459470386249
 21
205.7172769056934
 31
0.0
1001
GENIUS_GENODEF_13
1002
{
1000
HIER
1070
     0
1002
}
1002
{
1000
MANEDIT
1070
     0
1002
}
1002
{
1000
NOSEL
1070
     0
1002
}
1002
{
1000
BEHIND
1070
     0
1002
}
1002
{
1000
OTHER
1070
     0
1002
}
1002
{
1000
REACTOR
1002
}
1001
GENIUS_GENOBJ-N-CEN_13
1002
{
1000
OWNER
1000
GEN
1002
}
1001
GENIUS_GENCEN_19
1002
{
1040
3.0
1002
}
  0
LINE
  5
8A17
  8
0
 10
80.2331484429206
 20
204.471035323388
 30
0.0
 11
79.75991179736235
 21
204.7442586280914
 31
0.0
1001
GENIUS_GENODEF_13
1002
{
1000
HIER
1070
     0
1002
}
1002
{
1000
MANEDIT
1070
     0
1002
}
1002
{
1000
NOSEL
1070
     0
1002
}
1002
{
1000
BEHIND
1070
     0
1002
}
1002
{
1000
OTHER
1070
     0
1002
}
1002
{
1000
REACTOR
1002
}
1001
GENIUS_GENOBJ-N-CEN_13
1002
{
1000
OWNER
1000
GEN
1002
}
1001
GENIUS_GENCEN_19
1002
{
1040
3.0
1002
}
  0
LINE
  5
8A18
  8
0
 10
75.64321380286293
 20
207.121035323388
 30
0.0
 11
75.49724803380906
 21
207.6657869896634
 31
0.0
  0
ARC
  5
8A19
  8
0
 10
75.60447528992864
 20
206.1955918606702
 30
0.0
 40
0.1767766952966168
 50
104.9999999999962
 51
284.9999999999873
  0
ARC
  5
8A1A
  8
0
 10
74.78879093945699
 20
207.4411315128204
 30
0.0
 40
0.1499999999999773
 50
59.99999999997465
 51
239.9999999999746
  0
LINE
  5
8A1B
  8
0
 10
78.84750779686539
 20
205.2710353233881
 30
0.0
 11
79.3882172679219
 21
205.4159179894974
 31
0.0
  0
LINE
  5
8A1C
  8
0
 10
76.24943158551201
 20
206.7710353233881
 30
0.0
 11
75.64321380286293
 21
207.121035323388
 31
0.0
1001
GENIUS_GENODEF_13
1002
{
1000
HIER
1070
     0
1002
}
1002
{
1000
MANEDIT
1070
     0
1002
}
1002
{
1000
NOSEL
1070
     0
1002
}
1002
{
1000
BEHIND
1070
     0
1002
}
1002
{
1000
OTHER
1070
     0
1002
}
1002
{
1000
REACTOR
1002
}
1001
GENIUS_GENOBJ-N-CEN_13
1002
{
1000
OWNER
1000
GEN
1002
}
1001
GENIUS_GENCEN_19
1002
{
1040
3.0
1002
}
  0
ARC
  5
8A1D
  8
0
 10
80.15814844292055
 20
204.3411315128204
 30
0.0
 40
0.1499999999999773
 50
239.9999999999746
 51
59.99999999997465
  0
ARC
  5
8A1E
  8
0
 10
79.34246409244889
 20
205.5866711649705
 30
0.0
 40
0.1767766952966168
 50
284.9999999999873
 51
104.9999999999962
  0
LINE
  5
8A1F
  8
0
 10
78.26449509497326
 20
205.2612277022528
 30
0.0
 11
78.50088411202893
 21
204.3790118802501
 31
0.0
  0
LINE
  5
8A20
  8
0
 10
75.18702758501519
 20
207.0380043975493
 30
0.0
 11
74.71379093945694
 21
207.3112277022527
 31
0.0
1001
GENIUS_GENODEF_13
1002
{
1000
HIER
1070
     0
1002
}
1002
{
1000
MANEDIT
1070
     0
1002
}
1002
{
1000
NOSEL
1070
     0
1002
}
1002
{
1000
BEHIND
1070
     0
1002
}
1002
{
1000
OTHER
1070
     0
1002
}
1002
{
1000
REACTOR
1002
}
1001
GENIUS_GENOBJ-N-CEN_13
1002
{
1000
OWNER
1000
GEN
1002
}
1001
GENIUS_GENCEN_19
1002
{
1040
3.0
1002
}
  0
LINE
  5
8A21
  8
0
 10
78.69750779686552
 20
205.0112277022528
 30
0.0
 11
78.84239046297495
 21
204.4705182311963
 31
0.0
  0
LINE
  5
8A22
  8
0
 10
76.09943158551215
 20
206.5112277022528
 30
0.0
 11
75.55872211445563
 21
206.3663450361433
 31
0.0
  0
LINE
  5
8A23
  8
0
 10
76.68244428740428
 20
206.5210353233881
 30
0.0
 11
76.44605527034884
 21
207.4032511453906
 31
0.0
  0
ARC
  5
8A24
  8
0
 10
78.67163728750194
 20
204.4247650557232
 30
0.0
 40
0.1767766952966168
 50
195.0000000000253
 51
14.99999999997601
  0
LINE
  5
8A25
  8
0
 10
76.09943158551215
 20
206.5112277022528
 30
0.0
 11
75.49321380286307
 21
206.8612277022527
 31
0.0
1001
GENIUS_GENODEF_13
1002
{
1000
HIER
1070
     0
1002
}
1002
{
1000
MANEDIT
1070
     0
1002
}
1002
{
1000
NOSEL
1070
     0
1002
}
1002
{
1000
BEHIND
1070
     0
1002
}
1002
{
1000
OTHER
1070
     0
1002
}
1002
{
1000
REACTOR
1002
}
1001
GENIUS_GENOBJ-N-CEN_13
1002
{
1000
OWNER
1000
GEN
1002
}
1001
GENIUS_GENCEN_19
1002
{
1040
3.0
1002
}
  0
POLYLINE
  5
8A26
  8
0
 66
     1
 10
0.0
 20
0.0
 30
0.0
  0
VERTEX
  5
9FF9
  8
0
 10
77.92459470386262
 20
206.3247937410825
 30
0.0
  0
VERTEX
  5
9FFA
  8
0
 10
77.62346969118886
 20
206.4986483482096
 30
0.0
  0
SEQEND
  5
A00F
  8
0
  0
POLYLINE
  5
8A27
  8
0
 66
     1
 10
0.0
 20
0.0
 30
0.0
  0
VERTEX
  5
9FFB
  8
0
 10
77.02234467851491
 20
205.457469284558
 30
0.0
  0
VERTEX
  5
9FFC
  8
0
 10
77.32346969118868
 20
205.283614677431
 30
0.0
  0
SEQEND
  5
A010
  8
0
  0
POLYLINE
  5
8A28
  8
0
 66
     1
 10
0.0
 20
0.0
 30
0.0
  0
VERTEX
  5
9FFD
  8
0
 10
77.62346969118886
 20
205.283614677431
 30
0.0
  0
VERTEX
  5
9FFE
  8
0
 10
77.92459470386262
 20
205.4574692845581
 30
0.0
  0
SEQEND
  5
A011
  8
0
  0
POLYLINE
  5
8A29
  8
0
 66
     1
 10
0.0
 20
0.0
 30
0.0
  0
VERTEX
  5
9FFF
  8
0
 10
78.07459470386249
 20
205.7172769056934
 30
0.0
  0
VERTEX
  5
A000
  8
0
 10
78.07459470386249
 20
206.0649861199472
 30
0.0
  0
SEQEND
  5
A012
  8
0
  0
POLYLINE
  5
8A2A
  8
0
 66
     1
 10
0.0
 20
0.0
 30
0.0
  0
VERTEX
  5
A001
  8
0
 10
76.87234467851505
 20
206.0649861199473
 30
0.0
  0
VERTEX
  5
A002
  8
0
 10
76.87234467851505
 20
205.7172769056933
 30
0.0
  0
SEQEND
  5
A013
  8
0
  0
LINE
  5
8A2B
  8
0
 10
76.87234467851505
 20
206.0649861199473
 30
0.0
 11
76.53244428740442
 21
206.2612277022528
 31
0.0
1001
GENIUS_GENODEF_13
1002
{
1000
HIER
1070
     0
1002
}
1002
{
1000
MANEDIT
1070
     0
1002
}
1002
{
1000
NOSEL
1070
     0
1002
}
1002
{
1000
BEHIND
1070
     0
1002
}
1002
{
1000
OTHER
1070
     0
1002
}
1002
{
1000
REACTOR
1002
}
1001
GENIUS_GENOBJ-N-CEN_13
1002
{
1000
OWNER
1000
GEN
1002
}
1001
GENIUS_GENCEN_19
1002
{
1040
3.0
1002
}
  0
LINE
  5
8A2C
  8
0
 10
77.02234467851491
 20
205.457469284558
 30
0.0
 11
76.68244428740428
 21
205.2612277022527
 31
0.0
1001
GENIUS_GENODEF_13
1002
{
1000
HIER
1070
     0
1002
}
1002
{
1000
MANEDIT
1070
     0
1002
}
1002
{
1000
NOSEL
1070
     0
1002
}
1002
{
1000
BEHIND
1070
     0
1002
}
1002
{
1000
OTHER
1070
     0
1002
}
1002
{
1000
REACTOR
1002
}
1001
GENIUS_GENOBJ-N-CEN_13
1002
{
1000
OWNER
1000
GEN
1002
}
1001
GENIUS_GENCEN_19
1002
{
1040
3.0
1002
}
  0
LINE
  5
8A2D
  8
0
 10
77.62346969118886
 20
206.4986483482096
 30
0.0
 11
77.62346969118886
 21
206.8911315128204
 31
0.0
1001
GENIUS_GENODEF_13
1002
{
1000
HIER
1070
     0
1002
}
1002
{
1000
MANEDIT
1070
     0
1002
}
1002
{
1000
NOSEL
1070
     0
1002
}
1002
{
1000
BEHIND
1070
     0
1002
}
1002
{
1000
OTHER
1070
     0
1002
}
1002
{
1000
REACTOR
1002
}
1001
GENIUS_GENOBJ-N-CEN_13
1002
{
1000
OWNER
1000
GEN
1002
}
1001
GENIUS_GENCEN_19
1002
{
1040
3.0
1002
}
  0
LINE
  5
8A2E
  8
0
 10
76.87234467851505
 20
205.7172769056933
 30
0.0
 11
76.53244428740442
 21
205.521035323388
 31
0.0
1001
GENIUS_GENODEF_13
1002
{
1000
HIER
1070
     0
1002
}
1002
{
1000
MANEDIT
1070
     0
1002
}
1002
{
1000
NOSEL
1070
     0
1002
}
1002
{
1000
BEHIND
1070
     0
1002
}
1002
{
1000
OTHER
1070
     0
1002
}
1002
{
1000
REACTOR
1002
}
1001
GENIUS_GENOBJ-N-CEN_13
1002
{
1000
OWNER
1000
GEN
1002
}
1001
GENIUS_GENCEN_19
1002
{
1040
3.0
1002
}
  0
LINE
  5
8A2F
  8
0
 10
77.02234467851514
 20
206.3247937410827
 30
0.0
 11
76.68244428740428
 21
206.5210353233881
 31
0.0
1001
GENIUS_GENODEF_13
1002
{
1000
HIER
1070
     0
1002
}
1002
{
1000
MANEDIT
1070
     0
1002
}
1002
{
1000
NOSEL
1070
     0
1002
}
1002
{
1000
BEHIND
1070
     0
1002
}
1002
{
1000
OTHER
1070
     0
1002
}
1002
{
1000
REACTOR
1002
}
1001
GENIUS_GENOBJ-N-CEN_13
1002
{
1000
OWNER
1000
GEN
1002
}
1001
GENIUS_GENCEN_19
1002
{
1040
3.0
1002
}
  0
LINE
  5
8A30
  8
0
 10
77.32346969118868
 20
206.4986483482096
 30
0.0
 11
77.32346969118868
 21
206.8911315128204
 31
0.0
1001
GENIUS_GENODEF_13
1002
{
1000
HIER
1070
     0
1002
}
1002
{
1000
MANEDIT
1070
     0
1002
}
1002
{
1000
NOSEL
1070
     0
1002
}
1002
{
1000
BEHIND
1070
     0
1002
}
1002
{
1000
OTHER
1070
     0
1002
}
1002
{
1000
REACTOR
1002
}
1001
GENIUS_GENOBJ-N-CEN_13
1002
{
1000
OWNER
1000
GEN
1002
}
1001
GENIUS_GENCEN_19
1002
{
1040
3.0
1002
}
  0
POINT
  5
8A31
  8
0
 10
77.47346969118877
 20
205.8911315128204
 30
0.0
  0
INSERT
  5
8A33
  8
0
 62
     7
  2
*X10
 10
0.0
 20
0.0
 30
0.0
  0
ARC
  5
9DD0
  8
0
 10
57.65747357530649
 20
237.9020867384633
 30
0.0
 40
2.818784487207035
 50
42.10643774613582
 51
72.54963860556856
  0
ARC
  5
9DD1
  8
0
 10
57.66204042009655
 20
237.8940137078544
 30
0.0
 40
2.825124600724308
 50
72.68709389380213
 51
114.8350808121767
  0
ARC
  5
9DD2
  8
0
 10
57.66886519956049
 20
237.8951187940895
 30
0.0
 40
2.82699601279636
 50
114.9700164788607
 51
159.7658782060661
  0
ARC
  5
9DD3
  8
0
 10
57.67023802492482
 20
237.9019354796877
 30
0.0
 40
2.825934871198894
 50
159.905183900427
 51
208.1033156220139
  0
ARC
  5
9DD4
  8
0
 10
57.66700786976581
 20
237.9059711529718
 30
0.0
 40
2.824991178843034
 50
208.2063768521136
 51
252.9917058831041
  0
ARC
  5
9DD5
  8
0
 10
57.66113741822112
 20
237.8985027237355
 30
0.0
 40
2.816134321775382
 50
253.0614728184792
 51
303.6104044070932
  0
ARC
  5
9DD6
  8
0
 10
57.6519773112536
 20
237.9078066014478
 30
0.0
 40
2.828954381084524
 50
303.6606050060742
 51
336.6888212394869
  0
ARC
  5
9DD7
  8
0
 10
57.67302204206283
 20
237.8961953370606
 30
0.0
 40
2.805033656979198
 50
336.7365264644543
 51
352.0115546408769
  0
ARC
  5
9DD8
  8
0
 10
60.88196512445825
 20
237.4395075626185
 30
0.0
 40
0.4362831274249897
 50
124.9417661980038
 51
171.1843733476157
  0
ARC
  5
9DD9
  8
0
 10
60.95858726098133
 20
237.3812862462608
 30
0.0
 40
0.5287156028486799
 50
68.4989425064667
 51
128.1363643025119
  0
ARC
  5
9DDA
  8
0
 10
60.95744437000768
 20
237.3781478468388
 30
0.0
 40
0.5320545012467646
 50
21.1786845759318
 51
68.50830305575624
  0
ARC
  5
9DDB
  8
0
 10
60.90062769956031
 20
237.3654610239828
 30
0.0
 40
0.589681274627146
 50
351.3677592453784
 51
20.3336515506318
  0
ARC
  5
9DDC
  8
0
 10
57.68343705213428
 20
237.8923664839285
 30
0.0
 40
3.849700154783129
 50
329.2955579547443
 51
350.8012500119645
  0
ARC
  5
9DDD
  8
0
 10
57.66066851953286
 20
237.9020091236917
 30
0.0
 40
3.874201887614873
 50
272.110292872708
 51
329.3448789643533
  0
ARC
  5
9DDE
  8
0
 10
57.65755494499729
 20
237.8871156558698
 30
0.0
 40
3.859434907830362
 50
228.1538869054162
 51
272.1646262877288
  0
ARC
  5
9DDF
  8
0
 10
57.65900386452206
 20
237.9001785316079
 30
0.0
 40
3.870140110233152
 50
191.6688789272142
 51
228.2669244735644
  0
ARC
  5
9DE0
  8
0
 10
54.43289767128127
 20
239.2068346285139
 30
0.0
 40
2.164208178393929
 50
198.723963475941
 51
254.8927875963115
  0
ARC
  5
9DE1
  8
0
 10
52.3556787639807
 20
239.7876014094091
 30
0.0
 40
1.275794832121307
 50
159.5889286416676
 51
271.2373210171075
  0
ARC
  5
9DE2
  8
0
 10
52.35551363530683
 20
239.7874563888693
 30
0.0
 40
1.27569066216106
 50
56.35876753652801
 51
159.5802376694569
  0
ARC
  5
9DE3
  8
0
 10
52.35508848122142
 20
239.7872816523774
 30
0.0
 40
1.27607169163755
 50
300.8474340774569
 51
56.3472215566183
  0
ARC
  5
9DE4
  8
0
 10
54.43269053159667
 20
239.2057602857936
 30
0.0
 40
1.513270340059136
 50
199.8575424768347
 51
244.8702054099216
  0
ARC
  5
9DE5
  8
0
 10
57.6532292401927
 20
237.9057689214301
 30
0.0
 40
3.863814594731709
 50
128.8924189419203
 51
181.0387416655363
  0
ARC
  5
9DE6
  8
0
 10
57.65982246991582
 20
237.9092445128725
 30
0.0
 40
3.865255996170545
 50
64.08752047055657
 51
129.0008345454499
  0
ARC
  5
9DE7
  8
0
 10
57.6360302060011
 20
237.8813304762409
 30
0.0
 40
3.900771647075106
 50
41.93148962721691
 51
63.95236016528539
  0
ARC
  5
9DE8
  8
0
 10
60.13292493824134
 20
240.1416060637575
 30
0.0
 40
0.5329691384397407
 50
326.9391245431075
 51
40.53482220835337
  0
ARC
  5
9DE9
  8
0
 10
60.13437214279091
 20
240.1420740386485
 30
0.0
 40
0.532012855346209
 50
288.8262582044613
 51
326.8118599153543
  0
ARC
  5
9DEA
  8
0
 10
60.1389033414068
 20
240.1199589415095
 30
0.0
 40
0.5096266244015553
 50
220.0392534532336
 51
289.1464231932406
  0
ARC
  5
9DEB
  8
0
 10
52.3555589767496
 20
239.7874903402425
 30
0.0
 40
0.5333610920542913
 50
358.2903179254369
 51
182.8871640299775
  0
ARC
  5
9DEC
  8
0
 10
52.35556125442288
 20
239.7872686867855
 30
0.0
 40
0.533352248318835
 50
182.8633706346291
 51
358.3141113207849
  0
ARC
  5
9DED
  8
0
 10
56.41442408629595
 20
238.3677720757542
 30
0.0
 40
0.6197235851139764
 50
269.9860909562865
 51
92.215844524471
  0
ARC
  5
9DEE
  8
0
 10
56.41454741015264
 20
238.3677744457764
 30
0.0
 40
0.619725997344469
 50
92.2272460800959
 51
269.9746892990934
  0
ARC
  5
9DEF
  8
0
 10
58.91025527816799
 20
238.3677651322521
 30
0.0
 40
0.6197167624590886
 50
269.9616101028838
 51
89.98977670141691
  0
ARC
  5
9DF0
  8
0
 10
58.90992044989178
 20
238.3677652742963
 30
0.0
 40
0.6197167706109338
 50
89.95882022245952
 51
269.9925665818412
  0
ARC
  5
9DF1
  8
0
 10
57.66213579924975
 20
238.3884275478143
 30
0.0
 40
1.621966970399848
 50
233.6417470358276
 51
306.8838773871507
  0
ARC
  5
9DF2
  8
0
 10
58.7858195100431
 20
236.8818266251354
 30
0.0
 40
0.2575808481740123
 50
48.75225273409504
 51
125.6665677964157
  0
ARC
  5
9DF3
  8
0
 10
58.78543677085562
 20
236.8815647687301
 30
0.0
 40
0.2580301008803177
 50
350.2089239138174
 51
48.72668974044582
  0
ARC
  5
9DF4
  8
0
 10
58.78228387416686
 20
236.8818081582764
 30
0.0
 40
0.2611786316846578
 50
302.7722891929776
 51
350.273929821677
  0
ARC
  5
9DF5
  8
0
 10
57.65846606407238
 20
238.3944608458953
 30
0.0
 40
2.145096291517153
 50
279.580629416799
 51
306.1433603622944
  0
ARC
  5
9DF6
  8
0
 10
57.66204946286923
 20
238.3875982406895
 30
0.0
 40
2.137734336466047
 50
255.4417152635177
 51
279.5165392426289
  0
ARC
  5
9DF7
  8
0
 10
57.66299912160305
 20
238.385398582639
 30
0.0
 40
2.135844522087935
 50
232.8702473643658
 51
255.4022254017396
  0
ARC
  5
9DF8
  8
0
 10
56.53944883532836
 20
236.8814569731271
 30
0.0
 40
0.25887643170293
 50
155.1529278431441
 51
230.2048092005848
  0
ARC
  5
9DF9
  8
0
 10
56.53824733876221
 20
236.8818965470093
 30
0.0
 40
0.2576014684421306
 50
103.7622011258897
 51
155.1293551933427
  0
ARC
  5
9DFA
  8
0
 10
56.53857260243976
 20
236.8821367348384
 30
0.0
 40
0.2574458242313935
 50
51.00202248787202
 51
103.845228473221
  0
ARC
  5
9DFB
  8
0
 10
49.67809520652084
 20
234.8563952601355
 30
0.0
 40
0.9091768622367206
 50
133.222959671733
 51
270.1894734199499
  0
ARC
  5
9DFC
  8
0
 10
49.67852055412801
 20
234.8560115711406
 30
0.0
 40
0.9087918676904274
 50
270.1627370543721
 51
50.19893912908906
  0
ARC
  5
9DFD
  8
0
 10
49.65784207733982
 20
241.2524817267613
 30
0.0
 40
0.6024320394943272
 50
2.835526177202197
 51
174.3732816204337
  0
ARC
  5
9DFE
  8
0
 10
49.65787804371818
 20
241.252403637796
 30
0.0
 40
0.2295028634559424
 50
358.9188453068101
 51
179.9730971000994
  0
ARC
  5
9DFF
  8
0
 10
46.78493243185803
 20
235.9457468806744
 30
0.0
 40
0.0873768611613766
 50
87.47256260673397
 51
234.0891406317526
  0
ARC
  5
9E00
  8
0
 10
48.19601220484201
 20
235.9466603613784
 30
0.0
 40
0.0863646317370953
 50
317.9031549580241
 51
87.18148688827209
  0
ARC
  5
9E01
  8
0
 10
47.49016881076303
 20
235.2405619922266
 30
0.0
 40
0.086253216996548
 50
226.0322552542306
 51
315.2107938570516
  0
LINE
  5
9E02
  8
0
 10
49.42837520556168
 20
241.2525113995262
 30
0.0
 11
49.42837520556168
 21
237.728800462026
 31
0.0
  0
LINE
  5
9E03
  8
0
 10
49.42837520556168
 20
237.728800462026
 30
0.0
 11
49.88734004931212
 21
237.728800462026
 31
0.0
  0
LINE
  5
9E04
  8
0
 10
49.88734004931212
 20
237.728800462026
 30
0.0
 11
49.88734004931212
 21
241.2480732425155
 31
0.0
  0
LINE
  5
9E05
  8
0
 10
50.25953653284342
 20
241.2822834788157
 30
0.0
 11
50.26025997118677
 21
235.5542106182757
 31
0.0
  0
LINE
  5
9E06
  8
0
 10
49.05545528368702
 20
235.5189072172503
 30
0.0
 11
49.05545528368702
 21
237.4994059307756
 31
0.0
  0
LINE
  5
9E07
  8
0
 10
49.05545528368702
 20
237.4994059307756
 30
0.0
 11
46.59223262743672
 21
237.4994059307756
 31
0.0
  0
LINE
  5
9E08
  8
0
 10
46.59223262743672
 20
237.4994059307756
 30
0.0
 11
46.59223262743672
 21
237.7287165184194
 31
0.0
  0
LINE
  5
9E09
  8
0
 10
46.59223262743672
 20
237.7287165184194
 30
0.0
 11
49.05545528368702
 21
237.728800462026
 31
0.0
  0
LINE
  5
9E0A
  8
0
 10
49.05545528368702
 20
237.728800462026
 30
0.0
 11
49.05831268399776
 21
241.3115483732566
 31
0.0
  0
LINE
  5
9E0B
  8
0
 10
46.73368364192834
 20
235.874977696723
 30
0.0
 11
47.43028723017662
 21
235.1784828995405
 31
0.0
  0
LINE
  5
9E0C
  8
0
 10
47.5513830180621
 20
235.1797965557762
 30
0.0
 11
48.26009586330083
 21
235.888762741966
 31
0.0
  0
LINE
  5
9E0D
  8
0
 10
48.20025896937135
 20
236.0329205179173
 30
0.0
 11
47.81909786181177
 21
236.033038743276
 31
0.0
  0
LINE
  5
9E0E
  8
0
 10
47.81909786181177
 20
236.033038743276
 30
0.0
 11
47.81909786181177
 21
237.0471688125406
 31
0.0
  0
LINE
  5
9E0F
  8
0
 10
47.81909786181177
 20
237.0471688125406
 30
0.0
 11
47.16114864306201
 21
237.0472965557756
 31
0.0
  0
LINE
  5
9E10
  8
0
 10
47.16114864306201
 20
237.0472965557756
 30
0.0
 11
47.16114864306201
 21
236.033038743276
 31
0.0
  0
LINE
  5
9E11
  8
0
 10
47.16114864306201
 20
236.033038743276
 30
0.0
 11
46.78878555915508
 21
236.033038743276
 31
0.0
  0
LINE
  5
9E12
  8
0
 10
48.38810176806192
 20
239.623898118276
 30
0.0
 11
48.18735958056186
 21
239.7397379620261
 31
0.0
  0
LINE
  5
9E13
  8
0
 10
48.18735958056186
 20
239.7397379620261
 30
0.0
 11
47.69104122118688
 21
239.4532145245258
 31
0.0
  0
LINE
  5
9E14
  8
0
 10
47.69104122118688
 20
239.4532145245258
 30
0.0
 11
47.69095333056202
 21
240.0264371807762
 31
0.0
  0
LINE
  5
9E15
  8
0
 10
47.69095333056202
 20
240.0264371807762
 30
0.0
 11
47.49021114306197
 21
240.1422770245259
 31
0.0
  0
LINE
  5
9E16
  8
0
 10
47.49021114306197
 20
240.1422770245259
 30
0.0
 11
47.28938106493706
 21
240.0264371807762
 31
0.0
  0
LINE
  5
9E17
  8
0
 10
47.28938106493706
 20
240.0264371807762
 30
0.0
 11
47.28938106493706
 21
239.4532145245258
 31
0.0
  0
LINE
  5
9E18
  8
0
 10
47.28938106493706
 20
239.4532145245258
 30
0.0
 11
46.79297481493677
 21
239.7397379620261
 31
0.0
  0
LINE
  5
9E19
  8
0
 10
46.79297481493677
 20
239.7397379620261
 30
0.0
 11
46.59223262743672
 21
239.623898118276
 31
0.0
  0
LINE
  5
9E1A
  8
0
 10
46.59223262743672
 20
239.623898118276
 30
0.0
 11
46.59223262743672
 21
239.3920426495261
 31
0.0
  0
LINE
  5
9E1B
  8
0
 10
46.59223262743672
 20
239.3920426495261
 30
0.0
 11
47.08863887743701
 21
239.1055192120257
 31
0.0
  0
LINE
  5
9E1C
  8
0
 10
47.08863887743701
 20
239.1055192120257
 30
0.0
 11
46.59223262743672
 21
238.8188199932757
 31
0.0
  0
LINE
  5
9E1D
  8
0
 10
46.59223262743672
 20
238.8188199932757
 30
0.0
 11
46.59223262743672
 21
238.5869645245257
 31
0.0
  0
LINE
  5
9E1E
  8
0
 10
46.59223262743672
 20
238.5869645245257
 30
0.0
 11
46.79297481493677
 21
238.4711246807756
 31
0.0
  0
LINE
  5
9E1F
  8
0
 10
46.79297481493677
 20
238.4711246807756
 30
0.0
 11
47.28938106493706
 21
238.757648118276
 31
0.0
  0
LINE
  5
9E20
  8
0
 10
47.28938106493706
 20
238.757648118276
 30
0.0
 11
47.28946895556192
 21
238.184425462026
 31
0.0
  0
LINE
  5
9E21
  8
0
 10
47.28946895556192
 20
238.184425462026
 30
0.0
 11
47.49021114306197
 21
238.0685856182759
 31
0.0
  0
LINE
  5
9E22
  8
0
 10
47.49021114306197
 20
238.0685856182759
 30
0.0
 11
47.69104122118688
 21
238.184425462026
 31
0.0
  0
LINE
  5
9E23
  8
0
 10
47.69104122118688
 20
238.184425462026
 30
0.0
 11
47.69095333056202
 21
238.757648118276
 31
0.0
  0
LINE
  5
9E24
  8
0
 10
47.69095333056202
 20
238.757648118276
 30
0.0
 11
48.18735958056186
 21
238.4711246807756
 31
0.0
  0
LINE
  5
9E25
  8
0
 10
48.18735958056186
 20
238.4711246807756
 30
0.0
 11
48.38810176806192
 21
238.5869645245257
 31
0.0
  0
LINE
  5
9E26
  8
0
 10
48.38810176806192
 20
238.5869645245257
 30
0.0
 11
48.38810176806192
 21
238.8188199932757
 31
0.0
  0
LINE
  5
9E27
  8
0
 10
48.38810176806192
 20
238.8188199932757
 30
0.0
 11
47.89178340868693
 21
239.1055192120257
 31
0.0
  0
LINE
  5
9E28
  8
0
 10
47.89178340868693
 20
239.1055192120257
 30
0.0
 11
48.38810176806192
 21
239.3920426495261
 31
0.0
  0
LINE
  5
9E29
  8
0
 10
48.38810176806192
 20
239.3920426495261
 30
0.0
 11
48.38810176806192
 21
239.623898118276
 31
0.0
  0
ARC
  5
9E2A
  8
0
 10
43.12195934609639
 20
230.2040397355777
 30
0.0
 40
0.3670849884844836
 50
88.43595018400146
 51
181.5907611346543
  0
ARC
  5
9E2B
  8
0
 10
43.11635833128824
 20
230.1781446609876
 30
0.0
 40
0.3616836161732613
 50
177.5113831094955
 51
272.4752596742406
  0
ARC
  5
9E2C
  8
0
 10
47.84987986345561
 20
228.8144587429334
 30
0.0
 40
1.757421872517575
 50
58.63205765538193
 51
91.82624667791212
  0
ARC
  5
9E2D
  8
0
 10
48.03110437421975
 20
229.1539844167572
 30
0.0
 40
1.373363550070809
 50
357.3646905701011
 51
57.71432541069638
  0
ARC
  5
9E2E
  8
0
 10
47.37222606000293
 20
229.1492358787411
 30
0.0
 40
2.031628876196131
 50
312.3580077297276
 51
358.3528725601312
  0
ARC
  5
9E2F
  8
0
 10
46.53428715551058
 20
230.2833955543346
 30
0.0
 40
3.437343882281632
 50
279.6428930056555
 51
309.9410387066555
  0
ARC
  5
9E30
  8
0
 10
45.82933059788191
 20
233.0637998100602
 30
0.0
 40
6.30072093565917
 50
275.4117803201625
 51
281.7281302859267
  0
ARC
  5
9E31
  8
0
 10
46.41897769867587
 20
226.6870042265029
 30
0.0
 40
0.104260725704256
 50
87.4752300347481
 51
163.7199139015231
  0
ARC
  5
9E32
  8
0
 10
46.61712834302582
 20
226.6564024290631
 30
0.0
 40
0.3041729537229
 50
168.6561978748385
 51
200.0889648778359
  0
ARC
  5
9E33
  8
0
 10
46.25955381345945
 20
225.9016393657923
 30
0.0
 40
0.2537512839947012
 50
261.3372320245579
 51
20.62119432797275
  0
ARC
  5
9E34
  8
0
 10
45.89216037940299
 20
227.3439414042283
 30
0.0
 40
1.693196324176135
 50
200.7119394462078
 51
269.6171287198742
  0
ARC
  5
9E35
  8
0
 10
44.01207273051743
 20
228.5589389144411
 30
0.0
 40
0.2418104089398966
 50
78.56434552526832
 51
205.2442294015707
  0
ARC
  5
9E36
  8
0
 10
45.2096308206688
 20
228.251171863453
 30
0.0
 40
0.5454708950328662
 50
22.03436718337224
 51
87.10976279916946
  0
ARC
  5
9E37
  8
0
 10
46.42807187546471
 20
228.072215084284
 30
0.0
 40
0.5575982287956304
 50
198.5615711856641
 51
231.4697421334256
  0
ARC
  5
9E38
  8
0
 10
46.27522808336196
 20
227.9079672950116
 30
0.0
 40
0.3343453227859988
 50
234.4274826077689
 51
282.9237961332864
  0
ARC
  5
9E39
  8
0
 10
45.96412109231643
 20
228.9255348960525
 30
0.0
 40
1.397765155718417
 50
286.0259576150772
 51
322.7723331413743
  0
ARC
  5
9E3A
  8
0
 10
45.45650265127836
 20
229.3733380754987
 30
0.0
 40
2.073453716718684
 50
321.405557856657
 51
357.0055140470168
  0
ARC
  5
9E3B
  8
0
 10
46.98166557240916
 20
229.3036498078928
 30
0.0
 40
0.5468257340680802
 50
355.949160792519
 51
43.9861427071242
  0
ARC
  5
9E3C
  8
0
 10
46.98970571345963
 20
229.2031004435183
 30
0.0
 40
0.6158215084356161
 50
51.25619189844242
 51
94.75943482914414
  0
ARC
  5
9E3D
  8
0
 10
50.95033516609511
 20
228.110792947273
 30
0.0
 40
0.9170993127764647
 50
90.00286747961208
 51
268.2497146487426
  0
ARC
  5
9E3E
  8
0
 10
50.95025858474825
 20
228.11079411516
 30
0.0
 40
0.9170981442542538
 50
268.2544990708273
 51
89.99808305752734
  0
ARC
  5
9E3F
  8
0
 10
53.00544743993587
 20
230.1893335975781
 30
0.0
 40
0.3770840596473977
 50
89.9884213680942
 51
178.6192995487076
  0
ARC
  5
9E40
  8
0
 10
54.17349042306721
 20
230.1893335769578
 30
0.0
 40
0.3770841082509337
 50
1.380703407340469
 51
90.02492579868495
  0
ARC
  5
9E41
  8
0
 10
54.17356772625794
 20
227.6231586765653
 30
0.0
 40
0.3768973543141036
 50
269.9633102497762
 51
0.0233356470828619
  0
ARC
  5
9E42
  8
0
 10
53.00537010634638
 20
227.6231586440606
 30
0.0
 40
0.3768972758079303
 50
179.9766594067293
 51
270.0233405932998
  0
ARC
  5
9E43
  8
0
 10
56.67348593965144
 20
230.1899654155122
 30
0.0
 40
0.3765533069000618
 50
91.32755171042443
 51
178.7135156246359
  0
ARC
  5
9E44
  8
0
 10
57.84184585275539
 20
230.1892481904647
 30
0.0
 40
0.3772853742403397
 50
1.39293758417252
 51
88.57968746194234
  0
ARC
  5
9E45
  8
0
 10
55.35470066232961
 20
227.333410333762
 30
0.0
 40
0.9424222807007966
 50
270.2596160298706
 51
359.1847732707243
  0
ARC
  5
9E46
  8
0
 10
55.08760860399935
 20
226.0185612042133
 30
0.0
 40
0.3724651062386549
 50
89.29017710179693
 51
270.7098228982031
  0
ARC
  5
9E47
  8
0
 10
56.02878113638283
 20
227.7815106434925
 30
0.0
 40
2.135678174171317
 50
269.0521856153052
 51
304.9431031995392
  0
ARC
  5
9E48
  8
0
 10
55.98388093546941
 20
227.8864396814274
 30
0.0
 40
2.247528607778139
 50
304.3492687691318
 51
342.0336073987834
  0
ARC
  5
9E49
  8
0
 10
55.96985022703201
 20
227.8474158701065
 30
0.0
 40
2.249219839620582
 50
343.0895187182542
 51
0.3832968636579526
  0
ARC
  5
9E4A
  8
0
 10
59.44663312707465
 20
230.2030338604637
 30
0.0
 40
0.3724661917305334
 50
89.27682506750826
 51
270.7231749324918
  0
ARC
  5
9E4B
  8
0
 10
59.21692130887253
 20
228.5260807354633
 30
0.0
 40
0.3541906372867973
 50
86.29944766479187
 51
273.7005523352082
  0
ARC
  5
9E4C
  8
0
 10
60.42079770475327
 20
229.2378736728351
 30
0.0
 40
0.358803858625055
 50
267.0887535299613
 51
356.4733133196503
  0
ARC
  5
9E4D
  8
0
 10
60.44140533907103
 20
229.4931551252943
 30
0.0
 40
0.3396690833730922
 50
354.8685998202262
 51
96.56439594170052
  0
ARC
  5
9E4E
  8
0
 10
64.7430968852491
 20
230.2030338604637
 30
0.0
 40
0.3724651062386495
 50
269.2901771018636
 51
90.7098228981364
  0
ARC
  5
9E4F
  8
0
 10
63.07886620009584
 20
229.4537000924922
 30
0.0
 40
0.3768972758071489
 50
89.97665940658239
 51
180.0233405934893
  0
ARC
  5
9E50
  8
0
 10
63.03671043351251
 20
229.2116161635421
 30
0.0
 40
0.3347676534002981
 50
179.2835006658344
 51
277.2606919210987
  0
ARC
  5
9E51
  8
0
 10
63.06765651134727
 20
227.8065061173645
 30
0.0
 40
0.3662987656052747
 50
88.22229995736356
 51
176.6896381244135
  0
ARC
  5
9E52
  8
0
 10
63.61358972471172
 20
227.2567626249743
 30
0.0
 40
0.9125541393853733
 50
182.5916258786893
 51
271.6600393676819
  0
ARC
  5
9E53
  8
0
 10
64.76530104827339
 20
225.9953580792135
 30
0.0
 40
0.3502616083451314
 50
265.608746066266
 51
94.39125393373403
  0
ARC
  5
9E54
  8
0
 10
62.96167971981979
 20
227.8729572171733
 30
0.0
 40
2.227259321723195
 50
225.0349285396396
 51
271.1216669202527
  0
ARC
  5
9E55
  8
0
 10
62.70746166970292
 20
227.702433102207
 30
0.0
 40
1.927871578424823
 50
179.3527648258316
 51
226.7994771726991
  0
ARC
  5
9E56
  8
0
 10
60.6000825386348
 20
227.9573438249193
 30
0.0
 40
0.1798521029892861
 50
357.1558279388276
 51
48.65700890603938
  0
ARC
  5
9E57
  8
0
 10
60.52984032741178
 20
227.8613008769903
 30
0.0
 40
0.2985497565163959
 50
50.7122642471553
 51
78.58034235835271
  0
ARC
  5
9E58
  8
0
 10
60.41503395109284
 20
227.3581798000145
 30
0.0
 40
0.8145440850389851
 50
77.67158325142975
 51
90.87644874463575
  0
ARC
  5
9E59
  8
0
 10
64.94827264105808
 20
228.55234431113
 30
0.0
 40
0.3797198155434018
 50
270.2659772238895
 51
356.0405792706824
  0
ARC
  5
9E5A
  8
0
 10
64.96166616666942
 20
228.5141001643469
 30
0.0
 40
0.365617762344841
 50
1.884695911894787
 51
91.822965253088
  0
LINE
  5
9E5B
  8
0
 10
43.1319787211869
 20
230.5709879620259
 30
0.0
 11
47.79387325243715
 21
230.5709879620259
 31
0.0
  0
LINE
  5
9E5C
  8
0
 10
46.93860958056212
 20
229.8167985089013
 30
0.0
 11
43.1319787211869
 21
229.8167985089013
 31
0.0
  0
LINE
  5
9E5D
  8
0
 10
44.06001583056195
 20
228.7959488995257
 30
0.0
 11
45.23713497118661
 21
228.7959488995257
 31
0.0
  0
LINE
  5
9E5E
  8
0
 10
45.71525997118715
 20
228.4558121807759
 30
0.0
 11
45.89947872118682
 21
227.8947184307759
 31
0.0
  0
LINE
  5
9E5F
  8
0
 10
43.79335567431188
 20
228.4558121807759
 30
0.0
 11
44.30839473681226
 21
226.7451090557761
 31
0.0
  0
LINE
  5
9E60
  8
0
 10
45.88084590868675
 20
225.6507828839013
 30
0.0
 11
46.2213341899369
 21
225.6507828839013
 31
0.0
  0
LINE
  5
9E61
  8
0
 10
46.49704708056197
 20
225.991007493276
 30
0.0
 11
46.33146114306192
 21
226.5519254620258
 31
0.0
  0
LINE
  5
9E62
  8
0
 10
52.62847286181159
 20
230.1984196026506
 30
0.0
 11
52.62847286181159
 21
227.6233121807759
 31
0.0
  0
LINE
  5
9E63
  8
0
 10
53.00552364306168
 20
227.2462613995258
 30
0.0
 11
54.17332637743675
 21
227.2462613995258
 31
0.0
  0
LINE
  5
9E64
  8
0
 10
54.55046504931215
 20
227.6233121807759
 30
0.0
 11
54.55046504931215
 21
230.1984196026506
 31
0.0
  0
LINE
  5
9E65
  8
0
 10
54.17332637743675
 20
230.5664176495257
 30
0.0
 11
53.00552364306168
 21
230.5664176495257
 31
0.0
  0
LINE
  5
9E66
  8
0
 10
56.29702754931168
 20
230.1984196026506
 30
0.0
 11
56.29702754931168
 21
227.3200016339006
 31
0.0
  0
LINE
  5
9E67
  8
0
 10
55.35897090868684
 20
226.3909977276508
 30
0.0
 11
55.09222286181193
 21
226.3909977276508
 31
0.0
  0
LINE
  5
9E68
  8
0
 10
55.09222286181193
 20
225.6461246807758
 30
0.0
 11
55.99345333056226
 21
225.6461246807758
 31
0.0
  0
LINE
  5
9E69
  8
0
 10
58.21901973681179
 20
227.8624625714011
 30
0.0
 11
58.21901973681179
 21
230.1984196026506
 31
0.0
  0
LINE
  5
9E6A
  8
0
 10
57.85119747118688
 20
230.5664176495257
 30
0.0
 11
56.66476192431219
 21
230.5664176495257
 31
0.0
  0
LINE
  5
9E6B
  8
0
 10
59.45133418993692
 20
230.5754703839012
 30
0.0
 11
64.73848262743695
 21
230.5754703839012
 31
0.0
  0
LINE
  5
9E6C
  8
0
 10
64.73848262743695
 20
229.8305973370262
 30
0.0
 11
63.07901973681192
 21
229.8305973370262
 31
0.0
  0
LINE
  5
9E6D
  8
0
 10
62.70196895556183
 20
229.4535465557756
 30
0.0
 11
62.70196895556182
 21
229.2158024151509
 31
0.0
  0
LINE
  5
9E6E
  8
0
 10
63.07901973681192
 20
228.8795328839005
 30
0.0
 11
64.95003536181184
 21
228.8795328839006
 31
0.0
  0
LINE
  5
9E6F
  8
0
 10
64.95003536181184
 20
228.1726285870259
 30
0.0
 11
63.07901973681192
 21
228.1726285870259
 31
0.0
  0
LINE
  5
9E70
  8
0
 10
62.70196895556182
 20
227.8276578839009
 30
0.0
 11
62.70196895556182
 21
227.2154996807758
 31
0.0
  0
LINE
  5
9E71
  8
0
 10
63.64002559618712
 20
226.3445914776512
 30
0.0
 11
64.73848262743695
 21
226.3445914776512
 31
0.0
  0
LINE
  5
9E72
  8
0
 10
64.73848262743695
 20
225.6461246807758
 30
0.0
 11
63.00527950243668
 21
225.6461246807758
 31
0.0
  0
LINE
  5
9E73
  8
0
 10
60.77971309618715
 20
227.7242106182758
 30
0.0
 11
60.77971309618715
 21
227.9484196026506
 31
0.0
  0
LINE
  5
9E74
  8
0
 10
60.40257442431175
 20
228.1726285870259
 30
0.0
 11
59.23978145556202
 21
228.1726285870259
 31
0.0
  0
LINE
  5
9E75
  8
0
 10
59.23978145556202
 20
228.8795328839006
 30
0.0
 11
60.40257442431175
 21
228.8795328839006
 31
0.0
  0
LINE
  5
9E76
  8
0
 10
60.7789220805621
 20
229.2158024151509
 30
0.0
 11
60.77971309618715
 21
229.4627750714008
 31
0.0
  0
LINE
  5
9E77
  8
0
 10
60.40257442431175
 20
229.8305973370261
 30
0.0
 11
59.45133418993692
 21
229.8305973370262
 31
0.0
  0
LINE
  5
9E7B
  8
0
 10
44.90033809618672
 20
232.450968430776
 30
0.0
 11
44.01844356493712
 21
232.450968430776
 31
0.0
  0
LINE
  5
9E7C
  8
0
 10
44.01844356493712
 20
232.450968430776
 30
0.0
 11
44.01844356493712
 21
232.6163785870258
 31
0.0
  0
LINE
  5
9E7D
  8
0
 10
44.01844356493712
 20
232.6163785870258
 30
0.0
 11
45.09387325243688
 21
232.6163785870258
 31
0.0
  0
LINE
  5
9E7E
  8
0
 10
45.09387325243688
 20
232.6163785870258
 30
0.0
 11
45.09387325243688
 21
232.450968430776
 31
0.0
  0
LINE
  5
9E7F
  8
0
 10
44.47477168993692
 20
232.0305875714012
 30
0.0
 11
44.32403926806182
 21
232.2360758526511
 31
0.0
  0
LINE
  5
9E80
  8
0
 10
44.32403926806182
 20
232.2360758526511
 30
0.0
 11
44.17058223681215
 21
232.133419602651
 31
0.0
  0
LINE
  5
9E81
  8
0
 10
44.57083614306202
 20
231.5636246807763
 30
0.0
 11
44.72824825243697
 21
231.6623258526507
 31
0.0
  0
LINE
  5
9E82
  8
0
 10
44.72824825243697
 20
231.6623258526507
 30
0.0
 11
44.58015254931161
 21
231.8811735089012
 31
0.0
  0
ARC
  5
9E83
  8
0
 10
34.357756383566
 20
224.8148977270581
 30
0.0
 40
12.24141795992888
 50
33.45643062216249
 51
36.71601240395405
  0
ARC
  5
9E84
  8
0
 10
44.07174330386191
 20
232.8641858444727
 30
0.0
 40
0.9259146617534648
 50
295.8028544447355
 51
333.4947229782731
  0
ARC
  5
9E85
  8
0
 10
44.14461749811977
 20
232.7903268897991
 30
0.0
 40
1.008092580477948
 50
295.5970136290768
 51
340.3280553328837
  0
LINE
  5
9E86
  8
0
 10
45.86775020556161
 20
232.1560074932759
 30
0.0
 11
45.86775020556161
 21
231.5796207745262
 31
0.0
  0
LINE
  5
9E87
  8
0
 10
45.86775020556161
 20
231.5796207745262
 30
0.0
 11
46.05987911181182
 21
231.5796207745262
 31
0.0
  0
LINE
  5
9E88
  8
0
 10
46.05987911181182
 20
231.5796207745262
 30
0.0
 11
46.05987911181182
 21
232.2481168682762
 31
0.0
  0
LINE
  5
9E89
  8
0
 10
46.4454552836869
 20
232.5283121807761
 30
0.0
 11
46.33603145556208
 21
232.6537321026508
 31
0.0
  0
LINE
  5
9E8A
  8
0
 10
45.3380334086869
 20
232.1800895245261
 30
0.0
 11
45.36607051806186
 21
232.0159977276508
 31
0.0
  0
ARC
  5
9E8B
  8
0
 10
45.09474995630673
 20
233.9809519182469
 30
0.0
 40
1.817221010036674
 50
277.6936667564446
 51
313.0836814663463
  0
ARC
  5
9E8C
  8
0
 10
45.27396661181021
 20
233.7350023132487
 30
0.0
 40
1.681810567258462
 50
297.8592692614841
 51
314.1519780416271
  0
ARC
  5
9E8D
  8
0
 10
45.0814589194837
 20
234.004619580208
 30
0.0
 40
2.008885420952019
 50
278.1448623061169
 51
293.0420589932965
  0
LINE
  5
9E8E
  8
0
 10
47.17529903368677
 20
232.2467985089007
 30
0.0
 11
47.17529903368677
 21
232.2774723370258
 31
0.0
  0
LINE
  5
9E8F
  8
0
 10
47.17529903368677
 20
232.2774723370258
 30
0.0
 11
46.66025997118686
 21
232.2774723370258
 31
0.0
  0
LINE
  5
9E90
  8
0
 10
46.66025997118686
 20
232.2774723370258
 30
0.0
 11
46.66025997118686
 21
232.4469254620263
 31
0.0
  0
LINE
  5
9E91
  8
0
 10
46.66025997118686
 20
232.4469254620263
 30
0.0
 11
47.17529903368677
 21
232.4469254620263
 31
0.0
  0
LINE
  5
9E92
  8
0
 10
47.17529903368677
 20
232.4469254620263
 30
0.0
 11
47.17529903368677
 21
232.6963590557762
 31
0.0
  0
LINE
  5
9E93
  8
0
 10
47.17529903368677
 20
232.6963590557762
 30
0.0
 11
47.36206661181177
 21
232.6963590557762
 31
0.0
  0
LINE
  5
9E94
  8
0
 10
47.36206661181177
 20
232.6963590557762
 30
0.0
 11
47.36206661181177
 21
232.4469254620263
 31
0.0
  0
LINE
  5
9E95
  8
0
 10
47.36206661181177
 20
232.4469254620263
 30
0.0
 11
47.78903926806197
 21
232.4469254620263
 31
0.0
  0
LINE
  5
9E96
  8
0
 10
47.78903926806197
 20
232.4469254620263
 30
0.0
 11
47.78903926806197
 21
232.2774723370258
 31
0.0
  0
LINE
  5
9E97
  8
0
 10
47.78903926806197
 20
232.2774723370258
 30
0.0
 11
47.36206661181177
 21
232.2774723370258
 31
0.0
  0
LINE
  5
9E98
  8
0
 10
47.36206661181177
 20
232.2774723370258
 30
0.0
 11
47.36206661181177
 21
232.2467985089007
 31
0.0
  0
LINE
  5
9E99
  8
0
 10
46.82971309618688
 20
231.583575852651
 30
0.0
 11
46.77363887743695
 21
231.7490738995257
 31
0.0
  0
ARC
  5
9E9A
  8
0
 10
46.4023705141225
 20
232.2322929771924
 30
0.0
 40
0.7730646200712835
 50
342.2910204567376
 51
1.075142363622295
  0
ARC
  5
9E9B
  8
0
 10
46.84883908709948
 20
232.0961080143085
 30
0.0
 40
0.3063876798952075
 50
304.2370088981581
 51
341.1546735930816
  0
ARC
  5
9E9C
  8
0
 10
46.67687034067151
 20
232.378476943396
 30
0.0
 40
0.6367985092080606
 50
278.7405863986843
 51
302.7346045229082
  0
ARC
  5
9E9D
  8
0
 10
46.70441931145919
 20
232.3594325198372
 30
0.0
 40
0.7859084555523594
 50
279.173547062458
 51
305.3414915022681
  0
ARC
  5
9E9E
  8
0
 10
46.85359934897041
 20
232.1064493762428
 30
0.0
 40
0.4938678410143298
 50
308.2022886499759
 51
350.7296062183676
  0
ARC
  5
9E9F
  8
0
 10
46.30947755310349
 20
232.2365915969364
 30
0.0
 40
1.05263854554364
 50
348.508946732466
 51
0.5555773579723515
  0
LINE
  5
9EA0
  8
0
 10
48.78712520556201
 20
232.460284837026
 30
0.0
 11
48.13198848681168
 21
232.460284837026
 31
0.0
  0
LINE
  5
9EA1
  8
0
 10
48.13198848681168
 20
232.460284837026
 30
0.0
 11
48.13198848681168
 21
232.6243766339012
 31
0.0
  0
LINE
  5
9EA2
  8
0
 10
48.13198848681168
 20
232.6243766339012
 30
0.0
 11
48.98584590868677
 21
232.6243766339012
 31
0.0
  0
LINE
  5
9EA3
  8
0
 10
48.98584590868677
 20
232.6243766339012
 30
0.0
 11
48.98584590868677
 21
232.460284837026
 31
0.0
  0
LINE
  5
9EA4
  8
0
 10
49.10063106493726
 20
231.715675462026
 30
0.0
 11
48.97784786181182
 21
231.594298508901
 31
0.0
  0
LINE
  5
9EA5
  8
0
 10
48.09454708056182
 20
231.6022965557759
 30
0.0
 11
48.01447872118661
 21
231.7490738995257
 31
0.0
  0
ARC
  5
9EA6
  8
0
 10
47.31555533298911
 20
233.2836713514542
 30
0.0
 40
1.686263099876902
 50
294.4866134087317
 51
330.7717068869524
  0
ARC
  5
9EA7
  8
0
 10
47.24978877546901
 20
233.4126686313816
 30
0.0
 40
1.997764662355422
 50
295.0147624386637
 51
312.8436054073329
  0
ARC
  5
9EA8
  8
0
 10
41.37531573621862
 20
224.0177707213584
 30
0.0
 40
10.73323194737177
 50
44.90184257982877
 51
47.63246263973684
  0
ARC
  5
9EA9
  8
0
 10
42.14617892478357
 20
224.713854117401
 30
0.0
 40
9.868632464113261
 50
45.19446774917355
 51
48.17612407225278
  0
ARC
  5
9EAA
  8
0
 10
47.61264821767325
 20
233.0846614400926
 30
0.0
 40
1.508482032064661
 50
317.6232793949262
 51
335.5492736743415
  0
LINE
  5
9EAB
  8
0
 10
49.64766231493695
 20
232.6590934307761
 30
0.0
 11
49.47284786181172
 21
232.6790446026508
 31
0.0
  0
LINE
  5
9EAC
  8
0
 10
49.47284786181172
 20
231.574259446401
 30
0.0
 11
49.64766231493695
 21
231.594298508901
 31
0.0
  0
ARC
  5
9EAD
  8
0
 10
51.82399673873441
 20
232.1266959698385
 30
0.0
 40
2.24050855401593
 50
166.2536808747335
 51
193.7463191252665
  0
ARC
  5
9EAE
  8
0
 10
51.72627309725175
 20
232.1266520245259
 30
0.0
 40
2.320142851654927
 50
166.2264222050919
 51
193.7735777949081
  0
LINE
  5
9EAF
  8
0
 10
49.85578731493706
 20
232.420206712026
 30
0.0
 11
49.85578731493706
 21
232.5763004620258
 31
0.0
  0
LINE
  5
9EB0
  8
0
 10
49.85578731493706
 20
232.5763004620258
 30
0.0
 11
50.42953731493708
 21
232.5763004620258
 31
0.0
  0
LINE
  5
9EB1
  8
0
 10
50.42953731493708
 20
232.5763004620258
 30
0.0
 11
50.42953731493708
 21
232.420206712026
 31
0.0
  0
LINE
  5
9EB2
  8
0
 10
50.42953731493708
 20
232.420206712026
 30
0.0
 11
49.85578731493706
 21
232.420206712026
 31
0.0
  0
LINE
  5
9EB3
  8
0
 10
50.03596309618661
 20
232.0827067120259
 30
0.0
 11
49.91045528368659
 21
232.1828141339011
 31
0.0
  0
LINE
  5
9EB4
  8
0
 10
50.44149043993684
 20
231.8238688214006
 30
0.0
 11
50.46557247118699
 21
231.6690934307763
 31
0.0
  0
ARC
  5
9EB5
  8
0
 10
50.27006351224615
 20
231.7648523068157
 30
0.0
 40
0.5513711698559726
 50
130.708220238404
 51
157.703625479385
  0
ARC
  5
9EB6
  8
0
 10
49.96061856925181
 20
231.891713979969
 30
0.0
 40
0.2169312572480087
 50
157.6967650917142
 51
205.3984993646999
  0
ARC
  5
9EB7
  8
0
 10
50.02698863958572
 20
231.9460113158492
 30
0.0
 40
0.3008800009813904
 50
209.3210192654115
 51
257.5935048122165
  0
ARC
  5
9EB8
  8
0
 10
50.15961532795637
 20
232.4579945290266
 30
0.0
 40
0.8296316180790294
 50
256.2444659394042
 51
275.2215523672216
  0
ARC
  5
9EB9
  8
0
 10
50.15724436771733
 20
232.843897364511
 30
0.0
 40
1.214590672657983
 50
273.6760364924776
 51
284.7056607611161
  0
ARC
  5
9EBA
  8
0
 10
50.1456843046176
 20
233.0665329310182
 30
0.0
 40
1.277386143272562
 50
270.1640623199838
 51
283.3896060448867
  0
ARC
  5
9EBB
  8
0
 10
50.12692642604758
 20
232.15920145785
 30
0.0
 40
0.3707277183708511
 50
242.6706422703897
 51
273.4664302047655
  0
ARC
  5
9EBC
  8
0
 10
50.00640184778248
 20
231.9008880143817
 30
0.0
 40
0.0866823147437489
 50
154.8854560630789
 51
235.0327799996414
  0
ARC
  5
9EBD
  8
0
 10
50.34545015413583
 20
231.7393698144231
 30
0.0
 40
0.4622363727478137
 50
132.0317914832259
 51
154.5946083240115
  0
LINE
  5
9EBE
  8
0
 10
50.90186153368677
 20
232.3976188214011
 30
0.0
 11
50.71641231493686
 21
232.3976188214011
 31
0.0
  0
LINE
  5
9EBF
  8
0
 10
50.71641231493686
 20
232.3976188214011
 30
0.0
 11
50.71641231493686
 21
232.5496696026512
 31
0.0
  0
LINE
  5
9EC0
  8
0
 10
50.71641231493686
 20
232.5496696026512
 30
0.0
 11
50.94457637743699
 21
232.5496696026512
 31
0.0
  0
LINE
  5
9EC1
  8
0
 10
50.99124629931202
 20
232.7378434307757
 30
0.0
 11
51.15138301806201
 21
232.7164860089006
 31
0.0
  0
LINE
  5
9EC2
  8
0
 10
51.11130489306197
 20
232.5496696026512
 30
0.0
 11
51.33419551806219
 21
232.5496696026512
 31
0.0
  0
LINE
  5
9EC3
  8
0
 10
51.33419551806219
 20
232.5496696026512
 30
0.0
 11
51.33419551806219
 21
232.3976188214011
 31
0.0
  0
LINE
  5
9EC4
  8
0
 10
51.33419551806219
 20
232.3976188214011
 30
0.0
 11
51.07131465868679
 21
232.3976188214011
 31
0.0
  0
LINE
  5
9EC5
  8
0
 10
50.84042598681208
 20
231.729122727651
 30
0.0
 11
50.68573848681172
 21
231.7811539776513
 31
0.0
  0
LINE
  5
9EC6
  8
0
 10
51.46893184618693
 20
232.5496696026512
 30
0.0
 11
51.46893184618693
 21
232.0479899151506
 31
0.0
  0
LINE
  5
9EC7
  8
0
 10
51.63838497118695
 20
232.3934879620256
 30
0.0
 11
51.63838497118695
 21
231.9651969464012
 31
0.0
  0
LINE
  5
9EC8
  8
0
 10
51.88790645556219
 20
232.5229508526509
 30
0.0
 11
51.86786739306172
 21
232.3708121807759
 31
0.0
  0
LINE
  5
9EC9
  8
0
 10
51.89449825243719
 20
231.7650699932756
 30
0.0
 11
51.78911739306159
 21
231.6477360089012
 31
0.0
  0
LINE
  5
9ECA
  8
0
 10
51.78911739306159
 20
231.6477360089012
 30
0.0
 11
51.63038692431201
 21
231.7798356182757
 31
0.0
  0
ARC
  5
9ECB
  8
0
 10
42.92107959564692
 20
234.6394910591727
 30
0.0
 40
8.291191369612257
 50
345.4009556896889
 51
346.740746954867
  0
ARC
  5
9ECC
  8
0
 10
44.37678254768527
 20
234.3390935481511
 30
0.0
 40
6.807788178855744
 50
337.9301136346513
 51
343.4301309136037
  0
ARC
  5
9ECD
  8
0
 10
45.15534858739879
 20
234.0667852629228
 30
0.0
 40
6.146931849803847
 50
337.647891114247
 51
344.2437969395151
  0
ARC
  5
9ECE
  8
0
 10
48.22945414164508
 20
233.3302652426343
 30
0.0
 40
2.985698127172701
 50
344.84418349645
 51
348.136949894858
  0
ARC
  5
9ECF
  8
0
 10
51.4914389705857
 20
229.604288782169
 30
0.0
 40
2.945466813310544
 50
82.26435931630408
 51
90.43781711643568
  0
ARC
  5
9ED0
  8
0
 10
51.5857013458887
 20
230.6877847713258
 30
0.0
 40
1.706516609687102
 50
80.48265313058977
 51
88.23088210500025
  0
ARC
  5
9ED1
  8
0
 10
50.67111454107313
 20
230.4633842014474
 30
0.0
 40
1.786352038619028
 50
46.77616557053221
 51
57.2156866531281
  0
ARC
  5
9ED2
  8
0
 10
51.40025390213589
 20
231.8102616980389
 30
0.0
 40
0.2321356375605922
 50
300.4982959066377
 51
352.4685567394949
  0
ARC
  5
9ED3
  8
0
 10
51.32984951683934
 20
232.0140029056924
 30
0.0
 40
0.4454740180557357
 50
260.8493170262734
 51
294.9930070723727
  0
ARC
  5
9ED4
  8
0
 10
51.27329405189653
 20
231.8483506032172
 30
0.0
 40
0.274524516799522
 50
210.6191600754503
 51
267.0164240300838
  0
ARC
  5
9ED5
  8
0
 10
51.27264975303398
 20
231.821695019675
 30
0.0
 40
0.2613734309622749
 50
147.2334581988806
 51
205.6564160796825
  0
ARC
  5
9ED6
  8
0
 10
51.2776182958151
 20
231.78293138577
 30
0.0
 40
0.2880874616600608
 50
91.03111037243933
 51
141.2747978514547
  0
ARC
  5
9ED7
  8
0
 10
51.32024310807762
 20
231.6282219532967
 30
0.0
 40
0.4453240198322287
 50
70.49501453936077
 51
96.16302987731919
  0
ARC
  5
9ED8
  8
0
 10
51.32306317960367
 20
231.6381887270235
 30
0.0
 40
0.2902930385304879
 50
59.83528150936421
 51
103.2201440558064
  0
ARC
  5
9ED9
  8
0
 10
51.2781616463728
 20
231.8243220686566
 30
0.0
 40
0.0988304488869036
 50
102.5568170755454
 51
180.262765637224
  0
ARC
  5
9EDA
  8
0
 10
51.28045616725669
 20
231.8211023442013
 30
0.0
 40
0.1011617650333014
 50
178.4329333203594
 51
256.0701828760615
  0
ARC
  5
9EDB
  8
0
 10
51.3272220167047
 20
231.9739712758386
 30
0.0
 40
0.2609345439815814
 50
254.1836782918791
 51
287.6043484841652
  0
ARC
  5
9EDC
  8
0
 10
51.37699042447277
 20
231.8044023140765
 30
0.0
 40
0.0843426031298885
 50
290.2187264652961
 51
350.7581622463694
  0
ARC
  5
9EDD
  8
0
 10
51.10227097165232
 20
231.8720523494013
 30
0.0
 40
0.3670603004158596
 50
347.2201738930314
 51
2.67316898487712
  0
LINE
  5
9EDE
  8
0
 10
52.20941036181193
 20
232.157325852651
 30
0.0
 11
52.17741817431215
 21
232.3095524151509
 31
0.0
  0
LINE
  5
9EDF
  8
0
 10
52.36550411181179
 20
231.7638395245258
 30
0.0
 11
52.37754512743686
 21
231.611612962026
 31
0.0
  0
ARC
  5
9EE0
  8
0
 10
52.79608475219899
 20
229.9765893143517
 30
0.0
 40
2.413600042319521
 50
93.0330778001963
 51
104.852125248309
  0
ARC
  5
9EE1
  8
0
 10
52.69343224161662
 20
231.8599904863768
 30
0.0
 40
0.5274133454568837
 50
60.91960556758053
 51
92.72310713201327
  0
ARC
  5
9EE2
  8
0
 10
52.79619597207196
 20
232.0883606424777
 30
0.0
 40
0.2786914630822537
 50
9.671194361801408
 51
56.55959162043377
  0
ARC
  5
9EE3
  8
0
 10
52.63619650665409
 20
232.0478735729132
 30
0.0
 40
0.4434101722744036
 50
333.9597813248128
 51
11.35547973600755
  0
ARC
  5
9EE4
  8
0
 10
52.70757506049488
 20
232.0389200180228
 30
0.0
 40
0.3760688166287614
 50
291.9740011095546
 51
330.4090690351002
  0
ARC
  5
9EE5
  8
0
 10
52.52203315210105
 20
232.4326019932316
 30
0.0
 40
0.8109562744615367
 50
277.5911083880274
 51
293.7231081887235
  0
ARC
  5
9EE6
  8
0
 10
52.38885013573446
 20
233.3011186217219
 30
0.0
 40
1.689543481937406
 50
269.6166218252729
 51
278.1772037059889
  0
ARC
  5
9EE7
  8
0
 10
52.40409914763767
 20
232.9172493409735
 30
0.0
 40
1.154055363259622
 50
268.0835017580472
 51
287.3544714703422
  0
ARC
  5
9EE8
  8
0
 10
52.68169839822321
 20
232.0315262737452
 30
0.0
 40
0.2258508101221847
 50
287.1599817388461
 51
352.3121354184231
  0
ARC
  5
9EE9
  8
0
 10
52.70757749126174
 20
232.0373166409124
 30
0.0
 40
0.2011894179017752
 50
349.6911030936221
 51
46.3182034235858
  0
ARC
  5
9EEA
  8
0
 10
52.67569695710617
 20
231.9157892632429
 30
0.0
 40
0.3169953313446048
 50
57.39040451094466
 51
96.72424011120249
  0
ARC
  5
9EEB
  8
0
 10
52.85523187775976
 20
229.6683346458352
 30
0.0
 40
2.571412580288827
 50
94.83313718967965
 51
104.5458325788219
  0
LINE
  5
9EEC
  8
0
 10
53.61038692431202
 20
232.420206712026
 30
0.0
 11
53.42889278368693
 21
232.420206712026
 31
0.0
  0
LINE
  5
9EED
  8
0
 10
53.42889278368693
 20
232.420206712026
 30
0.0
 11
53.42889278368693
 21
232.5710270245259
 31
0.0
  0
LINE
  5
9EEE
  8
0
 10
53.42889278368693
 20
232.5710270245259
 30
0.0
 11
53.64106075243672
 21
232.5710270245259
 31
0.0
  0
LINE
  5
9EEF
  8
0
 10
53.64106075243672
 20
232.5710270245259
 30
0.0
 11
53.66909786181168
 21
232.732482102651
 31
0.0
  0
LINE
  5
9EF0
  8
0
 10
53.66909786181168
 20
232.732482102651
 30
0.0
 11
53.83863887743701
 21
232.7177164776509
 31
0.0
  0
LINE
  5
9EF1
  8
0
 10
53.83863887743701
 20
232.7177164776509
 30
0.0
 11
53.81323848681177
 21
232.5710270245259
 31
0.0
  0
LINE
  5
9EF2
  8
0
 10
53.81323848681177
 20
232.5710270245259
 30
0.0
 11
54.27897090868692
 21
232.5710270245259
 31
0.0
  0
LINE
  5
9EF3
  8
0
 10
54.27897090868692
 20
232.5710270245259
 30
0.0
 11
54.27897090868692
 21
232.420206712026
 31
0.0
  0
LINE
  5
9EF4
  8
0
 10
54.27897090868692
 20
232.420206712026
 30
0.0
 11
53.78397090868702
 21
232.420206712026
 31
0.0
  0
LINE
  5
9EF5
  8
0
 10
53.55703731493668
 20
231.5689860089006
 30
0.0
 11
53.38890254931175
 21
231.6076578839011
 31
0.0
  0
LINE
  5
9EF6
  8
0
 10
53.94129512743712
 20
232.133419602651
 30
0.0
 11
53.93066036181199
 21
232.2827457745262
 31
0.0
  0
LINE
  5
9EF7
  8
0
 10
54.48032833056186
 20
232.3135074932762
 30
0.0
 11
54.48032833056186
 21
232.1640934307762
 31
0.0
  0
LINE
  5
9EF8
  8
0
 10
54.08007442431199
 20
231.9626481182759
 30
0.0
 11
53.95869747118695
 21
232.0399039776512
 31
0.0
  0
LINE
  5
9EF9
  8
0
 10
54.49105098681184
 20
231.7704313214008
 30
0.0
 11
54.51109004931186
 21
231.6196988995262
 31
0.0
  0
ARC
  5
9EFA
  8
0
 10
47.01143885224928
 20
233.7824859841855
 30
0.0
 40
6.738094721294446
 50
341.1697144444025
 51
348.3357808241415
  0
ARC
  5
9EFB
  8
0
 10
47.030514746479
 20
233.7648031277636
 30
0.0
 40
6.886008252687487
 50
341.4047346856015
 51
348.7397953124075
  0
ARC
  5
9EFC
  8
0
 10
54.46814351763361
 20
227.6049611532515
 30
0.0
 40
4.708562105975219
 50
89.85172986605279
 51
96.5546104840503
  0
ARC
  5
9EFD
  8
0
 10
54.46915602137229
 20
227.6088552412594
 30
0.0
 40
4.555251890260736
 50
89.85947499256585
 51
96.65436322543621
  0
ARC
  5
9EFE
  8
0
 10
54.18685431908135
 20
231.7252705226156
 30
0.0
 40
0.3886512038689388
 50
125.9477923082765
 51
153.9456213275426
  0
ARC
  5
9EFF
  8
0
 10
53.99978889060203
 20
231.8312923158397
 30
0.0
 40
0.1745196541164178
 50
158.2451995748845
 51
211.937738790848
  0
ARC
  5
9F00
  8
0
 10
54.10853904793916
 20
231.9253993356973
 30
0.0
 40
0.3173766808952333
 50
215.9728103304899
 51
258.577083270988
  0
ARC
  5
9F01
  8
0
 10
54.22196071284206
 20
232.3136837796944
 30
0.0
 40
0.7212479843673572
 50
255.8532185042195
 51
272.6578213791558
  0
ARC
  5
9F02
  8
0
 10
54.22575990582952
 20
233.1267042497233
 30
0.0
 40
1.533779128917274
 50
271.1075186277241
 51
280.7212356446171
  0
ARC
  5
9F03
  8
0
 10
54.21305002584209
 20
233.2109097402432
 30
0.0
 40
1.467059170398629
 50
270.0695624886666
 51
280.923337658684
  0
ARC
  5
9F04
  8
0
 10
54.20865017539077
 20
232.1111495699872
 30
0.0
 40
0.3680274217404644
 50
240.6869572496387
 51
273.2459162436446
  0
ARC
  5
9F05
  8
0
 10
54.06797053583748
 20
231.8536606714829
 30
0.0
 40
0.074711058388821
 50
182.4248820533392
 51
238.082482720991
  0
ARC
  5
9F06
  8
0
 10
54.07651269374522
 20
231.8455344757226
 30
0.0
 40
0.0833343655532817
 50
131.1757227927974
 51
176.5841957139149
  0
ARC
  5
9F07
  8
0
 10
54.5398579674026
 20
231.4101497904203
 30
0.0
 40
0.7187873877436253
 50
129.7668863169349
 51
136.1330162188036
  0
LINE
  5
9F08
  8
0
 10
54.9994103618119
 20
232.6604117901507
 30
0.0
 11
54.98077754931182
 21
232.5095914776512
 31
0.0
  0
LINE
  5
9F09
  8
0
 10
55.63450801806175
 20
232.6203336651507
 30
0.0
 11
55.63450801806175
 21
232.4695133526512
 31
0.0
  0
LINE
  5
9F0A
  8
0
 10
55.05267208056193
 20
232.3934879620256
 30
0.0
 11
54.87935176806195
 21
232.4069352276511
 31
0.0
  0
LINE
  5
9F0B
  8
0
 10
54.87935176806195
 20
232.4069352276511
 30
0.0
 11
54.81255489306159
 21
231.9892789776509
 31
0.0
  0
LINE
  5
9F0C
  8
0
 10
54.81255489306159
 20
231.9892789776509
 30
0.0
 11
54.97146114306179
 21
231.9545621807757
 31
0.0
  0
LINE
  5
9F0D
  8
0
 10
55.01813106493682
 20
232.1373746807758
 30
0.0
 11
55.05267208056193
 21
232.3934879620256
 31
0.0
  0
LINE
  5
9F0E
  8
0
 10
54.92602168993699
 20
231.7503922589013
 30
0.0
 11
54.91406856493677
 21
231.597023118276
 31
0.0
  0
ARC
  5
9F0F
  8
0
 10
55.4339997182547
 20
231.5431159473233
 30
0.0
 40
0.725320742221686
 50
82.7383955307303
 51
124.9847424284259
  0
ARC
  5
9F10
  8
0
 10
55.51424843690641
 20
231.969153164232
 30
0.0
 40
0.2936885684487056
 50
25.47750666320868
 51
87.76921556057754
  0
ARC
  5
9F11
  8
0
 10
55.44638886227714
 20
231.9625797380772
 30
0.0
 40
0.3585317338785675
 50
321.3543299701645
 51
21.75842031571825
  0
ARC
  5
9F12
  8
0
 10
55.37076651704928
 20
232.0944458448791
 30
0.0
 40
0.5030455772132802
 50
274.9636499740987
 51
314.989839151749
  0
ARC
  5
9F13
  8
0
 10
55.17878747626992
 20
233.5507898072313
 30
0.0
 40
1.971618719957279
 50
262.2838934043664
 51
276.8602022226234
  0
ARC
  5
9F14
  8
0
 10
55.23959338752361
 20
234.4587358296299
 30
0.0
 40
2.726435788097946
 50
263.3957068302936
 51
271.0732963894559
  0
ARC
  5
9F15
  8
0
 10
55.29777609091091
 20
232.1218380330802
 30
0.0
 40
0.3891246493399197
 50
268.9526659567916
 51
311.9026700510424
  0
ARC
  5
9F16
  8
0
 10
55.42184816720511
 20
231.9532926708101
 30
0.0
 40
0.1819431806139916
 50
318.2838146029565
 51
32.76134975180928
  0
ARC
  5
9F17
  8
0
 10
55.42043164784003
 20
231.902910659188
 30
0.0
 40
0.2144715613892272
 50
43.94597849543317
 51
93.25534829104993
  0
ARC
  5
9F18
  8
0
 10
55.39829567840547
 20
231.5990210908776
 30
0.0
 40
0.518110737832
 50
88.89882867160388
 51
112.7433476052045
  0
ARC
  5
9F19
  8
0
 10
55.64190501428793
 20
230.9835356106241
 30
0.0
 40
1.179994739142887
 50
112.0984440204114
 51
124.6230820154886
  0
ARC
  5
9F1A
  8
0
 10
55.63247403871743
 20
237.6401760111769
 30
0.0
 40
5.019842758098118
 50
262.7550085222148
 51
270.023215555127
  0
ARC
  5
9F1B
  8
0
 10
55.63385476779327
 20
237.8105277173072
 30
0.0
 40
5.341014404604963
 50
262.9765318468749
 51
270.0070077480808
  0
LINE
  5
9F1C
  8
0
 10
56.20025997118682
 20
232.055987962026
 30
0.0
 11
56.20025997118682
 21
232.656368821401
 31
0.0
  0
LINE
  5
9F1D
  8
0
 10
56.20025997118682
 20
232.656368821401
 30
0.0
 11
56.38702754931182
 21
232.656368821401
 31
0.0
  0
LINE
  5
9F1E
  8
0
 10
56.38702754931182
 20
232.656368821401
 30
0.0
 11
56.38702754931182
 21
232.055987962026
 31
0.0
  0
LINE
  5
9F1F
  8
0
 10
56.38702754931182
 20
232.055987962026
 30
0.0
 11
56.20025997118682
 21
232.055987962026
 31
0.0
  0
LINE
  5
9F20
  8
0
 10
56.87130489306219
 20
232.2868766339007
 30
0.0
 11
56.87130489306219
 21
232.656368821401
 31
0.0
  0
LINE
  5
9F21
  8
0
 10
56.87130489306219
 20
232.656368821401
 30
0.0
 11
57.06220333056172
 21
232.656368821401
 31
0.0
  0
LINE
  5
9F22
  8
0
 10
57.06220333056172
 20
232.656368821401
 30
0.0
 11
57.06220333056172
 21
232.290831712026
 31
0.0
  0
LINE
  5
9F23
  8
0
 10
56.36567012743672
 20
231.5663492901509
 30
0.0
 11
56.32831661181172
 21
231.7304410870257
 31
0.0
  0
LINE
  5
9F24
  8
0
 10
57.76128536181159
 20
231.930480149526
 30
0.0
 11
57.76128536181159
 21
232.073302415151
 31
0.0
  0
LINE
  5
9F25
  8
0
 10
57.76128536181159
 20
232.073302415151
 30
0.0
 11
57.39179317431172
 21
232.073302415151
 31
0.0
  0
LINE
  5
9F26
  8
0
 10
57.39179317431172
 20
232.073302415151
 30
0.0
 11
57.39179317431172
 21
232.233439133901
 31
0.0
  0
LINE
  5
9F27
  8
0
 10
57.39179317431172
 20
232.233439133901
 30
0.0
 11
57.76128536181159
 21
232.233439133901
 31
0.0
  0
LINE
  5
9F28
  8
0
 10
57.76128536181159
 20
232.233439133901
 30
0.0
 11
57.76128536181159
 21
232.4695133526512
 31
0.0
  0
LINE
  5
9F29
  8
0
 10
57.76128536181159
 20
232.4695133526512
 30
0.0
 11
57.50772090868668
 21
232.4695133526512
 31
0.0
  0
LINE
  5
9F2A
  8
0
 10
57.50772090868668
 20
232.4695133526512
 30
0.0
 11
57.50772090868668
 21
232.6337809307761
 31
0.0
  0
LINE
  5
9F2B
  8
0
 10
57.50772090868668
 20
232.6337809307761
 30
0.0
 11
58.42310176806177
 21
232.6337809307761
 31
0.0
  0
LINE
  5
9F2C
  8
0
 10
58.42310176806177
 20
232.6337809307761
 30
0.0
 11
58.42310176806177
 21
232.4695133526512
 31
0.0
  0
LINE
  5
9F2D
  8
0
 10
58.42310176806177
 20
232.4695133526512
 30
0.0
 11
57.95613887743684
 21
232.4695133526512
 31
0.0
  0
LINE
  5
9F2E
  8
0
 10
57.95613887743684
 20
232.4695133526512
 30
0.0
 11
57.95613887743684
 21
232.233439133901
 31
0.0
  0
LINE
  5
9F2F
  8
0
 10
57.95613887743684
 20
232.233439133901
 30
0.0
 11
58.5392052836869
 21
232.233439133901
 31
0.0
  0
LINE
  5
9F30
  8
0
 10
58.5392052836869
 20
232.233439133901
 30
0.0
 11
58.5392052836869
 21
232.073302415151
 31
0.0
  0
LINE
  5
9F31
  8
0
 10
58.5392052836869
 20
232.073302415151
 30
0.0
 11
57.95613887743684
 21
232.073302415151
 31
0.0
  0
LINE
  5
9F32
  8
0
 10
57.95613887743684
 20
232.073302415151
 30
0.0
 11
57.95613887743684
 21
231.9358414776507
 31
0.0
  0
LINE
  5
9F33
  8
0
 10
58.43646114306193
 20
231.7757047589012
 30
0.0
 11
58.44173458056184
 21
231.6103824932762
 31
0.0
  0
ARC
  5
9F34
  8
0
 10
56.06603300268474
 20
232.2696545659874
 30
0.0
 40
0.8054560304915982
 50
340.9437882329723
 51
1.225178000018496
  0
ARC
  5
9F35
  8
0
 10
56.50331369974464
 20
232.1275775406559
 30
0.0
 40
0.345855307889423
 50
291.670576553406
 51
339.5389467977661
  0
ARC
  5
9F36
  8
0
 10
56.22617633258512
 20
232.7816485459668
 30
0.0
 40
1.056158017710445
 50
275.5497072742328
 51
292.5397602820191
  0
ARC
  5
9F37
  8
0
 10
56.29352495102334
 20
232.6144500473638
 30
0.0
 40
1.050580850648829
 50
273.9376978144313
 51
296.3652409231708
  0
ARC
  5
9F38
  8
0
 10
56.50691325681883
 20
232.1494192162729
 30
0.0
 40
0.5393756653461665
 50
297.9933108679145
 51
349.2973959047169
  0
ARC
  5
9F39
  8
0
 10
56.0123440268562
 20
232.2786532485744
 30
0.0
 40
1.049929936971548
 50
347.3794742886816
 51
0.6646064465848662
  0
ARC
  5
9F3A
  8
0
 10
58.2506125440629
 20
231.9008904334518
 30
0.0
 40
0.4902210140205808
 50
176.5395261482863
 51
206.0121964930288
  0
ARC
  5
9F3B
  8
0
 10
57.99301301416125
 20
231.838012670132
 30
0.0
 40
0.2379373016522034
 50
219.7400975832281
 51
273.8636407009164
  0
ARC
  5
9F3C
  8
0
 10
58.14657881403502
 20
235.0971609098174
 30
0.0
 40
3.499248583992225
 50
267.747489334722
 51
274.8385522250587
  0
ARC
  5
9F3D
  8
0
 10
58.13313627712637
 20
235.294764295359
 30
0.0
 40
3.532107868600457
 50
269.5594493554569
 51
274.926425743971
  0
ARC
  5
9F3E
  8
0
 10
58.10685295089382
 20
232.0980274344021
 30
0.0
 40
0.3352677379612373
 50
252.6101303751348
 51
269.8504673977251
  0
ARC
  5
9F3F
  8
0
 10
58.03117260889086
 20
231.8388738573036
 30
0.0
 40
0.0655496828836007
 50
188.1794661638701
 51
248.0315991587105
  0
ARC
  5
9F40
  8
0
 10
58.41283809890597
 20
231.9258239744257
 30
0.0
 40
0.4568090730928223
 50
178.7434429434794
 51
192.1667740459287
  0
LINE
  5
9F41
  8
0
 10
58.7486486430621
 20
232.0372672589011
 30
0.0
 11
58.7486486430621
 21
232.2160367901507
 31
0.0
  0
LINE
  5
9F42
  8
0
 10
58.7486486430621
 20
232.2160367901507
 30
0.0
 11
59.85070918993688
 21
232.2160367901507
 31
0.0
  0
LINE
  5
9F43
  8
0
 10
59.85070918993688
 20
232.2160367901507
 30
0.0
 11
59.85070918993688
 21
232.0372672589011
 31
0.0
  0
LINE
  5
9F44
  8
0
 10
59.85070918993688
 20
232.0372672589011
 30
0.0
 11
58.7486486430621
 21
232.0372672589011
 31
0.0
  0
LINE
  5
9F45
  8
0
 10
60.45645137743668
 20
232.121378587026
 30
0.0
 11
60.45645137743668
 21
231.5756656964009
 31
0.0
  0
LINE
  5
9F46
  8
0
 10
60.45645137743668
 20
231.5756656964009
 30
0.0
 11
60.26968379931168
 21
231.5756656964009
 31
0.0
  0
LINE
  5
9F47
  8
0
 10
60.26968379931168
 20
231.5756656964009
 30
0.0
 11
60.26968379931168
 21
232.677814133901
 31
0.0
  0
LINE
  5
9F48
  8
0
 10
60.26968379931168
 20
232.677814133901
 30
0.0
 11
60.45645137743668
 21
232.677814133901
 31
0.0
  0
LINE
  5
9F49
  8
0
 10
60.45645137743668
 20
232.677814133901
 30
0.0
 11
60.45645137743668
 21
232.3041031964013
 31
0.0
  0
LINE
  5
9F4A
  8
0
 10
61.18225215868688
 20
232.0813004620259
 30
0.0
 11
61.12626583056226
 21
231.9132535870258
 31
0.0
  0
ARC
  5
9F4B
  8
0
 10
58.86105535365152
 20
225.8133677896955
 30
0.0
 40
6.683931073296139
 50
69.67895110286432
 51
76.19068882595862
  0
ARC
  5
9F4C
  8
0
 10
58.91330410086695
 20
225.9731212524173
 30
0.0
 40
6.338956678330691
 50
69.56741481783094
 51
75.9104163881585
  0
LINE
  5
9F4D
  8
0
 10
61.5237951274371
 20
231.7304410870257
 30
0.0
 11
61.5237951274371
 21
231.906573899526
 31
0.0
  0
LINE
  5
9F4E
  8
0
 10
61.5237951274371
 20
231.906573899526
 30
0.0
 11
61.41850215868726
 21
231.8838981182762
 31
0.0
  0
LINE
  5
9F4F
  8
0
 10
61.41850215868726
 20
231.8838981182762
 30
0.0
 11
61.40646114306219
 21
232.0399039776512
 31
0.0
  0
LINE
  5
9F50
  8
0
 10
61.40646114306219
 20
232.0399039776512
 30
0.0
 11
61.5237951274371
 21
232.0639860089009
 31
0.0
  0
LINE
  5
9F51
  8
0
 10
61.5237951274371
 20
232.0639860089009
 30
0.0
 11
61.5237951274371
 21
232.3535856182762
 31
0.0
  0
LINE
  5
9F52
  8
0
 10
61.5237951274371
 20
232.3535856182762
 30
0.0
 11
61.40786739306168
 21
232.3535856182762
 31
0.0
  0
LINE
  5
9F53
  8
0
 10
61.40786739306168
 20
232.3535856182762
 30
0.0
 11
61.40786739306168
 21
232.5002750714012
 31
0.0
  0
LINE
  5
9F54
  8
0
 10
61.40786739306168
 20
232.5002750714012
 30
0.0
 11
61.5237951274371
 21
232.5002750714012
 31
0.0
  0
LINE
  5
9F55
  8
0
 10
61.5237951274371
 20
232.5002750714012
 30
0.0
 11
61.5237951274371
 21
232.731075852651
 31
0.0
  0
LINE
  5
9F56
  8
0
 10
61.5237951274371
 20
232.731075852651
 30
0.0
 11
61.69201778368688
 21
232.731075852651
 31
0.0
  0
LINE
  5
9F57
  8
0
 10
61.69201778368688
 20
232.731075852651
 30
0.0
 11
61.69201778368688
 21
232.5002750714012
 31
0.0
  0
LINE
  5
9F58
  8
0
 10
61.69201778368688
 20
232.5002750714012
 30
0.0
 11
61.80407833056188
 21
232.5002750714012
 31
0.0
  0
LINE
  5
9F59
  8
0
 10
61.80407833056188
 20
232.5002750714012
 30
0.0
 11
61.80407833056188
 21
232.3695817120261
 31
0.0
  0
LINE
  5
9F5A
  8
0
 10
61.80407833056188
 20
232.3695817120261
 30
0.0
 11
62.19237911181199
 21
232.3695817120261
 31
0.0
  0
LINE
  5
9F5B
  8
0
 10
62.19237911181199
 20
232.3695817120261
 30
0.0
 11
62.19237911181199
 21
232.0866617901511
 31
0.0
  0
LINE
  5
9F5C
  8
0
 10
62.19237911181199
 20
232.0866617901511
 30
0.0
 11
62.23236934618672
 21
232.0866617901511
 31
0.0
  0
LINE
  5
9F5D
  8
0
 10
62.23236934618672
 20
232.0866617901511
 30
0.0
 11
62.23236934618672
 21
232.3695817120261
 31
0.0
  0
LINE
  5
9F5E
  8
0
 10
62.23236934618672
 20
232.3695817120261
 30
0.0
 11
62.63525997118677
 21
232.3695817120261
 31
0.0
  0
LINE
  5
9F5F
  8
0
 10
62.63525997118677
 20
232.3695817120261
 30
0.0
 11
62.63525997118677
 21
232.053263352651
 31
0.0
  0
LINE
  5
9F60
  8
0
 10
62.63525997118677
 20
232.053263352651
 30
0.0
 11
62.29644161181159
 21
232.053263352651
 31
0.0
  0
LINE
  5
9F61
  8
0
 10
62.29644161181159
 20
232.053263352651
 30
0.0
 11
62.29644161181159
 21
232.0039567120257
 31
0.0
  0
LINE
  5
9F62
  8
0
 10
62.29644161181159
 20
232.0039567120257
 30
0.0
 11
62.65793575243697
 21
232.0039567120257
 31
0.0
  0
LINE
  5
9F63
  8
0
 10
62.65793575243697
 20
232.0039567120257
 30
0.0
 11
62.65793575243697
 21
231.866495774526
 31
0.0
  0
LINE
  5
9F64
  8
0
 10
62.65793575243697
 20
231.866495774526
 30
0.0
 11
62.38986934618697
 21
231.866495774526
 31
0.0
  0
LINE
  5
9F65
  8
0
 10
62.03224239306201
 20
231.866495774526
 30
0.0
 11
61.75872676806193
 21
231.866495774526
 31
0.0
  0
LINE
  5
9F66
  8
0
 10
61.75872676806193
 20
231.866495774526
 30
0.0
 11
61.75872676806193
 21
231.9745133526513
 31
0.0
  0
LINE
  5
9F67
  8
0
 10
61.75872676806193
 20
231.9745133526513
 30
0.0
 11
61.69201778368688
 21
231.953243821401
 31
0.0
  0
LINE
  5
9F68
  8
0
 10
61.69201778368688
 20
231.953243821401
 30
0.0
 11
61.69201778368688
 21
231.743712571401
 31
0.0
  0
LINE
  5
9F69
  8
0
 10
61.72005489306184
 20
231.679728196401
 30
0.0
 11
61.79608028368693
 21
231.5449039776509
 31
0.0
  0
LINE
  5
9F6A
  8
0
 10
62.12303340868675
 20
231.7784293682762
 30
0.0
 11
62.12303340868675
 21
231.528907883901
 31
0.0
  0
LINE
  5
9F6B
  8
0
 10
62.12303340868675
 20
231.528907883901
 30
0.0
 11
62.29644161181159
 21
231.528907883901
 31
0.0
  0
LINE
  5
9F6C
  8
0
 10
62.29644161181159
 20
231.528907883901
 30
0.0
 11
62.29644161181159
 21
231.7811539776513
 31
0.0
  0
LINE
  5
9F6D
  8
0
 10
62.67929317431208
 20
231.679728196401
 30
0.0
 11
62.59931270556172
 21
231.5449039776509
 31
0.0
  0
LINE
  5
9F6E
  8
0
 10
61.86815059618675
 20
232.7177164776509
 30
0.0
 11
62.57531856493688
 21
232.7177164776509
 31
0.0
  0
LINE
  5
9F6F
  8
0
 10
62.57531856493688
 20
232.7177164776509
 30
0.0
 11
62.57531856493688
 21
232.4055289776507
 31
0.0
  0
LINE
  5
9F70
  8
0
 10
62.57531856493688
 20
232.4055289776507
 30
0.0
 11
61.86815059618675
 21
232.4055289776507
 31
0.0
  0
LINE
  5
9F71
  8
0
 10
61.86815059618675
 20
232.4055289776507
 30
0.0
 11
61.86815059618675
 21
232.7177164776509
 31
0.0
  0
LINE
  5
9F72
  8
0
 10
62.03083614306206
 20
232.5829801495257
 30
0.0
 11
62.03083614306206
 21
232.524269212026
 31
0.0
  0
LINE
  5
9F73
  8
0
 10
62.03083614306206
 20
232.524269212026
 30
0.0
 11
62.40577754931201
 21
232.524269212026
 31
0.0
  0
LINE
  5
9F74
  8
0
 10
62.40577754931201
 20
232.524269212026
 30
0.0
 11
62.40577754931201
 21
232.5829801495257
 31
0.0
  0
LINE
  5
9F75
  8
0
 10
62.40577754931201
 20
232.5829801495257
 30
0.0
 11
62.03083614306206
 21
232.5829801495257
 31
0.0
  0
LINE
  5
9F76
  8
0
 10
61.69201778368688
 20
232.1080192120262
 30
0.0
 11
61.69201778368688
 21
232.3535856182762
 31
0.0
  0
LINE
  5
9F77
  8
0
 10
61.69201778368688
 20
232.3535856182762
 30
0.0
 11
61.79071895556172
 21
232.3535856182762
 31
0.0
  0
LINE
  5
9F78
  8
0
 10
61.79071895556172
 20
232.3535856182762
 30
0.0
 11
61.79071895556172
 21
232.140011399526
 31
0.0
  0
LINE
  5
9F79
  8
0
 10
61.79071895556172
 20
232.140011399526
 30
0.0
 11
61.69201778370297
 21
232.1080192120313
 31
0.0
  0
LINE
  5
9F7A
  8
0
 10
62.12303340868675
 20
232.0039567120257
 30
0.0
 11
61.80548458056182
 21
232.0039567120257
 31
0.0
  0
LINE
  5
9F7B
  8
0
 10
61.80548458056182
 20
232.0039567120257
 30
0.0
 11
61.80275997118679
 21
232.053263352651
 31
0.0
  0
LINE
  5
9F7C
  8
0
 10
61.80275997118679
 20
232.053263352651
 30
0.0
 11
62.12303340868675
 21
232.053263352651
 31
0.0
  0
LINE
  5
9F7D
  8
0
 10
62.12303340868675
 20
232.053263352651
 30
0.0
 11
62.12303340868675
 21
232.0039567120257
 31
0.0
  0
LINE
  5
9F7E
  8
0
 10
62.05351192431181
 20
232.1734098370262
 30
0.0
 11
61.9361779399369
 21
232.1734098370262
 31
0.0
  0
LINE
  5
9F7F
  8
0
 10
61.9361779399369
 20
232.1734098370262
 30
0.0
 11
61.9361779399369
 21
232.2453922589012
 31
0.0
  0
LINE
  5
9F80
  8
0
 10
61.9361779399369
 20
232.2453922589012
 30
0.0
 11
62.05351192431181
 21
232.2453922589012
 31
0.0
  0
LINE
  5
9F81
  8
0
 10
62.05351192431181
 20
232.2453922589012
 30
0.0
 11
62.05351192431181
 21
232.1734098370262
 31
0.0
  0
LINE
  5
9F82
  8
0
 10
62.36842403368701
 20
232.1734098370262
 30
0.0
 11
62.36842403368701
 21
232.2453922589012
 31
0.0
  0
LINE
  5
9F83
  8
0
 10
62.36842403368701
 20
232.2453922589012
 30
0.0
 11
62.48452754931168
 21
232.2453922589012
 31
0.0
  0
LINE
  5
9F84
  8
0
 10
62.48452754931168
 20
232.2453922589012
 30
0.0
 11
62.48452754931168
 21
232.1734098370262
 31
0.0
  0
LINE
  5
9F85
  8
0
 10
62.48452754931168
 20
232.1734098370262
 30
0.0
 11
62.36842403368701
 21
232.1734098370262
 31
0.0
  0
LINE
  5
9F86
  8
0
 10
61.41314083056159
 20
231.6757731182761
 30
0.0
 11
61.42122676806184
 21
231.5329508526511
 31
0.0
  0
ARC
  5
9F87
  8
0
 10
61.62535261721503
 20
233.9382194762463
 30
0.0
 40
2.272377029695415
 50
264.6414777738622
 51
266.9348152461827
  0
ARC
  5
9F88
  8
0
 10
61.5061797270051
 20
231.6914482101349
 30
0.0
 40
0.022476476334337
 50
264.03501221812
 51
306.5640674473047
  0
ARC
  5
9F89
  8
0
 10
61.5074932056654
 20
231.6820186776557
 30
0.0
 40
0.014839073681366
 50
324.4701988857918
 51
4.421974038738584
  0
ARC
  5
9F8A
  8
0
 10
61.01692946217403
 20
231.7229345267351
 30
0.0
 40
0.5069212474043316
 50
355.5000960438273
 51
0.8484748777902161
  0
ARC
  5
9F8B
  8
0
 10
61.63483598799746
 20
234.0666512906457
 30
0.0
 40
2.542688893344043
 50
265.1809484774698
 51
267.5208014624529
  0
ARC
  5
9F8C
  8
0
 10
61.53231194556518
 20
232.2737625251021
 30
0.0
 40
0.7474574208886295
 50
269.4278258300276
 51
274.7828769779775
  0
ARC
  5
9F8D
  8
0
 10
61.58194420662713
 20
231.6700891849148
 30
0.0
 40
0.1417505388387061
 50
275.1365035074422
 51
297.894765149848
  0
ARC
  5
9F8E
  8
0
 10
61.61222055856152
 20
231.6041999849199
 30
0.0
 40
0.0694715375261978
 50
301.2514755256504
 51
351.3397225057918
  0
ARC
  5
9F8F
  8
0
 10
61.37097983889999
 20
231.6740098472645
 30
0.0
 40
0.3201466567477245
 50
345.4792488797654
 51
359.0668339659391
  0
ARC
  5
9F90
  8
0
 10
59.49868979905749
 20
231.7335856773052
 30
0.0
 40
2.193351363129598
 50
358.3072842196231
 51
0.2645405394391241
  0
ARC
  5
9F91
  8
0
 10
61.25338018083409
 20
232.8140877868166
 30
0.0
 40
1.226603834737866
 50
292.3622304129851
 51
309.4180965652807
  0
ARC
  5
9F92
  8
0
 10
61.17970216562102
 20
232.7535219276392
 30
0.0
 40
1.356716379153855
 50
297.0209406626466
 51
314.0515009572343
  0
ARC
  5
9F93
  8
0
 10
63.25416393633107
 20
232.696683827276
 30
0.0
 40
1.324925264474462
 50
223.7097081622024
 51
240.3793491799922
  0
ARC
  5
9F94
  8
0
 10
63.27546236360428
 20
232.9212162082155
 30
0.0
 40
1.377211017143197
 50
229.981595629291
 51
244.349432299083
  0
LINE
  5
9F95
  8
0
 10
63.23968379931193
 20
232.704444993276
 30
0.0
 11
63.07559200243668
 21
232.7364371807762
 31
0.0
  0
LINE
  5
9F96
  8
0
 10
62.80075801806197
 20
232.1520524151511
 30
0.0
 11
62.87019161181161
 21
231.9732828839006
 31
0.0
  0
LINE
  5
9F97
  8
0
 10
62.96616817431186
 20
232.102657883901
 30
0.0
 11
62.96616817431186
 21
231.522316087026
 31
0.0
  0
LINE
  5
9F98
  8
0
 10
62.96616817431186
 20
231.522316087026
 30
0.0
 11
63.14502559618677
 21
231.522316087026
 31
0.0
  0
LINE
  5
9F99
  8
0
 10
63.14502559618677
 20
231.522316087026
 30
0.0
 11
63.14502559618677
 21
232.3882145245262
 31
0.0
  0
LINE
  5
9F9A
  8
0
 10
63.15829708056208
 20
232.2187613995257
 30
0.0
 11
63.29980098681199
 21
232.1107438214013
 31
0.0
  0
LINE
  5
9F9B
  8
0
 10
63.50651973681215
 20
232.4736442120257
 30
0.0
 11
63.50651973681215
 21
231.522316087026
 31
0.0
  0
LINE
  5
9F9C
  8
0
 10
63.50651973681215
 20
231.522316087026
 30
0.0
 11
63.68933223681188
 21
231.522316087026
 31
0.0
  0
LINE
  5
9F9D
  8
0
 10
63.68933223681188
 20
231.522316087026
 30
0.0
 11
63.68933223681188
 21
231.783790696401
 31
0.0
  0
LINE
  5
9F9E
  8
0
 10
63.68933223681188
 20
231.783790696401
 30
0.0
 11
64.02287715868715
 21
231.783790696401
 31
0.0
  0
LINE
  5
9F9F
  8
0
 10
64.02287715868715
 20
231.783790696401
 30
0.0
 11
64.02287715868715
 21
231.9358414776507
 31
0.0
  0
LINE
  5
9FA0
  8
0
 10
64.02287715868715
 20
231.9358414776507
 30
0.0
 11
63.68933223681188
 21
231.9358414776507
 31
0.0
  0
LINE
  5
9FA1
  8
0
 10
63.68933223681188
 20
231.9358414776507
 30
0.0
 11
63.68933223681188
 21
232.133419602651
 31
0.0
  0
LINE
  5
9FA2
  8
0
 10
63.68933223681188
 20
232.133419602651
 30
0.0
 11
64.02287715868715
 21
232.133419602651
 31
0.0
  0
LINE
  5
9FA3
  8
0
 10
64.02287715868715
 20
232.133419602651
 30
0.0
 11
64.02287715868715
 21
232.280109055776
 31
0.0
  0
LINE
  5
9FA4
  8
0
 10
64.02287715868715
 20
232.280109055776
 30
0.0
 11
63.68933223681188
 21
232.280109055776
 31
0.0
  0
LINE
  5
9FA5
  8
0
 10
63.68933223681188
 20
232.280109055776
 30
0.0
 11
63.68933223681188
 21
232.4736442120257
 31
0.0
  0
LINE
  5
9FA6
  8
0
 10
63.68933223681188
 20
232.4736442120257
 30
0.0
 11
64.06295528368719
 21
232.4736442120257
 31
0.0
  0
LINE
  5
9FA7
  8
0
 10
64.06295528368719
 20
232.4736442120257
 30
0.0
 11
64.06295528368719
 21
232.6203336651507
 31
0.0
  0
LINE
  5
9FA8
  8
0
 10
64.06295528368719
 20
232.6203336651507
 30
0.0
 11
63.5452795024371
 21
232.6203336651507
 31
0.0
  0
LINE
  5
9FA9
  8
0
 10
63.5760412211871
 20
232.7164860089006
 30
0.0
 11
63.40650020556177
 21
232.7511149151506
 31
0.0
  0
ARC
  5
9FAA
  8
0
 10
61.59772252786822
 20
233.0423267562426
 30
0.0
 40
1.509194028694409
 50
335.5457096686311
 51
348.3060403035889
  0
ARC
  5
9FAB
  8
0
 10
61.88909118811207
 20
232.926080038264
 30
0.0
 40
1.195932761560066
 50
319.6679218269052
 51
334.8367065032426
  0
ARC
  5
9FAC
  8
0
 10
62.1009599338518
 20
232.6442232339848
 30
0.0
 40
1.020724413232922
 50
318.9043658670693
 51
327.9560510819899
  0
ARC
  5
9FAD
  8
0
 10
61.96384773900796
 20
232.9140623866297
 30
0.0
 40
1.292941260989209
 50
336.0018785125658
 51
350.6697714262836
  0
ARC
  5
9FAE
  8
0
 10
61.4362851964055
 20
233.3456653115981
 30
0.0
 40
2.057969231116068
 50
326.7988139724891
 51
343.207798180194
  0
ARC
  5
9FAF
  8
0
 10
61.22811460479066
 20
233.4228714890165
 30
0.0
 40
2.452256813952018
 50
327.6513795623706
 51
337.2268745923164
  0
LINE
  5
9FB0
  8
0
 10
63.48920528368672
 20
232.4736442120257
 30
0.0
 11
63.50651973681215
 21
232.4736442120257
 31
0.0
  0
LINE
  5
9FB1
  8
0
 10
63.5760412211871
 20
232.7164860089006
 30
0.0
 11
63.5609044912267
 21
232.6679075123134
 31
0.0
  0
LINE
  5
9FB2
  8
0
 10
63.5609044912267
 20
232.6679075123134
 30
0.0
 11
63.5452795024371
 21
232.6203336651507
 31
0.0
  0
VIEWPORT
  5
22
 67
     1
  8
0
 10
5.269134197284911
 20
5.545311567251436
 30
0.0
 40
11.13808705479925
 41
12.32365374410561
 68
     1
 69
     1
1001
GENIUS_GENSCREG_15
1000
PF
1040
1.0
1000
DF
1040
1.0
1000
MIN
1011
-0.2999093301147138
1021
-0.6165153048013714
1031
0.0
1021
-0.6165153048013714
1031
0.0
1000
MAX
1011
10.83817772468454
1021
11.70713843930424
1031
0.0
1021
11.70713843930424
1031
0.0
1000
FLAGS
1070
     4
1001
GENIUS_GENODEF_13
1002
{
1000
HIER
1070
     0
1002
}
1002
{
1000
MANEDIT
1070
     0
1002
}
1002
{
1000
NOSEL
1070
     0
1002
}
1002
{
1000
BEHIND
1070
     0
1002
}
1002
{
1000
OTHER
1070
     0
1002
}
1002
{
1000
REACTOR
1002
}
1001
GENIUS_GENOBJ-N-SDF_13
1002
{
1000
OWNER
1000
GEN
1002
}
1001
ACAD
1000
MVIEW
1002
{
1070
    16
1010
0.0
1020
0.0
1030
0.0
1020
0.0
1030
0.0
1010
0.0
1020
0.0
1030
1.0
1020
0.0
1030
1.0
1040
0.0
1040
12.32365374410561
1040
5.269134197284911
1040
5.545311567251436
1040
50.0
1040
0.0
1040
0.0
1070
     0
1070
   100
1070
     0
1070
     1
1070
     0
1070
     0
1070
     0
1070
     0
1040
0.0
1040
0.0
1040
0.0
1040
1.0
1040
1.0
1040
10.0
1040
10.0
1070
     0
1002
{
1002
}
1002
}
  0
ENDSEC
  0
EOF
