  0
SECTION
  2
HEADER
  9
$ACADVER
  1
AC1009
  9
$DWGCODEPAGE
  3
ansi_932
  9
$INSBASE
 10
0.0
 20
0.0
 30
0.0
  9
$EXTMIN
 10
0.0000019319777493
 20
0.0000050735020523
 30
0.0
  9
$EXTMAX
 10
162.0830095365934
 20
293.6851362700032
 30
0.0
  9
$LIMMIN
 10
0.0
 20
0.0
  9
$LIMMAX
 10
420.0
 20
420.0
  9
$ORTHOMODE
 70
     0
  9
$REGENMODE
 70
     1
  9
$FILLMODE
 70
     1
  9
$QTEXTMODE
 70
     0
  9
$MIRRTEXT
 70
     0
  9
$DRAGMODE
 70
     2
  9
$LTSCALE
 40
10.0
  9
$OSMODE
 70
   549
  9
$ATTMODE
 70
     1
  9
$TEXTSIZE
 40
1.0
  9
$TRACEWID
 40
1.0
  9
$TEXTSTYLE
  7
STANDARD
  9
$CLAYER
  8
10
  9
$CELTYPE
  6
BYLAYER
  9
$CECOLOR
 62
   256
  9
$DIMSCALE
 40
1.0
  9
$DIMASZ
 40
2.5
  9
$DIMEXO
 40
1.0
  9
$DIMDLI
 40
7.0
  9
$DIMRND
 40
0.0
  9
$DIMDLE
 40
0.0
  9
$DIMEXE
 40
1.0
  9
$DIMTP
 40
0.1
  9
$DIMTM
 40
0.1
  9
$DIMTXT
 40
3.0
  9
$DIMCEN
 40
0.0
  9
$DIMTSZ
 40
0.0
  9
$DIMTOL
 70
     0
  9
$DIMLIM
 70
     0
  9
$DIMTIH
 70
     0
  9
$DIMTOH
 70
     0
  9
$DIMSE1
 70
     0
  9
$DIMSE2
 70
     0
  9
$DIMTAD
 70
     3
  9
$DIMZIN
 70
     8
  9
$DIMBLK
  1
OPEN
  9
$DIMASO
 70
     1
  9
$DIMSHO
 70
     1
  9
$DIMPOST
  1

  9
$DIMAPOST
  1
"
  9
$DIMALT
 70
     0
  9
$DIMALTD
 70
     2
  9
$DIMALTF
 40
0.0393701
  9
$DIMLFAC
 40
1.0
  9
$DIMTOFL
 70
     1
  9
$DIMTVP
 40
0.0
  9
$DIMTIX
 70
     0
  9
$DIMSOXD
 70
     0
  9
$DIMSAH
 70
     0
  9
$DIMBLK1
  1

  9
$DIMBLK2
  1

  9
$DIMSTYLE
  2
AM_JIS
  9
$DIMCLRD
 70
   256
  9
$DIMCLRE
 70
   256
  9
$DIMCLRT
 70
     2
  9
$DIMTFAC
 40
0.71
  9
$DIMGAP
 40
1.0
  9
$LUNITS
 70
     2
  9
$LUPREC
 70
     2
  9
$SKETCHINC
 40
1.0
  9
$FILLETRAD
 40
2.5
  9
$AUNITS
 70
     0
  9
$AUPREC
 70
     0
  9
$MENU
  1
.
  9
$ELEVATION
 40
0.0
  9
$PELEVATION
 40
0.0
  9
$THICKNESS
 40
0.0
  9
$LIMCHECK
 70
     0
  9
$CHAMFERA
 40
2.5
  9
$CHAMFERB
 40
2.5
  9
$SKPOLY
 70
     1
  9
$TDCREATE
 40
2457177.654148542
  9
$TDUPDATE
 40
2460346.717561308
  9
$TDINDWG
 40
0.1383876968
  9
$TDUSRTIMER
 40
0.1383678125
  9
$USRTIMER
 70
     1
  9
$ANGBASE
 50
0.0
  9
$ANGDIR
 70
     0
  9
$PDMODE
 70
     0
  9
$PDSIZE
 40
0.0
  9
$PLINEWID
 40
0.0
  9
$COORDS
 70
     0
  9
$SPLFRAME
 70
     0
  9
$SPLINETYPE
 70
     6
  9
$SPLINESEGS
 70
     8
  9
$ATTDIA
 70
     1
  9
$ATTREQ
 70
     1
  9
$HANDLING
 70
     1
  9
$HANDSEED
  5
8977
  9
$SURFTAB1
 70
     6
  9
$SURFTAB2
 70
     6
  9
$SURFTYPE
 70
     6
  9
$SURFU
 70
     6
  9
$SURFV
 70
     6
  9
$UCSNAME
  2

  9
$UCSORG
 10
0.0
 20
0.0
 30
0.0
  9
$UCSXDIR
 10
1.0
 20
0.0
 30
0.0
  9
$UCSYDIR
 10
0.0
 20
1.0
 30
0.0
  9
$PUCSNAME
  2

  9
$PUCSORG
 10
0.0
 20
0.0
 30
0.0
  9
$PUCSXDIR
 10
1.0
 20
0.0
 30
0.0
  9
$PUCSYDIR
 10
0.0
 20
1.0
 30
0.0
  9
$USERI1
 70
     0
  9
$USERI2
 70
     0
  9
$USERI3
 70
     0
  9
$USERI4
 70
     0
  9
$USERI5
 70
     0
  9
$USERR1
 40
0.0
  9
$USERR2
 40
0.0
  9
$USERR3
 40
0.0
  9
$USERR4
 40
0.0
  9
$USERR5
 40
0.0
  9
$WORLDVIEW
 70
     1
  9
$SHADEDGE
 70
     3
  9
$SHADEDIF
 70
    70
  9
$TILEMODE
 70
     1
  9
$MAXACTVP
 70
    48
  9
$PLIMCHECK
 70
     0
  9
$PEXTMIN
 10
1.000000000000000E+20
 20
1.000000000000000E+20
 30
1.000000000000000E+20
  9
$PEXTMAX
 10
-1.000000000000000E+20
 20
-1.000000000000000E+20
 30
-1.000000000000000E+20
  9
$PLIMMIN
 10
-0.2500002402958907
 20
-0.2499999962453767
  9
$PLIMMAX
 10
10.74999951940822
 20
8.249999763458732
  9
$UNITMODE
 70
     0
  9
$VISRETAIN
 70
     1
  9
$PLINEGEN
 70
     0
  9
$PSLTSCALE
 70
     1
  0
ENDSEC
  0
SECTION
  2
TABLES
  0
TABLE
  2
VPORT
 70
     1
  0
VPORT
  2
*ACTIVE
 70
     0
 10
0.0
 20
0.0
 11
1.0
 21
1.0
 12
210.0
 22
210.0
 13
0.0
 23
0.0
 14
2.5
 24
2.5
 15
10.0
 25
10.0
 16
0.0
 26
0.0
 36
1.0
 17
0.0
 27
0.0
 37
0.0
 40
423.2589718719689
 41
2.05293551491819
 42
50.0
 43
0.0
 44
0.0
 50
0.0
 51
0.0
 71
     0
 72
   100
 73
     1
 74
     3
 75
     0
 76
     0
 77
     0
 78
     0
  0
ENDTAB
  0
TABLE
  2
LTYPE
 70
    22
  0
LTYPE
  2
CONTINUOUS
 70
     0
  3
Solid line
 72
    65
 73
     0
 40
0.0
  0
LTYPE
  2
HIDDEN
 70
     0
  3
__ __ __ __ __ __ __ __ __ __ __ __ __ __ __ __
 72
    65
 73
     2
 40
0.375
 49
0.25
 49
-0.125
  0
LTYPE
  2
PHANTOM2
 70
     0
  3
___ _ _ ___ _ _ ___ _ _ ___ _ _ ___ _ _ ___ _ _
 72
    65
 73
     6
 40
1.25
 49
0.625
 49
-0.125
 49
0.125
 49
-0.125
 49
0.125
 49
-0.125
  0
LTYPE
  2
CENTER
 70
     0
  3
____ _ ____ _ ____ _ ____ _ ____ _ ____ _ ____ 
 72
    65
 73
     4
 40
2.0
 49
1.25
 49
-0.25
 49
0.25
 49
-0.25
  0
LTYPE
  2
ACJISTGB
 70
     0
  3
__ . . __ . .
 72
    65
 73
     6
 40
9.0
 49
4.0
 49
-1.0
 49
1.0
 49
-1.0
 49
1.0
 49
-1.0
  0
LTYPE
  2
ACJISTGL
 70
     0
  3
_ _ _ _ _
 72
    65
 73
     2
 40
3.0
 49
2.0
 49
-1.0
  0
LTYPE
  2
ACISOWELD
 70
     0
  3
_ _ _ _ _
 72
    65
 73
     2
 40
2.0
 49
2.0
 49
-1.0
  0
LTYPE
  2
ACISOTGB
 70
     0
  3
__ . . __ . .
 72
    65
 73
     6
 40
9.0
 49
4.0
 49
-1.0
 49
1.0
 49
-1.0
 49
1.0
 49
-1.0
  0
LTYPE
  2
ACISOTGL
 70
     0
  3
_ _ _ _ _
 72
    65
 73
     2
 40
3.0
 49
2.0
 49
-1.0
  0
LTYPE
  2
AM_ISO02W050
 70
     0
  3
__ __ __ __ __ __ __ __ __ __ __ __ __ __ __
 72
    65
 73
     2
 40
7.5
 49
6.0
 49
-1.5
  0
LTYPE
  2
AM_ISO08W050
 70
     0
  3
____ . ____ . ____ . ____ . ____ . ____ . ____
 72
    65
 73
     4
 40
18.0
 49
12.0
 49
-1.5
 49
3.0
 49
-1.5
  0
LTYPE
  2
AM_ISO09W050
 70
     0
  3
_____ . . _____ . . _____ . . ____ .. ____
 72
    65
 73
     6
 40
22.5
 49
12.0
 49
-1.5
 49
3.0
 49
-1.5
 49
3.0
 49
-1.5
  0
LTYPE
  2
AM_ISO02W050X2
 70
     0
  3
 _ _ _ _ _ _ _ _ _ _ _ _
 72
    65
 73
     2
 40
3.75
 49
3.0
 49
-0.75
  0
LTYPE
  2
AM_ISO08W050X2
 70
     0
  3
__ . __ . __ . __ . __ . __
 72
    65
 73
     4
 40
9.0
 49
6.0
 49
-0.75
 49
1.5
 49
-0.75
  0
LTYPE
  2
AMZIGZAG
 70
     0
  3
/\/-/\/-/\/-/\/-/\/-/\/
 72
    65
 73
     2
 40
11.0001
 49
0.0001
 49
-11.0
  0
LTYPE
  2
AMCONSTR
 70
     0
  3
_______________________
 72
    65
 73
     2
 40
9999.0
 49
9999.0
 49
0.0
  0
LTYPE
  2
CENTER2
 70
     0
  3
Center (.5x) ___ _ ___ _ ___ _ ___ _ ___ _ ___
 72
    65
 73
     4
 40
1.125
 49
0.75
 49
-0.125
 49
0.125
 49
-0.125
  0
LTYPE
  2
HIDDEN2
 70
     0
  3
Hidden (.5x) _ _ _ _ _ _ _ _ _ _ _ _ _ _ _ _ _
 72
    65
 73
     2
 40
0.1875
 49
0.125
 49
-0.0625
  0
LTYPE
  2
ACJISWELD
 70
     0
  3
_ _ _ _ _
 72
    65
 73
     2
 40
2.0
 49
2.0
 49
-1.0
  0
LTYPE
  2
AMZIGZAG2
 70
     0
  3
/\/-/\/-/\/-/\/-/\/-/\/
 72
    65
 73
     2
 40
0.4401
 49
0.0001
 49
-0.44
  0
LTYPE
  2
ACANSTGB
 70
     0
  3
__ . . __ . .
 72
    65
 73
     6
 40
0.35433070866
 49
0.15748031496
 49
-0.03937007874
 49
0.03937007874
 49
-0.03937007874
 49
0.03937007874
 49
-0.03937007874
  0
LTYPE
  2
ACANSTGL
 70
     0
  3
_ _ _ _ _
 72
    65
 73
     2
 40
0.11811023622
 49
0.07874015748
 49
-0.03937007874
  0
ENDTAB
  0
TABLE
  2
LAYER
 70
     5
  0
LAYER
  2
0
 70
     0
 62
     7
  6
CONTINUOUS
  0
LAYER
  2
10
 70
     0
 62
     2
  6
CONTINUOUS
  0
LAYER
  2
DEFPOINTS
 70
     0
 62
     7
  6
CONTINUOUS
  0
LAYER
  2
AM_0
 70
     0
 62
     7
  6
CONTINUOUS
  0
LAYER
  2
AM_7
 70
     0
 62
     4
  6
CENTER2
  0
ENDTAB
  0
TABLE
  2
STYLE
 70
     8
  0
STYLE
  2
STANDARD
 70
     0
 40
0.0
 41
1.0
 50
0.0
 71
     0
 42
1.0
  3
ISOCP.SHX
  4
EXTFONT.SHX
  0
STYLE
  2
ACJISTS
 70
     0
 40
1.0
 41
1.0
 50
0.0
 71
     0
 42
3.5
  3
isocp.shx
  4
extfont.shx
  0
STYLE
  2
ACJISGDT
 70
     0
 40
0.0
 41
1.0
 50
0.0
 71
     0
 42
3.5
  3
amgdt.shx
  4
extfont.shx
  0
STYLE
  2
ACISOTS
 70
     0
 40
1.0
 41
1.0
 50
0.0
 71
     0
 42
1.0
  3
isocp.shx
  4
extfont.shx
  0
STYLE
  2
ACISOGDT
 70
     0
 40
0.0
 41
1.0
 50
0.0
 71
     0
 42
3.5
  3
amgdt.shx
  4
extfont.shx
  0
STYLE
  2

 70
     1
 40
0.0
 41
1.0
 50
0.0
 71
     0
 42
3.5
  3
ltypeshp.shx
  4

  0
STYLE
  2

 70
     1
 40
0.0
 41
1.0
 50
0.0
 71
     0
 42
4.0
  3
genltshp.shx
  4

  0
STYLE
  2
ACANSGDT
 70
     0
 40
0.0
 41
1.0
 50
0.0
 71
     0
 42
4.0
  3
amgdt.shx
  4

  0
ENDTAB
  0
TABLE
  2
VIEW
 70
     3
  0
VIEW
  2
AMDTVIEW1
 70
     0
 40
329.0721649484536
 10
210.0
 20
164.5360824742268
 41
420.0
 11
0.0
 21
0.0
 31
1.0
 12
0.0
 22
0.0
 32
0.0
 42
50.0
 43
0.0
 44
0.0
 50
0.0
 71
     0
  0
VIEW
  2
AMDTVIEW2
 70
     0
 40
329.0721649484536
 10
210.0
 20
164.5360824742268
 41
420.0
 11
0.0
 21
0.0
 31
1.0
 12
0.0
 22
0.0
 32
0.0
 42
50.0
 43
0.0
 44
0.0
 50
0.0
 71
     0
  0
VIEW
  2
AMDTVIEW3
 70
     0
 40
329.0721649484536
 10
210.0
 20
164.5360824742268
 41
420.0
 11
0.0
 21
0.0
 31
1.0
 12
0.0
 22
0.0
 32
0.0
 42
50.0
 43
0.0
 44
0.0
 50
0.0
 71
     0
  0
ENDTAB
  0
TABLE
  2
UCS
 70
     0
  0
ENDTAB
  0
TABLE
  2
APPID
 70
    68
  0
APPID
  2
ACAD
 70
     0
  0
APPID
  2
AD_DRAW
 70
     0
  0
APPID
  2
DESIGNERASSEMBLIES
 70
     0
  0
APPID
  2
MCAD_NO_VIS
 70
     0
  0
APPID
  2
ASURF_PCURVE_APPNAME
 70
     0
  0
APPID
  2
ACAD_TEMP_GRAPHIC
 70
     0
  0
APPID
  2
ACATTRIBSERVICES
 70
     0
  0
APPID
  2
ACADM_DIM_EDIT
 70
     0
  0
APPID
  2
GENIUS_GENDIM_13
 70
     0
  0
APPID
  2
GENIUS_GENDTOL_13
 70
     0
  0
APPID
  2
GENIUS_GE3DTOL_13
 70
     0
  0
APPID
  2
AMG_3D2D_5_0
 70
     0
  0
APPID
  2
AMDT_DM_ADJ
 70
     0
  0
APPID
  2
ACAD_PSEXT
 70
     0
  0
APPID
  2
ACAD_DSTYLE_DIMTEXT_FILL
 70
     0
  0
APPID
  2
ACAECLAYERSTANDARD
 70
     0
  0
APPID
  2
GENIUS_GENREC_14
 70
     0
  0
APPID
  2
GENIUS_GENODEF_13
 70
     0
  0
APPID
  2
GENIUS_GENOBJ-N-REC_13
 70
     0
  0
APPID
  2
DCO15
 70
     0
  0
APPID
  2
ACAD_DSTYLE_DIMJAG
 70
     0
  0
APPID
  2
ACAD_DSTYLE_DIMTALN
 70
     0
  0
APPID
  2
ACAD_MLEADERVER
 70
     0
  0
APPID
  2
GENIUS_GENSCREG_15
 70
     0
  0
APPID
  2
GENIUS_GENOBJ-N-SDF_13
 70
     0
  0
APPID
  2
ACAD_NAV_VCDISPLAY
 70
     0
  0
APPID
  2
ACAD_EXEMPT_FROM_CAD_STAND
 70
     0
  0
APPID
  2
ACCMTRANSPARENCY
 70
     0
  0
APPID
  2
GENIUS_GENOBJ-N-CEN_13
 70
     0
  0
APPID
  2
GENIUS_GENOBJ-N-FIL_13
 70
     0
  0
APPID
  2
GENIUS_GENCEN_19
 70
     0
  0
APPID
  2
ACAD_DSTYLE_DIMBREAK
 70
     0
  0
APPID
  2
PLOTTRANSPARENCY
 70
     0
  0
APPID
  2
ACAD_SPLINE_DATA
 70
     0
  0
APPID
  2
ACAD_SPLINE_DATA2
 70
     0
  0
APPID
  2
GENIUS_GENOLIS_13
 70
     0
  0
APPID
  2
GENIUS_GENOENT_13
 70
     0
  0
APPID
  2
GENIUS_GENOBJ-N-CRS_13
 70
     0
  0
APPID
  2
GENIUS_GENOREF_13
 70
     0
  0
APPID
  2
HC_SUPERPART
 70
     0
  0
APPID
  2
HC_SP4BLOCK
 70
     0
  0
APPID
  2
HC_XDATA_SPRING
 70
     0
  0
APPID
  2
HCCAD_FRAME
 70
     0
  0
APPID
  2
GENIUS_GENOBJ-N-TIT_13
 70
     0
  0
APPID
  2
GENIUS_GENOBJ-N-ZOO_13
 70
     0
  0
APPID
  2
GENIUS_GENTITLE_13
 70
     0
  0
APPID
  2
GENIUS_GENSYMENT_13
 70
     0
  0
APPID
  2
GENIUS_GENSCSYM_13
 70
     0
  0
APPID
  2
GENIUS_GENOBJ-N-REV_13
 70
     0
  0
APPID
  2
GENIUS_GENOBJ-N-RSSYM_13
 70
     0
  0
APPID
  2
GENIUS_GENREV_15
 70
     0
  0
APPID
  2
HRA
 70
     0
  0
APPID
  2
HTIT
 70
     0
  0
APPID
  2
GENIUS_GENZOO_17
 70
     0
  0
APPID
  2
GENIUS_GENCRS_20
 70
     0
  0
APPID
  2
GENIUS_GENOBJ-N-CRC_13
 70
     0
  0
APPID
  2
GENIUS_GENCRC_14
 70
     0
  0
APPID
  2
GENIUS_GENFIL_13
 70
     0
  0
APPID
  2
GENIUS_GENOBJ-N-CHA_13
 70
     0
  0
APPID
  2
GENIUS_GENHATCH_13
 70
     0
  0
APPID
  2
GENIUS_GENOBJ-N-HTC_13
 70
     0
  0
APPID
  2
GENIUS_GENOBJ-N-DIM_13
 70
     0
  0
APPID
  2
GENIUS_GENOBJ-N-DIMLI_13
 70
     0
  0
APPID
  2
GENIUS_GENOBJ-N-FITL_13
 70
     0
  0
APPID
  2
GENIUS_GENFITL_13
 70
     0
  0
APPID
  2
GENLAYCOLOR
 70
     0
  0
APPID
  2
ACAD_DSTYLE_DIMINSPECT
 70
     0
  0
APPID
  2
ACADANNOTATIVE
 70
     0
  0
ENDTAB
  0
TABLE
  2
DIMSTYLE
 70
    23
  0
DIMSTYLE
  2
STANDARD
 70
     0
  3

  4

  5

  6

  7

 40
1.0
 41
2.5
 42
0.625
 43
3.75
 44
1.25
 45
0.0
 46
0.0
 47
0.0
 48
0.0
140
2.5
141
2.5
142
0.0
143
0.0394
144
1.0
145
0.0
146
1.0
147
0.625
 71
     0
 72
     0
 73
     0
 74
     0
 75
     0
 76
     0
 77
     1
 78
     8
170
     0
171
     4
172
     1
173
     0
174
     0
175
     0
176
     0
177
     0
178
     0
  0
DIMSTYLE
  2
AM_JIS
 70
     0
  3

  4
"
  5
OPEN
  6

  7

 40
1.0
 41
2.5
 42
1.0
 43
7.0
 44
1.0
 45
0.0
 46
0.0
 47
0.1
 48
0.1
140
3.0
141
0.0
142
0.0
143
0.0393701
144
1.0
145
0.0
146
0.71
147
1.0
 71
     0
 72
     0
 73
     0
 74
     0
 75
     0
 76
     0
 77
     3
 78
     8
170
     0
171
     2
172
     1
173
     0
174
     0
175
     0
176
   256
177
   256
178
     2
  0
DIMSTYLE
  2
AM_JIS$3
 70
     0
  3

  4
"
  5
OPEN
  6

  7

 40
1.0
 41
2.5
 42
1.0
 43
10.0
 44
1.0
 45
0.0
 46
0.0
 47
0.1
 48
0.1
140
3.0
141
0.0
142
0.0
143
0.0393701
144
1.0
145
0.0
146
0.71
147
1.0
 71
     0
 72
     0
 73
     0
 74
     0
 75
     0
 76
     0
 77
     3
 78
     8
170
     0
171
     2
172
     1
173
     0
174
     0
175
     0
176
   256
177
   256
178
     2
  0
DIMSTYLE
  2
AM_JIS$4
 70
     0
  3

  4
"
  5

  6
OPEN30
  7
OPEN
 40
1.0
 41
2.5
 42
1.0
 43
10.0
 44
1.0
 45
0.0
 46
0.0
 47
0.1
 48
0.1
140
3.0
141
0.0
142
0.0
143
0.0393701
144
1.0
145
0.0
146
0.71
147
1.0
 71
     0
 72
     0
 73
     0
 74
     0
 75
     0
 76
     0
 77
     3
 78
     8
170
     0
171
     2
172
     1
173
     1
174
     0
175
     0
176
   256
177
   256
178
     2
  0
DIMSTYLE
  2
AM_JIS$6
 70
     0
  3

  4
"
  5
OPEN30
  6
OPEN30
  7
OPEN30
 40
1.0
 41
2.5
 42
1.0
 43
10.0
 44
1.0
 45
0.0
 46
0.0
 47
0.1
 48
0.1
140
3.5
141
0.0
142
0.0
143
0.0393701
144
1.0
145
0.0
146
0.71
147
1.5
 71
     0
 72
     0
 73
     0
 74
     0
 75
     0
 76
     0
 77
     0
 78
     8
170
     0
171
     2
172
     1
173
     0
174
     0
175
     0
176
   256
177
   256
178
     2
  0
DIMSTYLE
  2
AM_JIS$7
 70
     0
  3

  4
"
  5
OPEN30
  6

  7

 40
1.0
 41
2.5
 42
1.0
 43
10.0
 44
1.0
 45
0.0
 46
0.0
 47
0.1
 48
0.1
140
3.0
141
0.0
142
0.0
143
0.0393701
144
1.0
145
0.0
146
0.71
147
1.0
 71
     0
 72
     0
 73
     0
 74
     0
 75
     0
 76
     0
 77
     3
 78
     8
170
     0
171
     2
172
     1
173
     0
174
     0
175
     0
176
   256
177
   256
178
     2
  0
DIMSTYLE
  2
AM_JIS$SF
 70
     0
  3

  4
"
  5
OPEN
  6

  7

 40
1.0
 41
2.5
 42
1.0
 43
7.0
 44
1.0
 45
0.0
 46
0.0
 47
0.1
 48
0.1
140
3.5
141
0.0
142
0.0
143
0.0393701
144
1.0
145
0.0
146
0.71
147
1.5
 71
     0
 72
     0
 73
     0
 74
     0
 75
     1
 76
     1
 77
     3
 78
     8
170
     0
171
     2
172
     1
173
     0
174
     0
175
     0
176
   256
177
   256
178
     2
  0
DIMSTYLE
  2
AM_JIS$SH
 70
     0
  3

  4
"
  5

  6
GENAXEH
  7
OPEN
 40
1.0
 41
2.5
 42
1.0
 43
7.0
 44
1.0
 45
0.0
 46
0.0
 47
0.1
 48
0.1
140
3.5
141
0.0
142
0.0
143
0.0393701
144
2.0
145
0.0
146
0.71
147
1.5
 71
     0
 72
     0
 73
     0
 74
     0
 75
     1
 76
     1
 77
     3
 78
     8
170
     0
171
     2
172
     1
173
     1
174
     0
175
     0
176
   256
177
   256
178
     2
  0
DIMSTYLE
  2
AM_ISO
 70
     0
  3

  4
"
  5

  6

  7

 40
1.0
 41
2.5
 42
1.0
 43
10.0
 44
1.0
 45
0.0
 46
0.0
 47
0.1
 48
0.1
140
3.5
141
0.0
142
0.0
143
0.0393701
144
1.0
145
0.0
146
0.71
147
1.5
 71
     0
 72
     0
 73
     0
 74
     0
 75
     0
 76
     0
 77
     1
 78
     8
170
     0
171
     2
172
     1
173
     0
174
     0
175
     0
176
   256
177
   256
178
     2
  0
DIMSTYLE
  2
AM_ISO$3
 70
     0
  3

  4
"
  5

  6

  7

 40
1.0
 41
2.5
 42
1.0
 43
10.0
 44
1.0
 45
0.0
 46
0.0
 47
0.1
 48
0.1
140
3.5
141
0.0
142
0.0
143
0.0393701
144
1.0
145
0.0
146
0.71
147
1.5
 71
     0
 72
     0
 73
     0
 74
     1
 75
     0
 76
     0
 77
     1
 78
     8
170
     0
171
     2
172
     0
173
     0
174
     0
175
     0
176
   256
177
   256
178
     2
  0
DIMSTYLE
  2
AM_ISO$4
 70
     0
  3

  4
"
  5

  6

  7

 40
1.0
 41
2.5
 42
1.0
 43
10.0
 44
1.0
 45
0.0
 46
0.0
 47
0.1
 48
0.1
140
3.5
141
0.0
142
0.0
143
0.0393701
144
1.0
145
0.0
146
0.71
147
1.5
 71
     0
 72
     0
 73
     0
 74
     1
 75
     0
 76
     0
 77
     1
 78
     8
170
     0
171
     2
172
     0
173
     0
174
     0
175
     0
176
   256
177
   256
178
     2
  0
DIMSTYLE
  2
AM_ISO$6
 70
     0
  3

  4
"
  5

  6

  7

 40
1.0
 41
2.5
 42
1.0
 43
10.0
 44
1.0
 45
0.0
 46
0.0
 47
0.1
 48
0.1
140
3.5
141
0.0
142
0.0
143
0.0393701
144
1.0
145
0.0
146
0.71
147
1.5
 71
     0
 72
     0
 73
     0
 74
     0
 75
     0
 76
     0
 77
     0
 78
     8
170
     0
171
     2
172
     1
173
     0
174
     0
175
     0
176
   256
177
   256
178
     2
  0
DIMSTYLE
  2
AM_ISO$7
 70
     0
  3

  4
"
  5

  6

  7

 40
1.0
 41
2.5
 42
1.0
 43
10.0
 44
1.0
 45
0.0
 46
0.0
 47
0.1
 48
0.1
140
5.0
141
0.0
142
0.0
143
0.0393701
144
1.0
145
0.0
146
0.71
147
1.5
 71
     0
 72
     0
 73
     0
 74
     0
 75
     0
 76
     0
 77
     1
 78
     8
170
     0
171
     2
172
     1
173
     0
174
     0
175
     0
176
   256
177
   256
178
     2
  0
DIMSTYLE
  2
AM_ISO$SF
 70
     0
  3

  4
"
  5

  6

  7

 40
1.0
 41
2.5
 42
1.0
 43
10.0
 44
1.0
 45
0.0
 46
0.0
 47
0.1
 48
0.1
140
3.5
141
0.0
142
0.0
143
0.0393701
144
1.0
145
0.0
146
0.71
147
1.5
 71
     0
 72
     0
 73
     0
 74
     0
 75
     1
 76
     1
 77
     1
 78
     8
170
     0
171
     2
172
     1
173
     0
174
     0
175
     0
176
   256
177
   256
178
     2
  0
DIMSTYLE
  2
AM_ISO$SH
 70
     0
  3

  4
"
  5

  6
GENAXEH
  7

 40
1.0
 41
2.5
 42
1.0
 43
10.0
 44
1.0
 45
0.0
 46
0.0
 47
0.1
 48
0.1
140
3.5
141
0.0
142
0.0
143
0.0393701
144
2.0
145
0.0
146
0.71
147
1.5
 71
     0
 72
     0
 73
     0
 74
     0
 75
     1
 76
     1
 77
     1
 78
     8
170
     0
171
     2
172
     1
173
     1
174
     0
175
     0
176
   256
177
   256
178
     2
  0
DIMSTYLE
  2
AM_JIS$2
 70
     0
  3

  4
"
  5
OPEN
  6

  7

 40
1.0
 41
2.5
 42
1.0
 43
7.0
 44
1.0
 45
0.0
 46
0.0
 47
0.1
 48
0.1
140
3.0
141
0.0
142
0.0
143
0.0393701
144
1.0
145
0.0
146
0.71
147
1.0
 71
     0
 72
     0
 73
     0
 74
     0
 75
     0
 76
     0
 77
     3
 78
     8
170
     0
171
     2
172
     1
173
     0
174
     0
175
     0
176
   256
177
   256
178
     2
  0
DIMSTYLE
  2
AM_JIS$0
 70
     0
  3

  4
"
  5
OPEN
  6

  7

 40
1.0
 41
2.5
 42
1.0
 43
7.0
 44
1.0
 45
0.0
 46
0.0
 47
0.1
 48
0.1
140
3.0
141
0.0
142
0.0
143
0.0393701
144
1.0
145
0.0
146
0.71
147
1.0
 71
     0
 72
     0
 73
     0
 74
     0
 75
     0
 76
     0
 77
     3
 78
     8
170
     0
171
     2
172
     1
173
     0
174
     0
175
     0
176
   256
177
   256
178
     2
  0
DIMSTYLE
  2
AM_ANSI
 70
     0
  3

  4
mm
  5

  6

  7

 40
1.0
 41
0.12
 42
0.05
 43
0.5
 44
0.1
 45
0.0
 46
0.0
 47
0.1
 48
0.1
140
0.12
141
0.0
142
0.0
143
25.4
144
1.0
145
0.0
146
0.71
147
0.06
 71
     0
 72
     0
 73
     1
 74
     1
 75
     0
 76
     0
 77
     0
 78
     7
170
     0
171
     2
172
     0
173
     0
174
     0
175
     0
176
   256
177
   256
178
     2
  0
DIMSTYLE
  2
AM_ANSI$3
 70
     0
  3

  4
mm
  5

  6

  7

 40
1.0
 41
0.12
 42
0.05
 43
0.5
 44
0.1
 45
0.0
 46
0.0
 47
0.1
 48
0.1
140
0.12
141
0.0
142
0.0
143
25.4
144
1.0
145
0.0
146
0.71
147
0.06
 71
     0
 72
     0
 73
     1
 74
     1
 75
     0
 76
     0
 77
     0
 78
     7
170
     0
171
     2
172
     0
173
     0
174
     0
175
     0
176
   256
177
   256
178
     2
  0
DIMSTYLE
  2
AM_ANSI$4
 70
     0
  3

  4
mm
  5

  6

  7

 40
1.0
 41
0.12
 42
0.05
 43
0.5
 44
0.1
 45
0.0
 46
0.0
 47
0.1
 48
0.1
140
0.12
141
0.0
142
0.0
143
25.4
144
1.0
145
0.0
146
0.71
147
0.06
 71
     0
 72
     0
 73
     1
 74
     1
 75
     0
 76
     0
 77
     0
 78
     7
170
     0
171
     2
172
     0
173
     0
174
     0
175
     0
176
   256
177
   256
178
     2
  0
DIMSTYLE
  2
AM_ANSI$7
 70
     0
  3

  4
mm
  5

  6

  7

 40
1.0
 41
0.12
 42
0.05
 43
0.5
 44
0.1
 45
0.0
 46
0.0
 47
0.1
 48
0.1
140
0.12
141
0.0
142
0.0
143
25.4
144
1.0
145
0.0
146
0.71
147
0.06
 71
     0
 72
     0
 73
     1
 74
     1
 75
     0
 76
     0
 77
     0
 78
     7
170
     0
171
     2
172
     0
173
     0
174
     0
175
     0
176
   256
177
   256
178
     2
  0
DIMSTYLE
  2
AM_ANSI$SF
 70
     0
  3

  4
mm
  5

  6

  7

 40
1.0
 41
0.12
 42
0.05
 43
0.5
 44
0.1
 45
0.0
 46
0.0
 47
0.1
 48
0.1
140
0.12
141
0.0
142
0.0
143
25.4
144
1.0
145
0.0
146
0.71
147
0.06
 71
     0
 72
     0
 73
     1
 74
     1
 75
     1
 76
     1
 77
     0
 78
     7
170
     0
171
     2
172
     0
173
     0
174
     0
175
     0
176
   256
177
   256
178
     2
  0
DIMSTYLE
  2
AM_ANSI$SH
 70
     0
  3

  4
mm
  5

  6
GENAXEH
  7

 40
1.0
 41
0.12
 42
0.05
 43
0.5
 44
0.1
 45
0.0
 46
0.0
 47
0.1
 48
0.1
140
0.12
141
0.0
142
0.0
143
25.4
144
1.0
145
0.0
146
0.71
147
0.06
 71
     0
 72
     0
 73
     1
 74
     1
 75
     1
 76
     1
 77
     0
 78
     7
170
     0
171
     2
172
     0
173
     1
174
     0
175
     0
176
   256
177
   256
178
     2
  0
ENDTAB
  0
ENDSEC
  0
SECTION
  2
BLOCKS
  0
BLOCK
  8
0
  2
$MODEL_SPACE
 70
     0
 10
0.0
 20
0.0
 30
0.0
  3
$MODEL_SPACE
  1

  0
ENDBLK
  5
1C
  8
0
  0
BLOCK
 67
     1
  8
0
  2
$PAPER_SPACE
 70
     0
 10
0.0
 20
0.0
 30
0.0
  3
$PAPER_SPACE
  1

  0
ENDBLK
  5
19
 67
     1
  8
0
  0
BLOCK
  8
0
  2
_OPEN30
 70
     0
 10
0.0
 20
0.0
 30
0.0
  3
_OPEN30
  1

  0
LINE
  5
2EF
  8
0
  6
BYBLOCK
 62
     0
 10
-1.0
 20
0.26794919
 30
0.0
 11
0.0
 21
0.0
 31
0.0
  0
LINE
  5
2F0
  8
0
  6
BYBLOCK
 62
     0
 10
0.0
 20
0.0
 30
0.0
 11
-1.0
 21
-0.26794919
 31
0.0
  0
LINE
  5
2F1
  8
0
  6
BYBLOCK
 62
     0
 10
0.0
 20
0.0
 30
0.0
 11
-1.0
 21
0.0
 31
0.0
  0
ENDBLK
  5
2F3
  8
0
  0
BLOCK
  8
0
  2
GENAXEH
 70
     0
 10
0.0
 20
0.0
 30
0.0
  3
GENAXEH
  1

  0
LINE
  5
2F5
  8
0
 10
-1.0
 20
0.0
 30
0.0
 11
1.0
 21
0.0
 31
0.0
  0
ENDBLK
  5
2F7
  8
0
  0
BLOCK
  8
0
  2
_OPEN
 70
     0
 10
0.0
 20
0.0
 30
0.0
  3
_OPEN
  1

  0
LINE
  5
597
  8
0
  6
BYBLOCK
 62
     0
 10
-1.0
 20
0.1666666666666667
 30
0.0
 11
0.0
 21
0.0
 31
0.0
  0
LINE
  5
598
  8
0
  6
BYBLOCK
 62
     0
 10
-1.0
 20
-0.1666666666666667
 30
0.0
 11
0.0
 21
0.0
 31
0.0
  0
LINE
  5
599
  8
0
  6
BYBLOCK
 62
     0
 10
0.0
 20
0.0
 30
0.0
 11
-1.0
 21
0.0
 31
0.0
  0
ENDBLK
  5
59B
  8
0
  0
BLOCK
  8
0
  2
_TAGCIRCLE
 70
     2
 10
0.0
 20
0.0
 30
0.0
  3
_TAGCIRCLE
  1

  0
CIRCLE
  5
1151
  8
0
  6
BYBLOCK
 62
     0
 10
0.0
 20
0.0
 30
0.0
 40
4.0
  0
ATTDEF
  5
1152
  8
0
 62
     0
 10
-7.1
 20
-1.5
 30
0.0
 40
3.0
  1
タグ番号
 72
     1
 11
0.0
 21
-1.5
 31
0.0
  3
タグ番号を入力
  2
タグ番号
 70
     0
  0
ENDBLK
  5
1154
  8
0
  0
BLOCK
  8
0
  2
_ACMFILLED15
 70
     0
 10
0.0
 20
0.0
 30
0.0
  3
_ACMFILLED15
  1
Acad:XRef
  0
TRACE
  5
7B9D
  8
AM_0
 62
     0
 10
-1.0
 20
0.1316524975873958
 30
0.0
 11
-1.0
 21
-0.1316524975873958
 31
0.0
 12
0.0
 22
0.0
 32
0.0
 13
0.0
 23
0.0
 33
0.0
  0
ENDBLK
  5
7B9B
  8
0
  0
BLOCK
  8
0
  2
_ACMOPEN30
 70
     0
 10
0.0
 20
0.0
 30
0.0
  3
_ACMOPEN30
  1
Acad:XRef
  0
LINE
  5
7BA7
  8
AM_0
 62
     0
 10
-1.0
 20
0.0
 30
0.0
 11
0.0
 21
0.0
 31
0.0
  0
LINE
  5
7BA8
  8
AM_0
 62
     0
 10
-1.0
 20
-0.2679491924311227
 30
0.0
 11
0.0
 21
0.0
 31
0.0
  0
LINE
  5
7BA9
  8
AM_0
 62
     0
 10
-1.0
 20
0.2679491924311227
 30
0.0
 11
0.0
 21
0.0
 31
0.0
  0
ENDBLK
  5
7BA6
  8
0
  0
BLOCK
  8
0
  2
_ACMFILLEDHALF
 70
     0
 10
0.0
 20
0.0
 30
0.0
  3
_ACMFILLEDHALF
  1

  0
TRACE
  5
7BB2
  8
0
 62
     0
 10
-0.8
 20
0.0
 30
0.0
 11
-1.0
 21
0.166666666
 31
0.0
 12
0.0
 22
0.0
 32
0.0
 13
0.0
 23
0.0
 33
0.0
  0
LINE
  5
7BB3
  8
0
 62
     0
 10
-1.0
 20
0.0
 30
0.0
 11
-0.8
 21
0.0
 31
0.0
  0
ENDBLK
  5
7BB4
  8
0
  0
BLOCK
  8
0
  2
_ACMOPEN15
 70
     0
 10
0.0
 20
0.0
 30
0.0
  3
_ACMOPEN15
  1
Acad:XRef
  0
LINE
  5
7BC1
  8
AM_0
 62
     0
 10
-1.0
 20
0.0
 30
0.0
 11
0.0
 21
0.0
 31
0.0
  0
LINE
  5
7BC2
  8
AM_0
 62
     0
 10
-1.0
 20
-0.1316524975873958
 30
0.0
 11
0.0
 21
0.0
 31
0.0
  0
LINE
  5
7BC3
  8
AM_0
 62
     0
 10
-1.0
 20
0.1316524975873958
 30
0.0
 11
0.0
 21
0.0
 31
0.0
  0
ENDBLK
  5
7BC0
  8
0
  0
BLOCK
  8
10
  2
*X9
 70
     1
 10
0.0
 20
0.0
 30
0.0
  3
*X9
  1
Acad:XRef
  0
TEXT
  5
8973
  8
0
 62
     7
 10
67.60712706503453
 20
230.6384461030277
 30
0.0
 40
1.9
  1
凍結
  0
TEXT
  5
8974
  8
0
 62
     7
 10
67.59302687950579
 20
227.3143273646233
 30
0.0
 40
1.9
  1
予防
  0
ENDBLK
  5
8976
  8
10
  0
ENDSEC
  0
SECTION
  2
ENTITIES
  0
TEXT
  5
1802
  8
10
 10
-1.499998068022251
 20
0.0000050735020523
 30
0.0
 40
10.0
  1
2024.02.01 EVCK 子機
 11
-1.499998068022251
 21
0.0000050735020523
 31
0.0
 73
     1
  0
ARC
  5
7EBB
  8
0
 10
47.0218561517737
 20
176.8911362700032
 30
0.0
 40
7.0
 50
180.0
 51
270.0
  0
ARC
  5
7EBC
  8
0
 10
104.0218561517737
 20
176.8911362700032
 30
0.0
 40
7.0
 50
270.0
 51
0.0
  0
ARC
  5
7EBD
  8
0
 10
104.0218561517737
 20
282.8911362700032
 30
0.0
 40
7.0
 50
0.0
 51
90.0
  0
ARC
  5
7EBE
  8
0
 10
47.0218561517737
 20
282.8911362700032
 30
0.0
 40
7.0
 50
90.0
 51
180.0
  0
LINE
  5
7EBF
  8
0
 10
47.0218561517737
 20
169.8911362700032
 30
0.0
 11
104.0218561517737
 21
169.8911362700032
 31
0.0
  0
LINE
  5
7EC0
  8
0
 10
47.0218561517737
 20
289.8911362700032
 30
0.0
 11
104.0218561517737
 21
289.8911362700032
 31
0.0
  0
LINE
  5
7EC1
  8
0
 10
111.0218561517737
 20
176.8911362700032
 30
0.0
 11
111.0218561517737
 21
282.8911362700032
 31
0.0
  0
LINE
  5
7EC2
  8
0
 10
40.0218561517737
 20
282.8911362700032
 30
0.0
 11
40.0218561517737
 21
176.8911362700032
 31
0.0
  0
LINE
  5
7F52
  8
0
 10
100.5413392118786
 20
156.4299828851836
 30
0.0
 11
50.5023730916688
 21
156.4299828851836
 31
0.0
  0
LINE
  5
7F53
  8
0
 10
101.0218561517737
 20
149.4299828851836
 30
0.0
 11
40.0218561517737
 21
149.4299828851836
 31
0.0
  0
LINE
  5
7F54
  8
0
 10
40.7718561517737
 20
151.4299828851836
 30
0.0
 11
40.88714449797862
 21
151.8911362700032
 31
0.0
  0
LINE
  5
7F55
  8
0
 10
110.2718561517737
 20
151.4299828851836
 30
0.0
 11
110.1565678055688
 21
151.8911362700032
 31
0.0
  0
LINE
  5
7F56
  8
0
 10
111.0218561517737
 20
151.4299828851836
 30
0.0
 11
40.02185615177365
 21
151.4299828851836
 31
0.0
  0
LINE
  5
7F57
  8
0
 10
40.0218561517737
 20
151.4299828851836
 30
0.0
 11
40.0218561517737
 21
149.4299828851836
 31
0.0
  0
LINE
  5
7F58
  8
0
 10
111.0218561517737
 20
151.4299828851836
 30
0.0
 11
111.0218561517737
 21
149.4299828851836
 31
0.0
  0
LINE
  5
7F59
  8
0
 10
111.0218561517737
 20
149.4299828851836
 30
0.0
 11
40.02185615177365
 21
149.4299828851836
 31
0.0
  0
ARC
  5
7F5A
  8
0
 10
100.5413392118786
 20
143.4299828851835
 30
0.0
 40
13.0
 50
79.00000000000095
 51
90.0
  0
LINE
  5
7F5B
  8
0
 10
103.0218561517737
 20
156.1911362700032
 30
0.0
 11
108.8218561518203
 21
154.7911362700031
 31
0.0
  0
ARC
  5
7F5C
  8
0
 10
108.0218561517737
 20
151.8911362700032
 30
0.0
 40
3.0
 50
0.0
 51
74.99999999999885
  0
ARC
  5
7F5D
  8
0
 10
50.5023730916688
 20
143.4299828851835
 30
0.0
 40
13.0
 50
90.0
 51
100.999999999999
  0
LINE
  5
7F5E
  8
0
 10
48.0218561517737
 20
156.1911362700032
 30
0.0
 11
42.22185615172714
 21
154.7911362700031
 31
0.0
  0
ARC
  5
7F5F
  8
0
 10
43.0218561517737
 20
151.8911362700032
 30
0.0
 40
3.0
 50
105.0000000000012
 51
180.0
  0
LINE
  5
7F60
  8
0
 10
111.0218561517737
 20
151.8911362700032
 30
0.0
 11
40.02185615177365
 21
151.8911362700032
 31
0.0
  0
LINE
  5
7F62
  8
0
 10
135.7830095365933
 20
279.4106193301081
 30
0.0
 11
135.7830095365933
 21
180.3716532098983
 31
0.0
  0
LINE
  5
7F63
  8
0
 10
142.7830095365933
 20
279.8911362700032
 30
0.0
 11
142.7830095365933
 21
179.8911362700032
 31
0.0
  0
LINE
  5
7F64
  8
0
 10
140.7830095365933
 20
170.6411362700032
 30
0.0
 11
140.3218561517737
 21
170.7564246162082
 31
0.0
  0
LINE
  5
7F65
  8
0
 10
140.7830095365933
 20
289.1411362700032
 30
0.0
 11
140.3218561517737
 21
289.0258479237983
 31
0.0
  0
LINE
  5
7F66
  8
0
 10
140.7830095365933
 20
289.8911362700032
 30
0.0
 11
140.7830095365933
 21
169.8911362700032
 31
0.0
  0
LINE
  5
7F67
  8
0
 10
140.7830095365933
 20
169.8911362700032
 30
0.0
 11
142.7830095365933
 21
169.8911362700032
 31
0.0
  0
LINE
  5
7F68
  8
0
 10
140.7830095365933
 20
289.8911362700032
 30
0.0
 11
142.7830095365933
 21
289.8911362700032
 31
0.0
  0
LINE
  5
7F69
  8
0
 10
142.7830095365933
 20
289.8911362700032
 30
0.0
 11
142.7830095365933
 21
169.8911362700032
 31
0.0
  0
ARC
  5
7F6A
  8
0
 10
148.7830095365933
 20
279.4106193301081
 30
0.0
 40
13.0
 50
168.9999999999994
 51
180.0
  0
LINE
  5
7F6B
  8
0
 10
136.0218561517737
 20
281.8911362700032
 30
0.0
 11
137.4218561517737
 21
287.6911362700498
 31
0.0
  0
ARC
  5
7F6C
  8
0
 10
140.3218561517737
 20
286.8911362700032
 30
0.0
 40
3.0
 50
90.0
 51
165.0000000000011
  0
ARC
  5
7F6D
  8
0
 10
148.7830095365933
 20
180.3716532098983
 30
0.0
 40
13.0
 50
180.0
 51
191.0000000000006
  0
LINE
  5
7F6E
  8
0
 10
136.0218561517737
 20
177.8911362700032
 30
0.0
 11
137.4218561517737
 21
172.0911362699567
 31
0.0
  0
ARC
  5
7F6F
  8
0
 10
140.3218561517737
 20
172.8911362700032
 30
0.0
 40
3.0
 50
194.9999999999989
 51
270.0
  0
LINE
  5
7F70
  8
0
 10
140.3218561517737
 20
289.8911362700032
 30
0.0
 11
140.3218561517737
 21
169.8911362700032
 31
0.0
  0
LINE
  5
7F71
  8
0
 10
142.8830095365932
 20
218.3911362700032
 30
0.0
 11
142.8830095365932
 21
213.3911362700031
 31
0.0
  0
LINE
  5
7F72
  8
0
 10
143.5738095365933
 20
218.3911362700031
 30
0.0
 11
143.5738095365931
 21
213.391136270003
 31
0.0
  0
LINE
  5
7F73
  8
0
 10
144.8830095365932
 20
218.3911362700035
 30
0.0
 11
144.8830095365932
 21
213.391136270003
 31
0.0
  0
LINE
  5
7F74
  8
0
 10
145.0830095365933
 20
213.391136270003
 30
0.0
 11
145.0830095365933
 21
212.3911362700031
 31
0.0
  0
LINE
  5
7F75
  8
0
 10
143.4830095365934
 20
213.391136270003
 30
0.0
 11
143.4830095365934
 21
212.391136270003
 31
0.0
  0
LINE
  5
7F76
  8
0
 10
145.0830095365935
 20
219.3911362700034
 30
0.0
 11
145.0830095365933
 21
218.3911362700032
 31
0.0
  0
LINE
  5
7F77
  8
0
 10
143.4830095365934
 20
219.3911362700035
 30
0.0
 11
143.4830095365934
 21
218.3911362700032
 31
0.0
  0
LINE
  5
7F78
  8
0
 10
143.5738095365933
 20
246.3911362700036
 30
0.0
 11
143.5738095365931
 21
241.3911362700031
 31
0.0
  0
LINE
  5
7F79
  8
0
 10
142.8830095365932
 20
246.3911362700036
 30
0.0
 11
142.8830095365932
 21
241.3911362700032
 31
0.0
  0
LINE
  5
7F7A
  8
0
 10
143.4830095365934
 20
241.3911362700032
 30
0.0
 11
143.4830095365934
 21
240.3911362700031
 31
0.0
  0
LINE
  5
7F7B
  8
0
 10
143.4830095365934
 20
247.3911362700035
 30
0.0
 11
143.4830095365934
 21
246.3911362700034
 31
0.0
  0
LINE
  5
7F7C
  8
0
 10
142.7830095365935
 20
264.2911362700033
 30
0.0
 11
147.2830095365933
 21
264.2911362700032
 31
0.0
  0
LINE
  5
7F7D
  8
0
 10
147.2830095365933
 20
246.3911362700035
 30
0.0
 11
147.2830095365933
 21
241.3911362700031
 31
0.0
  0
LINE
  5
7F7E
  8
0
 10
142.7830095365933
 20
240.3911362700031
 30
0.0
 11
147.2830095365933
 21
240.3911362700032
 31
0.0
  0
LINE
  5
7F7F
  8
0
 10
142.7830095365933
 20
247.3911362700034
 30
0.0
 11
147.2830095365931
 21
247.3911362700035
 31
0.0
  0
LINE
  5
7F80
  8
0
 10
144.8830095365932
 20
246.3911362700036
 30
0.0
 11
144.8830095365932
 21
241.3911362700031
 31
0.0
  0
LINE
  5
7F81
  8
0
 10
142.8830095365932
 20
241.3911362700031
 30
0.0
 11
147.2830095365933
 21
241.3911362700031
 31
0.0
  0
LINE
  5
7F82
  8
0
 10
142.8830095365932
 20
246.3911362700034
 30
0.0
 11
147.2830095365933
 21
246.3911362700034
 31
0.0
  0
LINE
  5
7F83
  8
0
 10
147.2830095365933
 20
264.2911362700032
 30
0.0
 11
147.2830095365933
 21
247.3911362700034
 31
0.0
  0
LINE
  5
7F84
  8
0
 10
145.0830095365935
 20
241.3911362700031
 30
0.0
 11
145.0830095365935
 21
240.3911362700032
 31
0.0
  0
LINE
  5
7F85
  8
0
 10
145.0830095365935
 20
247.3911362700035
 30
0.0
 11
145.0830095365935
 21
246.3911362700034
 31
0.0
  0
LINE
  5
7F86
  8
0
 10
142.7830095365935
 20
195.4911362700033
 30
0.0
 11
147.2830095365933
 21
195.4911362700034
 31
0.0
  0
LINE
  5
7F87
  8
0
 10
147.2830095365933
 20
240.3911362700034
 30
0.0
 11
147.2830095365933
 21
219.3911362700034
 31
0.0
  0
LINE
  5
7F88
  8
0
 10
147.2830095365933
 20
212.3911362700031
 30
0.0
 11
147.2830095365933
 21
195.4911362700034
 31
0.0
  0
LINE
  5
7F89
  8
0
 10
147.2830095365933
 20
218.3911362700031
 30
0.0
 11
147.2830095365933
 21
213.391136270003
 31
0.0
  0
LINE
  5
7F8A
  8
0
 10
142.7830095365933
 20
219.3911362700035
 30
0.0
 11
147.2830095365933
 21
219.3911362700034
 31
0.0
  0
LINE
  5
7F8B
  8
0
 10
142.7830095365933
 20
212.391136270003
 30
0.0
 11
147.2830095365933
 21
212.3911362700031
 31
0.0
  0
LINE
  5
7F8C
  8
0
 10
142.8830095365932
 20
213.391136270003
 30
0.0
 11
147.2830095365933
 21
213.391136270003
 31
0.0
  0
LINE
  5
7F8D
  8
0
 10
142.8830095365932
 20
218.3911362700032
 30
0.0
 11
147.2830095365933
 21
218.3911362700032
 31
0.0
  0
LINE
  5
7F8E
  8
0
 10
92.42185615177368
 20
144.9299828851836
 30
0.0
 11
58.62185615177384
 21
144.9299828851837
 31
0.0
  0
LINE
  5
7F8F
  8
0
 10
92.42185615177351
 20
149.4299828851836
 30
0.0
 11
92.42185615177368
 21
144.9299828851836
 31
0.0
  0
LINE
  5
7F90
  8
0
 10
92.42185615177357
 20
149.3299828851837
 30
0.0
 11
93.02185615177359
 21
149.3299828851837
 31
0.0
  0
LINE
  5
7F91
  8
0
 10
93.02185615177359
 20
149.3299828851837
 30
0.0
 11
93.02185615177359
 21
148.3692133697242
 31
0.0
  0
LINE
  5
7F92
  8
0
 10
92.42185615177357
 20
147.3299828851837
 30
0.0
 11
93.02185615177359
 21
148.3692133697242
 31
0.0
  0
LINE
  5
7F93
  8
0
 10
58.62185615177384
 20
147.3299828851837
 30
0.0
 11
58.02185615177393
 21
148.3692133697242
 31
0.0
  0
LINE
  5
7F94
  8
0
 10
58.02185615177393
 20
149.3299828851837
 30
0.0
 11
58.02185615177393
 21
148.3692133697242
 31
0.0
  0
LINE
  5
7F95
  8
0
 10
58.62185615177384
 20
149.4299828851836
 30
0.0
 11
58.62185615177384
 21
144.9299828851837
 31
0.0
  0
LINE
  5
7F96
  8
0
 10
58.62185615177384
 20
149.3299828851837
 30
0.0
 11
58.02185615177393
 21
149.3299828851837
 31
0.0
  0
LINE
  5
7F99
  8
0
 10
81.94185615177383
 20
134.1299828851836
 30
0.0
 11
81.94185615177372
 21
144.9299828851837
 31
0.0
  0
LINE
  5
7F9A
  8
0
 10
88.34185615177381
 20
134.1299828851837
 30
0.0
 11
88.34185615177364
 21
144.9299828851838
 31
0.0
  0
LINE
  5
7F9B
  8
0
 10
88.34185615177381
 20
134.1299828851837
 30
0.0
 11
81.94185615177383
 21
134.1299828851836
 31
0.0
  0
LINE
  5
7F9C
  8
0
 10
158.0830095365934
 20
225.4412768257923
 30
0.0
 11
158.0830095365934
 21
241.2412768257923
 31
0.0
  0
LINE
  5
7F9D
  8
0
 10
158.0830095365934
 20
241.2412768257923
 30
0.0
 11
145.0830095365934
 21
241.2412768257923
 31
0.0
  0
LINE
  5
7F9E
  8
0
 10
158.0830095365934
 20
225.4412768257923
 30
0.0
 11
147.2830095365933
 21
225.4412768257923
 31
0.0
  0
LINE
  5
7FDB
  8
AM_7
 10
75.5218561517737
 20
293.6851362700032
 30
0.0
 11
75.5218561517737
 21
166.0971362700032
 31
0.0
1001
GENIUS_GENODEF_13
1002
{
1000
HIER
1070
     0
1002
}
1002
{
1000
MANEDIT
1070
     0
1002
}
1002
{
1000
NOSEL
1070
     0
1002
}
1002
{
1000
BEHIND
1070
     0
1002
}
1002
{
1000
OTHER
1070
     0
1002
}
1002
{
1000
REACTOR
1002
}
1001
GENIUS_GENOBJ-N-CEN_13
1002
{
1000
OWNER
1000
GEN
1002
}
1001
GENIUS_GENCEN_19
1002
{
1040
2.794
1002
}
  0
LINE
  5
7FDC
  8
AM_7
 10
36.22785615177371
 20
229.8911362700032
 30
0.0
 11
114.8158561517737
 21
229.8911362700032
 31
0.0
1001
GENIUS_GENODEF_13
1002
{
1000
HIER
1070
     0
1002
}
1002
{
1000
MANEDIT
1070
     0
1002
}
1002
{
1000
NOSEL
1070
     0
1002
}
1002
{
1000
BEHIND
1070
     0
1002
}
1002
{
1000
OTHER
1070
     0
1002
}
1002
{
1000
REACTOR
1002
}
1001
GENIUS_GENOBJ-N-CEN_13
1002
{
1000
OWNER
1000
GEN
1002
}
1001
GENIUS_GENCEN_19
1002
{
1040
2.794
1002
}
  0
LINE
  5
7FE3
  8
AM_7
 10
75.5218561517737
 20
160.4299828851836
 30
0.0
 11
75.5218561517737
 21
140.9299828851836
 31
0.0
1001
GENIUS_GENODEF_13
1002
{
1000
HIER
1070
     0
1002
}
1002
{
1000
MANEDIT
1070
     0
1002
}
1002
{
1000
NOSEL
1070
     0
1002
}
1002
{
1000
BEHIND
1070
     0
1002
}
1002
{
1000
OTHER
1070
     0
1002
}
1002
{
1000
REACTOR
1002
}
1001
GENIUS_GENOBJ-N-CEN_13
1002
{
1000
OWNER
1000
GEN
1002
}
1001
GENIUS_GENCEN_19
1002
{
1040
2.794
1002
}
  0
LINE
  5
7FF6
  8
AM_7
 10
131.7830095365933
 20
229.8911362700032
 30
0.0
 11
162.0830095365934
 21
229.8911362700032
 31
0.0
1001
GENIUS_GENODEF_13
1002
{
1000
HIER
1070
     0
1002
}
1002
{
1000
MANEDIT
1070
     0
1002
}
1002
{
1000
NOSEL
1070
     0
1002
}
1002
{
1000
BEHIND
1070
     0
1002
}
1002
{
1000
OTHER
1070
     0
1002
}
1002
{
1000
REACTOR
1002
}
1001
GENIUS_GENOBJ-N-CEN_13
1002
{
1000
OWNER
1000
GEN
1002
}
1001
GENIUS_GENCEN_19
1002
{
1040
2.794
1002
}
  0
LINE
  5
81C7
  8
0
 10
61.2718561517737
 20
264.3911362700032
 30
0.0
 11
61.2718561517737
 21
195.3911362700032
 31
0.0
  0
LINE
  5
81C8
  8
0
 10
89.7718561517737
 20
264.3911362700032
 30
0.0
 11
89.7718561517737
 21
195.3911362700032
 31
0.0
  0
LINE
  5
81C9
  8
0
 10
61.2718561517737
 20
195.3911362700032
 30
0.0
 11
89.7718561517737
 21
195.3911362700032
 31
0.0
  0
LINE
  5
81CA
  8
0
 10
61.2718561517737
 20
264.3911362700032
 30
0.0
 11
89.7718561517737
 21
264.3911362700032
 31
0.0
  0
LINE
  5
81CB
  8
0
 10
88.0218561517737
 20
196.9911362700032
 30
0.0
 11
63.0218561517737
 21
196.9911362700033
 31
0.0
  0
LINE
  5
81CC
  8
0
 10
88.0218561517737
 20
262.7911362700032
 30
0.0
 11
88.0218561517737
 21
196.9911362700032
 31
0.0
  0
LINE
  5
81CD
  8
0
 10
63.0218561517737
 20
262.7911362700031
 30
0.0
 11
88.0218561517737
 21
262.7911362700032
 31
0.0
  0
LINE
  5
81CE
  8
0
 10
63.0218561517737
 20
196.9911362700033
 30
0.0
 11
63.0218561517737
 21
262.7911362700031
 31
0.0
  0
LINE
  5
81CF
  8
0
 10
61.52185615177382
 20
195.4911362700032
 30
0.0
 11
61.5218561517737
 21
264.2911362700031
 31
0.0
  0
LINE
  5
81D0
  8
0
 10
89.5218561517737
 20
264.291136270003
 30
0.0
 11
89.5218561517737
 21
195.4911362700032
 31
0.0
  0
LINE
  5
81D1
  8
0
 10
61.5218561517737
 20
264.2911362700031
 30
0.0
 11
89.5218561517737
 21
264.291136270003
 31
0.0
  0
LINE
  5
81D2
  8
0
 10
89.5218561517737
 20
195.4911362700032
 30
0.0
 11
61.52185615177382
 21
195.4911362700032
 31
0.0
  0
LINE
  5
81D3
  8
0
 10
63.2718561517737
 20
262.5411362700031
 30
0.0
 11
87.7718561517737
 21
262.5411362700031
 31
0.0
  0
LINE
  5
81D4
  8
0
 10
63.27185615177376
 20
197.2411362700031
 30
0.0
 11
87.7718561517737
 21
197.2411362700031
 31
0.0
  0
LINE
  5
81D5
  8
0
 10
87.7718561517737
 20
262.5411362700031
 30
0.0
 11
87.7718561517737
 21
197.2411362700031
 31
0.0
  0
LINE
  5
81D6
  8
0
 10
63.2718561517737
 20
262.5411362700031
 30
0.0
 11
63.27185615177376
 21
197.2411362700031
 31
0.0
  0
LINE
  5
81D7
  8
0
 10
66.52185615177416
 20
227.8911362700027
 30
0.0
 11
66.52185615177416
 21
241.8911362700032
 31
0.0
  0
ARC
  5
81D8
  8
0
 10
68.52185615177461
 20
227.8911362700034
 30
0.0
 40
2.000000000000455
 50
180.0
 51
269.999999999974
1001
GENIUS_GENOBJ-N-FIL_13
1002
{
1000
OWNER
1000
GEN
1002
}
1001
GENIUS_GENODEF_13
1002
{
1000
HIER
1070
     0
1002
}
1002
{
1000
MANEDIT
1070
     0
1002
}
1002
{
1000
NOSEL
1070
     0
1002
}
1002
{
1000
BEHIND
1070
     0
1002
}
1002
{
1000
OTHER
1070
     0
1002
}
1002
{
1000
REACTOR
1002
}
  0
LINE
  5
81D9
  8
0
 10
84.52185615177325
 20
227.8911362700027
 30
0.0
 11
84.52185615177325
 21
241.8911362700023
 31
0.0
  0
ARC
  5
81DA
  8
0
 10
82.52185615177325
 20
241.8911362700023
 30
0.0
 40
2.0
 50
0.0
 51
90.0
1001
GENIUS_GENODEF_13
1002
{
1000
HIER
1070
     0
1002
}
1002
{
1000
MANEDIT
1070
     0
1002
}
1002
{
1000
NOSEL
1070
     0
1002
}
1002
{
1000
BEHIND
1070
     0
1002
}
1002
{
1000
OTHER
1070
     0
1002
}
1002
{
1000
REACTOR
1002
}
1001
GENIUS_GENOBJ-N-FIL_13
1002
{
1000
OWNER
1000
GEN
1002
}
  0
LINE
  5
81DB
  8
0
 10
82.52185615177325
 20
243.8911362700023
 30
0.0
 11
68.52185615177416
 21
243.8911362700032
 31
0.0
  0
ARC
  5
81DC
  8
0
 10
68.52185615177416
 20
241.8911362700032
 30
0.0
 40
2.0
 50
90.0
 51
180.0
1001
GENIUS_GENOBJ-N-FIL_13
1002
{
1000
OWNER
1000
GEN
1002
}
1001
GENIUS_GENODEF_13
1002
{
1000
HIER
1070
     0
1002
}
1002
{
1000
MANEDIT
1070
     0
1002
}
1002
{
1000
NOSEL
1070
     0
1002
}
1002
{
1000
BEHIND
1070
     0
1002
}
1002
{
1000
OTHER
1070
     0
1002
}
1002
{
1000
REACTOR
1002
}
  0
LINE
  5
81DD
  8
0
 10
82.52185615177325
 20
225.8911362700027
 30
0.0
 11
68.52185615177416
 21
225.8911362700027
 31
0.0
  0
ARC
  5
81DE
  8
0
 10
82.5218561517728
 20
227.8911362700034
 30
0.0
 40
2.000000000000568
 50
270.000000000013
 51
0.0
1001
GENIUS_GENODEF_13
1002
{
1000
HIER
1070
     0
1002
}
1002
{
1000
MANEDIT
1070
     0
1002
}
1002
{
1000
NOSEL
1070
     0
1002
}
1002
{
1000
BEHIND
1070
     0
1002
}
1002
{
1000
OTHER
1070
     0
1002
}
1002
{
1000
REACTOR
1002
}
1001
GENIUS_GENOBJ-N-FIL_13
1002
{
1000
OWNER
1000
GEN
1002
}
  0
LINE
  5
81E0
  8
0
 10
64.24188308815673
 20
199.2001951553479
 30
0.0
 11
64.24188308815673
 21
201.7376951553485
 31
0.0
  0
LINE
  5
81E1
  8
0
 10
66.34438308815669
 20
199.2001951553479
 30
0.0
 11
66.34438308815669
 21
201.7376951553485
 31
0.0
  0
LINE
  5
81E2
  8
0
 10
66.56188308815689
 20
199.2001951553479
 30
0.0
 11
66.56188308815689
 21
201.7376951553485
 31
0.0
  0
LINE
  5
81E3
  8
0
 10
64.24188308815673
 20
199.2001951553479
 30
0.0
 11
65.03938308815685
 21
199.2001951553479
 31
0.0
  0
LINE
  5
81E4
  8
0
 10
64.24188308815673
 20
201.7376951553485
 30
0.0
 11
65.03938308815685
 21
201.7376951553485
 31
0.0
  0
LINE
  5
81E5
  8
0
 10
65.03938308815685
 20
201.7376951553485
 30
0.0
 11
65.03938308815685
 21
200.8676951553484
 31
0.0
  0
LINE
  5
81E6
  8
0
 10
65.54688308815656
 20
201.7376951553485
 30
0.0
 11
65.54688308815656
 21
200.8676951553484
 31
0.0
  0
LINE
  5
81E7
  8
0
 10
65.03938308815685
 20
199.2001951553479
 30
0.0
 11
65.03938308815685
 21
200.0701951553478
 31
0.0
  0
LINE
  5
81E8
  8
0
 10
65.54688308815656
 20
199.2001951553479
 30
0.0
 11
65.54688308815656
 21
200.0701951553478
 31
0.0
  0
LINE
  5
81E9
  8
0
 10
65.54688308815656
 20
201.7376951553485
 30
0.0
 11
66.34438308815669
 21
201.7376951553485
 31
0.0
  0
LINE
  5
81EA
  8
0
 10
65.54688308815656
 20
199.2001951553479
 30
0.0
 11
66.34438308815669
 21
199.2001951553479
 31
0.0
  0
LINE
  5
81EB
  8
0
 10
65.03938308815685
 20
200.8676951553484
 30
0.0
 11
65.54688308815656
 21
200.8676951553484
 31
0.0
  0
LINE
  5
81EC
  8
0
 10
65.03938308815685
 20
200.0701951553478
 30
0.0
 11
65.54688308815656
 21
200.0701951553478
 31
0.0
  0
LINE
  5
81ED
  8
0
 10
67.35938308815656
 20
199.2001951553479
 30
0.0
 11
67.35938308815656
 21
201.7376951553485
 31
0.0
  0
LINE
  5
81EE
  8
0
 10
67.57688308815676
 20
199.2001951553479
 30
0.0
 11
67.57688308815676
 21
201.7376951553485
 31
0.0
  0
LINE
  5
81EF
  8
0
 10
66.56188308815689
 20
201.7376951553485
 30
0.0
 11
67.35938308815656
 21
201.7376951553485
 31
0.0
  0
LINE
  5
81F0
  8
0
 10
66.56188308815689
 20
199.2001951553479
 30
0.0
 11
67.35938308815656
 21
199.2001951553479
 31
0.0
  0
LINE
  5
81F1
  8
0
 10
69.67938308815673
 20
199.2001951553479
 30
0.0
 11
69.67938308815673
 21
199.7801951553479
 31
0.0
  0
LINE
  5
81F2
  8
0
 10
69.67938308815673
 20
201.1576951553486
 30
0.0
 11
69.67938308815673
 21
201.7376951553485
 31
0.0
  0
LINE
  5
81F3
  8
0
 10
67.57688308815676
 20
199.2001951553479
 30
0.0
 11
68.37438308815689
 21
199.2001951553479
 31
0.0
  0
LINE
  5
81F4
  8
0
 10
67.57688308815676
 20
201.7376951553485
 30
0.0
 11
68.37438308815689
 21
201.7376951553485
 31
0.0
  0
LINE
  5
81F5
  8
0
 10
68.37438308815689
 20
201.7376951553485
 30
0.0
 11
68.37438308815689
 21
200.8676951553484
 31
0.0
  0
LINE
  5
81F6
  8
0
 10
68.8818830881566
 20
201.7376951553485
 30
0.0
 11
68.8818830881566
 21
201.1576951553486
 31
0.0
  0
LINE
  5
81F7
  8
0
 10
68.37438308815689
 20
199.2001951553479
 30
0.0
 11
68.37438308815689
 21
200.0701951553478
 31
0.0
  0
LINE
  5
81F8
  8
0
 10
68.8818830881566
 20
199.2001951553479
 30
0.0
 11
68.8818830881566
 21
199.7801951553479
 31
0.0
  0
ARC
  5
81F9
  8
0
 10
68.59188308815664
 20
199.7801951553479
 30
0.0
 40
0.29
 50
0.0
 51
90.0
  0
ARC
  5
81FA
  8
0
 10
68.59188308815664
 20
199.7801951553479
 30
0.0
 40
1.0875
 50
0.0
 51
39.29648023920886
  0
LINE
  5
81FB
  8
0
 10
68.8818830881566
 20
201.7376951553485
 30
0.0
 11
69.67938308815673
 21
201.7376951553485
 31
0.0
  0
LINE
  5
81FC
  8
0
 10
68.8818830881566
 20
199.2001951553479
 30
0.0
 11
69.67938308815673
 21
199.2001951553479
 31
0.0
  0
LINE
  5
81FD
  8
0
 10
68.37438308815689
 20
200.8676951553484
 30
0.0
 11
68.59188308815664
 21
200.8676951553484
 31
0.0
  0
ARC
  5
81FE
  8
0
 10
68.59188308815664
 20
201.1576951553486
 30
0.0
 40
0.29
 50
270.0
 51
0.0
  0
ARC
  5
81FF
  8
0
 10
68.59188308815664
 20
201.1576951553486
 30
0.0
 40
1.0875
 50
320.7035197608199
 51
0.0
  0
LINE
  5
8200
  8
0
 10
68.37438308815689
 20
200.0701951553478
 30
0.0
 11
68.59188308815664
 21
200.0701951553478
 31
0.0
  0
LINE
  5
8201
  8
0
 10
69.89688308815693
 20
199.2001951553479
 30
0.0
 11
69.89688308815693
 21
200.6864451553479
 31
0.0
  0
LINE
  5
8202
  8
0
 10
71.99938308815689
 20
199.2001951553479
 30
0.0
 11
71.99938308815689
 21
200.6864451553479
 31
0.0
  0
LINE
  5
8203
  8
0
 10
69.89688308815693
 20
199.2001951553479
 30
0.0
 11
70.6943830881566
 21
199.2001951553479
 31
0.0
  0
LINE
  5
8204
  8
0
 10
70.6943830881566
 20
199.2001951553479
 30
0.0
 11
70.6943830881566
 21
199.7076951553476
 31
0.0
  0
LINE
  5
8205
  8
0
 10
71.20188308815676
 20
199.2001951553479
 30
0.0
 11
71.20188308815676
 21
199.7076951553476
 31
0.0
  0
LINE
  5
8206
  8
0
 10
71.20188308815676
 20
199.2001951553479
 30
0.0
 11
71.99938308815689
 21
199.2001951553479
 31
0.0
  0
LINE
  5
8207
  8
0
 10
70.6943830881566
 20
199.7076951553476
 30
0.0
 11
71.20188308815676
 21
199.7076951553476
 31
0.0
  0
LINE
  5
8208
  8
0
 10
70.6943830881566
 20
200.432695155348
 30
0.0
 11
71.20188308815676
 21
200.432695155348
 31
0.0
  0
ARC
  5
8209
  8
0
 10
70.94813308815691
 20
200.6864451553479
 30
0.0
 40
1.05125
 50
0.0
 51
180.0
  0
ARC
  5
820A
  8
0
 10
70.94813308815691
 20
200.6864451553479
 30
0.0
 40
0.25375
 50
0.0
 51
180.0
  0
LINE
  5
820B
  8
0
 10
70.6943830881566
 20
200.432695155348
 30
0.0
 11
70.6943830881566
 21
200.6864451553479
 31
0.0
  0
LINE
  5
820C
  8
0
 10
71.20188308815676
 20
200.6864451553479
 30
0.0
 11
71.20188308815676
 21
200.432695155348
 31
0.0
  0
LINE
  5
820D
  8
0
 10
72.21688308815664
 20
199.2001951553479
 30
0.0
 11
72.21688308815664
 21
201.7376951553485
 31
0.0
  0
LINE
  5
820E
  8
0
 10
74.3193830881566
 20
199.2001951553479
 30
0.0
 11
74.3193830881566
 21
199.7801951553479
 31
0.0
  0
LINE
  5
820F
  8
0
 10
72.21688308815664
 20
199.2001951553479
 30
0.0
 11
73.01438308815676
 21
199.2001951553479
 31
0.0
  0
LINE
  5
8210
  8
0
 10
73.15938308815674
 20
199.9976951553481
 30
0.0
 11
73.30438308815673
 21
199.9976951553481
 31
0.0
  0
LINE
  5
8211
  8
0
 10
73.15938308815674
 20
200.5776951553484
 30
0.0
 11
73.30438308815673
 21
200.5776951553484
 31
0.0
  0
LINE
  5
8212
  8
0
 10
73.01438308815676
 20
199.2001951553479
 30
0.0
 11
73.01438308815676
 21
201.0126951553482
 31
0.0
  0
LINE
  5
8213
  8
0
 10
73.52188308815693
 20
199.2001951553479
 30
0.0
 11
73.52188308815693
 21
199.7801951553479
 31
0.0
  0
ARC
  5
8214
  8
0
 10
73.30438308815673
 20
199.7801951553479
 30
0.0
 40
0.2175
 50
0.0
 51
90.0
  0
ARC
  5
8215
  8
0
 10
73.30438308815673
 20
199.7801951553479
 30
0.0
 40
1.015
 50
0.0
 51
30.66296328368307
  0
LINE
  5
8216
  8
0
 10
72.21688308815664
 20
201.7376951553485
 30
0.0
 11
73.37688308815649
 21
201.7376951553485
 31
0.0
  0
LINE
  5
8217
  8
0
 10
73.01438308815676
 20
201.0126951553482
 30
0.0
 11
73.30438308815673
 21
201.0126951553482
 31
0.0
  0
LINE
  5
8218
  8
0
 10
73.52188308815693
 20
199.2001951553479
 30
0.0
 11
74.3193830881566
 21
199.2001951553479
 31
0.0
  0
ARC
  5
8219
  8
0
 10
73.30438308815673
 20
200.7951951553482
 30
0.0
 40
0.2175
 50
270.0
 51
90.0
  0
ARC
  5
821A
  8
0
 10
73.37688308815649
 20
200.7951951553482
 30
0.0
 40
0.9425
 50
328.1493895340992
 51
90.0
  0
LINE
  5
821B
  8
0
 10
73.15938308815674
 20
200.5776951553484
 30
0.0
 11
73.15938308815674
 21
199.9976951553481
 31
0.0
  0
LINE
  5
821C
  8
0
 10
74.5368830881568
 20
199.2001951553479
 30
0.0
 11
74.5368830881568
 21
201.7376951553485
 31
0.0
  0
LINE
  5
821D
  8
0
 10
75.33438308815693
 20
199.2001951553479
 30
0.0
 11
75.33438308815693
 21
201.7376951553485
 31
0.0
  0
LINE
  5
821E
  8
0
 10
78.23438308815656
 20
199.236445155348
 30
0.0
 11
78.23438308815656
 21
200.6864451553479
 31
0.0
  0
LINE
  5
821F
  8
0
 10
74.5368830881568
 20
201.7376951553485
 30
0.0
 11
75.33438308815693
 21
201.7376951553485
 31
0.0
  0
LINE
  5
8220
  8
0
 10
74.5368830881568
 20
199.2001951553479
 30
0.0
 11
75.33438308815693
 21
199.2001951553479
 31
0.0
  0
ARC
  5
8221
  8
0
 10
77.50938308815665
 20
200.4689451553481
 30
0.0
 40
1.305
 50
84.27518954777628
 51
281.4211862750073
  0
ARC
  5
8222
  8
0
 10
77.50938308815665
 20
200.4689451553481
 30
0.0
 40
0.5075000000000001
 50
84.27518954777645
 51
270.0
  0
CIRCLE
  5
8223
  8
0
 10
79.7568830881566
 20
200.4689451553481
 30
0.0
 40
1.305
  0
CIRCLE
  5
8224
  8
0
 10
79.7568830881566
 20
200.4689451553481
 30
0.0
 40
0.5075000000000001
  0
LINE
  5
8225
  8
0
 10
77.50938308815665
 20
199.9614451553484
 30
0.0
 11
77.50938308815665
 21
200.6864451553479
 31
0.0
  0
LINE
  5
8226
  8
0
 10
77.50938308815665
 20
200.6864451553479
 30
0.0
 11
78.23438308815656
 21
200.6864451553479
 31
0.0
  0
LINE
  5
8227
  8
0
 10
77.76779892974099
 20
199.1897867395068
 30
0.0
 11
78.23438308815656
 21
199.236445155348
 31
0.0
  0
LINE
  5
8228
  8
0
 10
77.63955765174768
 20
201.7674364271686
 30
0.0
 11
78.23438308815656
 21
201.7376951553485
 31
0.0
  0
LINE
  5
8229
  8
0
 10
78.23438308815656
 20
201.7376951553485
 30
0.0
 11
78.23438308815656
 21
200.9401951553479
 31
0.0
  0
LINE
  5
822A
  8
0
 10
78.23438308815656
 20
200.9401951553479
 30
0.0
 11
77.56000652955316
 21
200.9739139832788
 31
0.0
  0
LINE
  5
822B
  8
0
 10
81.27938308815664
 20
199.2001951553479
 30
0.0
 11
81.27938308815664
 21
201.7376951553485
 31
0.0
  0
LINE
  5
822C
  8
0
 10
83.3818830881566
 20
199.2001951553479
 30
0.0
 11
83.3818830881566
 21
199.7801951553479
 31
0.0
  0
LINE
  5
822D
  8
0
 10
83.3818830881566
 20
201.1576951553486
 30
0.0
 11
83.3818830881566
 21
201.7376951553485
 31
0.0
  0
LINE
  5
822E
  8
0
 10
81.27938308815664
 20
199.2001951553479
 30
0.0
 11
82.07688308815676
 21
199.2001951553479
 31
0.0
  0
LINE
  5
822F
  8
0
 10
81.27938308815664
 20
201.7376951553485
 30
0.0
 11
82.07688308815676
 21
201.7376951553485
 31
0.0
  0
LINE
  5
8230
  8
0
 10
82.07688308815676
 20
201.7376951553485
 30
0.0
 11
82.07688308815676
 21
200.8676951553484
 31
0.0
  0
LINE
  5
8231
  8
0
 10
82.58438308815693
 20
201.7376951553485
 30
0.0
 11
82.58438308815693
 21
201.1576951553486
 31
0.0
  0
LINE
  5
8232
  8
0
 10
82.07688308815676
 20
199.2001951553479
 30
0.0
 11
82.07688308815676
 21
200.0701951553478
 31
0.0
  0
LINE
  5
8233
  8
0
 10
82.58438308815693
 20
199.2001951553479
 30
0.0
 11
82.58438308815693
 21
199.7801951553479
 31
0.0
  0
ARC
  5
8234
  8
0
 10
82.29438308815651
 20
199.7801951553479
 30
0.0
 40
0.29
 50
0.0
 51
90.0
  0
ARC
  5
8235
  8
0
 10
82.29438308815651
 20
199.7801951553479
 30
0.0
 40
1.0875
 50
0.0
 51
39.29648023917586
  0
LINE
  5
8236
  8
0
 10
82.58438308815693
 20
201.7376951553485
 30
0.0
 11
83.3818830881566
 21
201.7376951553485
 31
0.0
  0
LINE
  5
8237
  8
0
 10
82.58438308815693
 20
199.2001951553479
 30
0.0
 11
83.3818830881566
 21
199.2001951553479
 31
0.0
  0
LINE
  5
8238
  8
0
 10
82.07688308815676
 20
200.8676951553484
 30
0.0
 11
82.29438308815651
 21
200.8676951553484
 31
0.0
  0
ARC
  5
8239
  8
0
 10
82.29438308815651
 20
201.1576951553486
 30
0.0
 40
0.29
 50
270.0
 51
0.0
  0
ARC
  5
823A
  8
0
 10
82.29438308815651
 20
201.1576951553486
 30
0.0
 40
1.0875
 50
320.7035197608199
 51
0.0
  0
LINE
  5
823B
  8
0
 10
82.07688308815676
 20
200.0701951553478
 30
0.0
 11
82.29438308815651
 21
200.0701951553478
 31
0.0
  0
LINE
  5
823C
  8
0
 10
83.5993830881568
 20
199.2001951553479
 30
0.0
 11
83.5993830881568
 21
201.7376951553485
 31
0.0
  0
LINE
  5
823D
  8
0
 10
84.39688308815693
 20
199.2001951553479
 30
0.0
 11
84.39688308815693
 21
201.7376951553485
 31
0.0
  0
LINE
  5
823E
  8
0
 10
83.5993830881568
 20
201.7376951553485
 30
0.0
 11
84.39688308815693
 21
201.7376951553485
 31
0.0
  0
LINE
  5
823F
  8
0
 10
83.5993830881568
 20
199.2001951553479
 30
0.0
 11
84.39688308815693
 21
199.2001951553479
 31
0.0
  0
LINE
  5
8240
  8
0
 10
84.61438308815667
 20
199.2001951553479
 30
0.0
 11
84.61438308815667
 21
200.6864451553479
 31
0.0
  0
LINE
  5
8241
  8
0
 10
86.71688308815664
 20
199.2001951553479
 30
0.0
 11
86.71688308815664
 21
200.6864451553479
 31
0.0
  0
LINE
  5
8242
  8
0
 10
84.61438308815667
 20
199.2001951553479
 30
0.0
 11
85.4118830881568
 21
199.2001951553479
 31
0.0
  0
LINE
  5
8243
  8
0
 10
85.4118830881568
 20
199.2001951553479
 30
0.0
 11
85.4118830881568
 21
200.6864451553479
 31
0.0
  0
LINE
  5
8244
  8
0
 10
85.91938308815651
 20
199.2001951553479
 30
0.0
 11
85.91938308815651
 21
200.6864451553479
 31
0.0
  0
LINE
  5
8245
  8
0
 10
85.91938308815651
 20
199.2001951553479
 30
0.0
 11
86.71688308815664
 21
199.2001951553479
 31
0.0
  0
ARC
  5
8246
  8
0
 10
85.66563308815665
 20
200.6864451553479
 30
0.0
 40
1.05125
 50
0.0
 51
180.0
  0
ARC
  5
8247
  8
0
 10
85.66563308815665
 20
200.6864451553479
 30
0.0
 40
0.25375
 50
0.0
 51
180.0
  0
TEXT
  5
8248
  8
0
 10
64.12054728110664
 20
202.4447895508108
 30
0.0
 40
1.8
  1
電動水抜操作盤 EVCK
  0
TEXT
  5
8249
  8
0
 62
     7
 10
69.34300643006684
 20
212.9715320646848
 30
0.0
 40
4.0
  1
PUSH
 41
1.2
  0
CIRCLE
  5
824A
  8
0
 10
75.5218561517737
 20
214.8911362700032
 30
0.0
 40
8.25
  0
INSERT
  5
824B
  8
0
 62
     7
  2
*X9
 10
0.0
 20
0.0
 30
0.0
  0
TEXT
  5
824C
  8
0
 62
     7
 10
67.5977269413487
 20
238.9769742415559
 30
0.0
 40
1.9
  1
給水
  0
LINE
  5
824D
  8
0
 10
83.07185615177343
 20
234.5411362700028
 30
0.0
 11
67.97185615177398
 21
234.5411362700028
 31
0.0
  0
LINE
  5
824E
  8
0
 10
83.07185615177343
 20
235.2411362700029
 30
0.0
 11
67.97185615177398
 21
235.2411362700029
 31
0.0
  0
CIRCLE
  5
824F
  8
0
 10
80.92346969118819
 20
239.8911362700032
 30
0.0
 40
2.0
  0
ARC
  5
8250
  8
0
 10
67.97185615177398
 20
234.8911362700027
 30
0.0
 40
0.3500000000000227
 50
90.0
 51
270.0
  0
ARC
  5
8251
  8
0
 10
83.07185615177343
 20
234.8911362700027
 30
0.0
 40
0.3500000000000227
 50
270.0
 51
90.0
  0
CIRCLE
  5
8282
  8
0
 10
83.98737262160296
 20
247.0280350964031
 30
0.0
 40
0.84375
  0
TEXT
  5
8283
  8
0
 10
83.44737262160295
 20
246.4520350964031
 30
0.0
 40
1.08
  1
Ｒ
 72
     4
 11
83.98737262160296
 21
247.0280350964031
 31
0.0
  0
LINE
  5
828E
  8
0
 10
80.7734696911881
 20
226.7911362700032
 30
0.0
 11
80.7734696911881
 21
227.3375828794099
 31
0.0
1001
GENIUS_GENODEF_13
1002
{
1000
HIER
1070
     0
1002
}
1002
{
1000
MANEDIT
1070
     0
1002
}
1002
{
1000
NOSEL
1070
     0
1002
}
1002
{
1000
BEHIND
1070
     0
1002
}
1002
{
1000
OTHER
1070
     0
1002
}
1002
{
1000
REACTOR
1002
}
1001
GENIUS_GENOBJ-N-CEN_13
1002
{
1000
OWNER
1000
GEN
1002
}
1001
GENIUS_GENCEN_19
1002
{
1040
3.0
1002
}
  0
LINE
  5
828F
  8
0
 10
81.07346969118828
 20
226.7911362700032
 30
0.0
 11
81.07346969118828
 21
227.3375828794099
 31
0.0
1001
GENIUS_GENODEF_13
1002
{
1000
HIER
1070
     0
1002
}
1002
{
1000
MANEDIT
1070
     0
1002
}
1002
{
1000
NOSEL
1070
     0
1002
}
1002
{
1000
BEHIND
1070
     0
1002
}
1002
{
1000
OTHER
1070
     0
1002
}
1002
{
1000
REACTOR
1002
}
1001
GENIUS_GENOBJ-N-CEN_13
1002
{
1000
OWNER
1000
GEN
1002
}
1001
GENIUS_GENCEN_19
1002
{
1040
3.0
1002
}
  0
LINE
  5
8290
  8
0
 10
81.07346969118828
 20
230.8911362700033
 30
0.0
 11
81.71929649613514
 21
231.5369630749503
 31
0.0
  0
LINE
  5
8291
  8
0
 10
81.07346969118828
 20
231.3911362700033
 30
0.0
 11
81.46929649613514
 21
231.7869630749503
 31
0.0
  0
ARC
  5
8292
  8
0
 10
80.92346969118819
 20
232.9911362700032
 30
0.0
 40
0.1499999999999773
 50
0.0
 51
180.0
  0
ARC
  5
8293
  8
0
 10
81.59429649613514
 20
231.6619630749503
 30
0.0
 40
0.1767766952966168
 50
315.0000000000326
 51
135.0000000000065
  0
LINE
  5
8294
  8
0
 10
80.7734696911881
 20
230.8911362700033
 30
0.0
 11
80.12764288624123
 21
231.5369630749503
 31
0.0
  0
LINE
  5
8295
  8
0
 10
80.7734696911881
 20
231.3911362700033
 30
0.0
 11
80.37764288624123
 21
231.7869630749503
 31
0.0
  0
ARC
  5
8296
  8
0
 10
80.25264288624123
 20
231.6619630749503
 30
0.0
 40
0.1767766952966168
 50
44.99999999999348
 51
224.9999999999674
  0
LINE
  5
8297
  8
0
 10
81.07346969118828
 20
232.0911362700032
 30
0.0
 11
81.47225558840967
 21
232.4899221672246
 31
0.0
  0
LINE
  5
8298
  8
0
 10
81.07346969118828
 20
232.4446896605965
 30
0.0
 11
81.295478893113
 21
232.6666988625212
 31
0.0
  0
ARC
  5
8299
  8
0
 10
81.3838672407611
 20
232.5783105148731
 30
0.0
 40
0.1249999999999206
 50
314.9999999998987
 51
134.9999999999171
  0
LINE
  5
829A
  8
0
 10
82.75372557951403
 20
228.6612324594357
 30
0.0
 11
82.8996913485679
 21
228.1164807931603
 31
0.0
  0
LINE
  5
829B
  8
0
 10
83.0599117973619
 20
228.484455764139
 30
0.0
 11
83.14117280514017
 21
228.181185554436
 31
0.0
  0
ARC
  5
829C
  8
0
 10
83.48082962642718
 20
228.9462651213387
 30
0.0
 40
0.1249999999999206
 50
285.0000000000046
 51
105.0000000000046
  0
LINE
  5
829D
  8
0
 10
81.07346969118828
 20
228.8911362700033
 30
0.0
 11
81.07346969118828
 21
229.283619434614
 31
0.0
1001
GENIUS_GENODEF_13
1002
{
1000
HIER
1070
     0
1002
}
1002
{
1000
MANEDIT
1070
     0
1002
}
1002
{
1000
NOSEL
1070
     0
1002
}
1002
{
1000
BEHIND
1070
     0
1002
}
1002
{
1000
OTHER
1070
     0
1002
}
1002
{
1000
REACTOR
1002
}
1001
GENIUS_GENOBJ-N-CEN_13
1002
{
1000
OWNER
1000
GEN
1002
}
1001
GENIUS_GENCEN_19
1002
{
1040
3.0
1002
}
  0
LINE
  5
829E
  8
0
 10
83.20991179736177
 20
228.7442633852743
 30
0.0
 11
83.51318200706498
 21
228.8255243930527
 31
0.0
  0
ARC
  5
829F
  8
0
 10
83.02043207685426
 20
228.1488331737981
 30
0.0
 40
0.1249999999999206
 50
194.9999999999509
 51
14.99999999999029
  0
LINE
  5
82A0
  8
0
 10
82.90372557951389
 20
228.921040080571
 30
0.0
 11
83.44847724578938
 21
229.067005849625
 31
0.0
  0
LINE
  5
82A1
  8
0
 10
81.07346969118828
 20
227.6911362700033
 30
0.0
 11
81.07346969118828
 21
228.3911362700033
 31
0.0
1001
GENIUS_GENODEF_13
1002
{
1000
HIER
1070
     0
1002
}
1002
{
1000
MANEDIT
1070
     0
1002
}
1002
{
1000
NOSEL
1070
     0
1002
}
1002
{
1000
BEHIND
1070
     0
1002
}
1002
{
1000
OTHER
1070
     0
1002
}
1002
{
1000
REACTOR
1002
}
1001
GENIUS_GENOBJ-N-CEN_13
1002
{
1000
OWNER
1000
GEN
1002
}
1001
GENIUS_GENCEN_19
1002
{
1040
3.0
1002
}
  0
LINE
  5
82A2
  8
0
 10
80.7734696911881
 20
227.6911362700033
 30
0.0
 11
80.7734696911881
 21
228.3911362700033
 31
0.0
1001
GENIUS_GENODEF_13
1002
{
1000
HIER
1070
     0
1002
}
1002
{
1000
MANEDIT
1070
     0
1002
}
1002
{
1000
NOSEL
1070
     0
1002
}
1002
{
1000
BEHIND
1070
     0
1002
}
1002
{
1000
OTHER
1070
     0
1002
}
1002
{
1000
REACTOR
1002
}
1001
GENIUS_GENOBJ-N-CEN_13
1002
{
1000
OWNER
1000
GEN
1002
}
1001
GENIUS_GENCEN_19
1002
{
1040
3.0
1002
}
  0
LINE
  5
82A3
  8
0
 10
80.7734696911881
 20
232.4446896605965
 30
0.0
 11
80.7734696911881
 21
232.9911362700032
 31
0.0
1001
GENIUS_GENODEF_13
1002
{
1000
HIER
1070
     0
1002
}
1002
{
1000
MANEDIT
1070
     0
1002
}
1002
{
1000
NOSEL
1070
     0
1002
}
1002
{
1000
BEHIND
1070
     0
1002
}
1002
{
1000
OTHER
1070
     0
1002
}
1002
{
1000
REACTOR
1002
}
1001
GENIUS_GENOBJ-N-CEN_13
1002
{
1000
OWNER
1000
GEN
1002
}
1001
GENIUS_GENCEN_19
1002
{
1040
3.0
1002
}
  0
LINE
  5
82A4
  8
0
 10
81.07346969118828
 20
232.4446896605965
 30
0.0
 11
81.07346969118828
 21
232.9911362700032
 31
0.0
1001
GENIUS_GENODEF_13
1002
{
1000
HIER
1070
     0
1002
}
1002
{
1000
MANEDIT
1070
     0
1002
}
1002
{
1000
NOSEL
1070
     0
1002
}
1002
{
1000
BEHIND
1070
     0
1002
}
1002
{
1000
OTHER
1070
     0
1002
}
1002
{
1000
REACTOR
1002
}
1001
GENIUS_GENOBJ-N-CEN_13
1002
{
1000
OWNER
1000
GEN
1002
}
1001
GENIUS_GENCEN_19
1002
{
1040
3.0
1002
}
  0
ARC
  5
82A5
  8
0
 10
80.46307214161527
 20
232.5783105148731
 30
0.0
 40
0.1249999999999206
 50
45.00000000002763
 51
224.999999999954
  0
LINE
  5
82A6
  8
0
 10
80.7734696911881
 20
232.4446896605965
 30
0.0
 11
80.55146048926338
 21
232.6666988625212
 31
0.0
  0
LINE
  5
82A7
  8
0
 10
80.7734696911881
 20
232.0911362700032
 30
0.0
 11
80.37468379396671
 21
232.4899221672246
 31
0.0
  0
LINE
  5
82A8
  8
0
 10
81.07346969118828
 20
231.3911362700033
 30
0.0
 11
81.07346969118828
 21
232.0911362700032
 31
0.0
1001
GENIUS_GENODEF_13
1002
{
1000
HIER
1070
     0
1002
}
1002
{
1000
MANEDIT
1070
     0
1002
}
1002
{
1000
NOSEL
1070
     0
1002
}
1002
{
1000
BEHIND
1070
     0
1002
}
1002
{
1000
OTHER
1070
     0
1002
}
1002
{
1000
REACTOR
1002
}
1001
GENIUS_GENOBJ-N-CEN_13
1002
{
1000
OWNER
1000
GEN
1002
}
1001
GENIUS_GENCEN_19
1002
{
1040
3.0
1002
}
  0
LINE
  5
82A9
  8
0
 10
80.7734696911881
 20
231.3911362700033
 30
0.0
 11
80.7734696911881
 21
232.0911362700032
 31
0.0
1001
GENIUS_GENODEF_13
1002
{
1000
HIER
1070
     0
1002
}
1002
{
1000
MANEDIT
1070
     0
1002
}
1002
{
1000
NOSEL
1070
     0
1002
}
1002
{
1000
BEHIND
1070
     0
1002
}
1002
{
1000
OTHER
1070
     0
1002
}
1002
{
1000
REACTOR
1002
}
1001
GENIUS_GENOBJ-N-CEN_13
1002
{
1000
OWNER
1000
GEN
1002
}
1001
GENIUS_GENCEN_19
1002
{
1040
3.0
1002
}
  0
LINE
  5
82AA
  8
0
 10
81.07346969118828
 20
227.3375828794099
 30
0.0
 11
81.295478893113
 21
227.1155736774852
 31
0.0
  0
LINE
  5
82AB
  8
0
 10
80.7734696911881
 20
228.3911362700033
 30
0.0
 11
80.37764288624123
 21
227.9953094650562
 31
0.0
  0
ARC
  5
82AC
  8
0
 10
80.92346969118819
 20
226.7911362700032
 30
0.0
 40
0.1499999999999773
 50
180.0
 51
0.0
  0
ARC
  5
82AD
  8
0
 10
81.59429649613514
 20
228.1203094650562
 30
0.0
 40
0.1767766952966168
 50
224.9999999999935
 51
44.99999999999348
  0
ARC
  5
82AE
  8
0
 10
80.25264288624123
 20
228.1203094650562
 30
0.0
 40
0.1767766952966168
 50
135.0000000000065
 51
315.0000000000065
  0
LINE
  5
82AF
  8
0
 10
81.07346969118828
 20
228.3911362700033
 30
0.0
 11
81.46929649613514
 21
227.9953094650562
 31
0.0
  0
LINE
  5
82B0
  8
0
 10
80.7734696911881
 20
228.8911362700033
 30
0.0
 11
80.12764288624123
 21
228.2453094650562
 31
0.0
  0
ARC
  5
82B1
  8
0
 10
81.3838672407611
 20
227.2039620251334
 30
0.0
 40
0.1249999999999206
 50
225.0000000000645
 51
44.99999999995394
  0
LINE
  5
82B2
  8
0
 10
80.7734696911881
 20
227.6911362700033
 30
0.0
 11
80.37468379396671
 21
227.2923503727819
 31
0.0
  0
LINE
  5
82B3
  8
0
 10
81.07346969118828
 20
227.6911362700033
 30
0.0
 11
81.47225558840967
 21
227.2923503727819
 31
0.0
  0
LINE
  5
82B4
  8
0
 10
81.07346969118828
 20
228.8911362700033
 30
0.0
 11
81.71929649613514
 21
228.2453094650562
 31
0.0
  0
ARC
  5
82B5
  8
0
 10
80.46307214161527
 20
227.2039620251334
 30
0.0
 40
0.1249999999999206
 50
134.9999999998987
 51
314.9999999998987
  0
LINE
  5
82B6
  8
0
 10
80.7734696911881
 20
227.3375828794099
 30
0.0
 11
80.55146048926338
 21
227.1155736774852
 31
0.0
  0
LINE
  5
82B7
  8
0
 10
82.14750779686494
 20
230.7710400805709
 30
0.0
 11
82.29239046297437
 21
231.3117495516273
 31
0.0
  0
ARC
  5
82B8
  8
0
 10
82.12163728750136
 20
231.3575027271004
 30
0.0
 40
0.1767766952966168
 50
344.9999999999747
 51
164.9999999999747
  0
LINE
  5
82B9
  8
0
 10
78.78702758501453
 20
228.484455764139
 30
0.0
 11
78.31379093945651
 21
228.2112324594356
 31
0.0
1001
GENIUS_GENODEF_13
1002
{
1000
HIER
1070
     0
1002
}
1002
{
1000
MANEDIT
1070
     0
1002
}
1002
{
1000
NOSEL
1070
     0
1002
}
1002
{
1000
BEHIND
1070
     0
1002
}
1002
{
1000
OTHER
1070
     0
1002
}
1002
{
1000
REACTOR
1002
}
1001
GENIUS_GENOBJ-N-CEN_13
1002
{
1000
OWNER
1000
GEN
1002
}
1001
GENIUS_GENCEN_19
1002
{
1040
3.0
1002
}
  0
LINE
  5
82BA
  8
0
 10
81.86449509497254
 20
230.2612324594356
 30
0.0
 11
82.7467109169753
 21
230.02484344238
 31
0.0
  0
LINE
  5
82BB
  8
0
 10
82.90372557951389
 20
230.8612324594356
 30
0.0
 11
83.44847724578938
 21
230.7152666903816
 31
0.0
  0
LINE
  5
82BC
  8
0
 10
83.20991179736177
 20
231.0380091547323
 30
0.0
 11
83.51318200706498
 21
230.9567481469539
 31
0.0
  0
ARC
  5
82BD
  8
0
 10
83.48082962642718
 20
230.8360074186679
 30
0.0
 40
0.1249999999999206
 50
254.9999999999954
 51
74.99999999999544
  0
LINE
  5
82BE
  8
0
 10
82.75372557951403
 20
231.1210400805709
 30
0.0
 11
82.8996913485679
 21
231.6657917468463
 31
0.0
  0
LINE
  5
82BF
  8
0
 10
79.54943158551163
 20
229.2710400805709
 30
0.0
 11
78.94321380286254
 21
228.9210400805709
 31
0.0
1001
GENIUS_GENODEF_13
1002
{
1000
HIER
1070
     0
1002
}
1002
{
1000
MANEDIT
1070
     0
1002
}
1002
{
1000
NOSEL
1070
     0
1002
}
1002
{
1000
BEHIND
1070
     0
1002
}
1002
{
1000
OTHER
1070
     0
1002
}
1002
{
1000
REACTOR
1002
}
1001
GENIUS_GENOBJ-N-CEN_13
1002
{
1000
OWNER
1000
GEN
1002
}
1001
GENIUS_GENCEN_19
1002
{
1040
3.0
1002
}
  0
ARC
  5
82C0
  8
0
 10
79.72530209487502
 20
228.424769812906
 30
0.0
 40
0.1767766952966168
 50
164.9999999999747
 51
345.0000000000139
  0
LINE
  5
82C1
  8
0
 10
79.54943158551163
 20
229.2710400805709
 30
0.0
 11
79.00872211445511
 21
229.4159227466803
 31
0.0
  0
ARC
  5
82C2
  8
0
 10
83.60814844291997
 20
231.4411362700033
 30
0.0
 40
0.1499999999999773
 50
300.0000000000254
 51
120.0000000000254
  0
LINE
  5
82C3
  8
0
 10
81.86449509497254
 20
230.2612324594356
 30
0.0
 11
81.52459470386191
 21
230.0649908771301
 31
0.0
1001
GENIUS_GENODEF_13
1002
{
1000
HIER
1070
     0
1002
}
1002
{
1000
MANEDIT
1070
     0
1002
}
1002
{
1000
NOSEL
1070
     0
1002
}
1002
{
1000
BEHIND
1070
     0
1002
}
1002
{
1000
OTHER
1070
     0
1002
}
1002
{
1000
REACTOR
1002
}
1001
GENIUS_GENOBJ-N-CEN_13
1002
{
1000
OWNER
1000
GEN
1002
}
1001
GENIUS_GENCEN_19
1002
{
1040
3.0
1002
}
  0
LINE
  5
82C4
  8
0
 10
81.71449509497268
 20
230.5210400805709
 30
0.0
 11
81.37459470386204
 21
230.3247984982655
 31
0.0
1001
GENIUS_GENODEF_13
1002
{
1000
HIER
1070
     0
1002
}
1002
{
1000
MANEDIT
1070
     0
1002
}
1002
{
1000
NOSEL
1070
     0
1002
}
1002
{
1000
BEHIND
1070
     0
1002
}
1002
{
1000
OTHER
1070
     0
1002
}
1002
{
1000
REACTOR
1002
}
1001
GENIUS_GENOBJ-N-CEN_13
1002
{
1000
OWNER
1000
GEN
1002
}
1001
GENIUS_GENCEN_19
1002
{
1040
3.0
1002
}
  0
LINE
  5
82C5
  8
0
 10
79.69943158551143
 20
229.0112324594356
 30
0.0
 11
79.55454891940207
 21
228.4705229883792
 31
0.0
  0
LINE
  5
82C6
  8
0
 10
80.1324442874037
 20
229.2612324594356
 30
0.0
 11
79.89605527034826
 21
228.379016637433
 31
0.0
  0
LINE
  5
82C7
  8
0
 10
83.68314844292001
 20
231.3112324594356
 30
0.0
 11
83.20991179736177
 21
231.0380091547323
 31
0.0
1001
GENIUS_GENODEF_13
1002
{
1000
HIER
1070
     0
1002
}
1002
{
1000
MANEDIT
1070
     0
1002
}
1002
{
1000
NOSEL
1070
     0
1002
}
1002
{
1000
BEHIND
1070
     0
1002
}
1002
{
1000
OTHER
1070
     0
1002
}
1002
{
1000
REACTOR
1002
}
1001
GENIUS_GENOBJ-N-CEN_13
1002
{
1000
OWNER
1000
GEN
1002
}
1001
GENIUS_GENCEN_19
1002
{
1040
3.0
1002
}
  0
ARC
  5
82C8
  8
0
 10
78.23879093945646
 20
228.3411362700032
 30
0.0
 40
0.1499999999999773
 50
120.0000000000254
 51
300.0000000000254
  0
ARC
  5
82C9
  8
0
 10
79.05447528992812
 20
229.5866759221533
 30
0.0
 40
0.1767766952966168
 50
75.0000000000127
 51
255.0000000000127
  0
LINE
  5
82CA
  8
0
 10
83.53314844291992
 20
231.571040080571
 30
0.0
 11
83.0599117973619
 21
231.2978167758676
 31
0.0
1001
GENIUS_GENODEF_13
1002
{
1000
HIER
1070
     0
1002
}
1002
{
1000
MANEDIT
1070
     0
1002
}
1002
{
1000
NOSEL
1070
     0
1002
}
1002
{
1000
BEHIND
1070
     0
1002
}
1002
{
1000
OTHER
1070
     0
1002
}
1002
{
1000
REACTOR
1002
}
1001
GENIUS_GENOBJ-N-CEN_13
1002
{
1000
OWNER
1000
GEN
1002
}
1001
GENIUS_GENCEN_19
1002
{
1040
3.0
1002
}
  0
LINE
  5
82CB
  8
0
 10
82.75372557951403
 20
231.1210400805709
 30
0.0
 11
82.14750779686494
 21
230.7710400805709
 31
0.0
1001
GENIUS_GENODEF_13
1002
{
1000
HIER
1070
     0
1002
}
1002
{
1000
MANEDIT
1070
     0
1002
}
1002
{
1000
NOSEL
1070
     0
1002
}
1002
{
1000
BEHIND
1070
     0
1002
}
1002
{
1000
OTHER
1070
     0
1002
}
1002
{
1000
REACTOR
1002
}
1001
GENIUS_GENOBJ-N-CEN_13
1002
{
1000
OWNER
1000
GEN
1002
}
1001
GENIUS_GENCEN_19
1002
{
1040
3.0
1002
}
  0
LINE
  5
82CC
  8
0
 10
78.63702758501466
 20
228.7442633852743
 30
0.0
 11
78.16379093945642
 21
228.471040080571
 31
0.0
1001
GENIUS_GENODEF_13
1002
{
1000
HIER
1070
     0
1002
}
1002
{
1000
MANEDIT
1070
     0
1002
}
1002
{
1000
NOSEL
1070
     0
1002
}
1002
{
1000
BEHIND
1070
     0
1002
}
1002
{
1000
OTHER
1070
     0
1002
}
1002
{
1000
REACTOR
1002
}
1001
GENIUS_GENOBJ-N-CEN_13
1002
{
1000
OWNER
1000
GEN
1002
}
1001
GENIUS_GENCEN_19
1002
{
1040
3.0
1002
}
  0
LINE
  5
82CD
  8
0
 10
82.90372557951389
 20
230.8612324594356
 30
0.0
 11
82.2975077968648
 21
230.5112324594356
 31
0.0
1001
GENIUS_GENODEF_13
1002
{
1000
HIER
1070
     0
1002
}
1002
{
1000
MANEDIT
1070
     0
1002
}
1002
{
1000
NOSEL
1070
     0
1002
}
1002
{
1000
BEHIND
1070
     0
1002
}
1002
{
1000
OTHER
1070
     0
1002
}
1002
{
1000
REACTOR
1002
}
1001
GENIUS_GENOBJ-N-CEN_13
1002
{
1000
OWNER
1000
GEN
1002
}
1001
GENIUS_GENCEN_19
1002
{
1040
3.0
1002
}
  0
LINE
  5
82CE
  8
0
 10
79.09321380286241
 20
228.6612324594356
 30
0.0
 11
78.94724803380853
 21
228.1164807931602
 31
0.0
  0
LINE
  5
82CF
  8
0
 10
78.78702758501453
 20
228.484455764139
 30
0.0
 11
78.70576657723626
 21
228.1811855544359
 31
0.0
  0
ARC
  5
82D0
  8
0
 10
78.82650730552217
 20
228.148833173798
 30
0.0
 40
0.1249999999999206
 50
165.0000000000097
 51
345.0000000001028
  0
LINE
  5
82D1
  8
0
 10
78.94321380286254
 20
228.9210400805709
 30
0.0
 11
78.39846213658706
 21
229.0670058496249
 31
0.0
  0
LINE
  5
82D2
  8
0
 10
78.63702758501466
 20
228.7442633852743
 30
0.0
 11
78.33375737531145
 21
228.8255243930526
 31
0.0
  0
LINE
  5
82D3
  8
0
 10
79.69943158551143
 20
229.0112324594356
 30
0.0
 11
79.09321380286241
 21
228.6612324594356
 31
0.0
1001
GENIUS_GENODEF_13
1002
{
1000
HIER
1070
     0
1002
}
1002
{
1000
MANEDIT
1070
     0
1002
}
1002
{
1000
NOSEL
1070
     0
1002
}
1002
{
1000
BEHIND
1070
     0
1002
}
1002
{
1000
OTHER
1070
     0
1002
}
1002
{
1000
REACTOR
1002
}
1001
GENIUS_GENOBJ-N-CEN_13
1002
{
1000
OWNER
1000
GEN
1002
}
1001
GENIUS_GENCEN_19
1002
{
1040
3.0
1002
}
  0
LINE
  5
82D4
  8
0
 10
79.98244428740384
 20
229.5210400805709
 30
0.0
 11
79.10022846540113
 21
229.7574290976265
 31
0.0
  0
ARC
  5
82D5
  8
0
 10
78.36610975594925
 20
228.9462651213386
 30
0.0
 40
0.1249999999999206
 50
74.99999999999544
 51
254.9999999999954
  0
LINE
  5
82D6
  8
0
 10
82.2975077968648
 20
230.5112324594356
 30
0.0
 11
82.83821726792132
 21
230.3663497933262
 31
0.0
  0
ARC
  5
82D7
  8
0
 10
82.79246409244831
 20
230.1955966178531
 30
0.0
 40
0.1767766952966168
 50
255.0000000000127
 51
75.0000000000127
  0
LINE
  5
82D8
  8
0
 10
81.71449509497268
 20
230.5210400805709
 30
0.0
 11
81.95088411202835
 21
231.4032559025734
 31
0.0
  0
LINE
  5
82D9
  8
0
 10
80.7734696911881
 20
228.8911362700033
 30
0.0
 11
80.7734696911881
 21
229.283619434614
 31
0.0
1001
GENIUS_GENODEF_13
1002
{
1000
HIER
1070
     0
1002
}
1002
{
1000
MANEDIT
1070
     0
1002
}
1002
{
1000
NOSEL
1070
     0
1002
}
1002
{
1000
BEHIND
1070
     0
1002
}
1002
{
1000
OTHER
1070
     0
1002
}
1002
{
1000
REACTOR
1002
}
1001
GENIUS_GENOBJ-N-CEN_13
1002
{
1000
OWNER
1000
GEN
1002
}
1001
GENIUS_GENCEN_19
1002
{
1040
3.0
1002
}
  0
LINE
  5
82DA
  8
0
 10
83.0599117973619
 20
231.2978167758676
 30
0.0
 11
83.14117280514017
 21
231.6010869855706
 31
0.0
  0
ARC
  5
82DB
  8
0
 10
83.02043207685426
 20
231.6334393662085
 30
0.0
 40
0.1249999999999206
 50
344.9999999999954
 51
165.0000000001028
  0
LINE
  5
82DC
  8
0
 10
78.78702758501453
 20
231.2978167758676
 30
0.0
 11
78.70576657723626
 21
231.6010869855707
 31
0.0
  0
LINE
  5
82DD
  8
0
 10
78.94321380286254
 20
230.8612324594356
 30
0.0
 11
78.39846213658706
 21
230.7152666903816
 31
0.0
  0
LINE
  5
82DE
  8
0
 10
78.63702758501466
 20
231.0380091547323
 30
0.0
 11
78.33375737531145
 21
230.956748146954
 31
0.0
  0
LINE
  5
82DF
  8
0
 10
82.75372557951403
 20
228.6612324594357
 30
0.0
 11
82.14750779686494
 21
229.0112324594357
 31
0.0
1001
GENIUS_GENODEF_13
1002
{
1000
HIER
1070
     0
1002
}
1002
{
1000
MANEDIT
1070
     0
1002
}
1002
{
1000
NOSEL
1070
     0
1002
}
1002
{
1000
BEHIND
1070
     0
1002
}
1002
{
1000
OTHER
1070
     0
1002
}
1002
{
1000
REACTOR
1002
}
1001
GENIUS_GENOBJ-N-CEN_13
1002
{
1000
OWNER
1000
GEN
1002
}
1001
GENIUS_GENCEN_19
1002
{
1040
3.0
1002
}
  0
LINE
  5
82E0
  8
0
 10
82.90372557951389
 20
228.921040080571
 30
0.0
 11
82.2975077968648
 21
229.271040080571
 31
0.0
1001
GENIUS_GENODEF_13
1002
{
1000
HIER
1070
     0
1002
}
1002
{
1000
MANEDIT
1070
     0
1002
}
1002
{
1000
NOSEL
1070
     0
1002
}
1002
{
1000
BEHIND
1070
     0
1002
}
1002
{
1000
OTHER
1070
     0
1002
}
1002
{
1000
REACTOR
1002
}
1001
GENIUS_GENOBJ-N-CEN_13
1002
{
1000
OWNER
1000
GEN
1002
}
1001
GENIUS_GENCEN_19
1002
{
1040
3.0
1002
}
  0
ARC
  5
82E1
  8
0
 10
78.82650730552217
 20
231.6334393662085
 30
0.0
 40
0.1249999999999206
 50
14.99999999995087
 51
194.9999999999509
  0
ARC
  5
82E2
  8
0
 10
78.36610975594925
 20
230.8360074186679
 30
0.0
 40
0.1249999999999206
 50
105.0000000000046
 51
285.0000000000046
  0
LINE
  5
82E3
  8
0
 10
81.71449509497268
 20
229.2612324594357
 30
0.0
 11
81.37459470386204
 21
229.457474041741
 31
0.0
1001
GENIUS_GENODEF_13
1002
{
1000
HIER
1070
     0
1002
}
1002
{
1000
MANEDIT
1070
     0
1002
}
1002
{
1000
NOSEL
1070
     0
1002
}
1002
{
1000
BEHIND
1070
     0
1002
}
1002
{
1000
OTHER
1070
     0
1002
}
1002
{
1000
REACTOR
1002
}
1001
GENIUS_GENOBJ-N-CEN_13
1002
{
1000
OWNER
1000
GEN
1002
}
1001
GENIUS_GENCEN_19
1002
{
1040
3.0
1002
}
  0
LINE
  5
82E4
  8
0
 10
78.78702758501453
 20
231.2978167758676
 30
0.0
 11
78.31379093945651
 21
231.571040080571
 31
0.0
1001
GENIUS_GENODEF_13
1002
{
1000
HIER
1070
     0
1002
}
1002
{
1000
MANEDIT
1070
     0
1002
}
1002
{
1000
NOSEL
1070
     0
1002
}
1002
{
1000
BEHIND
1070
     0
1002
}
1002
{
1000
OTHER
1070
     0
1002
}
1002
{
1000
REACTOR
1002
}
1001
GENIUS_GENOBJ-N-CEN_13
1002
{
1000
OWNER
1000
GEN
1002
}
1001
GENIUS_GENCEN_19
1002
{
1040
3.0
1002
}
  0
LINE
  5
82E5
  8
0
 10
79.69943158551143
 20
230.771040080571
 30
0.0
 11
79.55454891940207
 21
231.3117495516274
 31
0.0
  0
LINE
  5
82E6
  8
0
 10
81.86449509497254
 20
229.521040080571
 30
0.0
 11
82.7467109169753
 21
229.7574290976265
 31
0.0
  0
ARC
  5
82E7
  8
0
 10
79.72530209487502
 20
231.3575027271004
 30
0.0
 40
0.1767766952966168
 50
15.00000000002528
 51
194.9999999999861
  0
LINE
  5
82E8
  8
0
 10
83.53314844291992
 20
228.2112324594356
 30
0.0
 11
83.0599117973619
 21
228.484455764139
 31
0.0
1001
GENIUS_GENODEF_13
1002
{
1000
HIER
1070
     0
1002
}
1002
{
1000
MANEDIT
1070
     0
1002
}
1002
{
1000
NOSEL
1070
     0
1002
}
1002
{
1000
BEHIND
1070
     0
1002
}
1002
{
1000
OTHER
1070
     0
1002
}
1002
{
1000
REACTOR
1002
}
1001
GENIUS_GENOBJ-N-CEN_13
1002
{
1000
OWNER
1000
GEN
1002
}
1001
GENIUS_GENCEN_19
1002
{
1040
3.0
1002
}
  0
LINE
  5
82E9
  8
0
 10
79.98244428740384
 20
230.2612324594357
 30
0.0
 11
79.10022846540113
 21
230.0248434423801
 31
0.0
  0
LINE
  5
82EA
  8
0
 10
81.86449509497254
 20
229.521040080571
 30
0.0
 11
81.52459470386191
 21
229.7172816628764
 31
0.0
1001
GENIUS_GENODEF_13
1002
{
1000
HIER
1070
     0
1002
}
1002
{
1000
MANEDIT
1070
     0
1002
}
1002
{
1000
NOSEL
1070
     0
1002
}
1002
{
1000
BEHIND
1070
     0
1002
}
1002
{
1000
OTHER
1070
     0
1002
}
1002
{
1000
REACTOR
1002
}
1001
GENIUS_GENOBJ-N-CEN_13
1002
{
1000
OWNER
1000
GEN
1002
}
1001
GENIUS_GENCEN_19
1002
{
1040
3.0
1002
}
  0
LINE
  5
82EB
  8
0
 10
83.68314844292001
 20
228.471040080571
 30
0.0
 11
83.20991179736177
 21
228.7442633852743
 31
0.0
1001
GENIUS_GENODEF_13
1002
{
1000
HIER
1070
     0
1002
}
1002
{
1000
MANEDIT
1070
     0
1002
}
1002
{
1000
NOSEL
1070
     0
1002
}
1002
{
1000
BEHIND
1070
     0
1002
}
1002
{
1000
OTHER
1070
     0
1002
}
1002
{
1000
REACTOR
1002
}
1001
GENIUS_GENOBJ-N-CEN_13
1002
{
1000
OWNER
1000
GEN
1002
}
1001
GENIUS_GENCEN_19
1002
{
1040
3.0
1002
}
  0
LINE
  5
82EC
  8
0
 10
79.09321380286241
 20
231.1210400805709
 30
0.0
 11
78.94724803380853
 21
231.6657917468463
 31
0.0
  0
ARC
  5
82ED
  8
0
 10
79.05447528992812
 20
230.1955966178531
 30
0.0
 40
0.1767766952966168
 50
104.9999999999873
 51
284.9999999999873
  0
ARC
  5
82EE
  8
0
 10
78.23879093945646
 20
231.4411362700034
 30
0.0
 40
0.1499999999999773
 50
59.99999999997465
 51
239.9999999999746
  0
LINE
  5
82EF
  8
0
 10
82.2975077968648
 20
229.271040080571
 30
0.0
 11
82.83821726792132
 21
229.4159227466803
 31
0.0
  0
LINE
  5
82F0
  8
0
 10
79.69943158551143
 20
230.771040080571
 30
0.0
 11
79.09321380286241
 21
231.1210400805709
 31
0.0
1001
GENIUS_GENODEF_13
1002
{
1000
HIER
1070
     0
1002
}
1002
{
1000
MANEDIT
1070
     0
1002
}
1002
{
1000
NOSEL
1070
     0
1002
}
1002
{
1000
BEHIND
1070
     0
1002
}
1002
{
1000
OTHER
1070
     0
1002
}
1002
{
1000
REACTOR
1002
}
1001
GENIUS_GENOBJ-N-CEN_13
1002
{
1000
OWNER
1000
GEN
1002
}
1001
GENIUS_GENCEN_19
1002
{
1040
3.0
1002
}
  0
ARC
  5
82F1
  8
0
 10
83.60814844291997
 20
228.3411362700033
 30
0.0
 40
0.1499999999999773
 50
239.9999999999746
 51
59.99999999997465
  0
ARC
  5
82F2
  8
0
 10
82.79246409244831
 20
229.5866759221535
 30
0.0
 40
0.1767766952966168
 50
284.9999999999873
 51
104.9999999999873
  0
LINE
  5
82F3
  8
0
 10
81.71449509497268
 20
229.2612324594357
 30
0.0
 11
81.95088411202835
 21
228.379016637433
 31
0.0
  0
LINE
  5
82F4
  8
0
 10
78.63702758501466
 20
231.0380091547323
 30
0.0
 11
78.16379093945642
 21
231.3112324594356
 31
0.0
1001
GENIUS_GENODEF_13
1002
{
1000
HIER
1070
     0
1002
}
1002
{
1000
MANEDIT
1070
     0
1002
}
1002
{
1000
NOSEL
1070
     0
1002
}
1002
{
1000
BEHIND
1070
     0
1002
}
1002
{
1000
OTHER
1070
     0
1002
}
1002
{
1000
REACTOR
1002
}
1001
GENIUS_GENOBJ-N-CEN_13
1002
{
1000
OWNER
1000
GEN
1002
}
1001
GENIUS_GENCEN_19
1002
{
1040
3.0
1002
}
  0
LINE
  5
82F5
  8
0
 10
82.14750779686494
 20
229.0112324594357
 30
0.0
 11
82.29239046297437
 21
228.4705229883792
 31
0.0
  0
LINE
  5
82F6
  8
0
 10
79.54943158551163
 20
230.5112324594357
 30
0.0
 11
79.00872211445511
 21
230.3663497933263
 31
0.0
  0
LINE
  5
82F7
  8
0
 10
80.1324442874037
 20
230.521040080571
 30
0.0
 11
79.89605527034826
 21
231.4032559025736
 31
0.0
  0
ARC
  5
82F8
  8
0
 10
82.12163728750136
 20
228.4247698129062
 30
0.0
 40
0.1767766952966168
 50
195.0000000000253
 51
14.99999999998613
  0
LINE
  5
82F9
  8
0
 10
79.54943158551163
 20
230.5112324594357
 30
0.0
 11
78.94321380286254
 21
230.8612324594356
 31
0.0
1001
GENIUS_GENODEF_13
1002
{
1000
HIER
1070
     0
1002
}
1002
{
1000
MANEDIT
1070
     0
1002
}
1002
{
1000
NOSEL
1070
     0
1002
}
1002
{
1000
BEHIND
1070
     0
1002
}
1002
{
1000
OTHER
1070
     0
1002
}
1002
{
1000
REACTOR
1002
}
1001
GENIUS_GENOBJ-N-CEN_13
1002
{
1000
OWNER
1000
GEN
1002
}
1001
GENIUS_GENCEN_19
1002
{
1040
3.0
1002
}
  0
LINE
  5
82FF
  8
0
 10
80.32234467851447
 20
230.0649908771302
 30
0.0
 11
79.98244428740384
 21
230.2612324594357
 31
0.0
1001
GENIUS_GENODEF_13
1002
{
1000
HIER
1070
     0
1002
}
1002
{
1000
MANEDIT
1070
     0
1002
}
1002
{
1000
NOSEL
1070
     0
1002
}
1002
{
1000
BEHIND
1070
     0
1002
}
1002
{
1000
OTHER
1070
     0
1002
}
1002
{
1000
REACTOR
1002
}
1001
GENIUS_GENOBJ-N-CEN_13
1002
{
1000
OWNER
1000
GEN
1002
}
1001
GENIUS_GENCEN_19
1002
{
1040
3.0
1002
}
  0
LINE
  5
8300
  8
0
 10
80.47234467851433
 20
229.4574740417409
 30
0.0
 11
80.1324442874037
 21
229.2612324594356
 31
0.0
1001
GENIUS_GENODEF_13
1002
{
1000
HIER
1070
     0
1002
}
1002
{
1000
MANEDIT
1070
     0
1002
}
1002
{
1000
NOSEL
1070
     0
1002
}
1002
{
1000
BEHIND
1070
     0
1002
}
1002
{
1000
OTHER
1070
     0
1002
}
1002
{
1000
REACTOR
1002
}
1001
GENIUS_GENOBJ-N-CEN_13
1002
{
1000
OWNER
1000
GEN
1002
}
1001
GENIUS_GENCEN_19
1002
{
1040
3.0
1002
}
  0
LINE
  5
8301
  8
0
 10
81.07346969118828
 20
230.4986531053925
 30
0.0
 11
81.07346969118828
 21
230.8911362700033
 31
0.0
1001
GENIUS_GENODEF_13
1002
{
1000
HIER
1070
     0
1002
}
1002
{
1000
MANEDIT
1070
     0
1002
}
1002
{
1000
NOSEL
1070
     0
1002
}
1002
{
1000
BEHIND
1070
     0
1002
}
1002
{
1000
OTHER
1070
     0
1002
}
1002
{
1000
REACTOR
1002
}
1001
GENIUS_GENOBJ-N-CEN_13
1002
{
1000
OWNER
1000
GEN
1002
}
1001
GENIUS_GENCEN_19
1002
{
1040
3.0
1002
}
  0
LINE
  5
8302
  8
0
 10
80.32234467851447
 20
229.7172816628762
 30
0.0
 11
79.98244428740384
 21
229.5210400805709
 31
0.0
1001
GENIUS_GENODEF_13
1002
{
1000
HIER
1070
     0
1002
}
1002
{
1000
MANEDIT
1070
     0
1002
}
1002
{
1000
NOSEL
1070
     0
1002
}
1002
{
1000
BEHIND
1070
     0
1002
}
1002
{
1000
OTHER
1070
     0
1002
}
1002
{
1000
REACTOR
1002
}
1001
GENIUS_GENOBJ-N-CEN_13
1002
{
1000
OWNER
1000
GEN
1002
}
1001
GENIUS_GENCEN_19
1002
{
1040
3.0
1002
}
  0
LINE
  5
8303
  8
0
 10
80.47234467851456
 20
230.3247984982656
 30
0.0
 11
80.1324442874037
 21
230.521040080571
 31
0.0
1001
GENIUS_GENODEF_13
1002
{
1000
HIER
1070
     0
1002
}
1002
{
1000
MANEDIT
1070
     0
1002
}
1002
{
1000
NOSEL
1070
     0
1002
}
1002
{
1000
BEHIND
1070
     0
1002
}
1002
{
1000
OTHER
1070
     0
1002
}
1002
{
1000
REACTOR
1002
}
1001
GENIUS_GENOBJ-N-CEN_13
1002
{
1000
OWNER
1000
GEN
1002
}
1001
GENIUS_GENCEN_19
1002
{
1040
3.0
1002
}
  0
LINE
  5
8304
  8
0
 10
80.7734696911881
 20
230.4986531053925
 30
0.0
 11
80.7734696911881
 21
230.8911362700033
 31
0.0
1001
GENIUS_GENODEF_13
1002
{
1000
HIER
1070
     0
1002
}
1002
{
1000
MANEDIT
1070
     0
1002
}
1002
{
1000
NOSEL
1070
     0
1002
}
1002
{
1000
BEHIND
1070
     0
1002
}
1002
{
1000
OTHER
1070
     0
1002
}
1002
{
1000
REACTOR
1002
}
1001
GENIUS_GENOBJ-N-CEN_13
1002
{
1000
OWNER
1000
GEN
1002
}
1001
GENIUS_GENCEN_19
1002
{
1040
3.0
1002
}
  0
CIRCLE
  5
8306
  8
0
 10
75.5218561517737
 20
239.8911362700032
 30
0.0
 40
1.5
  0
CIRCLE
  5
8307
  8
0
 10
75.5218561517737
 20
229.8911362700032
 30
0.0
 40
1.5
  0
LINE
  5
841D
  8
0
 10
81.14376114314848
 20
253.1405149768466
 30
0.0
 11
81.42496719783605
 21
253.1405149768466
 31
0.0
  0
LINE
  5
841E
  8
0
 10
81.42496719783605
 20
253.1405149768466
 30
0.0
 11
81.42496719783605
 21
253.1845481799712
 31
0.0
  0
LINE
  5
841F
  8
0
 10
81.42496719783605
 20
253.1845481799712
 30
0.0
 11
81.14376114314848
 21
253.1845481799712
 31
0.0
  0
LINE
  5
8420
  8
0
 10
81.14376114314848
 20
253.1845481799712
 30
0.0
 11
81.14376114314848
 21
253.1405149768466
 31
0.0
  0
LINE
  5
8425
  8
0
 10
81.14376114314848
 20
253.051459801065
 30
0.0
 11
81.02174698299189
 21
253.051459801065
 31
0.0
  0
LINE
  5
8426
  8
0
 10
81.02174698299189
 20
253.051459801065
 30
0.0
 11
81.02174698299189
 21
253.2856004260652
 31
0.0
  0
LINE
  5
8427
  8
0
 10
81.02174698299189
 20
253.2856004260652
 30
0.0
 11
81.55212295955437
 21
253.2856004260652
 31
0.0
  0
LINE
  5
8428
  8
0
 10
81.55212295955437
 20
253.2856004260652
 30
0.0
 11
81.55212295955437
 21
253.051459801065
 31
0.0
  0
LINE
  5
8429
  8
0
 10
81.55212295955437
 20
253.051459801065
 30
0.0
 11
81.14376114314848
 21
253.051459801065
 31
0.0
  0
ARC
  5
8768
  8
0
 10
71.86402725642927
 20
259.6866966174714
 30
0.0
 40
0.4518017578122908
 50
0.0000000000288347
 51
179.9999999999712
  0
ARC
  5
8769
  8
0
 10
71.8640272564295
 20
259.6866306868744
 30
0.0
 40
0.1721118290343773
 50
0.0219482012206766
 51
179.9780517987793
  0
ARC
  5
876A
  8
0
 10
73.88724454628866
 20
258.5878317202343
 30
0.0
 40
0.4000765135930895
 50
269.8373547898892
 51
90.16079597660128
  0
ARC
  5
876B
  8
0
 10
73.88736624762106
 20
258.5878317182703
 30
0.0
 40
0.4000768756118819
 50
90.17822498953643
 51
269.8199257769541
  0
ARC
  5
876C
  8
0
 10
73.88746583669433
 20
258.5877627648304
 30
0.0
 40
0.9567796651025858
 50
300.8212884155323
 51
28.1424497330821
  0
ARC
  5
876D
  8
0
 10
73.88736458032277
 20
258.587864616809
 30
0.0
 40
0.9568209205534755
 50
28.13421185336649
 51
147.5073105633388
  0
ARC
  5
876E
  8
0
 10
73.88697561433462
 20
258.5877261217963
 30
0.0
 40
0.9565672971854527
 50
147.487798160368
 51
271.2626944757523
  0
ARC
  5
876F
  8
0
 10
71.8795754504716
 20
254.8893026834054
 30
0.0
 40
0.6815759024007723
 50
133.2899157132356
 51
50.20325862746557
  0
ARC
  5
8770
  8
0
 10
69.70893597674682
 20
255.7072320965655
 30
0.0
 40
0.0648600382307507
 50
89.96896936231076
 51
225.023973638625
  0
ARC
  5
8771
  8
0
 10
70.76763273871875
 20
255.7073073652681
 30
0.0
 40
0.0647851228066156
 50
314.8153101237963
 51
90.19174687567588
  0
ARC
  5
8772
  8
0
 10
70.23825943416398
 20
255.1777361682513
 30
0.0
 40
0.064691902925999
 50
224.7894609398184
 51
315.2105390601816
  0
ARC
  5
8773
  8
0
 10
75.44522966330247
 20
258.1517041684561
 30
0.0
 40
1.135049941611059
 50
199.8595751649715
 51
244.8681727218155
  0
ARC
  5
8774
  8
0
 10
75.4453186768091
 20
258.1524511692173
 30
0.0
 40
1.623170812482341
 50
198.7242399544931
 51
254.8925111177653
  0
ARC
  5
8775
  8
0
 10
77.86761469661015
 20
257.1737871767224
 30
0.0
 40
2.905547634203318
 50
191.6838816209354
 51
269.9900625035076
  0
ARC
  5
8776
  8
0
 10
77.86917665022536
 20
257.1659016469249
 30
0.0
 40
2.897662797147472
 50
269.9591507923664
 51
350.8614578802909
  0
ARC
  5
8777
  8
0
 10
80.34084417607119
 20
256.7797004035153
 30
0.0
 40
0.3995512829236358
 50
349.2287838935388
 51
160.7215438700721
  0
ARC
  5
8778
  8
0
 10
77.86313742034076
 20
257.1747900690483
 30
0.0
 40
2.11698226535893
 50
302.0278520460512
 51
352.8587630679407
  0
ARC
  5
8779
  8
0
 10
77.86695992615454
 20
257.1725099234247
 30
0.0
 40
2.113022961273328
 50
214.7798041426818
 51
301.972768132192
  0
ARC
  5
877A
  8
0
 10
77.86799475104955
 20
257.173187941178
 30
0.0
 40
2.114259672961603
 50
118.7893324339121
 51
214.7788990416141
  0
ARC
  5
877B
  8
0
 10
77.86617007556855
 20
257.1758248142611
 30
0.0
 40
2.111070006267351
 50
43.98737940096319
 51
118.7803964914267
  0
ARC
  5
877C
  8
0
 10
79.72223097500667
 20
258.8527493508163
 30
0.0
 40
0.3976288466405766
 50
212.012818080508
 51
309.0262068053465
  0
ARC
  5
877D
  8
0
 10
79.72119930753367
 20
258.8537524210345
 30
0.0
 40
0.3990577419717506
 50
309.0505934918813
 51
27.4373110563117
  0
ARC
  5
877E
  8
0
 10
79.24611366614903
 20
258.5283289815731
 30
0.0
 40
0.9731658199698308
 50
31.55682256647291
 51
51.75798744280997
  0
ARC
  5
877F
  8
0
 10
77.86526223666735
 20
257.1844084157912
 30
0.0
 40
2.894459434315894
 50
46.75022875375734
 51
119.299732764673
  0
ARC
  5
8780
  8
0
 10
77.86770519870429
 20
257.1737424932838
 30
0.0
 40
2.904958057357041
 50
119.2388024129506
 51
180.9790507373749
  0
ARC
  5
8781
  8
0
 10
76.9314051861171
 20
257.5231370471588
 30
0.0
 40
0.464787602330511
 50
269.9918740917552
 51
90.00812590824478
  0
ARC
  5
8782
  8
0
 10
76.93166725469699
 20
257.5231353330593
 30
0.0
 40
0.4647859992821253
 50
89.2909388803187
 51
269.9595679591116
  0
ARC
  5
8783
  8
0
 10
78.80321178936258
 20
257.5231370471588
 30
0.0
 40
0.4647876397095685
 50
269.9756268844017
 51
90.02437311559825
  0
ARC
  5
8784
  8
0
 10
78.80307999080435
 20
257.5231370471588
 30
0.0
 40
0.464787602330511
 50
90.0081259082448
 51
269.9918740917552
  0
ARC
  5
8785
  8
0
 10
78.70994124720437
 20
256.4081710825027
 30
0.0
 40
0.1935640481246019
 50
306.6284821848683
 51
126.533755310904
  0
ARC
  5
8786
  8
0
 10
77.86724258846073
 20
257.5368050136842
 30
0.0
 40
1.602093264918184
 50
233.2673257704961
 51
306.7326742295038
  0
ARC
  5
8787
  8
0
 10
77.02440400277196
 20
256.4082260316922
 30
0.0
 40
0.1935247166243158
 50
53.45463534583975
 51
233.4144703420528
  0
ARC
  5
8788
  8
0
 10
77.86717667049163
 20
257.5387118943838
 30
0.0
 40
1.216534321667131
 50
233.2703228372315
 51
306.729677162769
  0
LINE
  5
8789
  8
0
 10
71.69191544002308
 20
259.6866966174716
 30
0.0
 11
71.69191544002308
 21
257.0439134143464
 31
0.0
  0
LINE
  5
878A
  8
0
 10
71.69191544002308
 20
257.0439134143464
 30
0.0
 11
72.03613907283591
 21
257.0439134143464
 31
0.0
  0
LINE
  5
878B
  8
0
 10
72.03613907283591
 20
257.0439134143464
 30
0.0
 11
72.03613907283591
 21
259.6866966174716
 31
0.0
  0
LINE
  5
878C
  8
0
 10
72.31582901424156
 20
259.6866966174716
 30
0.0
 11
72.31582901424156
 21
255.4129710315337
 31
0.0
  0
LINE
  5
878D
  8
0
 10
71.41222549861698
 20
255.3854173205962
 30
0.0
 11
71.41222549861698
 21
256.8718675159087
 31
0.0
  0
LINE
  5
878E
  8
0
 10
71.41222549861698
 20
256.8718675159087
 30
0.0
 11
69.56480850642868
 21
256.8718675159087
 31
0.0
  0
LINE
  5
878F
  8
0
 10
69.56480850642868
 20
256.8718675159087
 30
0.0
 11
69.56480850642868
 21
257.0439134143464
 31
0.0
  0
LINE
  5
8790
  8
0
 10
69.56480850642868
 20
257.0439134143464
 30
0.0
 11
71.41222549861698
 21
257.0439134143464
 31
0.0
  0
LINE
  5
8791
  8
0
 10
71.41222549861698
 20
257.0439134143464
 30
0.0
 11
71.41222549861698
 21
259.6866966174716
 31
0.0
  0
LINE
  5
8792
  8
0
 10
69.70897110408544
 20
255.772092125284
 30
0.0
 11
69.99149551814764
 21
255.772092125284
 31
0.0
  0
LINE
  5
8793
  8
0
 10
69.99149551814764
 20
255.772092125284
 30
0.0
 11
69.99149551814764
 21
256.5327854846587
 31
0.0
  0
LINE
  5
8794
  8
0
 10
69.99149551814764
 20
256.5327854846587
 30
0.0
 11
70.48495743221031
 21
256.5327854846587
 31
0.0
  0
LINE
  5
8795
  8
0
 10
70.48495743221031
 20
256.5327854846587
 30
0.0
 11
70.48495743221031
 21
255.772092125284
 31
0.0
  0
LINE
  5
8796
  8
0
 10
70.48495743221031
 20
255.772092125284
 30
0.0
 11
70.76741592830433
 21
255.772092125284
 31
0.0
  0
LINE
  5
8797
  8
0
 10
70.81329483455431
 20
255.6613499377838
 30
0.0
 11
70.28417129939828
 21
255.1321604846592
 31
0.0
  0
LINE
  5
8798
  8
0
 10
70.19234756892968
 20
255.1321604846592
 30
0.0
 11
69.66309219783591
 21
255.6613499377838
 31
0.0
  0
ARC
  5
879F
  8
0
 10
67.67444151374724
 20
253.3954524511811
 30
0.0
 40
0.6944359963152072
 50
295.8028544448348
 51
333.4947229783169
  0
ARC
  5
87A0
  8
0
 10
67.72761051432384
 20
253.3413985777194
 30
0.0
 40
0.7579209010400524
 50
295.6545919653323
 51
340.2704769967132
  0
LINE
  5
87A1
  8
0
 10
68.29588760799118
 20
253.0855393909089
 30
0.0
 11
67.6344667095542
 21
253.0855393909089
 31
0.0
  0
LINE
  5
87A2
  8
0
 10
67.6344667095542
 20
253.0855393909089
 30
0.0
 11
67.6344667095542
 21
253.2095970080964
 31
0.0
  0
LINE
  5
87A3
  8
0
 10
67.6344667095542
 20
253.2095970080964
 30
0.0
 11
68.44103897517891
 21
253.2095970080964
 31
0.0
  0
LINE
  5
87A4
  8
0
 10
68.44103897517891
 20
253.2095970080964
 30
0.0
 11
68.44103897517891
 21
253.0855393909089
 31
0.0
  0
LINE
  5
87A5
  8
0
 10
68.05574844783553
 20
252.6581931995029
 30
0.0
 11
68.16682022517955
 21
252.494057457315
 31
0.0
  0
LINE
  5
87A6
  8
0
 10
68.16682022517955
 20
252.494057457315
 30
0.0
 11
68.04876114314823
 21
252.4200315784092
 31
0.0
  0
LINE
  5
87A7
  8
0
 10
67.74857071346025
 20
252.8473777698152
 30
0.0
 11
67.86366348689819
 21
252.9243699573153
 31
0.0
  0
LINE
  5
87A8
  8
0
 10
67.86366348689819
 20
252.9243699573153
 30
0.0
 11
67.97671280330462
 21
252.7702537463779
 31
0.0
  0
ARC
  5
87A9
  8
0
 10
60.39080845391961
 20
247.3597909091244
 30
0.0
 40
9.178794856708993
 50
33.45602769752351
 51
36.71641532893631
  0
ARC
  5
87AA
  8
0
 10
68.43156187394301
 20
254.2513738198281
 30
0.0
 40
1.507277690265226
 50
278.1479118772135
 51
293.0390094218008
  0
ARC
  5
87AB
  8
0
 10
68.57495682953117
 20
254.0501502948254
 30
0.0
 40
1.263298094857568
 50
297.8718652128029
 51
314.1393820996046
  0
ARC
  5
87AC
  8
0
 10
68.44240646345793
 20
254.2315310703214
 30
0.0
 40
1.361338333672115
 50
277.6724840090226
 51
313.1048642094677
  0
LINE
  5
87AD
  8
0
 10
68.62415909236654
 20
252.8823802112215
 30
0.0
 11
68.64518692439754
 21
252.7593113635651
 31
0.0
  0
LINE
  5
87AE
  8
0
 10
69.02144669002257
 20
252.8643186877839
 30
0.0
 11
69.02144669002257
 21
252.4320286487216
 31
0.0
  0
LINE
  5
87AF
  8
0
 10
69.02144669002257
 20
252.4320286487216
 30
0.0
 11
69.16554336971024
 21
252.4320286487216
 31
0.0
  0
LINE
  5
87B0
  8
0
 10
69.16554336971024
 20
252.4320286487216
 30
0.0
 11
69.16554336971024
 21
252.9334007190341
 31
0.0
  0
LINE
  5
87B1
  8
0
 10
69.37265763119203
 20
253.2376121406104
 30
0.0
 11
69.454725498617
 21
253.1435472034091
 31
0.0
  0
LINE
  5
87B2
  8
0
 10
70.00210831111701
 20
252.9324119495025
 30
0.0
 11
70.00210831111701
 21
252.9554173205963
 31
0.0
  0
LINE
  5
87B3
  8
0
 10
70.00210831111701
 20
252.9554173205963
 30
0.0
 11
69.61582901424174
 21
252.9554173205963
 31
0.0
  0
LINE
  5
87B4
  8
0
 10
69.61582901424174
 20
252.9554173205963
 30
0.0
 11
69.61582901424174
 21
253.0825071643467
 31
0.0
  0
LINE
  5
87B5
  8
0
 10
69.61582901424174
 20
253.0825071643467
 30
0.0
 11
70.00210831111701
 21
253.0825071643467
 31
0.0
  0
LINE
  5
87B6
  8
0
 10
70.00210831111701
 20
253.0825071643467
 30
0.0
 11
70.00210831111701
 21
253.2695823596591
 31
0.0
  0
LINE
  5
87B7
  8
0
 10
70.00210831111701
 20
253.2695823596591
 30
0.0
 11
70.14218399471031
 21
253.2695823596591
 31
0.0
  0
LINE
  5
87B8
  8
0
 10
70.14218399471031
 20
253.2695823596591
 30
0.0
 11
70.14218399471031
 21
253.0825071643467
 31
0.0
  0
LINE
  5
87B9
  8
0
 10
70.14218399471031
 20
253.0825071643467
 30
0.0
 11
70.46241348689784
 21
253.0825071643467
 31
0.0
  0
LINE
  5
87BA
  8
0
 10
70.46241348689784
 20
253.0825071643467
 30
0.0
 11
70.46241348689784
 21
252.9554173205963
 31
0.0
  0
LINE
  5
87BB
  8
0
 10
70.46241348689784
 20
252.9554173205963
 30
0.0
 11
70.14218399471031
 21
252.9554173205963
 31
0.0
  0
LINE
  5
87BC
  8
0
 10
70.14218399471031
 20
252.9554173205963
 30
0.0
 11
70.14218399471031
 21
252.9324119495025
 31
0.0
  0
LINE
  5
87BD
  8
0
 10
69.74291885799141
 20
252.4349949573152
 30
0.0
 11
69.70086319392942
 21
252.5591184924713
 31
0.0
  0
LINE
  5
87BE
  8
0
 10
71.2109779400231
 20
253.0925266955965
 30
0.0
 11
70.71962540096013
 21
253.0925266955965
 31
0.0
  0
LINE
  5
87BF
  8
0
 10
70.71962540096013
 20
253.0925266955965
 30
0.0
 11
70.71962540096013
 21
253.2155955432529
 31
0.0
  0
LINE
  5
87C0
  8
0
 10
70.71962540096013
 20
253.2155955432529
 30
0.0
 11
71.36001846736656
 21
253.2155955432529
 31
0.0
  0
LINE
  5
87C1
  8
0
 10
71.36001846736656
 20
253.2155955432529
 30
0.0
 11
71.36001846736656
 21
253.0925266955965
 31
0.0
  0
LINE
  5
87C2
  8
0
 10
71.44610733455431
 20
252.5340696643466
 30
0.0
 11
71.35401993221069
 21
252.4430369495026
 31
0.0
  0
LINE
  5
87C3
  8
0
 10
70.69154434627319
 20
252.4490354846589
 30
0.0
 11
70.63149307674132
 21
252.5591184924713
 31
0.0
  0
ARC
  5
87C4
  8
0
 10
69.34804287853264
 20
252.9262616579614
 30
0.0
 40
0.6540943480781877
 50
347.2609850322257
 51
0.5387463472736671
  0
ARC
  5
87C5
  8
0
 10
69.732785916258
 20
252.836449699823
 30
0.0
 40
0.259032152980005
 50
314.1585354948207
 51
347.8717840999941
  0
ARC
  5
87C6
  8
0
 10
69.69956664511159
 20
252.8946456408078
 30
0.0
 40
0.3243555804545326
 50
289.4992773991945
 51
311.2054956348787
  0
ARC
  5
87C7
  8
0
 10
69.57947619677886
 20
253.2022712824952
 30
0.0
 40
0.6545076885666476
 50
280.6881308554908
 51
290.4201402489348
  0
ARC
  5
87C8
  8
0
 10
69.6147240990125
 20
253.1346368900885
 30
0.0
 40
0.7112894841935766
 50
280.383079568372
 51
293.9546619239085
  0
ARC
  5
87C9
  8
0
 10
69.75287909691018
 20
252.8365518426699
 30
0.0
 40
0.3828222869804519
 50
293.1720741763961
 51
321.7399852431948
  0
ARC
  5
87CA
  8
0
 10
69.68054548821365
 20
252.8628690725197
 30
0.0
 40
0.4565536534846614
 50
324.7692082937992
 51
353.5115787743119
  0
ARC
  5
87CB
  8
0
 10
69.27184213901408
 20
252.9291254244121
 30
0.0
 40
0.8703480608491745
 50
352.2180571740522
 51
0.2163553558864623
  0
ARC
  5
87CC
  8
0
 10
70.28563521062514
 20
253.5752694309531
 30
0.0
 40
1.043695221503499
 50
317.0435547456848
 51
332.449367692987
  0
ARC
  5
87CD
  8
0
 10
70.08747951884021
 20
253.7574696937219
 30
0.0
 40
1.31287983932665
 50
303.2694923721751
 51
317.1170639262278
  0
ARC
  5
87CE
  8
0
 10
69.92735725724447
 20
253.9963359886707
 30
0.0
 40
1.600437872483292
 50
296.1016149773479
 51
303.3712158169217
  0
ARC
  5
87CF
  8
0
 10
70.05802435714354
 20
253.8067420887953
 30
0.0
 40
1.498237230728986
 50
295.0142449784692
 51
312.8441228676088
  0
ARC
  5
87D0
  8
0
 10
70.33158564639382
 20
253.5598423597548
 30
0.0
 40
1.129627370959879
 50
317.6094061910875
 51
335.5631468782393
  0
ARC
  5
87D1
  8
0
 10
65.66803122649183
 20
246.7772712812311
 30
0.0
 40
8.026915233719984
 50
44.8979282469728
 51
47.63637697268202
  0
ARC
  5
87D2
  8
0
 10
66.2704762068894
 20
247.3253493924221
 30
0.0
 40
7.342882570273846
 50
45.18256912301644
 51
48.18802270026104
  0
ARC
  5
87D3
  8
0
 10
73.414599776951
 20
252.8423020862214
 30
0.0
 40
1.739389318708739
 50
166.2206258968223
 51
193.7793741031777
  0
ARC
  5
87D4
  8
0
 10
73.49130305393966
 20
252.8423350452058
 30
0.0
 40
1.682976481427191
 50
166.2752922944098
 51
193.7247077055902
  0
LINE
  5
87D5
  8
0
 10
71.72526993221038
 20
253.256596519815
 30
0.0
 11
71.85638077205442
 21
253.241633140909
 31
0.0
  0
LINE
  5
87D6
  8
0
 10
71.72526993221038
 20
252.4280076526277
 30
0.0
 11
71.85638076619378
 21
252.4430369488308
 31
0.0
  0
LINE
  5
87D7
  8
0
 10
72.01247452205428
 20
253.0624681018464
 30
0.0
 11
72.01247452205428
 21
253.1795384143463
 31
0.0
  0
LINE
  5
87D8
  8
0
 10
72.01247452205428
 20
253.1795384143463
 30
0.0
 11
72.44278702205395
 21
253.1795384143463
 31
0.0
  0
LINE
  5
87D9
  8
0
 10
72.44278702205395
 20
253.1795384143463
 30
0.0
 11
72.44278702205395
 21
253.0624681018464
 31
0.0
  0
LINE
  5
87DA
  8
0
 10
72.44278702205395
 20
253.0624681018464
 30
0.0
 11
72.01247452205428
 21
253.0624681018464
 31
0.0
  0
LINE
  5
87DB
  8
0
 10
72.0534754986162
 20
252.8844236682528
 30
0.0
 11
72.14760635799178
 21
252.8093431018465
 31
0.0
  0
LINE
  5
87DC
  8
0
 10
72.45175186580457
 20
252.6152146838774
 30
0.0
 11
72.46981338924172
 21
252.4991331409092
 31
0.0
  0
ARC
  5
87E3
  8
0
 10
72.34355317478767
 20
252.5538913988449
 30
0.0
 40
0.4397688476189425
 50
131.2704386751623
 51
152.3243265147031
  0
ARC
  5
87E4
  8
0
 10
72.13784132828553
 20
252.6569462850132
 30
0.0
 40
0.2097705095423581
 50
151.1547592808917
 51
176.6507581899116
  0
ARC
  5
87E5
  8
0
 10
72.09074459932452
 20
252.6662813375678
 30
0.0
 40
0.1623417531283647
 50
178.9693223102968
 51
218.9468839098594
  0
ARC
  5
87E6
  8
0
 10
72.15072300668878
 20
252.726868044317
 30
0.0
 40
0.2472529055432204
 50
221.129755150553
 51
255.3992479808659
  0
ARC
  5
87E7
  8
0
 10
72.2214304435764
 20
252.9526254330232
 30
0.0
 40
0.4836808094494793
 50
254.0351229551646
 51
271.3280423436387
  0
ARC
  5
87E8
  8
0
 10
72.23554360211993
 20
253.3968861556633
 30
0.0
 40
0.9278161502465185
 50
269.820725677759
 51
284.6252568274172
  0
ARC
  5
87E9
  8
0
 10
72.42730469639058
 20
252.5140409662325
 30
0.0
 40
0.4067364156313787
 50
133.4455450081448
 51
151.5039138532783
  0
ARC
  5
87EA
  8
0
 10
72.14271952408693
 20
252.6698360025865
 30
0.0
 40
0.0823071746346008
 50
152.3011364650064
 51
176.9528496670802
  0
ARC
  5
87EB
  8
0
 10
72.12666571101214
 20
252.672943800916
 30
0.0
 40
0.0661491336243882
 50
178.9021044556422
 51
244.7456005783636
  0
ARC
  5
87EC
  8
0
 10
72.21578342672613
 20
252.8827763729522
 30
0.0
 40
0.294082817176685
 50
246.4842326458915
 51
273.2860505585753
  0
ARC
  5
87ED
  8
0
 10
72.23032538568454
 20
253.5436100434727
 30
0.0
 40
0.9544357651598815
 50
270.1389811375103
 51
283.4146872239115
  0
LINE
  5
87EE
  8
0
 10
72.7509535259602
 20
252.5441551135652
 30
0.0
 11
72.63493790096038
 21
252.5831785510654
 31
0.0
  0
LINE
  5
87F0
  8
0
 10
72.79703018611701
 20
253.0455271838778
 30
0.0
 11
72.65794327205424
 21
253.0455271838778
 31
0.0
  0
LINE
  5
87F1
  8
0
 10
72.65794327205424
 20
253.0455271838778
 30
0.0
 11
72.65794327205424
 21
253.1595652698154
 31
0.0
  0
LINE
  5
87F2
  8
0
 10
72.65794327205424
 20
253.1595652698154
 30
0.0
 11
72.82906631892922
 21
253.1595652698154
 31
0.0
  0
LINE
  5
87F3
  8
0
 10
72.86406876033573
 20
253.3006956409088
 30
0.0
 11
72.98417129939764
 21
253.2846775745024
 31
0.0
  0
LINE
  5
87F4
  8
0
 10
72.98417129939764
 20
253.2846775745024
 30
0.0
 11
72.9541127056483
 21
253.1595652698154
 31
0.0
  0
LINE
  5
87F5
  8
0
 10
72.82906631894964
 20
253.1595652698945
 30
0.0
 11
72.86406876033573
 21
253.3006956409088
 31
0.0
  0
LINE
  5
87F6
  8
0
 10
72.9541127056483
 20
253.1595652698154
 30
0.0
 11
73.12128067439801
 21
253.1595652698154
 31
0.0
  0
LINE
  5
87F7
  8
0
 10
73.12128067439801
 20
253.1595652698154
 30
0.0
 11
73.12128067439801
 21
253.0455271838778
 31
0.0
  0
LINE
  5
87F8
  8
0
 10
73.12128067439801
 20
253.0455271838778
 30
0.0
 11
72.92412002986669
 21
253.0455271838778
 31
0.0
  0
LINE
  5
87F9
  8
0
 10
73.2223329204918
 20
253.1595652698154
 30
0.0
 11
73.2223329204918
 21
252.7833055041899
 31
0.0
  0
LINE
  5
87FA
  8
0
 10
73.34942276424192
 20
253.0424290393462
 30
0.0
 11
73.34942276424192
 21
252.7212107776279
 31
0.0
  0
LINE
  5
87FB
  8
0
 10
73.54150772517971
 20
252.5711155627837
 30
0.0
 11
73.46247208064744
 21
252.4831150745028
 31
0.0
  0
LINE
  5
87FC
  8
0
 10
73.46247208064744
 20
252.4831150745028
 30
0.0
 11
73.3434242290856
 21
252.5821897815338
 31
0.0
  0
LINE
  5
87FD
  8
0
 10
73.53656387752301
 20
253.1395262073152
 30
0.0
 11
73.52153458064788
 21
253.0254222034089
 31
0.0
  0
ARC
  5
87FE
  8
0
 10
67.90359269159077
 20
254.5015029009008
 30
0.0
 40
5.105447659255356
 50
337.9299015295881
 51
343.430343018399
  0
ARC
  5
87FF
  8
0
 10
68.49277868328844
 20
254.2954563886103
 30
0.0
 40
4.604249031789802
 50
337.6436246019006
 51
344.2480634517686
  0
ARC
  5
8800
  8
0
 10
73.10895352834083
 20
252.460324636055
 30
0.0
 40
0.3423032686751999
 50
70.65685654995085
 51
108.3969289737731
  0
ARC
  5
8801
  8
0
 10
73.05381385342827
 20
252.6176983530729
 30
0.0
 40
0.1755905508043755
 50
107.5306293751946
 51
160.8450589945263
  0
ARC
  5
8802
  8
0
 10
73.08160891859045
 20
252.6161560961724
 30
0.0
 40
0.2024978438100495
 50
163.0138858192597
 51
209.0969845411889
  0
ARC
  5
8803
  8
0
 10
73.06786870754622
 20
252.625468881308
 30
0.0
 40
0.1955826167012611
 50
213.4424256235376
 51
262.226915587982
  0
ARC
  5
8804
  8
0
 10
73.11562409466801
 20
252.8428968727294
 30
0.0
 40
0.4178556686163168
 50
259.7704486887456
 51
283.2691791577997
  0
ARC
  5
8805
  8
0
 10
73.17546860937284
 20
252.6013500945753
 30
0.0
 40
0.1690449874653058
 50
282.318245128906
 51
353.4918546613404
  0
ARC
  5
8806
  8
0
 10
73.09288051874294
 20
252.4201396256556
 30
0.0
 40
0.2762595812409855
 50
62.05720845766622
 51
80.30335437015525
  0
ARC
  5
8807
  8
0
 10
73.11369252895864
 20
252.5184159292816
 30
0.0
 40
0.1759265324613586
 50
81.59375409356637
 51
114.7067625928821
  0
ARC
  5
8808
  8
0
 10
73.07368848511179
 20
252.6187279148471
 30
0.0
 40
0.0683053373135066
 50
119.3974767067727
 51
173.2537875028735
  0
ARC
  5
8809
  8
0
 10
73.08150640870318
 20
252.6143229754537
 30
0.0
 40
0.0766645268255346
 50
170.6700042631009
 51
227.0613895908379
  0
ARC
  5
880A
  8
0
 10
73.10575712899993
 20
252.655422667811
 30
0.0
 40
0.1236978113794514
 50
231.8118274351009
 51
274.4162757708445
  0
ARC
  5
880B
  8
0
 10
73.12290303750173
 20
252.6742157457279
 30
0.0
 40
0.142327796225205
 50
266.9306471836093
 51
296.9345329796652
  0
ARC
  5
880C
  8
0
 10
73.1441524883439
 20
252.607760460725
 30
0.0
 40
0.0742984793140559
 50
305.5717632399966
 51
354.3131633402566
  0
ARC
  5
880D
  8
0
 10
72.89291036479283
 20
252.6540877472551
 30
0.0
 40
0.3295774730843952
 50
350.6244839098781
 51
1.756814724896263
  0
ARC
  5
880E
  8
0
 10
72.62088384614852
 20
251.5909017756094
 30
0.0
 40
1.344755515038074
 50
46.79559382501642
 51
57.19625837654538
  0
ARC
  5
880F
  8
0
 10
73.23995561275099
 20
250.9621703698936
 30
0.0
 40
2.197465564118096
 50
82.24268494862841
 51
90.45949148410752
  0
ARC
  5
8810
  8
0
 10
73.31017803135113
 20
251.7658637070405
 30
0.0
 40
1.277168429262362
 50
80.47439269731908
 51
88.23914253465831
  0
ARC
  5
8811
  8
0
 10
74.2835851648726
 20
250.8852235053034
 30
0.0
 40
2.160249996905624
 50
95.28869045902916
 51
104.1989663555463
  0
ARC
  5
8812
  8
0
 10
74.12583653759893
 20
252.5616586611717
 30
0.0
 40
0.4764180870695341
 50
67.09455990363274
 51
94.98162281613557
  0
ARC
  5
8813
  8
0
 10
74.21162444884311
 20
252.8079358328467
 30
0.0
 40
0.2168248157716636
 50
3.433470479991954
 51
62.64264001343141
  0
ARC
  5
8814
  8
0
 10
74.1333781504527
 20
252.7793400855955
 30
0.0
 40
0.2976011332617762
 50
320.5558619105112
 51
8.03173126156104
  0
ARC
  5
8815
  8
0
 10
74.10285094514667
 20
252.8381223311608
 30
0.0
 40
0.3594629531024876
 50
281.6388990127375
 51
316.4081019934994
  0
ARC
  5
8816
  8
0
 10
73.92252182266336
 20
253.5297505839029
 30
0.0
 40
1.073891125786446
 50
269.0006960034189
 51
283.6181811778915
  0
ARC
  5
8817
  8
0
 10
73.90830500750309
 20
253.6762621877784
 30
0.0
 40
1.106152384068735
 50
269.298496562662
 51
281.4909372592743
  0
ARC
  5
8818
  8
0
 10
74.09726524845402
 20
252.8084208335866
 30
0.0
 40
0.2184084402428801
 50
278.2658040872228
 51
329.2921161861391
  0
ARC
  5
8819
  8
0
 10
74.1136977839593
 20
252.7735183414543
 30
0.0
 40
0.1877056101698326
 50
335.9052458605939
 51
14.56302708595039
  0
ARC
  5
881A
  8
0
 10
74.18179765228398
 20
252.7943383769069
 30
0.0
 40
0.116597907486875
 50
13.07502935845104
 51
75.24937385501588
  0
ARC
  5
881B
  8
0
 10
74.10741096107378
 20
252.5150846649316
 30
0.0
 40
0.4055889379558473
 50
75.13160762291648
 51
97.96365698503145
  0
ARC
  5
881C
  8
0
 10
74.37885975753223
 20
250.422317755312
 30
0.0
 40
2.515869946676322
 50
97.48286837348577
 51
103.824596193571
  0
LINE
  5
881D
  8
0
 10
73.75369766658571
 20
252.9794773791903
 30
0.0
 11
73.77769180721009
 21
252.8653074573153
 31
0.0
  0
LINE
  5
881E
  8
0
 10
73.89476211971089
 20
252.5701927112214
 30
0.0
 11
73.90379288142879
 21
252.4560227893464
 31
0.0
  0
LINE
  5
881F
  8
0
 10
74.82842422908573
 20
253.0624681018464
 30
0.0
 11
74.6923036236168
 21
253.0624681018464
 31
0.0
  0
LINE
  5
8820
  8
0
 10
74.6923036236168
 20
253.0624681018464
 30
0.0
 11
74.6923036236168
 21
253.1755833362215
 31
0.0
  0
LINE
  5
8821
  8
0
 10
74.6923036236168
 20
253.1755833362215
 30
0.0
 11
74.85142960017959
 21
253.1755833362215
 31
0.0
  0
LINE
  5
8822
  8
0
 10
74.87245743221013
 20
253.2966746448151
 30
0.0
 11
74.99961319392935
 21
253.2856004260652
 31
0.0
  0
LINE
  5
8823
  8
0
 10
74.98056290096031
 20
253.1755833362215
 30
0.0
 11
75.32986221736667
 21
253.1755833362215
 31
0.0
  0
LINE
  5
8824
  8
0
 10
75.32986221736667
 20
253.1755833362215
 30
0.0
 11
75.32986221736667
 21
253.0624681018464
 31
0.0
  0
LINE
  5
8825
  8
0
 10
75.32986221736667
 20
253.0624681018464
 30
0.0
 11
74.95861221736698
 21
253.0624681018464
 31
0.0
  0
LINE
  5
8826
  8
0
 10
74.78841202205388
 20
252.4240525745024
 30
0.0
 11
74.66231094783518
 21
252.4530564807528
 31
0.0
  0
LINE
  5
8827
  8
0
 10
75.06862930721093
 20
252.9593723987216
 30
0.0
 11
75.0766053814292
 21
252.8473777698152
 31
0.0
  0
LINE
  5
8828
  8
0
 10
75.48088028377254
 20
252.9824436877841
 30
0.0
 11
75.48088028377254
 21
252.8703831409091
 31
0.0
  0
LINE
  5
8829
  8
0
 10
75.08965713924192
 20
252.7772410510654
 30
0.0
 11
75.18068985408547
 21
252.7192991565339
 31
0.0
  0
LINE
  5
882A
  8
0
 10
75.48892227596036
 20
252.5751365588776
 30
0.0
 11
75.50395157283549
 21
252.4620872424716
 31
0.0
  0
LINE
  5
882B
  8
0
 10
74.87245743221013
 20
253.2966746448151
 30
0.0
 11
74.8622643698855
 21
253.2379766652197
 31
0.0
  0
LINE
  5
882C
  8
0
 10
74.8622643698855
 20
253.2379766652197
 30
0.0
 11
74.85142960017959
 21
253.1755833362215
 31
0.0
  0
LINE
  5
882D
  8
0
 10
74.99961319391822
 20
253.2856004259963
 30
0.0
 11
74.99044988737799
 21
253.2303498905484
 31
0.0
  0
LINE
  5
882E
  8
0
 10
74.99044988737799
 20
253.2303498905484
 30
0.0
 11
74.98056290096031
 21
253.1755833362215
 31
0.0
  0
LINE
  5
882F
  8
0
 10
74.82842422908573
 20
253.0624681018464
 30
0.0
 11
74.76528976729
 21
252.7938935450414
 31
0.0
  0
LINE
  5
8830
  8
0
 10
74.76528976729
 20
252.7938935450414
 30
0.0
 11
74.66231094793021
 21
252.4530564810315
 31
0.0
  0
LINE
  5
8831
  8
0
 10
74.95861221736698
 20
253.0624681018464
 30
0.0
 11
74.88714666165826
 21
252.7533548383757
 31
0.0
  0
LINE
  5
8832
  8
0
 10
74.88714666165826
 20
252.7533548383757
 30
0.0
 11
74.78841202206837
 21
252.4240525745452
 31
0.0
  0
ARC
  5
8833
  8
0
 10
75.47209527692007
 20
249.4447155551091
 30
0.0
 40
3.537739040272096
 50
89.85772146356317
 51
96.5486188865523
  0
ARC
  5
8834
  8
0
 10
75.47195238193505
 20
249.4635963118848
 30
0.0
 40
3.406798527333962
 50
89.8498497411596
 51
96.6639884768458
  0
ARC
  5
8835
  8
0
 10
75.30434465647653
 20
252.4939902327581
 30
0.0
 40
0.3554177206280743
 50
127.1599941910319
 51
143.7533880485249
  0
ARC
  5
8836
  8
0
 10
75.13600536242213
 20
252.6177535188986
 30
0.0
 40
0.146479263733392
 50
143.862887687574
 51
178.2597008905551
  0
ARC
  5
8837
  8
0
 10
75.12619352056309
 20
252.621769473506
 30
0.0
 40
0.1366005426163282
 50
179.8185854288418
 51
232.4570544631972
  0
ARC
  5
8838
  8
0
 10
75.22809536066563
 20
252.7457063938336
 30
0.0
 40
0.2970110850553356
 50
231.4392284257348
 51
257.9575064177761
  0
ARC
  5
8839
  8
0
 10
75.28711463809445
 20
253.0025952843789
 30
0.0
 40
0.5605754347835367
 50
257.5360034567794
 51
270.5760346356629
  0
ARC
  5
883A
  8
0
 10
75.29165047571553
 20
253.5766349409071
 30
0.0
 40
1.134587294096939
 50
270.0555453815802
 51
280.7846102656957
  0
ARC
  5
883B
  8
0
 10
75.45901654491482
 20
252.3809590953327
 30
0.0
 40
0.4381092829887892
 50
129.4415379448666
 51
138.9383808710957
  0
ARC
  5
883C
  8
0
 10
75.16476739609702
 20
252.6353876955505
 30
0.0
 40
0.0491389836377923
 50
137.2550805580771
 51
204.4065356297352
  0
ARC
  5
883D
  8
0
 10
75.20201510615186
 20
252.6632548118594
 30
0.0
 40
0.0950987582369027
 50
210.4339332188455
 51
256.7028862475588
  0
ARC
  5
883E
  8
0
 10
75.28138089108172
 20
252.8870913788439
 30
0.0
 40
0.3321885063481179
 50
252.2561299711163
 51
271.9613929089602
  0
ARC
  5
883F
  8
0
 10
75.28082618773793
 20
253.6420585031322
 30
0.0
 40
1.087026410472855
 50
270.628522718227
 51
281.0366047720408
  0
ARC
  5
8840
  8
0
 10
76.34504144990017
 20
256.9782672715669
 30
0.0
 40
3.765704243202274
 50
262.7558030261685
 51
270.0224210475922
  0
ARC
  5
8841
  8
0
 10
76.34600311579237
 20
257.1048500717411
 30
0.0
 40
4.005402022141075
 50
262.9762165759408
 51
270.007323018986
  0
ARC
  5
8842
  8
0
 10
76.20846342455512
 20
252.3803482209797
 30
0.0
 40
0.5709832797233129
 50
100.8314593882442
 51
124.6002201734682
  0
ARC
  5
8843
  8
0
 10
76.19200103842365
 20
252.4503095094516
 30
0.0
 40
0.499183931437189
 50
83.13611713836771
 51
100.4846039018648
  0
ARC
  5
8844
  8
0
 10
76.22994521817922
 20
252.6466377957576
 30
0.0
 40
0.3000646084336578
 50
56.69854588721289
 51
85.85023552428737
  0
ARC
  5
8845
  8
0
 10
76.2850757525516
 20
252.749898922761
 30
0.0
 40
0.1837974560768501
 50
14.94116238988051
 51
53.38697838724636
  0
ARC
  5
8846
  8
0
 10
76.16621384326268
 20
252.7163644434714
 30
0.0
 40
0.3072918799832206
 50
343.6677808051572
 51
15.26837351270213
  0
ARC
  5
8847
  8
0
 10
76.23338736634281
 20
252.7088255293042
 30
0.0
 40
0.2409909938367867
 50
296.6399463784453
 51
340.8957327133222
  0
ARC
  5
8848
  8
0
 10
76.09998103131772
 20
252.9652141035236
 30
0.0
 40
0.52999619429041
 50
273.4452251665026
 51
297.1030825296651
  0
ARC
  5
8849
  8
0
 10
76.02161703033258
 20
253.9078673532195
 30
0.0
 40
1.475812721796031
 50
267.0478003336877
 51
274.2828381902478
  0
ARC
  5
884A
  8
0
 10
76.03154316962247
 20
254.4003649288487
 30
0.0
 40
1.968228559057665
 50
263.4253440260572
 51
267.4976189814332
  0
ARC
  5
884B
  8
0
 10
76.1347116526578
 20
255.5282808261287
 30
0.0
 40
2.985326408079268
 50
263.8550556937342
 51
267.6318924359896
  0
ARC
  5
884C
  8
0
 10
76.0385911872758
 20
253.1765456884335
 30
0.0
 40
0.6316290566604427
 50
267.529011394595
 51
281.6193123560475
  0
ARC
  5
884D
  8
0
 10
76.12246127488577
 20
252.7933485910034
 30
0.0
 40
0.2394441777386185
 50
280.4294035541259
 51
313.1510531555261
  0
ARC
  5
884E
  8
0
 10
76.19396252357784
 20
252.7095496170184
 30
0.0
 40
0.1295093077613295
 50
315.4292411253488
 51
1.19295471176458
  0
ARC
  5
884F
  8
0
 10
76.21277018924421
 20
252.7187344158303
 30
0.0
 40
0.1108636087094286
 50
356.6447493344162
 51
54.69754594349409
  0
ARC
  5
8850
  8
0
 10
76.17346731843722
 20
252.6195050449786
 30
0.0
 40
0.2160415973816539
 50
61.41426429918796
 51
92.65473685240711
  0
ARC
  5
8851
  8
0
 10
76.16743961741469
 20
252.4683792297896
 30
0.0
 40
0.3669571224581874
 50
90.62124707020773
 51
109.815880385521
  0
ARC
  5
8852
  8
0
 10
76.31015840388628
 20
252.060524092872
 30
0.0
 40
0.7990533355907471
 50
109.5294625388679
 51
125.2288174980297
  0
LINE
  5
8853
  8
0
 10
75.80618545955451
 20
252.4450804065341
 30
0.0
 11
75.81515030330422
 21
252.5601072620029
 31
0.0
  0
LINE
  5
8854
  8
0
 10
75.84922989314794
 20
252.7132347034087
 30
0.0
 11
75.7300502056479
 21
252.7392723010653
 31
0.0
  0
LINE
  5
8855
  8
0
 10
75.7300502056479
 20
252.7392723010653
 30
0.0
 11
75.78014786189817
 21
253.0525144885653
 31
0.0
  0
LINE
  5
8856
  8
0
 10
75.78014786189817
 20
253.0525144885653
 30
0.0
 11
75.9101380962735
 21
253.0424290393462
 31
0.0
  0
LINE
  5
8857
  8
0
 10
75.9101380962735
 20
253.0424290393462
 30
0.0
 11
75.88225479549203
 21
252.8513987659092
 31
0.0
  0
LINE
  5
8858
  8
0
 10
75.88225479549203
 20
252.8513987659092
 30
0.0
 11
75.88423233455444
 21
252.8503440784089
 31
0.0
  0
LINE
  5
8859
  8
0
 10
76.77082901424149
 20
252.7893040393465
 30
0.0
 11
76.77082901424149
 21
253.2395896838777
 31
0.0
  0
LINE
  5
885A
  8
0
 10
76.77082901424149
 20
253.2395896838777
 30
0.0
 11
76.91090469783524
 21
253.2395896838777
 31
0.0
  0
LINE
  5
885B
  8
0
 10
76.91090469783524
 20
253.2395896838777
 30
0.0
 11
76.91090469783524
 21
252.7893040393465
 31
0.0
  0
LINE
  5
885C
  8
0
 10
76.91090469783524
 20
252.7893040393465
 30
0.0
 11
76.77082901424149
 21
252.7893040393465
 31
0.0
  0
LINE
  5
885D
  8
0
 10
77.27411270564846
 20
252.9624705432525
 30
0.0
 11
77.27411270564846
 21
253.2395896838777
 31
0.0
  0
LINE
  5
885E
  8
0
 10
77.27411270564846
 20
253.2395896838777
 30
0.0
 11
77.41728653377288
 21
253.2395896838777
 31
0.0
  0
LINE
  5
885F
  8
0
 10
77.41728653377288
 20
253.2395896838777
 30
0.0
 11
77.41728653377288
 21
252.9654368518463
 31
0.0
  0
LINE
  5
8860
  8
0
 10
76.86687149471038
 20
252.5451438830962
 30
0.0
 11
76.89488663142913
 21
252.4220750354402
 31
0.0
  0
ARC
  5
8861
  8
0
 10
76.77059650636326
 20
253.4262608463086
 30
0.0
 40
0.8863610868273667
 50
276.2356697515431
 51
290.0721136007996
  0
ARC
  5
8862
  8
0
 10
76.98973109595397
 20
252.8495455980004
 30
0.0
 40
0.2695827716893843
 50
288.3940167395253
 51
333.293110797157
  0
ARC
  5
8863
  8
0
 10
76.84442826812085
 20
252.9082573082931
 30
0.0
 40
0.4259649119627977
 50
335.0224413346795
 51
351.9509400256586
  0
ARC
  5
8864
  8
0
 10
76.51775030090162
 20
252.9578526826392
 30
0.0
 40
0.7563765014535184
 50
351.6960377695693
 51
0.3498066990777003
  0
ARC
  5
8865
  8
0
 10
76.6896073270229
 20
252.9523255159834
 30
0.0
 40
0.7277973172967875
 50
341.9051995161062
 51
1.032244597457584
  0
ARC
  5
8866
  8
0
 10
77.00513312367332
 20
252.8529583354854
 30
0.0
 40
0.3970295584042564
 50
309.619597894367
 51
341.3934161990306
  0
ARC
  5
8867
  8
0
 10
76.93307885935221
 20
252.9673171382544
 30
0.0
 40
0.5313533926705085
 50
285.3218742307608
 51
307.7406349343327
  0
ARC
  5
8868
  8
0
 10
76.80965817260274
 20
253.3895032187391
 30
0.0
 40
0.9711751541482709
 50
275.0346436522462
 51
285.7628707881711
  0
LINE
  5
8869
  8
0
 10
77.9415980572104
 20
252.6951731799716
 30
0.0
 11
77.9415980572104
 21
252.8022898791901
 31
0.0
  0
LINE
  5
886A
  8
0
 10
77.9415980572104
 20
252.8022898791901
 30
0.0
 11
77.66447891658538
 21
252.8022898791901
 31
0.0
  0
LINE
  5
886B
  8
0
 10
77.66447891658538
 20
252.8022898791901
 30
0.0
 11
77.66447891658538
 21
252.9223924182527
 31
0.0
  0
LINE
  5
886C
  8
0
 10
77.66447891658538
 20
252.9223924182527
 30
0.0
 11
77.9415980572104
 21
252.9223924182527
 31
0.0
  0
LINE
  5
886D
  8
0
 10
77.9415980572104
 20
252.9223924182527
 30
0.0
 11
77.9415980572104
 21
253.0994480823153
 31
0.0
  0
LINE
  5
886E
  8
0
 10
77.9415980572104
 20
253.0994480823153
 30
0.0
 11
77.75142471736683
 21
253.0994480823153
 31
0.0
  0
LINE
  5
886F
  8
0
 10
77.75142471736683
 20
253.0994480823153
 30
0.0
 11
77.75142471736683
 21
253.2226487659091
 31
0.0
  0
LINE
  5
8870
  8
0
 10
77.75142471736683
 20
253.2226487659091
 30
0.0
 11
78.43796036189781
 21
253.2226487659091
 31
0.0
  0
LINE
  5
8871
  8
0
 10
78.43796036189781
 20
253.2226487659091
 30
0.0
 11
78.43796036189781
 21
253.0994480823153
 31
0.0
  0
LINE
  5
8872
  8
0
 10
78.43796036189781
 20
253.0994480823153
 30
0.0
 11
78.08773819392911
 21
253.0994480823153
 31
0.0
  0
LINE
  5
8873
  8
0
 10
78.08773819392911
 20
253.0994480823153
 30
0.0
 11
78.08773819392911
 21
252.9223924182527
 31
0.0
  0
LINE
  5
8874
  8
0
 10
78.08773819392911
 20
252.9223924182527
 30
0.0
 11
78.525037998617
 21
252.9223924182527
 31
0.0
  0
LINE
  5
8875
  8
0
 10
78.525037998617
 20
252.9223924182527
 30
0.0
 11
78.525037998617
 21
252.8022898791901
 31
0.0
  0
LINE
  5
8876
  8
0
 10
78.525037998617
 20
252.8022898791901
 30
0.0
 11
78.08773819392911
 21
252.8022898791901
 31
0.0
  0
LINE
  5
8877
  8
0
 10
78.08773819392911
 20
252.8022898791901
 30
0.0
 11
78.08773819392911
 21
252.699194176065
 31
0.0
  0
LINE
  5
8878
  8
0
 10
78.4479798931485
 20
252.5790916370029
 30
0.0
 11
78.45193497127332
 21
252.4550999377841
 31
0.0
  0
ARC
  5
8879
  8
0
 10
78.54912883279655
 20
252.6902438045966
 30
0.0
 40
0.6075507732082176
 50
179.535124444108
 51
189.8451857735922
  0
ARC
  5
887A
  8
0
 10
78.15250651791354
 20
252.6193280017749
 30
0.0
 40
0.2046540339738282
 50
189.2700295154036
 51
213.1131291210831
  0
ARC
  5
887B
  8
0
 10
78.07525312529268
 20
252.5780439512609
 30
0.0
 40
0.1176411571704343
 50
216.8288190488249
 51
252.2958538404195
  0
ARC
  5
887C
  8
0
 10
78.16386251343829
 20
252.8384911623142
 30
0.0
 40
0.3927343074310022
 50
251.5357062680637
 51
268.9487122565664
  0
ARC
  5
887D
  8
0
 10
78.20861650320526
 20
255.495854663202
 30
0.0
 40
3.050474254448672
 50
269.0240165772178
 51
274.5750088658883
  0
ARC
  5
887E
  8
0
 10
78.2155968834137
 20
255.2865338682031
 30
0.0
 40
2.717396787092346
 50
270.0477229473764
 51
274.9057421028397
  0
ARC
  5
887F
  8
0
 10
78.21021881943032
 20
252.9219231895692
 30
0.0
 40
0.3528679142698584
 50
259.0402385507155
 51
271.2408517353884
  0
ARC
  5
8880
  8
0
 10
78.15391916489028
 20
252.643417482905
 30
0.0
 40
0.0687774787606163
 50
230.0488559360484
 51
260.9761561668846
  0
ARC
  5
8881
  8
0
 10
78.18103631956724
 20
252.6460039134504
 30
0.0
 40
0.0902237815209808
 50
182.0048857799724
 51
217.8095821064658
  0
ARC
  5
8882
  8
0
 10
78.54249045327134
 20
252.6961914793456
 30
0.0
 40
0.4547621725302692
 50
179.6216855541746
 51
186.736356230288
  0
LINE
  5
8883
  8
0
 10
78.68212051814783
 20
252.7752635120028
 30
0.0
 11
78.68212051814783
 21
252.90934066044
 31
0.0
  0
LINE
  5
8884
  8
0
 10
78.68212051814783
 20
252.90934066044
 30
0.0
 11
79.50866592830391
 21
252.90934066044
 31
0.0
  0
LINE
  5
8885
  8
0
 10
79.50866592830391
 20
252.90934066044
 30
0.0
 11
79.50866592830391
 21
252.7752635120028
 31
0.0
  0
LINE
  5
8886
  8
0
 10
79.50866592830391
 20
252.7752635120028
 30
0.0
 11
78.68212051814783
 21
252.7752635120028
 31
0.0
  0
LINE
  5
8887
  8
0
 10
79.96297256892933
 20
252.8383470080964
 30
0.0
 11
79.96297256892933
 21
252.4290623401275
 31
0.0
  0
LINE
  5
8888
  8
0
 10
79.96297256892933
 20
252.4290623401275
 30
0.0
 11
79.82289688533558
 21
252.4290623401275
 31
0.0
  0
LINE
  5
8889
  8
0
 10
79.82289688533558
 20
252.4290623401275
 30
0.0
 11
79.82289688533558
 21
253.2556736682527
 31
0.0
  0
LINE
  5
888A
  8
0
 10
79.82289688533558
 20
253.2556736682527
 30
0.0
 11
79.96297256892933
 21
253.2556736682527
 31
0.0
  0
LINE
  5
888B
  8
0
 10
79.96297256892933
 20
253.2556736682527
 30
0.0
 11
79.96297256892933
 21
252.9753904651279
 31
0.0
  0
LINE
  5
888C
  8
0
 10
80.50732315486687
 20
252.8082884143464
 30
0.0
 11
80.46533340877306
 21
252.6822532580964
 31
0.0
  0
ARC
  5
888D
  8
0
 10
78.76201733973684
 20
248.0929787486089
 30
0.0
 40
5.027945667181325
 50
69.68867313155181
 51
76.18096679647216
  0
ARC
  5
888E
  8
0
 10
78.80595431442484
 20
248.228255328291
 30
0.0
 40
4.753066014423507
 50
69.56664569302457
 51
75.91118551293789
  0
LINE
  5
8895
  8
0
 10
80.76348038142953
 20
252.5451438830962
 30
0.0
 11
80.76348038142953
 21
252.6772434924715
 31
0.0
  0
LINE
  5
8896
  8
0
 10
80.76348038142953
 20
252.6772434924715
 30
0.0
 11
80.68451065486727
 21
252.6602366565342
 31
0.0
  0
LINE
  5
8897
  8
0
 10
80.68451065486727
 20
252.6602366565342
 30
0.0
 11
80.67547989314801
 21
252.7772410510654
 31
0.0
  0
LINE
  5
8898
  8
0
 10
80.67547989314801
 20
252.7772410510654
 30
0.0
 11
80.76348038142953
 21
252.7953025745026
 31
0.0
  0
LINE
  5
8899
  8
0
 10
80.76348038142953
 20
252.7953025745026
 30
0.0
 11
80.76348038142953
 21
253.0125022815341
 31
0.0
  0
LINE
  5
889A
  8
0
 10
80.76348038142953
 20
253.0125022815341
 30
0.0
 11
80.67653458064763
 21
253.0125022815341
 31
0.0
  0
LINE
  5
889B
  8
0
 10
80.67653458064763
 20
253.0125022815341
 30
0.0
 11
80.67653458064763
 21
253.1225193713778
 31
0.0
  0
LINE
  5
889C
  8
0
 10
80.67653458064763
 20
253.1225193713778
 30
0.0
 11
80.76348038142953
 21
253.1225193713778
 31
0.0
  0
LINE
  5
889D
  8
0
 10
80.76348038142953
 20
253.1225193713778
 30
0.0
 11
80.76348038142953
 21
253.2956199573152
 31
0.0
  0
LINE
  5
889E
  8
0
 10
80.76348038142953
 20
253.2956199573152
 30
0.0
 11
80.88964737361687
 21
253.2956199573152
 31
0.0
  0
LINE
  5
889F
  8
0
 10
80.88964737361687
 20
253.2956199573152
 30
0.0
 11
80.88964737361687
 21
253.1225193713778
 31
0.0
  0
LINE
  5
88A0
  8
0
 10
80.88964737361687
 20
253.1225193713778
 30
0.0
 11
80.97369278377312
 21
253.1225193713778
 31
0.0
  0
LINE
  5
88A1
  8
0
 10
80.97369278377312
 20
253.1225193713778
 30
0.0
 11
80.97369278377312
 21
253.0244993518465
 31
0.0
  0
LINE
  5
88A2
  8
0
 10
80.97369278377312
 20
253.0244993518465
 30
0.0
 11
81.26491836971047
 21
253.0244993518465
 31
0.0
  0
LINE
  5
88A3
  8
0
 10
81.26491836971047
 20
253.0244993518465
 30
0.0
 11
81.26491836971047
 21
252.8123094104403
 31
0.0
  0
LINE
  5
88A4
  8
0
 10
81.26491836971047
 20
252.8123094104403
 30
0.0
 11
81.29491104549118
 21
252.8123094104403
 31
0.0
  0
LINE
  5
88A5
  8
0
 10
81.29491104549118
 20
252.8123094104403
 30
0.0
 11
81.29491104549118
 21
253.0244993518465
 31
0.0
  0
LINE
  5
88A6
  8
0
 10
81.29491104549118
 20
253.0244993518465
 30
0.0
 11
81.59707901424156
 21
253.0244993518465
 31
0.0
  0
LINE
  5
88A7
  8
0
 10
81.59707901424156
 20
253.0244993518465
 30
0.0
 11
81.59707901424156
 21
252.7872605823152
 31
0.0
  0
LINE
  5
88A8
  8
0
 10
81.59707901424156
 20
252.7872605823152
 30
0.0
 11
81.3429652447104
 21
252.7872605823152
 31
0.0
  0
LINE
  5
88A9
  8
0
 10
81.3429652447104
 20
252.7872605823152
 30
0.0
 11
81.3429652447104
 21
252.7502806018463
 31
0.0
  0
LINE
  5
88AA
  8
0
 10
81.3429652447104
 20
252.7502806018463
 30
0.0
 11
81.6140858501791
 21
252.7502806018463
 31
0.0
  0
LINE
  5
88AB
  8
0
 10
81.6140858501791
 20
252.7502806018463
 30
0.0
 11
81.6140858501791
 21
252.6471848987214
 31
0.0
  0
LINE
  5
88AC
  8
0
 10
81.6140858501791
 20
252.6471848987214
 30
0.0
 11
81.4130360454916
 21
252.6471848987214
 31
0.0
  0
LINE
  5
88AD
  8
0
 10
81.39695206111685
 20
252.8773704455966
 30
0.0
 11
81.39695206111685
 21
252.9313572620028
 31
0.0
  0
LINE
  5
88AE
  8
0
 10
81.39695206111685
 20
252.9313572620028
 30
0.0
 11
81.48402969783558
 21
252.9313572620028
 31
0.0
  0
LINE
  5
88AF
  8
0
 10
81.48402969783558
 20
252.9313572620028
 30
0.0
 11
81.48402969783558
 21
252.8773704455966
 31
0.0
  0
LINE
  5
88B0
  8
0
 10
81.48402969783558
 20
252.8773704455966
 30
0.0
 11
81.39695206111685
 21
252.8773704455966
 31
0.0
  0
LINE
  5
88B1
  8
0
 10
81.0727674908045
 20
252.8773704455966
 30
0.0
 11
81.0727674908045
 21
252.9313572620028
 31
0.0
  0
LINE
  5
88B2
  8
0
 10
81.0727674908045
 20
252.9313572620028
 30
0.0
 11
81.16076797908511
 21
252.9313572620028
 31
0.0
  0
LINE
  5
88B3
  8
0
 10
81.16076797908511
 20
252.9313572620028
 30
0.0
 11
81.16076797908511
 21
252.8773704455966
 31
0.0
  0
LINE
  5
88B4
  8
0
 10
81.16076797908511
 20
252.8773704455966
 30
0.0
 11
81.0727674908045
 21
252.8773704455966
 31
0.0
  0
LINE
  5
88B5
  8
0
 10
80.88964737361687
 20
252.8283274768467
 30
0.0
 11
80.88964737361687
 21
253.0125022815341
 31
0.0
  0
LINE
  5
88B6
  8
0
 10
80.88964737361687
 20
253.0125022815341
 30
0.0
 11
80.96367325252288
 21
253.0125022815341
 31
0.0
  0
LINE
  5
88B7
  8
0
 10
80.96367325252288
 20
253.0125022815341
 30
0.0
 11
80.96367325252288
 21
252.8523216174715
 31
0.0
  0
LINE
  5
88B8
  8
0
 10
80.6804896587729
 20
252.5041429065341
 30
0.0
 11
80.68655411189786
 21
252.3970262073153
 31
0.0
  0
LINE
  5
88B9
  8
0
 10
80.88964737361687
 20
252.5550974963778
 30
0.0
 11
80.88964737361687
 21
252.7122459338777
 31
0.0
  0
LINE
  5
88BA
  8
0
 10
80.88964737361687
 20
252.7122459338777
 30
0.0
 11
80.93967911189759
 21
252.7281980823154
 31
0.0
  0
LINE
  5
88BB
  8
0
 10
80.93967911189759
 20
252.7281980823154
 30
0.0
 11
80.93967911189759
 21
252.6471848987214
 31
0.0
  0
LINE
  5
88BC
  8
0
 10
80.93967911189759
 20
252.6471848987214
 30
0.0
 11
81.1448158306481
 21
252.6471848987214
 31
0.0
  0
LINE
  5
88BD
  8
0
 10
81.21290909236689
 20
252.5811350940342
 30
0.0
 11
81.21290909236689
 21
252.3939939807528
 31
0.0
  0
LINE
  5
88BE
  8
0
 10
81.21290909236689
 20
252.3939939807528
 30
0.0
 11
81.3429652447104
 21
252.3939939807528
 31
0.0
  0
LINE
  5
88BF
  8
0
 10
81.3429652447104
 20
252.3939939807528
 30
0.0
 11
81.3429652447104
 21
252.5831785510654
 31
0.0
  0
LINE
  5
88C0
  8
0
 10
80.91067520564786
 20
252.5071092151277
 30
0.0
 11
80.96769424861725
 21
252.405991051065
 31
0.0
  0
LINE
  5
88C1
  8
0
 10
81.63010391658565
 20
252.5071092151277
 30
0.0
 11
81.57011856502288
 21
252.405991051065
 31
0.0
  0
LINE
  5
88C2
  8
0
 10
80.97474747127274
 20
252.7502806018463
 30
0.0
 11
80.97270401424169
 21
252.7872605823152
 31
0.0
  0
LINE
  5
88C3
  8
0
 10
80.97270401424169
 20
252.7872605823152
 30
0.0
 11
81.21290909236689
 21
252.7872605823152
 31
0.0
  0
LINE
  5
88C4
  8
0
 10
81.21290909236689
 20
252.7872605823152
 30
0.0
 11
81.21290909236689
 21
252.7502806018463
 31
0.0
  0
LINE
  5
88C5
  8
0
 10
81.21290909236689
 20
252.7502806018463
 30
0.0
 11
80.97474747127274
 21
252.7502806018463
 31
0.0
  0
LINE
  5
88C6
  8
0
 10
80.88964737362893
 20
252.8283274768505
 30
0.0
 11
80.96367325252288
 21
252.8523216174715
 31
0.0
  0
ARC
  5
88CD
  8
0
 10
80.83643330786208
 20
254.1573187669858
 30
0.0
 40
1.660514633260303
 50
264.611249479242
 51
266.9650435407888
  0
ARC
  5
88CE
  8
0
 10
80.75095286038422
 20
252.513352276633
 30
0.0
 40
0.0144262685491103
 50
260.2791084872266
 51
310.6804296290811
  0
ARC
  5
88CF
  8
0
 10
80.74570580843128
 20
252.5107085376944
 30
0.0
 40
0.016836692213754
 50
330.4775573384218
 51
2.294959283368594
  0
ARC
  5
88D0
  8
0
 10
80.40886135910523
 20
252.5382430332205
 30
0.0
 40
0.3546861608848726
 50
355.6568477160334
 51
1.114829294733115
  0
ARC
  5
88D1
  8
0
 10
80.86717267104501
 20
254.5909238944979
 30
0.0
 40
2.201320087069032
 50
265.2935840081527
 51
267.2446320275867
  0
ARC
  5
88D2
  8
0
 10
80.77115913199462
 20
252.8927917861461
 30
0.0
 40
0.5007390619715127
 50
268.8777096656726
 51
276.0356306524537
  0
ARC
  5
88D3
  8
0
 10
80.80626972501837
 20
252.5013638412604
 30
0.0
 40
0.1079697028146053
 50
279.3496120098806
 51
298.4589397094819
  0
ARC
  5
88D4
  8
0
 10
80.8340796581747
 20
252.4456006586814
 30
0.0
 40
0.0457420854453726
 50
301.1196522787477
 51
342.1094983708578
  0
ARC
  5
88D5
  8
0
 10
80.69874718864394
 20
252.4945923741163
 30
0.0
 40
0.1896480143049656
 50
340.5840056015937
 51
356.420217923838
  0
ARC
  5
88D6
  8
0
 10
79.73908399803055
 20
252.5447049141433
 30
0.0
 40
1.150610310663639
 50
356.9134541668943
 51
0.5175159562408784
  0
ARC
  5
88D7
  8
0
 10
80.56217110957212
 20
253.3553683742402
 30
0.0
 40
0.9170598159310872
 50
292.335125830109
 51
309.4452011481057
  0
ARC
  5
88D8
  8
0
 10
80.5046563930785
 20
253.313510544123
 30
0.0
 40
1.018820732976181
 50
297.0317472267394
 51
314.0406943953204
  0
ARC
  5
88D9
  8
0
 10
82.06007352623654
 20
253.2683087472179
 30
0.0
 40
0.9917901356215535
 50
223.6935947217254
 51
240.3954626216229
  0
ARC
  5
88DA
  8
0
 10
82.07634097319266
 20
253.436846293252
 30
0.0
 40
1.031280051745624
 50
229.9701935275693
 51
244.3608344076083
  0
ARC
  5
88DB
  8
0
 10
81.19042928842754
 20
253.2348757175747
 30
0.0
 40
0.7728975205120456
 50
318.947518250353
 51
327.9128986506767
  0
ARC
  5
88DC
  8
0
 10
80.987363766596
 20
253.4740883454613
 30
0.0
 40
0.9560150226362272
 50
320.1390118388726
 51
349.4861334726868
  0
ARC
  5
88DD
  8
0
 10
81.09045629672258
 20
253.4337768773177
 30
0.0
 40
0.9728777163529205
 50
336.0259194018263
 51
350.6457305369572
  0
ARC
  5
88DE
  8
0
 10
80.6978799956154
 20
253.7565471028054
 30
0.0
 40
1.543441909358771
 50
326.7986265656289
 51
343.2079855871876
  0
ARC
  5
88DF
  8
0
 10
80.55265734515329
 20
253.8087582802394
 30
0.0
 40
1.826898541455237
 50
327.6190845677864
 51
337.2591695870116
  0
LINE
  5
88E0
  8
0
 10
81.72120254939784
 20
252.8613523791903
 30
0.0
 11
81.77327774238277
 21
252.7272752367456
 31
0.0
  0
LINE
  5
88E1
  8
0
 10
81.84526016658549
 20
252.8243064807527
 30
0.0
 11
81.84526016658549
 21
252.3890501330966
 31
0.0
  0
LINE
  5
88E2
  8
0
 10
81.84526016658549
 20
252.3890501330966
 30
0.0
 11
81.97940323299156
 21
252.3890501330966
 31
0.0
  0
LINE
  5
88E3
  8
0
 10
81.97940323299156
 20
252.3890501330966
 30
0.0
 11
81.97940323299156
 21
253.0384739612216
 31
0.0
  0
LINE
  5
88E4
  8
0
 10
81.98935684627399
 20
252.911384117471
 30
0.0
 11
82.09548477596047
 21
252.8303709338779
 31
0.0
  0
LINE
  5
88E5
  8
0
 10
81.92732804318003
 20
253.2996409523366
 30
0.0
 11
82.05039688533554
 21
253.2756468127839
 31
0.0
  0
LINE
  5
88E6
  8
0
 10
82.17550919002281
 20
253.3106492541899
 30
0.0
 11
82.30266495174203
 21
253.2846775745024
 31
0.0
  0
LINE
  5
88E7
  8
0
 10
82.30266495174203
 20
253.2846775745024
 30
0.0
 11
82.27959366267908
 21
253.21256331669
 31
0.0
  0
LINE
  5
88E8
  8
0
 10
82.27959366267908
 20
253.21256331669
 30
0.0
 11
82.66785049861721
 21
253.21256331669
 31
0.0
  0
LINE
  5
88E9
  8
0
 10
82.66785049861721
 20
253.21256331669
 30
0.0
 11
82.66785049861721
 21
253.1025462268462
 31
0.0
  0
LINE
  5
88EA
  8
0
 10
82.66785049861721
 20
253.1025462268462
 30
0.0
 11
82.38763321346062
 21
253.1025462268462
 31
0.0
  0
LINE
  5
88EB
  8
0
 10
82.38763321346062
 20
253.1025462268462
 30
0.0
 11
82.38763321346062
 21
252.957394859659
 31
0.0
  0
LINE
  5
88EC
  8
0
 10
82.38763321346062
 20
252.957394859659
 30
0.0
 11
82.63779190486696
 21
252.957394859659
 31
0.0
  0
LINE
  5
88ED
  8
0
 10
82.63779190486696
 20
252.957394859659
 30
0.0
 11
82.63779190486696
 21
252.8473777698152
 31
0.0
  0
LINE
  5
88EE
  8
0
 10
82.63779190486696
 20
252.8473777698152
 30
0.0
 11
82.38763321346062
 21
252.8473777698152
 31
0.0
  0
LINE
  5
88EF
  8
0
 10
82.38763321346062
 20
252.8473777698152
 30
0.0
 11
82.38763321346062
 21
252.699194176065
 31
0.0
  0
LINE
  5
88F0
  8
0
 10
82.38763321346062
 20
252.699194176065
 30
0.0
 11
82.63779190486696
 21
252.699194176065
 31
0.0
  0
LINE
  5
88F1
  8
0
 10
82.63779190486696
 20
252.699194176065
 30
0.0
 11
82.63779190486696
 21
252.5851560901278
 31
0.0
  0
LINE
  5
88F2
  8
0
 10
82.63779190486696
 20
252.5851560901278
 30
0.0
 11
82.38763321346062
 21
252.5851560901278
 31
0.0
  0
LINE
  5
88F3
  8
0
 10
82.38763321346062
 20
252.5851560901278
 30
0.0
 11
82.38763321346062
 21
252.3890501330966
 31
0.0
  0
LINE
  5
88F4
  8
0
 10
82.38763321346062
 20
252.3890501330966
 30
0.0
 11
82.25052383846025
 21
252.3890501330966
 31
0.0
  0
LINE
  5
88F5
  8
0
 10
82.25052383846025
 20
252.3890501330966
 30
0.0
 11
82.25052383846025
 21
253.1025462268462
 31
0.0
  0
ARC
  5
88FC
  8
0
 10
66.96971696906415
 20
251.3927329944246
 30
0.0
 40
0.2828210622112005
 50
90.02003426745169
 51
269.9799657325484
  0
ARC
  5
88FD
  8
0
 10
69.84331771979927
 20
250.572862923213
 30
0.0
 40
0.5373754166185866
 50
57.13664352767177
 51
91.99705192871254
  0
ARC
  5
88FE
  8
0
 10
69.86677709640985
 20
250.7268993185937
 30
0.0
 40
0.4003888224886927
 50
355.5852261959201
 51
47.9560453684336
  0
ARC
  5
88FF
  8
0
 10
69.1367442987825
 20
250.7027714588698
 30
0.0
 40
1.129253473005654
 50
343.3556242540913
 51
359.6604347539224
  0
ARC
  5
8900
  8
0
 10
68.63596406754039
 20
250.8316787573934
 30
0.0
 40
1.64609519188691
 50
315.4428214874116
 51
344.0494341922009
  0
ARC
  5
8901
  8
0
 10
69.10086252315241
 20
250.4233416942234
 30
0.0
 40
1.028936782496419
 50
285.922544153617
 51
313.4811452996269
  0
ARC
  5
8902
  8
0
 10
69.32745122608651
 20
249.680871221717
 30
0.0
 40
0.2531894894232498
 50
222.7949301541969
 51
282.7057089331238
  0
ARC
  5
8903
  8
0
 10
69.51717761702756
 20
249.8447675472767
 30
0.0
 40
0.5038300250349765
 50
200.4964382285445
 51
221.813457995602
  0
ARC
  5
8904
  8
0
 10
68.58182705049853
 20
249.9761745512301
 30
0.0
 40
0.3443215202639353
 50
19.15803174665643
 51
53.83541494359925
  0
ARC
  5
8905
  8
0
 10
68.53148876052126
 20
249.9442133275824
 30
0.0
 40
0.400422298107416
 50
50.71757792370534
 51
87.5672668679623
  0
ARC
  5
8906
  8
0
 10
67.6296934374561
 20
250.1665134484444
 30
0.0
 40
0.1813605741276915
 50
78.56608682673469
 51
205.2424881000189
  0
ARC
  5
8907
  8
0
 10
68.97803866298646
 20
249.2280094962764
 30
0.0
 40
1.202534944709728
 50
200.5370369121254
 51
233.3146931655697
  0
ARC
  5
8908
  8
0
 10
69.02811746257314
 20
249.1820479844667
 30
0.0
 40
1.197505703100655
 50
230.0777279884486
 51
257.6268065518877
  0
ARC
  5
8909
  8
0
 10
69.02747260223497
 20
249.2137490496462
 30
0.0
 40
1.228354683903901
 50
257.9730371047382
 51
270.1770558623293
  0
ARC
  5
890A
  8
0
 10
69.29923084590423
 20
248.2479677368264
 30
0.0
 40
0.2628694708098669
 50
267.2534516310777
 51
301.6800870731541
  0
ARC
  5
890B
  8
0
 10
69.31426268318913
 20
248.1656938307553
 30
0.0
 40
0.1874447925022647
 50
311.0186458814741
 51
8.366701291516714
  0
ARC
  5
890C
  8
0
 10
69.13122866131283
 20
248.168467737955
 30
0.0
 40
0.369297494221612
 50
3.804048464182194
 51
11.25863444339644
  0
ARC
  5
890D
  8
0
 10
69.69325661367523
 20
248.7577758215651
 30
0.0
 40
0.3380963868588264
 50
181.26081868172
 51
196.5873482391892
  0
ARC
  5
890E
  8
0
 10
69.440025979977
 20
248.7576734123009
 30
0.0
 40
0.0851007635716707
 50
123.1112413528423
 51
184.9458868237979
  0
ARC
  5
890F
  8
0
 10
69.4747039776525
 20
248.6352375368792
 30
0.0
 40
0.2100339102464543
 50
87.90923469532873
 51
112.7332176651332
  0
ARC
  5
8910
  8
0
 10
69.00571980609959
 20
253.4396836132695
 30
0.0
 40
4.619209901236188
 50
275.9227761634406
 51
283.2739859436803
  0
ARC
  5
8911
  8
0
 10
69.48103740293374
 20
251.5738357120531
 30
0.0
 40
2.694291922451725
 50
282.5465696396597
 51
307.8783852791522
  0
ARC
  5
8912
  8
0
 10
70.14832387427711
 20
250.6108637813446
 30
0.0
 40
1.52586355458445
 50
310.3030562439157
 51
355.2285114116197
  0
ARC
  5
8913
  8
0
 10
70.6252780127745
 20
250.6018067707602
 30
0.0
 40
1.050256262369897
 50
353.5562806051813
 51
42.38046506435803
  0
ARC
  5
8914
  8
0
 10
70.5844113929884
 20
250.5451435800638
 30
0.0
 40
1.11872921240763
 50
43.11337721285553
 51
79.80305404211526
  0
ARC
  5
8915
  8
0
 10
70.4767450186314
 20
250.0706949804707
 30
0.0
 40
1.604894768581823
 50
79.01857667915257
 51
90.38221549892027
  0
LINE
  5
8916
  8
0
 10
66.969618076742
 20
251.6755540393463
 30
0.0
 11
70.46603897517946
 21
251.6755540393463
 31
0.0
  0
LINE
  5
8917
  8
0
 10
69.82459122127341
 20
251.1099119495029
 30
0.0
 11
66.969618076742
 21
251.1099119495029
 31
0.0
  0
LINE
  5
8918
  8
0
 10
67.66564590877317
 20
250.3442747424713
 30
0.0
 11
68.54848526424132
 21
250.3442747424713
 31
0.0
  0
LINE
  5
8919
  8
0
 10
67.4656507915853
 20
250.0891722034089
 30
0.0
 11
67.85193008846102
 21
248.8061448596591
 31
0.0
  0
LINE
  5
891A
  8
0
 10
68.90707901424196
 20
250.0891722034089
 30
0.0
 11
69.04524307674149
 21
249.6683518909088
 31
0.0
  0
LINE
  5
891B
  8
0
 10
69.03126846736689
 20
247.9854002307529
 30
0.0
 11
69.28663467830404
 21
247.9854002307529
 31
0.0
  0
LINE
  5
891C
  8
0
 10
69.36922989314792
 20
248.6612571643464
 30
0.0
 11
69.4934193462733
 21
248.2405686877839
 31
0.0
  0
ARC
  5
891D
  8
0
 10
72.83334422713885
 20
249.8304112170807
 30
0.0
 40
0.6878210449550781
 50
270.000563090803
 51
89.99943690919693
  0
ARC
  5
891E
  8
0
 10
72.83338394588259
 20
249.8304112170807
 30
0.0
 40
0.687821045711525
 50
90.00274549709049
 51
269.9972545029095
  0
ARC
  5
891F
  8
0
 10
74.37471961580421
 20
251.3893132660099
 30
0.0
 40
0.2828130447361592
 50
89.98842136819248
 51
178.6192995485868
  0
ARC
  5
8920
  8
0
 10
75.2507518531524
 20
251.3893132505457
 30
0.0
 40
0.2828130811878016
 50
1.380703407264985
 51
90.02492579871775
  0
ARC
  5
8921
  8
0
 10
75.25099278177092
 20
249.4644990813791
 30
0.0
 40
0.2824901983742726
 50
269.9261795962872
 51
0.0604663006559071
  0
ARC
  5
8922
  8
0
 10
74.37466161561207
 20
249.464682050873
 30
0.0
 40
0.2826729568565266
 50
179.9766594067946
 51
270.0233405932055
  0
LINE
  5
8923
  8
0
 10
74.09199240199348
 20
249.4632273260533
 30
0.0
 11
74.0919886822104
 21
251.3961277698149
 31
0.0
  0
LINE
  5
8924
  8
0
 10
74.37400762192868
 20
251.6721254144865
 30
0.0
 11
75.25229556831154
 21
251.6721221185632
 31
0.0
  0
LINE
  5
8925
  8
0
 10
75.53348282283571
 20
251.3961277698149
 30
0.0
 11
75.53345782698133
 21
249.4607294110137
 31
0.0
  0
LINE
  5
8926
  8
0
 10
75.25062881892939
 20
249.1820091174714
 30
0.0
 11
74.3732007863875
 21
249.1820128687718
 31
0.0
  0
ARC
  5
8927
  8
0
 10
77.12593893221016
 20
251.3895968242935
 30
0.0
 40
0.2826097076234824
 50
91.36525726475399
 51
178.6758100704026
  0
ARC
  5
8928
  8
0
 10
78.00201842541857
 20
251.3892492106759
 30
0.0
 40
0.2829640306798127
 50
1.392937584091324
 51
88.57968746209669
  0
ARC
  5
8929
  8
0
 10
76.13390873547132
 20
249.2464339264295
 30
0.0
 40
0.7095545703611964
 50
294.722295099685
 51
359.2635790108662
  0
ARC
  5
892A
  8
0
 10
76.14751061082413
 20
249.2241477622373
 30
0.0
 40
0.6836291848452445
 50
269.3589656243572
 51
294.4679549242983
  0
ARC
  5
892B
  8
0
 10
75.94458576130985
 20
248.2529886985281
 30
0.0
 40
0.2876124647396953
 50
90.95318829466778
 51
179.0468117052388
  0
ARC
  5
892C
  8
0
 10
75.93974639455342
 20
248.2647253295206
 30
0.0
 40
0.2828187564185315
 50
181.4085464563371
 51
270.0110993400218
  0
ARC
  5
892D
  8
0
 10
76.6358934487222
 20
249.6030669698928
 30
0.0
 40
1.621285853949169
 50
269.2872002435487
 51
306.8502971066572
  0
ARC
  5
892E
  8
0
 10
76.61168266038358
 20
249.6593349184561
 30
0.0
 40
1.680893046788847
 50
306.3604076717551
 51
344.2486651262064
  0
ARC
  5
892F
  8
0
 10
76.57678536718197
 20
249.6347963121314
 30
0.0
 40
1.708139136412968
 50
345.358681923467
 51
0.3140858163092831
  0
LINE
  5
8930
  8
0
 10
75.93980118221054
 20
248.5405613635651
 30
0.0
 11
76.13986221736661
 21
248.5405613635651
 31
0.0
  0
LINE
  5
8931
  8
0
 10
75.93904608076316
 20
247.9819074401396
 30
0.0
 11
76.61572403377352
 21
247.9819065784088
 31
0.0
  0
LINE
  5
8932
  8
0
 10
76.84340469783558
 20
249.2373142932524
 30
0.0
 11
76.8434046978356
 21
251.3961277698149
 31
0.0
  0
LINE
  5
8933
  8
0
 10
77.11920547908551
 20
251.6721263049712
 30
0.0
 11
78.00903213924141
 21
251.6721263049712
 31
0.0
  0
LINE
  5
8934
  8
0
 10
78.28489883846044
 20
251.3961277698149
 30
0.0
 11
78.28489883846044
 21
249.6441599963778
 31
0.0
  0
ARC
  5
8935
  8
0
 10
79.2056088811578
 20
251.3995884631747
 30
0.0
 40
0.2793496437978958
 50
89.27682506757674
 51
270.7231749324233
  0
ARC
  5
8936
  8
0
 10
83.17795669978808
 20
251.3995884631747
 30
0.0
 40
0.2793488296789816
 50
269.2901771019561
 51
90.70982289804388
  0
ARC
  5
8937
  8
0
 10
81.92978368592364
 20
250.8375881371957
 30
0.0
 40
0.2826729568557595
 50
89.97665940663896
 51
180.0233405934071
  0
ARC
  5
8938
  8
0
 10
81.89840852120848
 20
250.6562961581666
 30
0.0
 40
0.2513141422736609
 50
179.3459612919623
 51
277.1982312949676
  0
ARC
  5
8939
  8
0
 10
79.95254342517998
 20
250.8679225037126
 30
0.0
 40
0.254113098957798
 50
353.1179023580567
 51
96.77515268084902
  0
ARC
  5
893A
  8
0
 10
79.9377755823184
 20
250.6739911208962
 30
0.0
 40
0.2674612633563698
 50
266.7397858265089
 51
356.8222810231529
  0
ARC
  5
893B
  8
0
 10
79.03958198141481
 20
250.1351980722548
 30
0.0
 40
0.2719826857246087
 50
87.7056937783898
 51
178.5866450566916
  0
ARC
  5
893C
  8
0
 10
79.03616092462438
 20
250.1448984930041
 30
0.0
 40
0.2684955533909777
 50
180.6384747333249
 51
273.0549687720102
  0
ARC
  5
893D
  8
0
 10
83.35030566722797
 20
250.1418736194244
 30
0.0
 40
0.2656429779651862
 50
266.2994476646879
 51
93.70055233531211
  0
ARC
  5
893E
  8
0
 10
81.92137641936202
 20
249.60219265585
 30
0.0
 40
0.2747240742041664
 50
88.22229995738235
 51
176.6896381243242
  0
ARC
  5
893F
  8
0
 10
79.93456300265365
 20
249.3146291972937
 30
0.0
 40
0.5622833351902599
 50
74.29146260526402
 51
91.22268509583404
  0
ARC
  5
8940
  8
0
 10
80.05457686194796
 20
249.7076800831423
 30
0.0
 40
0.1516934480567135
 50
13.26201423171465
 51
77.73648919840278
  0
ARC
  5
8941
  8
0
 10
78.09251763242395
 20
249.6009616398376
 30
0.0
 40
2.114448312603123
 50
357.8756766858709
 51
3.837609563335572
  0
ARC
  5
8942
  8
0
 10
81.65219513802914
 20
249.52618428929
 30
0.0
 40
1.4468468182507
 50
179.4342294387389
 51
211.5839013508997
  0
ARC
  5
8943
  8
0
 10
81.88499761521093
 20
249.7099754085284
 30
0.0
 40
1.74176963331191
 50
212.7233790529388
 51
242.2496639148263
  0
ARC
  5
8944
  8
0
 10
81.85056687404641
 20
249.6893487756529
 30
0.0
 40
1.707611238983197
 50
242.9498193266352
 51
270.8062016576187
  0
ARC
  5
8945
  8
0
 10
83.19460982205632
 20
248.2438316272371
 30
0.0
 40
0.2626962062588158
 50
265.6087460663587
 51
94.39125393364132
  0
ARC
  5
8946
  8
0
 10
82.343109558937
 20
249.2205906610782
 30
0.0
 40
0.7148737882644511
 50
233.6957695486277
 51
270.6046224025658
  0
ARC
  5
8947
  8
0
 10
82.32526750700389
 20
249.2049128187626
 30
0.0
 40
0.6916942395095408
 50
204.7274136093371
 51
234.1179128502561
  0
ARC
  5
8948
  8
0
 10
82.24626077339352
 20
249.1549600962355
 30
0.0
 40
0.5991632247248656
 50
179.6196212812788
 51
203.548849514527
  0
LINE
  5
8949
  8
0
 10
79.20913467830417
 20
251.1202610705966
 30
0.0
 11
79.92256485408518
 21
251.1202610705966
 31
0.0
  0
LINE
  5
894A
  8
0
 10
79.05047012752277
 20
250.4069627307524
 30
0.0
 11
79.92256485408518
 21
250.4069627307524
 31
0.0
  0
LINE
  5
894B
  8
0
 10
80.20482559627283
 20
250.8374729846587
 30
0.0
 11
80.20482559627283
 21
250.6591648791903
 31
0.0
  0
LINE
  5
894C
  8
0
 10
79.20913467830417
 20
251.6789158557528
 30
0.0
 11
83.17449600642942
 21
251.6789158557528
 31
0.0
  0
LINE
  5
894D
  8
0
 10
83.17449600642942
 20
251.1202610705966
 30
0.0
 11
81.92836787469895
 21
251.1202575483759
 31
0.0
  0
LINE
  5
894E
  8
0
 10
81.64711415319675
 20
250.8389794677373
 30
0.0
 11
81.64711075252274
 21
250.6591648791903
 31
0.0
  0
LINE
  5
894F
  8
0
 10
81.92989883846042
 20
250.4069627307524
 30
0.0
 11
83.33316055721036
 21
250.4069627307524
 31
0.0
  0
LINE
  5
8950
  8
0
 10
83.37331340179334
 20
249.8817493347055
 30
0.0
 11
81.92989883846042
 21
249.8767845080963
 31
0.0
  0
LINE
  5
8951
  8
0
 10
81.64711075252275
 20
249.6180564807528
 30
0.0
 11
81.64711075252274
 21
249.1589378284089
 31
0.0
  0
LINE
  5
8952
  8
0
 10
79.05047012752277
 20
249.8767845080963
 30
0.0
 11
79.92256485408518
 21
249.8767845080963
 31
0.0
  0
LINE
  5
8953
  8
0
 10
81.87459366267888
 20
247.9819065784088
 30
0.0
 11
83.17449600642942
 21
247.9819065784088
 31
0.0
  0
LINE
  5
8954
  8
0
 10
83.17449600642942
 20
248.5057566760654
 30
0.0
 11
82.35065323299216
 21
248.5057566760654
 31
0.0
  0
LINE
  5
895B
  8
0
 10
80.92346969118819
 20
230.2010027188035
 30
0.0
 11
80.65511747474659
 21
230.0460694944034
 31
0.0
  0
LINE
  5
895C
  8
0
 10
80.65511747474659
 20
230.0460694944034
 30
0.0
 11
80.65511747474659
 21
229.7362030456031
 31
0.0
  0
LINE
  5
895D
  8
0
 10
80.65511747474659
 20
229.7362030456031
 30
0.0
 11
80.92346969118819
 21
229.581269821203
 31
0.0
  0
LINE
  5
895E
  8
0
 10
80.92346969118819
 20
229.581269821203
 30
0.0
 11
81.19182190762979
 21
229.7362030456031
 31
0.0
  0
LINE
  5
895F
  8
0
 10
81.19182190762979
 20
229.7362030456031
 30
0.0
 11
81.19182190762979
 21
230.0460694944034
 31
0.0
  0
LINE
  5
8960
  8
0
 10
81.19182190762979
 20
230.0460694944034
 30
0.0
 11
80.92346969118819
 21
230.2010027188035
 31
0.0
  0
LINE
  5
8961
  8
0
 10
80.7734696911881
 20
230.4986531053925
 30
0.0
 11
80.47234467851456
 21
230.3247984982656
 31
0.0
  0
LINE
  5
8962
  8
0
 10
81.37459470386204
 20
230.3247984982655
 30
0.0
 11
81.07346969118828
 21
230.4986531053925
 31
0.0
  0
LINE
  5
8963
  8
0
 10
80.47234467851433
 20
229.4574740417409
 30
0.0
 11
80.7734696911881
 21
229.283619434614
 31
0.0
  0
LINE
  5
8964
  8
0
 10
81.07346969118828
 20
229.283619434614
 30
0.0
 11
81.37459470386204
 21
229.457474041741
 31
0.0
  0
LINE
  5
8965
  8
0
 10
81.52459470386191
 20
229.7172816628764
 30
0.0
 11
81.52459470386191
 21
230.0649908771301
 31
0.0
  0
LINE
  5
8966
  8
0
 10
80.32234467851447
 20
230.0649908771302
 30
0.0
 11
80.32234467851447
 21
229.7172816628762
 31
0.0
  0
VIEWPORT
  5
22
 67
     1
  8
0
 10
5.269134197284911
 20
5.545311567251436
 30
0.0
 40
11.13808705479925
 41
12.32365374410561
 68
     1
 69
     1
1001
GENIUS_GENSCREG_15
1000
PF
1040
1.0
1000
DF
1040
1.0
1000
MIN
1011
-0.2999093301147138
1021
-0.6165153048013714
1031
0.0
1021
-0.6165153048013714
1031
0.0
1000
MAX
1011
10.83817772468454
1021
11.70713843930424
1031
0.0
1021
11.70713843930424
1031
0.0
1000
FLAGS
1070
     4
1001
GENIUS_GENODEF_13
1002
{
1000
HIER
1070
     0
1002
}
1002
{
1000
MANEDIT
1070
     0
1002
}
1002
{
1000
NOSEL
1070
     0
1002
}
1002
{
1000
BEHIND
1070
     0
1002
}
1002
{
1000
OTHER
1070
     0
1002
}
1002
{
1000
REACTOR
1002
}
1001
GENIUS_GENOBJ-N-SDF_13
1002
{
1000
OWNER
1000
GEN
1002
}
1001
ACAD
1000
MVIEW
1002
{
1070
    16
1010
0.0
1020
0.0
1030
0.0
1020
0.0
1030
0.0
1010
0.0
1020
0.0
1030
1.0
1020
0.0
1030
1.0
1040
0.0
1040
12.32365374410561
1040
5.269134197284911
1040
5.545311567251436
1040
50.0
1040
0.0
1040
0.0
1070
     0
1070
   100
1070
     0
1070
     1
1070
     0
1070
     0
1070
     0
1070
     0
1040
0.0
1040
0.0
1040
0.0
1040
1.0
1040
1.0
1040
10.0
1040
10.0
1070
     0
1002
{
1002
}
1002
}
  0
ENDSEC
  0
EOF
