  0
SECTION
  2
HEADER
  9
$ACADVER
  1
AC1009
  9
$DWGCODEPAGE
  3
ansi_932
  9
$INSBASE
 10
0.0
 20
0.0
 30
0.0
  9
$EXTMIN
 10
0.0
 20
0.0
 30
0.0
  9
$EXTMAX
 10
339.4997681420941
 20
459.8682792131334
 30
0.0
  9
$LIMMIN
 10
0.0
 20
0.0
  9
$LIMMAX
 10
420.0
 20
420.0
  9
$ORTHOMODE
 70
     0
  9
$REGENMODE
 70
     1
  9
$FILLMODE
 70
     1
  9
$QTEXTMODE
 70
     0
  9
$MIRRTEXT
 70
     0
  9
$DRAGMODE
 70
     2
  9
$LTSCALE
 40
10.0
  9
$OSMODE
 70
 15359
  9
$ATTMODE
 70
     1
  9
$TEXTSIZE
 40
3.5
  9
$TRACEWID
 40
1.0
  9
$TEXTSTYLE
  7
STANDARD
  9
$CLAYER
  8
0
  9
$CELTYPE
  6
BYLAYER
  9
$CECOLOR
 62
   256
  9
$DIMSCALE
 40
1.0
  9
$DIMASZ
 40
2.5
  9
$DIMEXO
 40
1.0
  9
$DIMDLI
 40
7.0
  9
$DIMRND
 40
0.0
  9
$DIMDLE
 40
0.0
  9
$DIMEXE
 40
1.0
  9
$DIMTP
 40
0.1
  9
$DIMTM
 40
0.1
  9
$DIMTXT
 40
3.0
  9
$DIMCEN
 40
0.0
  9
$DIMTSZ
 40
0.0
  9
$DIMTOL
 70
     0
  9
$DIMLIM
 70
     0
  9
$DIMTIH
 70
     0
  9
$DIMTOH
 70
     0
  9
$DIMSE1
 70
     0
  9
$DIMSE2
 70
     0
  9
$DIMTAD
 70
     3
  9
$DIMZIN
 70
     8
  9
$DIMBLK
  1
OPEN
  9
$DIMASO
 70
     1
  9
$DIMSHO
 70
     1
  9
$DIMPOST
  1

  9
$DIMAPOST
  1
"
  9
$DIMALT
 70
     0
  9
$DIMALTD
 70
     2
  9
$DIMALTF
 40
0.0393701
  9
$DIMLFAC
 40
1.0
  9
$DIMTOFL
 70
     1
  9
$DIMTVP
 40
0.0
  9
$DIMTIX
 70
     0
  9
$DIMSOXD
 70
     0
  9
$DIMSAH
 70
     0
  9
$DIMBLK1
  1

  9
$DIMBLK2
  1

  9
$DIMSTYLE
  2
AM_JIS
  9
$DIMCLRD
 70
   256
  9
$DIMCLRE
 70
   256
  9
$DIMCLRT
 70
     2
  9
$DIMTFAC
 40
0.71
  9
$DIMGAP
 40
1.0
  9
$LUNITS
 70
     2
  9
$LUPREC
 70
     2
  9
$SKETCHINC
 40
1.0
  9
$FILLETRAD
 40
2.5
  9
$AUNITS
 70
     0
  9
$AUPREC
 70
     0
  9
$MENU
  1
.
  9
$ELEVATION
 40
0.0
  9
$PELEVATION
 40
0.0
  9
$THICKNESS
 40
0.0
  9
$LIMCHECK
 70
     0
  9
$CHAMFERA
 40
2.5
  9
$CHAMFERB
 40
2.5
  9
$SKPOLY
 70
     1
  9
$TDCREATE
 40
2460208.715983009
  9
$TDUPDATE
 40
2460210.726425312
  9
$TDINDWG
 40
0.1289513773
  9
$TDUSRTIMER
 40
0.1288524653
  9
$USRTIMER
 70
     1
  9
$ANGBASE
 50
0.0
  9
$ANGDIR
 70
     0
  9
$PDMODE
 70
     0
  9
$PDSIZE
 40
0.0
  9
$PLINEWID
 40
0.0
  9
$COORDS
 70
     2
  9
$SPLFRAME
 70
     0
  9
$SPLINETYPE
 70
     6
  9
$SPLINESEGS
 70
     8
  9
$ATTDIA
 70
     1
  9
$ATTREQ
 70
     1
  9
$HANDLING
 70
     1
  9
$HANDSEED
  5
2B8A
  9
$SURFTAB1
 70
     6
  9
$SURFTAB2
 70
     6
  9
$SURFTYPE
 70
     6
  9
$SURFU
 70
     6
  9
$SURFV
 70
     6
  9
$UCSNAME
  2

  9
$UCSORG
 10
0.0
 20
0.0
 30
0.0
  9
$UCSXDIR
 10
1.0
 20
0.0
 30
0.0
  9
$UCSYDIR
 10
0.0
 20
1.0
 30
0.0
  9
$PUCSNAME
  2

  9
$PUCSORG
 10
0.0
 20
0.0
 30
0.0
  9
$PUCSXDIR
 10
1.0
 20
0.0
 30
0.0
  9
$PUCSYDIR
 10
0.0
 20
1.0
 30
0.0
  9
$USERI1
 70
     0
  9
$USERI2
 70
     0
  9
$USERI3
 70
     0
  9
$USERI4
 70
     0
  9
$USERI5
 70
     0
  9
$USERR1
 40
0.0
  9
$USERR2
 40
0.0
  9
$USERR3
 40
0.0
  9
$USERR4
 40
0.0
  9
$USERR5
 40
0.0
  9
$WORLDVIEW
 70
     1
  9
$SHADEDGE
 70
     3
  9
$SHADEDIF
 70
    70
  9
$TILEMODE
 70
     1
  9
$MAXACTVP
 70
    48
  9
$PLIMCHECK
 70
     0
  9
$PEXTMIN
 10
1.000000000000000E+20
 20
1.000000000000000E+20
 30
1.000000000000000E+20
  9
$PEXTMAX
 10
-1.000000000000000E+20
 20
-1.000000000000000E+20
 30
-1.000000000000000E+20
  9
$PLIMMIN
 10
-0.2500002402958907
 20
-0.2499999962453767
  9
$PLIMMAX
 10
10.74999951940822
 20
8.249999763458732
  9
$UNITMODE
 70
     0
  9
$VISRETAIN
 70
     1
  9
$PLINEGEN
 70
     0
  9
$PSLTSCALE
 70
     1
  0
ENDSEC
  0
SECTION
  2
TABLES
  0
TABLE
  2
VPORT
 70
     1
  0
VPORT
  2
*ACTIVE
 70
     0
 10
0.0
 20
0.0
 11
1.0
 21
1.0
 12
198.1812792299357
 22
220.8026068951629
 13
0.0
 23
0.0
 14
2.5
 24
2.5
 15
10.0
 25
10.0
 16
0.0
 26
0.0
 36
1.0
 17
0.0
 27
0.0
 37
0.0
 40
464.0065764388984
 41
2.295429208472687
 42
50.0
 43
0.0
 44
0.0
 50
0.0
 51
0.0
 71
     0
 72
   100
 73
     1
 74
     3
 75
     0
 76
     0
 77
     0
 78
     0
  0
ENDTAB
  0
TABLE
  2
LTYPE
 70
    14
  0
LTYPE
  2
CONTINUOUS
 70
     0
  3
Solid line
 72
    65
 73
     0
 40
0.0
  0
LTYPE
  2
PHANTOM2
 70
     0
  3
___ _ _ ___ _ _ ___ _ _ ___ _ _ ___ _ _ ___ _ _
 72
    65
 73
     6
 40
1.25
 49
0.625
 49
-0.125
 49
0.125
 49
-0.125
 49
0.125
 49
-0.125
  0
LTYPE
  2
ACJISTGB
 70
     0
  3
__ . . __ . .
 72
    65
 73
     6
 40
9.0
 49
4.0
 49
-1.0
 49
1.0
 49
-1.0
 49
1.0
 49
-1.0
  0
LTYPE
  2
ACJISTGL
 70
     0
  3
_ _ _ _ _
 72
    65
 73
     2
 40
3.0
 49
2.0
 49
-1.0
  0
LTYPE
  2
AM_ISO02W050
 70
     0
  3
__ __ __ __ __ __ __ __ __ __ __ __ __ __ __
 72
    65
 73
     2
 40
7.5
 49
6.0
 49
-1.5
  0
LTYPE
  2
AM_ISO08W050
 70
     0
  3
____ . ____ . ____ . ____ . ____ . ____ . ____
 72
    65
 73
     4
 40
18.0
 49
12.0
 49
-1.5
 49
3.0
 49
-1.5
  0
LTYPE
  2
AM_ISO09W050
 70
     0
  3
_____ . . _____ . . _____ . . ____ .. ____
 72
    65
 73
     6
 40
22.5
 49
12.0
 49
-1.5
 49
3.0
 49
-1.5
 49
3.0
 49
-1.5
  0
LTYPE
  2
AM_ISO02W050X2
 70
     0
  3
 _ _ _ _ _ _ _ _ _ _ _ _
 72
    65
 73
     2
 40
3.75
 49
3.0
 49
-0.75
  0
LTYPE
  2
AM_ISO08W050X2
 70
     0
  3
__ . __ . __ . __ . __ . __
 72
    65
 73
     4
 40
9.0
 49
6.0
 49
-0.75
 49
1.5
 49
-0.75
  0
LTYPE
  2
AMZIGZAG
 70
     0
  3
/\/-/\/-/\/-/\/-/\/-/\/
 72
    65
 73
     2
 40
11.0001
 49
0.0001
 49
-11.0
  0
LTYPE
  2
AMCONSTR
 70
     0
  3
_______________________
 72
    65
 73
     2
 40
9999.0
 49
9999.0
 49
0.0
  0
LTYPE
  2
CENTER2
 70
     0
  3
Center (.5x) ___ _ ___ _ ___ _ ___ _ ___ _ ___
 72
    65
 73
     4
 40
1.125
 49
0.75
 49
-0.125
 49
0.125
 49
-0.125
  0
LTYPE
  2
HIDDEN2
 70
     0
  3
Hidden (.5x) _ _ _ _ _ _ _ _ _ _ _ _ _ _ _ _ _
 72
    65
 73
     2
 40
0.1875
 49
0.125
 49
-0.0625
  0
LTYPE
  2
ACJISWELD
 70
     0
  3
_ _ _ _ _
 72
    65
 73
     2
 40
2.0
 49
2.0
 49
-1.0
  0
ENDTAB
  0
TABLE
  2
LAYER
 70
     4
  0
LAYER
  2
0
 70
     0
 62
     7
  6
CONTINUOUS
  0
LAYER
  2
7
 70
     0
 62
     4
  6
CENTER2
  0
LAYER
  2
AM_0
 70
     0
 62
     7
  6
CONTINUOUS
  0
LAYER
  2
10
 70
     0
 62
     2
  6
CONTINUOUS
  0
ENDTAB
  0
TABLE
  2
STYLE
 70
     4
  0
STYLE
  2
STANDARD
 70
     0
 40
0.0
 41
1.0
 50
0.0
 71
     0
 42
3.5
  3
isocp.shx
  4
extfont.shx
  0
STYLE
  2
ACJISTS
 70
     0
 40
1.0
 41
1.0
 50
0.0
 71
     0
 42
3.5
  3
isocp.shx
  4
extfont.shx
  0
STYLE
  2
ACJISGDT
 70
     0
 40
0.0
 41
1.0
 50
0.0
 71
     0
 42
3.5
  3
amgdt.shx
  4
extfont.shx
  0
STYLE
  2

 70
     1
 40
0.0
 41
1.0
 50
0.0
 71
     0
 42
3.5
  3
ltypeshp.shx
  4

  0
ENDTAB
  0
TABLE
  2
VIEW
 70
     3
  0
VIEW
  2
AMDTVIEW1
 70
     0
 40
329.0721649484536
 10
210.0
 20
164.5360824742268
 41
420.0
 11
0.0
 21
0.0
 31
1.0
 12
0.0
 22
0.0
 32
0.0
 42
50.0
 43
0.0
 44
0.0
 50
0.0
 71
     0
  0
VIEW
  2
AMDTVIEW2
 70
     0
 40
329.0721649484536
 10
210.0
 20
164.5360824742268
 41
420.0
 11
0.0
 21
0.0
 31
1.0
 12
0.0
 22
0.0
 32
0.0
 42
50.0
 43
0.0
 44
0.0
 50
0.0
 71
     0
  0
VIEW
  2
AMDTVIEW3
 70
     0
 40
329.0721649484536
 10
210.0
 20
164.5360824742268
 41
420.0
 11
0.0
 21
0.0
 31
1.0
 12
0.0
 22
0.0
 32
0.0
 42
50.0
 43
0.0
 44
0.0
 50
0.0
 71
     0
  0
ENDTAB
  0
TABLE
  2
UCS
 70
     0
  0
ENDTAB
  0
TABLE
  2
APPID
 70
    67
  0
APPID
  2
ACAD
 70
     0
  0
APPID
  2
AD_DRAW
 70
     0
  0
APPID
  2
DESIGNERASSEMBLIES
 70
     0
  0
APPID
  2
MCAD_NO_VIS
 70
     0
  0
APPID
  2
ASURF_PCURVE_APPNAME
 70
     0
  0
APPID
  2
ACAD_TEMP_GRAPHIC
 70
     0
  0
APPID
  2
ACATTRIBSERVICES
 70
     0
  0
APPID
  2
ACADM_DIM_EDIT
 70
     0
  0
APPID
  2
GENIUS_GENDIM_13
 70
     0
  0
APPID
  2
GENIUS_GENDTOL_13
 70
     0
  0
APPID
  2
GENIUS_GE3DTOL_13
 70
     0
  0
APPID
  2
AMG_3D2D_5_0
 70
     0
  0
APPID
  2
AMDT_DM_ADJ
 70
     0
  0
APPID
  2
ACAD_PSEXT
 70
     0
  0
APPID
  2
ACAD_DSTYLE_DIMTEXT_FILL
 70
     0
  0
APPID
  2
ACAECLAYERSTANDARD
 70
     0
  0
APPID
  2
GENIUS_GENREC_14
 70
     0
  0
APPID
  2
GENIUS_GENODEF_13
 70
     0
  0
APPID
  2
GENIUS_GENOBJ-N-REC_13
 70
     0
  0
APPID
  2
DCO15
 70
     0
  0
APPID
  2
ACAD_DSTYLE_DIMJAG
 70
     0
  0
APPID
  2
ACAD_DSTYLE_DIMTALN
 70
     0
  0
APPID
  2
ACAD_MLEADERVER
 70
     0
  0
APPID
  2
GENIUS_GENSCREG_15
 70
     0
  0
APPID
  2
GENIUS_GENOBJ-N-SDF_13
 70
     0
  0
APPID
  2
ACAD_NAV_VCDISPLAY
 70
     0
  0
APPID
  2
ACAD_EXEMPT_FROM_CAD_STAND
 70
     0
  0
APPID
  2
ACCMTRANSPARENCY
 70
     0
  0
APPID
  2
HC_SUPERPART
 70
     0
  0
APPID
  2
HC_SP4BLOCK
 70
     0
  0
APPID
  2
HC_XDATA_SPRING
 70
     0
  0
APPID
  2
HCCAD_FRAME
 70
     0
  0
APPID
  2
GENIUS_GENOLIS_13
 70
     0
  0
APPID
  2
GENIUS_GENOENT_13
 70
     0
  0
APPID
  2
GENIUS_GENOREF_13
 70
     0
  0
APPID
  2
GENIUS_GENOBJ-N-TIT_13
 70
     0
  0
APPID
  2
GENIUS_GENOBJ-N-ZOO_13
 70
     0
  0
APPID
  2
GENIUS_GENTITLE_13
 70
     0
  0
APPID
  2
GENIUS_GENSYMENT_13
 70
     0
  0
APPID
  2
GENIUS_GENSCSYM_13
 70
     0
  0
APPID
  2
GENIUS_GENOBJ-N-REV_13
 70
     0
  0
APPID
  2
GENIUS_GENOBJ-N-RSSYM_13
 70
     0
  0
APPID
  2
GENIUS_GENREV_15
 70
     0
  0
APPID
  2
HRA
 70
     0
  0
APPID
  2
HTIT
 70
     0
  0
APPID
  2
GENIUS_GENZOO_17
 70
     0
  0
APPID
  2
GENIUS_GENOBJ-N-CEN_13
 70
     0
  0
APPID
  2
GENIUS_GENCEN_19
 70
     0
  0
APPID
  2
GENIUS_GENOBJ-N-CRS_13
 70
     0
  0
APPID
  2
GENIUS_GENCRS_20
 70
     0
  0
APPID
  2
GENIUS_GENOBJ-N-CRC_13
 70
     0
  0
APPID
  2
GENIUS_GENCRC_14
 70
     0
  0
APPID
  2
GENIUS_GENFIL_13
 70
     0
  0
APPID
  2
GENIUS_GENOBJ-N-CHA_13
 70
     0
  0
APPID
  2
GENIUS_GENOBJ-N-FIL_13
 70
     0
  0
APPID
  2
GENIUS_GENHATCH_13
 70
     0
  0
APPID
  2
GENIUS_GENOBJ-N-HTC_13
 70
     0
  0
APPID
  2
GENIUS_GENOBJ-N-DIM_13
 70
     0
  0
APPID
  2
GENIUS_GENOBJ-N-DIMLI_13
 70
     0
  0
APPID
  2
GENIUS_GENOBJ-N-FITL_13
 70
     0
  0
APPID
  2
GENIUS_GENFITL_13
 70
     0
  0
APPID
  2
GENLAYCOLOR
 70
     0
  0
APPID
  2
ACAD_DSTYLE_DIMBREAK
 70
     0
  0
APPID
  2
ACADANNOTATIVE
 70
     0
  0
APPID
  2
ACADANNOPO
 70
     0
  0
APPID
  2
GRPNAME
 70
     0
  0
APPID
  2
PLOTTRANSPARENCY
 70
     0
  0
ENDTAB
  0
TABLE
  2
DIMSTYLE
 70
     8
  0
DIMSTYLE
  2
STANDARD
 70
     0
  3

  4

  5

  6

  7

 40
1.0
 41
2.5
 42
0.625
 43
3.75
 44
1.25
 45
0.0
 46
0.0
 47
0.0
 48
0.0
140
2.5
141
2.5
142
0.0
143
0.0394
144
1.0
145
0.0
146
1.0
147
0.625
 71
     0
 72
     0
 73
     0
 74
     0
 75
     0
 76
     0
 77
     1
 78
     8
170
     0
171
     4
172
     1
173
     0
174
     0
175
     0
176
     0
177
     0
178
     0
  0
DIMSTYLE
  2
ISO-25
 70
     0
  3

  4

  5

  6

  7

 40
1.0
 41
2.5
 42
0.625
 43
3.75
 44
1.25
 45
0.0
 46
0.0
 47
0.0
 48
0.0
140
2.5
141
2.5
142
0.0
143
0.0394
144
1.0
145
0.0
146
1.0
147
0.625
 71
     0
 72
     0
 73
     0
 74
     0
 75
     0
 76
     0
 77
     1
 78
     8
170
     0
171
     4
172
     1
173
     0
174
     0
175
     0
176
     0
177
     0
178
     0
  0
DIMSTYLE
  2
AM_JIS
 70
     0
  3

  4
"
  5
OPEN
  6

  7

 40
1.0
 41
2.5
 42
1.0
 43
7.0
 44
1.0
 45
0.0
 46
0.0
 47
0.1
 48
0.1
140
3.0
141
0.0
142
0.0
143
0.0393701
144
1.0
145
0.0
146
0.71
147
1.0
 71
     0
 72
     0
 73
     0
 74
     0
 75
     0
 76
     0
 77
     3
 78
     8
170
     0
171
     2
172
     1
173
     0
174
     0
175
     0
176
   256
177
   256
178
     2
  0
DIMSTYLE
  2
AM_JIS$3
 70
     0
  3

  4
"
  5
OPEN
  6

  7

 40
1.0
 41
2.5
 42
1.0
 43
10.0
 44
1.0
 45
0.0
 46
0.0
 47
0.1
 48
0.1
140
3.0
141
0.0
142
0.0
143
0.0393701
144
1.0
145
0.0
146
0.71
147
1.0
 71
     0
 72
     0
 73
     0
 74
     0
 75
     0
 76
     0
 77
     3
 78
     8
170
     0
171
     2
172
     1
173
     0
174
     0
175
     0
176
   256
177
   256
178
     2
  0
DIMSTYLE
  2
AM_JIS$4
 70
     0
  3

  4
"
  5

  6
OPEN30
  7
OPEN
 40
1.0
 41
2.5
 42
1.0
 43
10.0
 44
1.0
 45
0.0
 46
0.0
 47
0.1
 48
0.1
140
3.0
141
0.0
142
0.0
143
0.0393701
144
1.0
145
0.0
146
0.71
147
1.0
 71
     0
 72
     0
 73
     0
 74
     0
 75
     1
 76
     0
 77
     3
 78
     8
170
     0
171
     2
172
     1
173
     1
174
     0
175
     0
176
   256
177
   256
178
     2
  0
DIMSTYLE
  2
AM_JIS$6
 70
     0
  3

  4
"
  5
OPEN30
  6
OPEN30
  7
OPEN30
 40
1.0
 41
2.5
 42
1.0
 43
10.0
 44
1.0
 45
0.0
 46
0.0
 47
0.1
 48
0.1
140
3.5
141
0.0
142
0.0
143
0.0393701
144
1.0
145
0.0
146
0.71
147
1.5
 71
     0
 72
     0
 73
     0
 74
     0
 75
     0
 76
     0
 77
     0
 78
     8
170
     0
171
     2
172
     1
173
     0
174
     0
175
     0
176
   256
177
   256
178
     2
  0
DIMSTYLE
  2
AM_JIS$7
 70
     0
  3

  4
"
  5
OPEN30
  6

  7

 40
1.0
 41
2.5
 42
1.0
 43
10.0
 44
1.0
 45
0.0
 46
0.0
 47
0.1
 48
0.1
140
3.0
141
0.0
142
0.0
143
0.0393701
144
1.0
145
0.0
146
0.71
147
1.0
 71
     0
 72
     0
 73
     0
 74
     0
 75
     0
 76
     0
 77
     3
 78
     8
170
     0
171
     2
172
     1
173
     0
174
     0
175
     0
176
   256
177
   256
178
     2
  0
DIMSTYLE
  2
AM_JIS$0
 70
     0
  3

  4
"
  5
OPEN
  6

  7

 40
1.0
 41
2.5
 42
1.0
 43
7.0
 44
1.0
 45
0.0
 46
0.0
 47
0.1
 48
0.1
140
3.0
141
0.0
142
0.0
143
0.0393701
144
1.0
145
0.0
146
0.71
147
1.0
 71
     0
 72
     0
 73
     0
 74
     0
 75
     0
 76
     0
 77
     3
 78
     8
170
     0
171
     2
172
     1
173
     0
174
     0
175
     0
176
   256
177
   256
178
     2
  0
ENDTAB
  0
ENDSEC
  0
SECTION
  2
BLOCKS
  0
BLOCK
  8
0
  2
$MODEL_SPACE
 70
     0
 10
0.0
 20
0.0
 30
0.0
  3
$MODEL_SPACE
  1

  0
ENDBLK
  5
1C
  8
0
  0
BLOCK
 67
     1
  8
0
  2
$PAPER_SPACE
 70
     0
 10
0.0
 20
0.0
 30
0.0
  3
$PAPER_SPACE
  1

  0
ENDBLK
  5
19
 67
     1
  8
0
  0
BLOCK
  8
0
  2
_OPEN30
 70
     0
 10
0.0
 20
0.0
 30
0.0
  3
_OPEN30
  1

  0
LINE
  5
2EF
  8
0
  6
BYBLOCK
 62
     0
 10
-1.0
 20
0.26794919
 30
0.0
 11
0.0
 21
0.0
 31
0.0
  0
LINE
  5
2F0
  8
0
  6
BYBLOCK
 62
     0
 10
0.0
 20
0.0
 30
0.0
 11
-1.0
 21
-0.26794919
 31
0.0
  0
LINE
  5
2F1
  8
0
  6
BYBLOCK
 62
     0
 10
0.0
 20
0.0
 30
0.0
 11
-1.0
 21
0.0
 31
0.0
  0
ENDBLK
  5
2F3
  8
0
  0
BLOCK
  8
0
  2
_OPEN
 70
     0
 10
0.0
 20
0.0
 30
0.0
  3
_OPEN
  1

  0
LINE
  5
597
  8
0
  6
BYBLOCK
 62
     0
 10
-1.0
 20
0.1666666666666667
 30
0.0
 11
0.0
 21
0.0
 31
0.0
  0
LINE
  5
598
  8
0
  6
BYBLOCK
 62
     0
 10
-1.0
 20
-0.1666666666666667
 30
0.0
 11
0.0
 21
0.0
 31
0.0
  0
LINE
  5
599
  8
0
  6
BYBLOCK
 62
     0
 10
0.0
 20
0.0
 30
0.0
 11
-1.0
 21
0.0
 31
0.0
  0
ENDBLK
  5
59B
  8
0
  0
BLOCK
  8
0
  2
_TAGCIRCLE
 70
     2
 10
0.0
 20
0.0
 30
0.0
  3
_TAGCIRCLE
  1

  0
CIRCLE
  5
1151
  8
0
  6
BYBLOCK
 62
     0
 10
0.0
 20
0.0
 30
0.0
 40
4.0
  0
ATTDEF
  5
1152
  8
0
 62
     0
 10
-7.1
 20
-1.5
 30
0.0
 40
3.0
  1
タグ番号
 72
     1
 11
0.0
 21
-1.5
 31
0.0
  3
タグ番号を入力
  2
タグ番号
 70
     0
  0
ENDBLK
  5
1154
  8
0
  0
BLOCK
  8
AM_0
  2
_ACMOPEN30
 70
     0
 10
0.0
 20
0.0
 30
0.0
  3
_ACMOPEN30
  1
Acad:XRef
  0
LINE
  5
1CA4
  8
AM_0
 62
     0
 10
-1.0
 20
0.0
 30
0.0
 11
0.0
 21
0.0
 31
0.0
  0
LINE
  5
1CA5
  8
AM_0
 62
     0
 10
-1.0
 20
-0.2679491924311227
 30
0.0
 11
0.0
 21
0.0
 31
0.0
  0
LINE
  5
1CA6
  8
AM_0
 62
     0
 10
-1.0
 20
0.2679491924311227
 30
0.0
 11
0.0
 21
0.0
 31
0.0
  0
ENDBLK
  5
1CA7
  8
AM_0
  0
ENDSEC
  0
SECTION
  2
ENTITIES
  0
LINE
  5
2969
  8
0
 10
35.86566069718549
 20
172.5505196367967
 30
0.0
 11
35.86566069718549
 21
168.5505196367969
 31
0.0
1001
GRPNAME
1000
PASTMD17
  0
LINE
  5
296A
  8
0
 10
64.86566069718549
 20
172.5505196367969
 30
0.0
 11
64.86566069718549
 21
168.5505196367969
 31
0.0
1001
GRPNAME
1000
PASTMD17
  0
LINE
  5
296B
  8
0
 10
244.6649616853962
 20
172.5505196367969
 30
0.0
 11
244.6649616853962
 21
168.5505196367969
 31
0.0
1001
GRPNAME
1000
PASTMD0Y
  0
LINE
  5
296C
  8
0
 10
215.6649616853962
 20
172.5505196367969
 30
0.0
 11
215.6649616853962
 21
168.5505196367969
 31
0.0
1001
GRPNAME
1000
PASTMD0Y
  0
LINE
  5
296D
  8
0
 10
60.6156606971856
 20
98.95203049381234
 30
0.0
 11
60.61566069718549
 21
89.31162663572604
 31
0.0
1001
GRPNAME
1000
PASTMD17
  0
LINE
  5
296E
  8
0
 10
40.1156606971856
 20
98.95203049353336
 30
0.0
 11
40.11566069718549
 21
89.31162663572604
 31
0.0
1001
GRPNAME
1000
PASTMD17
  0
ARC
  5
296F
  8
0
 10
50.36566069718549
 20
107.050519636796
 30
0.0
 40
14.00000000000002
 50
317.0663394796711
 51
41.40962216428
1001
GRPNAME
1000
PASTMD17
  0
ARC
  5
2970
  8
0
 10
50.36566069718549
 20
107.050519636796
 30
0.0
 40
13.99999999999997
 50
138.5903779422866
 51
222.9336606268955
1001
GRPNAME
1000
PASTMD17
  0
LINE
  5
2971
  8
0
 10
40.11566069718549
 20
89.31162663572604
 30
0.0
 11
60.61566069718549
 21
89.31162663572604
 31
0.0
1001
GRPNAME
1000
PASTMD17
  0
LINE
  5
2972
  8
0
 10
39.86566069718549
 20
68.5505196367958
 30
0.0
 11
60.86566069718549
 21
68.5505196367958
 31
0.0
1001
GRPNAME
1000
PASTMD17
  0
LINE
  5
2973
  8
0
 10
37.36566069718549
 20
86.56162663572604
 30
0.0
 11
37.36566069718549
 21
71.0505196367958
 31
0.0
1001
GRPNAME
1000
PASTMD17
  0
LINE
  5
2974
  8
0
 10
39.86566069718549
 20
68.5505196367958
 30
0.0
 11
37.36566069718549
 21
71.0505196367958
 31
0.0
1001
GRPNAME
1000
PASTMD17
  0
LINE
  5
2975
  8
0
 10
37.36566069718549
 20
86.56162663572604
 30
0.0
 11
40.11566069718549
 21
89.31162663572604
 31
0.0
1001
GRPNAME
1000
PASTMD17
  0
LINE
  5
2976
  8
0
 10
63.36566069718549
 20
86.56162663572604
 30
0.0
 11
63.36566069718549
 21
71.0505196367958
 31
0.0
1001
GRPNAME
1000
PASTMD17
  0
LINE
  5
2977
  8
0
 10
63.36566069718549
 20
71.0505196367958
 30
0.0
 11
60.86566069718549
 21
68.5505196367958
 31
0.0
1001
GRPNAME
1000
PASTMD17
  0
LINE
  5
2978
  8
0
 10
63.36566069718549
 20
86.56162663572604
 30
0.0
 11
60.61566069718549
 21
89.31162663572604
 31
0.0
1001
GRPNAME
1000
PASTMD17
  0
LINE
  5
2979
  8
0
 10
36.86566069718549
 20
167.5505196367969
 30
0.0
 11
63.86566069718549
 21
167.5505196367969
 31
0.0
1001
GRPNAME
1000
PASTMD17
  0
LINE
  5
297A
  8
0
 10
40.84842619370795
 20
98.96168198216105
 30
0.0
 11
60.05919674427207
 21
98.96168198216105
 31
0.0
1001
GRPNAME
1000
PASTMD17
  0
LINE
  5
297B
  8
0
 10
40.77249509329351
 20
115.1785616386073
 30
0.0
 11
48.45477457700099
 21
115.1785616386073
 31
0.0
1001
GRPNAME
1000
PASTMD17
  0
LINE
  5
297C
  8
0
 10
40.96232439929656
 20
153.6427399951867
 30
0.0
 11
59.86936640162423
 21
153.6427399951867
 31
0.0
1001
GRPNAME
1000
PASTMD17
  0
LINE
  5
297D
  8
0
 10
39.86566069718549
 20
120.1374888492192
 30
0.0
 11
39.86566069718549
 21
116.310649225522
 31
0.0
1001
GRPNAME
1000
PASTMD17
  0
LINE
  5
297E
  8
0
 10
40.11566069718538
 20
119.9931512819219
 30
0.0
 11
40.11566069718538
 21
115.1490087798727
 31
0.0
1001
GRPNAME
1000
PASTMD17
  0
LINE
  5
297F
  8
0
 10
37.61566069718549
 20
113.1232309828401
 30
0.0
 11
37.61566069718549
 21
100.9778082909379
 31
0.0
1001
GRPNAME
1000
PASTMD17
  0
LINE
  5
2980
  8
0
 10
37.61566069718549
 20
100.9778082909379
 30
0.0
 11
40.1156606971856
 21
98.95203049353336
 31
0.0
  0
LINE
  5
2981
  8
0
 10
37.61566069718549
 20
113.1232309828401
 30
0.0
 11
40.11566069718538
 21
115.1490087798727
 31
0.0
  0
LINE
  5
2982
  8
0
 10
40.11566069718549
 20
153.6247693374194
 30
0.0
 11
40.11566069718549
 21
145.1078879916704
 31
0.0
1001
GRPNAME
1000
PASTMD17
  0
LINE
  5
2983
  8
0
 10
36.86566069718549
 20
167.5505196367969
 30
0.0
 11
36.86566069718549
 21
155.5472115245277
 31
0.0
1001
GRPNAME
1000
PASTMD17
  0
LINE
  5
2984
  8
0
 10
36.86566069718549
 20
155.5472115245277
 30
0.0
 11
40.11566069718549
 21
153.6247693374194
 31
0.0
  0
LINE
  5
2985
  8
0
 10
36.86566069718549
 20
167.5505196367969
 30
0.0
 11
35.86566069718549
 21
168.5505196367969
 31
0.0
1001
GRPNAME
1000
PASTMD17
  0
LINE
  5
2986
  8
0
 10
60.61566069718549
 20
119.9931512819219
 30
0.0
 11
60.61566069718549
 21
115.1490087799657
 31
0.0
1001
GRPNAME
1000
PASTMD17
  0
LINE
  5
2987
  8
0
 10
60.86566069718549
 20
120.1374888492189
 30
0.0
 11
60.86566069718549
 21
116.310649225522
 31
0.0
1001
GRPNAME
1000
PASTMD17
  0
LINE
  5
2988
  8
0
 10
63.11566069718549
 20
113.1232309827469
 30
0.0
 11
63.1156606971856
 21
100.9778082906591
 31
0.0
1001
GRPNAME
1000
PASTMD17
  0
LINE
  5
2989
  8
0
 10
60.6156606971856
 20
98.95203049381234
 30
0.0
 11
63.1156606971856
 21
100.9778082906591
 31
0.0
  0
LINE
  5
298A
  8
0
 10
60.61566069718549
 20
115.1490087799657
 30
0.0
 11
63.11566069718549
 21
113.1232309827469
 31
0.0
  0
LINE
  5
298B
  8
0
 10
60.61566069718549
 20
153.55382774909
 30
0.0
 11
60.61566069718549
 21
145.1078879916706
 31
0.0
1001
GRPNAME
1000
PASTMD17
  0
LINE
  5
298C
  8
0
 10
63.86566069718549
 20
167.5505196367969
 30
0.0
 11
63.86566069718549
 21
155.4762699356074
 31
0.0
1001
GRPNAME
1000
PASTMD17
  0
LINE
  5
298D
  8
0
 10
60.61566069718549
 20
153.55382774909
 30
0.0
 11
63.86566069718549
 21
155.4762699356074
 31
0.0
  0
LINE
  5
298E
  8
0
 10
63.86566069718549
 20
167.5505196367969
 30
0.0
 11
64.86566069718549
 21
168.5505196367969
 31
0.0
1001
GRPNAME
1000
PASTMD17
  0
LINE
  5
298F
  8
0
 10
267.444461685396
 20
122.050519636796
 30
0.0
 11
261.9149616853967
 21
122.050519636796
 31
0.0
1001
GRPNAME
1000
PASTMD0Y
  0
LINE
  5
2990
  8
0
 10
267.444461685396
 20
143.050519636796
 30
0.0
 11
240.4149616853962
 21
143.050519636796
 31
0.0
1001
GRPNAME
1000
PASTMD0Y
  0
LINE
  5
2991
  8
0
 10
261.914961685397
 20
93.05051963679603
 30
0.0
 11
261.9149616853969
 21
129.0797681803365
 31
0.0
1001
GRPNAME
1000
PASTMD0Y
  0
LINE
  5
2992
  8
0
 10
219.9149616853957
 20
98.80608011524055
 30
0.0
 11
219.9149616853957
 21
89.31162663572604
 31
0.0
1001
GRPNAME
1000
PASTMD0Y
  0
LINE
  5
2993
  8
0
 10
217.6538546864659
 20
68.55051963679603
 30
0.0
 11
242.6760686843264
 21
68.55051963679603
 31
0.0
1001
GRPNAME
1000
PASTMD0Y
  0
LINE
  5
2994
  8
0
 10
219.9149616853957
 20
89.31162663572604
 30
0.0
 11
240.4149616853964
 21
89.31162663572604
 31
0.0
1001
GRPNAME
1000
PASTMD0Y
  0
LINE
  5
2995
  8
0
 10
215.1538546864659
 20
71.05051963679603
 30
0.0
 11
215.1538546864659
 21
84.55051963679603
 31
0.0
1001
GRPNAME
1000
PASTMD0Y
  0
LINE
  5
2996
  8
0
 10
217.6538546864659
 20
68.55051963679603
 30
0.0
 11
215.1538546864659
 21
71.05051963679603
 31
0.0
1001
GRPNAME
1000
PASTMD0Y
  0
LINE
  5
2997
  8
0
 10
215.1538546864659
 20
84.55051963679603
 30
0.0
 11
219.9149616853957
 21
89.31162663572604
 31
0.0
1001
GRPNAME
1000
PASTMD0Y
  0
LINE
  5
2998
  8
0
 10
245.1760686843264
 20
71.05051963679603
 30
0.0
 11
245.1760686843264
 21
84.55051963679603
 31
0.0
1001
GRPNAME
1000
PASTMD0Y
  0
LINE
  5
2999
  8
0
 10
242.6760686843264
 20
68.55051963679603
 30
0.0
 11
245.1760686843264
 21
71.05051963679603
 31
0.0
1001
GRPNAME
1000
PASTMD0Y
  0
LINE
  5
299A
  8
0
 10
240.4149616853964
 20
93.05051963679603
 30
0.0
 11
261.914961685397
 21
93.05051963679603
 31
0.0
1001
GRPNAME
1000
PASTMD0Y
  0
LINE
  5
299B
  8
0
 10
240.4149616853964
 20
93.05051963679603
 30
0.0
 11
240.4149616853964
 21
89.31162663572604
 31
0.0
1001
GRPNAME
1000
PASTMD0Y
  0
LINE
  5
299C
  8
0
 10
245.1760686843264
 20
84.55051963679603
 30
0.0
 11
240.4149616853964
 21
89.31162663572604
 31
0.0
1001
GRPNAME
1000
PASTMD0Y
  0
LINE
  5
299D
  8
0
 10
235.4957397720399
 20
97.46974155015323
 30
0.0
 11
239.32917524777
 21
93.63630607442292
 31
0.0
1001
GRPNAME
1000
PASTMD0Y
  0
LINE
  5
299E
  8
0
 10
203.1649616853961
 20
120.4920196367959
 30
0.0
 11
208.3269616853961
 21
120.4920196367959
 31
0.0
1001
GENIUS_GENODEF_13
1002
{
1000
HIER
1070
     0
1002
}
1002
{
1000
MANEDIT
1070
     0
1002
}
1002
{
1000
NOSEL
1070
     0
1002
}
1002
{
1000
BEHIND
1070
     0
1002
}
1002
{
1000
REACTOR
1002
}
1001
GENIUS_GENOBJ-N-CEN_13
1002
{
1000
OWNER
1000
GEN
1002
}
  0
LINE
  5
299F
  8
0
 10
203.1649616853963
 20
144.6090196367959
 30
0.0
 11
208.326961685396
 21
144.6090196367959
 31
0.0
1001
GENIUS_GENODEF_13
1002
{
1000
HIER
1070
     0
1002
}
1002
{
1000
MANEDIT
1070
     0
1002
}
1002
{
1000
NOSEL
1070
     0
1002
}
1002
{
1000
BEHIND
1070
     0
1002
}
1002
{
1000
REACTOR
1002
}
1001
GENIUS_GENOBJ-N-CEN_13
1002
{
1000
OWNER
1000
GEN
1002
}
  0
LINE
  5
29A0
  8
0
 10
203.1649616853961
 20
119.3300196367961
 30
0.0
 11
207.1649616853962
 21
119.3300196367961
 31
0.0
  0
LINE
  5
29A1
  8
0
 10
203.1649616853963
 20
145.7710196367959
 30
0.0
 11
207.1649616853962
 21
145.7710196367959
 31
0.0
  0
LINE
  5
29A2
  8
0
 10
209.8854616853961
 20
143.050519636796
 30
0.0
 11
209.8854616853961
 21
122.050519636796
 31
0.0
1001
GRPNAME
1000
PASTMD0Y
  0
LINE
  5
29A3
  8
0
 10
242.9149616853962
 20
126.3318579130162
 30
0.0
 11
242.9149616853962
 21
138.7691813603899
 31
0.0
1001
GRPNAME
1000
PASTMD0Y
  0
LINE
  5
29A4
  8
0
 10
223.9322236146514
 20
124.4559674860084
 30
0.0
 11
239.4403727847269
 21
124.4559674860084
 31
0.0
1001
GRPNAME
1000
PASTMD0Y
  0
LINE
  5
29A5
  8
0
 10
219.9149616853957
 20
115.294959158166
 30
0.0
 11
219.9149616853957
 21
119.050519636796
 31
0.0
1001
GRPNAME
1000
PASTMD0Y
  0
LINE
  5
29A6
  8
0
 10
220.6605317939344
 20
115.1599103769011
 30
0.0
 11
234.1935490758534
 21
115.1599103769011
 31
0.0
1001
GRPNAME
1000
PASTMD0Y
  0
LINE
  5
29A7
  8
0
 10
220.6605317939344
 20
98.941128896691
 30
0.0
 11
234.1919531783477
 21
98.941128896691
 31
0.0
1001
GRPNAME
1000
PASTMD0Y
  0
LINE
  5
29A8
  8
0
 10
217.4149616853957
 20
100.8318579131346
 30
0.0
 11
217.4149616853957
 21
113.2691813606434
 31
0.0
1001
GRPNAME
1000
PASTMD0Y
  0
LINE
  5
29A9
  8
0
 10
217.4149616853957
 20
100.8318579131346
 30
0.0
 11
219.9149616853957
 21
98.80608011524055
 31
0.0
  0
LINE
  5
29AA
  8
0
 10
217.4149616853957
 20
113.2691813606434
 30
0.0
 11
219.9149616853957
 21
115.294959158166
 31
0.0
  0
LINE
  5
29AB
  8
0
 10
219.7433888101419
 20
121.8789467615422
 30
0.0
 11
222.4369480752869
 21
124.5725060266871
 31
0.0
1001
GRPNAME
1000
PASTMD0Y
  0
LINE
  5
29AC
  8
0
 10
209.8854616853961
 20
122.050519636796
 30
0.0
 11
216.9149616853957
 21
122.050519636796
 31
0.0
1001
GRPNAME
1000
PASTMD0Y
  0
LINE
  5
29AD
  8
0
 10
207.1649616853962
 20
119.3300196367961
 30
0.0
 11
209.8854616853961
 21
122.050519636796
 31
0.0
1001
GRPNAME
1000
PASTMD0Y
  0
LINE
  5
29AE
  8
0
 10
246.8334322053128
 20
119.9580238729827
 30
0.0
 11
254.1308409486223
 21
116.310649225522
 31
0.0
  0
LINE
  5
29AF
  8
0
 10
235.4984324250737
 20
116.6339903764724
 30
0.0
 11
239.32917524777
 21
120.4647331991691
 31
0.0
1001
GRPNAME
1000
PASTMD0Y
  0
LINE
  5
29B0
  8
0
 10
254.1308409486223
 20
116.310649225522
 30
0.0
 11
261.9149616853969
 21
116.310649225522
 31
0.0
1001
GRPNAME
1000
PASTMD0Y
  0
LINE
  5
29B1
  8
0
 10
242.9149616853962
 20
126.3318579130162
 30
0.0
 11
240.4149616853964
 21
124.3060801154936
 31
0.0
  0
LINE
  5
29B2
  8
0
 10
245.4149616853967
 20
121.050519636796
 30
0.0
 11
245.4149616853964
 21
132.550519636796
 31
0.0
1001
GRPNAME
1000
PASTMD0Y
  0
LINE
  5
29B3
  8
0
 10
245.4149616853964
 20
122.050519636796
 30
0.0
 11
245.4149616853964
 21
130.050519636796
 31
0.0
1001
GRPNAME
1000
PASTMD0Y
  0
LINE
  5
29B4
  8
0
 10
240.4149616853964
 20
121.050519636796
 30
0.0
 11
245.4149616853967
 21
121.050519636796
 31
0.0
1001
GRPNAME
1000
PASTMD0Y
  0
LINE
  5
29B5
  8
0
 10
240.4149616853964
 20
121.050519636796
 30
0.0
 11
240.4149616853964
 21
124.3060801154936
 31
0.0
1001
GRPNAME
1000
PASTMD0Y
  0
LINE
  5
29B6
  8
0
 10
216.6649616853962
 20
167.5505196367969
 30
0.0
 11
243.6649616853962
 21
167.5505196367969
 31
0.0
1001
GRPNAME
1000
PASTMD0Y
  0
LINE
  5
29B7
  8
0
 10
223.9322236146514
 20
140.6765179433164
 30
0.0
 11
239.2828339185618
 21
140.6765179433164
 31
0.0
1001
GRPNAME
1000
PASTMD0Y
  0
LINE
  5
29B8
  8
0
 10
220.68169949123
 20
153.6696636188385
 30
0.0
 11
239.6697677017384
 21
153.6696636188385
 31
0.0
1001
GRPNAME
1000
PASTMD0Y
  0
LINE
  5
29B9
  8
0
 10
219.9149616853962
 20
153.6247693373798
 30
0.0
 11
219.9149616853962
 21
143.050519636796
 31
0.0
1001
GRPNAME
1000
PASTMD0Y
  0
LINE
  5
29BA
  8
0
 10
222.487899323968
 20
140.4775819982242
 30
0.0
 11
220.7283297186717
 21
142.2371516035205
 31
0.0
1001
GRPNAME
1000
PASTMD0Y
  0
LINE
  5
29BB
  8
0
 10
209.8854616853961
 20
143.050519636796
 30
0.0
 11
207.1649616853962
 21
145.7710196367959
 31
0.0
1001
GRPNAME
1000
PASTMD0Y
  0
LINE
  5
29BC
  8
0
 10
209.8854616853961
 20
143.050519636796
 30
0.0
 11
219.9149616853962
 21
143.050519636796
 31
0.0
1001
GRPNAME
1000
PASTMD0Y
  0
LINE
  5
29BD
  8
0
 10
213.6649616853963
 20
168.0146212519348
 30
0.0
 11
213.6649616853961
 21
157.3543672140904
 31
0.0
  0
LINE
  5
29BE
  8
0
 10
216.6649616853962
 20
167.5505196367969
 30
0.0
 11
216.6649616853962
 21
155.547211524768
 31
0.0
1001
GRPNAME
1000
PASTMD0Y
  0
LINE
  5
29BF
  8
0
 10
216.6649616853962
 20
156.5505196367969
 30
0.0
 11
213.6649616853961
 21
157.3543672140904
 31
0.0
  0
LINE
  5
29C0
  8
0
 10
216.6649616853962
 20
155.547211524768
 30
0.0
 11
219.9149616853962
 21
153.6247693373798
 31
0.0
  0
LINE
  5
29C1
  8
0
 10
213.6649616853963
 20
168.0146212519348
 30
0.0
 11
215.6649616853962
 21
168.5505196367969
 31
0.0
  0
LINE
  5
29C2
  8
0
 10
216.6649616853962
 20
167.5505196367969
 30
0.0
 11
215.6649616853962
 21
168.5505196367969
 31
0.0
1001
GRPNAME
1000
PASTMD0Y
  0
LINE
  5
29C3
  8
0
 10
240.4149616853962
 20
153.6247693376474
 30
0.0
 11
240.4149616853962
 21
143.050519636796
 31
0.0
1001
GRPNAME
1000
PASTMD0Y
  0
LINE
  5
29C4
  8
0
 10
240.4149616853964
 20
140.7949591582844
 30
0.0
 11
242.9149616853962
 21
138.7691813603899
 31
0.0
  0
LINE
  5
29C5
  8
0
 10
246.6649616853962
 20
168.0146212519346
 30
0.0
 11
246.6649616853962
 21
157.3543672140904
 31
0.0
  0
LINE
  5
29C6
  8
0
 10
243.6649616853962
 20
167.5505196367969
 30
0.0
 11
243.6649616853962
 21
155.5472115246416
 31
0.0
1001
GRPNAME
1000
PASTMD0Y
  0
LINE
  5
29C7
  8
0
 10
243.6649616853962
 20
155.5472115246416
 30
0.0
 11
240.4149616853962
 21
153.6247693376474
 31
0.0
  0
LINE
  5
29C8
  8
0
 10
243.6649616853962
 20
156.5505196367969
 30
0.0
 11
246.6649616853962
 21
157.3543672140904
 31
0.0
  0
LINE
  5
29C9
  8
0
 10
246.6649616853962
 20
168.0146212519346
 30
0.0
 11
244.6649616853962
 21
168.5505196367969
 31
0.0
  0
LINE
  5
29CA
  8
0
 10
243.6649616853962
 20
167.5505196367969
 30
0.0
 11
244.6649616853962
 21
168.5505196367969
 31
0.0
1001
GRPNAME
1000
PASTMD0Y
  0
LINE
  5
29CB
  8
0
 10
267.444461685396
 20
122.050519636796
 30
0.0
 11
267.444461685396
 21
143.050519636796
 31
0.0
1001
GRPNAME
1000
PASTMD0Y
  0
LINE
  5
29CC
  8
0
 10
269.0029616853963
 20
120.4920196367962
 30
0.0
 11
274.164961685396
 21
120.4920196367962
 31
0.0
  0
LINE
  5
29CD
  8
0
 10
270.1649616853961
 20
119.3300196367961
 30
0.0
 11
274.164961685396
 21
119.3300196367961
 31
0.0
  0
LINE
  5
29CE
  8
0
 10
270.1649616853961
 20
119.3300196367961
 30
0.0
 11
267.444461685396
 21
122.050519636796
 31
0.0
1001
GRPNAME
1000
PASTMD0Y
  0
LINE
  5
29CF
  8
0
 10
270.1649616853961
 20
145.7710196367959
 30
0.0
 11
274.1649616853963
 21
145.7710196367959
 31
0.0
  0
LINE
  5
29D0
  8
0
 10
269.0029616853961
 20
144.6090196367959
 30
0.0
 11
274.1649616853962
 21
144.6090196367959
 31
0.0
  0
LINE
  5
29D1
  8
0
 10
267.444461685396
 20
143.050519636796
 30
0.0
 11
270.1649616853961
 21
145.7710196367959
 31
0.0
1001
GRPNAME
1000
PASTMD0Y
  0
LINE
  5
29D2
  8
0
 10
31.36566069718538
 20
195.0539376055469
 30
0.0
 11
69.36566069718572
 21
195.0539376055467
 31
0.0
  0
LINE
  5
29D3
  8
0
 10
31.36566069718549
 20
215.0539376055467
 30
0.0
 11
69.36566069718572
 21
215.0539376055467
 31
0.0
  0
LINE
  5
29D4
  8
0
 10
31.36566069718538
 20
195.0539376055465
 30
0.0
 11
31.36566069718549
 21
215.0539376055467
 31
0.0
  0
LINE
  5
29D5
  8
0
 10
33.86566069718549
 20
216.0505196367972
 30
0.0
 11
33.86566069718549
 21
215.0539376055467
 31
0.0
  0
LINE
  5
29D6
  8
0
 10
69.36566069718572
 20
195.0539376055467
 30
0.0
 11
69.36566069718572
 21
215.0539376055467
 31
0.0
  0
LINE
  5
29D7
  8
0
 10
66.86566069718549
 20
216.0505196367972
 30
0.0
 11
66.86566069718549
 21
215.0539376055467
 31
0.0
  0
LINE
  5
29D8
  8
0
 10
243.6649616853962
 20
246.5505196367972
 30
0.0
 11
243.6649616853962
 21
224.050519636797
 31
0.0
  0
LINE
  5
29D9
  8
0
 10
216.6649616853962
 20
246.5505196367972
 30
0.0
 11
216.6649616853962
 21
224.050519636797
 31
0.0
  0
ARC
  5
29DA
  8
0
 10
218.6649616853962
 20
246.5505196367972
 30
0.0
 40
2.0
 50
90.0
 51
180.0
1001
GENIUS_GENODEF_13
1002
{
1000
HIER
1070
     0
1002
}
1002
{
1000
MANEDIT
1070
     0
1002
}
1002
{
1000
NOSEL
1070
     0
1002
}
1002
{
1000
BEHIND
1070
     0
1002
}
1002
{
1000
OTHER
1070
     0
1002
}
1002
{
1000
REACTOR
1002
}
1001
GENIUS_GENOBJ-N-FIL_13
1002
{
1000
OWNER
1000
GEN
1002
}
  0
LINE
  5
29DB
  8
0
 10
210.1649616853963
 20
213.5539376055469
 30
0.0
 11
210.1649616853962
 21
196.5539376055467
 31
0.0
  0
ARC
  5
29DC
  8
0
 10
211.6649616853963
 20
213.5539376055469
 30
0.0
 40
1.5
 50
90.0
 51
180.0
1001
GENIUS_GENODEF_13
1002
{
1000
HIER
1070
     0
1002
}
1002
{
1000
MANEDIT
1070
     0
1002
}
1002
{
1000
NOSEL
1070
     0
1002
}
1002
{
1000
BEHIND
1070
     0
1002
}
1002
{
1000
OTHER
1070
     0
1002
}
1002
{
1000
REACTOR
1002
}
1001
GENIUS_GENOBJ-N-FIL_13
1002
{
1000
OWNER
1000
GEN
1002
}
  0
ARC
  5
29DD
  8
0
 10
211.6649616853962
 20
196.5539376055467
 30
0.0
 40
1.5
 50
180.0
 51
270.0
1001
GENIUS_GENODEF_13
1002
{
1000
HIER
1070
     0
1002
}
1002
{
1000
MANEDIT
1070
     0
1002
}
1002
{
1000
NOSEL
1070
     0
1002
}
1002
{
1000
BEHIND
1070
     0
1002
}
1002
{
1000
OTHER
1070
     0
1002
}
1002
{
1000
REACTOR
1002
}
1001
GENIUS_GENOBJ-N-FIL_13
1002
{
1000
OWNER
1000
GEN
1002
}
  0
LINE
  5
29DE
  8
0
 10
250.1649616853962
 20
213.5539376055469
 30
0.0
 11
250.1649616853962
 21
196.5539376055467
 31
0.0
1001
GRPNAME
1000
PASTMD18
  0
ARC
  5
29DF
  8
0
 10
248.6649616853962
 20
196.5539376055467
 30
0.0
 40
1.5
 50
270.0
 51
0.0
1001
GRPNAME
1000
PASTMD18
1001
GENIUS_GENODEF_13
1002
{
1000
HIER
1070
     0
1002
}
1002
{
1000
MANEDIT
1070
     0
1002
}
1002
{
1000
NOSEL
1070
     0
1002
}
1002
{
1000
BEHIND
1070
     0
1002
}
1002
{
1000
OTHER
1070
     0
1002
}
1002
{
1000
REACTOR
1002
}
1001
GENIUS_GENOBJ-N-FIL_13
1002
{
1000
OWNER
1000
GEN
1002
}
  0
ARC
  5
29E0
  8
0
 10
248.6649616853962
 20
213.5539376055469
 30
0.0
 40
1.5
 50
0.0
 51
90.0
1001
GRPNAME
1000
PASTMD18
1001
GENIUS_GENODEF_13
1002
{
1000
HIER
1070
     0
1002
}
1002
{
1000
MANEDIT
1070
     0
1002
}
1002
{
1000
NOSEL
1070
     0
1002
}
1002
{
1000
BEHIND
1070
     0
1002
}
1002
{
1000
OTHER
1070
     0
1002
}
1002
{
1000
REACTOR
1002
}
1001
GENIUS_GENOBJ-N-FIL_13
1002
{
1000
OWNER
1000
GEN
1002
}
  0
LINE
  5
29E1
  8
0
 10
248.6649616853962
 20
195.0539376055467
 30
0.0
 11
211.6649616853962
 21
195.0539376055467
 31
0.0
  0
LINE
  5
29E2
  8
0
 10
248.6649616853962
 20
216.0505196367972
 30
0.0
 11
211.6649616853962
 21
216.0505196367972
 31
0.0
  0
ARC
  5
29E3
  8
0
 10
248.6649616853962
 20
217.5505196367972
 30
0.0
 40
1.5
 50
270.0
 51
0.0
1001
GENIUS_GENODEF_13
1002
{
1000
HIER
1070
     0
1002
}
1002
{
1000
MANEDIT
1070
     0
1002
}
1002
{
1000
NOSEL
1070
     0
1002
}
1002
{
1000
BEHIND
1070
     0
1002
}
1002
{
1000
OTHER
1070
     0
1002
}
1002
{
1000
REACTOR
1002
}
1001
GENIUS_GENOBJ-N-FIL_13
1002
{
1000
OWNER
1000
GEN
1002
}
  0
LINE
  5
29E4
  8
0
 10
248.6649616853963
 20
224.050519636797
 30
0.0
 11
211.6649616853962
 21
224.050519636797
 31
0.0
  0
LINE
  5
29E5
  8
0
 10
248.6649616853962
 20
215.0539376055469
 30
0.0
 11
211.6649616853963
 21
215.0539376055469
 31
0.0
  0
LINE
  5
29E6
  8
0
 10
213.6649616853962
 20
216.0505196367972
 30
0.0
 11
213.6649616853962
 21
215.0539376055467
 31
0.0
  0
LINE
  5
29E7
  8
0
 10
210.1649616853962
 20
222.550519636797
 30
0.0
 11
210.1649616853962
 21
217.5505196367972
 31
0.0
  0
ARC
  5
29E8
  8
0
 10
211.6649616853962
 20
217.5505196367972
 30
0.0
 40
1.5
 50
180.0
 51
270.0
1001
GENIUS_GENODEF_13
1002
{
1000
HIER
1070
     0
1002
}
1002
{
1000
MANEDIT
1070
     0
1002
}
1002
{
1000
NOSEL
1070
     0
1002
}
1002
{
1000
BEHIND
1070
     0
1002
}
1002
{
1000
OTHER
1070
     0
1002
}
1002
{
1000
REACTOR
1002
}
1001
GENIUS_GENOBJ-N-FIL_13
1002
{
1000
OWNER
1000
GEN
1002
}
  0
ARC
  5
29E9
  8
0
 10
211.6649616853962
 20
222.550519636797
 30
0.0
 40
1.5
 50
90.0
 51
180.0
1001
GENIUS_GENODEF_13
1002
{
1000
HIER
1070
     0
1002
}
1002
{
1000
MANEDIT
1070
     0
1002
}
1002
{
1000
NOSEL
1070
     0
1002
}
1002
{
1000
BEHIND
1070
     0
1002
}
1002
{
1000
OTHER
1070
     0
1002
}
1002
{
1000
REACTOR
1002
}
1001
GENIUS_GENOBJ-N-FIL_13
1002
{
1000
OWNER
1000
GEN
1002
}
  0
LINE
  5
29EA
  8
0
 10
246.6649616853962
 20
216.0505196367972
 30
0.0
 11
246.6649616853962
 21
215.0539376055467
 31
0.0
  0
LINE
  5
29EB
  8
0
 10
250.1649616853963
 20
222.550519636797
 30
0.0
 11
250.1649616853962
 21
217.5505196367972
 31
0.0
  0
ARC
  5
29EC
  8
0
 10
248.6649616853963
 20
222.550519636797
 30
0.0
 40
1.5
 50
0.0
 51
90.0
1001
GENIUS_GENODEF_13
1002
{
1000
HIER
1070
     0
1002
}
1002
{
1000
MANEDIT
1070
     0
1002
}
1002
{
1000
NOSEL
1070
     0
1002
}
1002
{
1000
BEHIND
1070
     0
1002
}
1002
{
1000
OTHER
1070
     0
1002
}
1002
{
1000
REACTOR
1002
}
1001
GENIUS_GENOBJ-N-FIL_13
1002
{
1000
OWNER
1000
GEN
1002
}
  0
LINE
  5
29ED
  8
0
 10
241.6649616853962
 20
248.5505196367972
 30
0.0
 11
218.6649616853962
 21
248.5505196367972
 31
0.0
  0
ARC
  5
29EE
  8
0
 10
241.6649616853962
 20
246.5505196367972
 30
0.0
 40
2.0
 50
0.0
 51
90.0
1001
GENIUS_GENODEF_13
1002
{
1000
HIER
1070
     0
1002
}
1002
{
1000
MANEDIT
1070
     0
1002
}
1002
{
1000
NOSEL
1070
     0
1002
}
1002
{
1000
BEHIND
1070
     0
1002
}
1002
{
1000
OTHER
1070
     0
1002
}
1002
{
1000
REACTOR
1002
}
1001
GENIUS_GENOBJ-N-FIL_13
1002
{
1000
OWNER
1000
GEN
1002
}
  0
LINE
  5
29EF
  8
0
 10
224.1649616853962
 20
248.5505196367972
 30
0.0
 11
224.1649616853962
 21
253.0505739563452
 31
0.0
  0
LINE
  5
29F0
  8
0
 10
236.1649616853962
 20
253.0505739563452
 30
0.0
 11
236.1649616853962
 21
248.5505196367972
 31
0.0
  0
LINE
  5
29F1
  8
0
 10
259.3325807174563
 20
410.6590055793212
 30
0.0
 11
267.4444616854231
 21
410.6590055793212
 31
0.0
1001
GRPNAME
1000
PASTMD1L
  0
LINE
  5
29F2
  8
0
 10
259.3325807174766
 20
431.6590055793212
 30
0.0
 11
267.4444616854231
 21
431.6590055793212
 31
0.0
1001
GRPNAME
1000
PASTMD1L
  0
LINE
  5
29F3
  8
0
 10
257.8235950572603
 20
407.1590055793212
 30
0.0
 11
261.9149616854239
 21
407.1590055793212
 31
0.0
1001
GRPNAME
1000
PASTMD1L
  0
LINE
  5
29F4
  8
0
 10
261.9149616854239
 20
407.1590055793212
 30
0.0
 11
261.9149616854239
 21
410.6590055793212
 31
0.0
1001
GRPNAME
1000
PASTMD1L
  0
LINE
  5
29F5
  8
0
 10
257.823595057289
 20
435.1590055793211
 30
0.0
 11
261.9149616854239
 21
435.1590055793213
 31
0.0
1001
GRPNAME
1000
PASTMD1L
  0
LINE
  5
29F6
  8
0
 10
261.9149616854239
 20
431.6590055793212
 30
0.0
 11
261.9149616854239
 21
435.1590055793213
 31
0.0
1001
GRPNAME
1000
PASTMD1L
  0
LINE
  5
29F7
  8
0
 10
267.444461685396
 20
410.6590055793498
 30
0.0
 11
267.444461685396
 21
431.6590055793498
 31
0.0
1001
GRPNAME
1000
PASTMD0Y
  0
LINE
  5
29F8
  8
0
 10
270.1649616853961
 20
407.9385055793499
 30
0.0
 11
274.164961685396
 21
407.9385055793499
 31
0.0
  0
LINE
  5
29F9
  8
0
 10
269.0029616853963
 20
409.1005055793498
 30
0.0
 11
274.164961685396
 21
409.1005055793498
 31
0.0
  0
LINE
  5
29FA
  8
0
 10
270.1649616853961
 20
407.9385055793499
 30
0.0
 11
267.444461685396
 21
410.6590055793498
 31
0.0
1001
GRPNAME
1000
PASTMD0Y
  0
LINE
  5
29FB
  8
0
 10
270.1649616853961
 20
434.3795055793497
 30
0.0
 11
274.1649616853963
 21
434.3795055793497
 31
0.0
  0
LINE
  5
29FC
  8
0
 10
269.0029616853961
 20
433.2175055793498
 30
0.0
 11
274.1649616853963
 21
433.2175055793498
 31
0.0
  0
LINE
  5
29FD
  8
0
 10
267.444461685396
 20
431.6590055793498
 30
0.0
 11
270.1649616853961
 21
434.3795055793497
 31
0.0
1001
GRPNAME
1000
PASTMD0Y
  0
LINE
  5
29FE
  8
0
 10
216.9149616853957
 20
122.050519636796
 30
0.0
 11
219.9149616853957
 21
119.0505196367972
 31
0.0
  0
LINE
  5
29FF
  8
0
 10
52.27654681736976
 20
115.1785616386073
 30
0.0
 11
59.79343426456524
 21
115.1785616386073
 31
0.0
1001
GRPNAME
1000
PASTMD17
  0
LINE
  5
2A00
  8
0
 10
221.9348258800917
 20
138.8143258624127
 30
0.0
 11
222.9291274516941
 21
132.4251181776169
 31
0.0
  0
LINE
  5
2A01
  8
0
 10
222.9291274516941
 20
132.4251181776169
 30
0.0
 11
221.6404191226003
 21
126.0887279357466
 31
0.0
  0
LINE
  5
2A02
  8
0
 10
238.9018146729976
 20
115.2414209416925
 30
0.0
 11
236.8013696531063
 21
107.0255267175248
 31
0.0
  0
LINE
  5
2A03
  8
0
 10
236.8013696531063
 20
107.0255267175248
 30
0.0
 11
238.7876598219041
 21
98.78129003062463
 31
0.0
  0
LINE
  5
2A04
  8
0
 10
245.4149616853964
 20
132.550519636796
 30
0.0
 11
248.4903404836045
 21
139.9751408399213
 31
0.0
  0
LINE
  5
2A05
  8
0
 10
248.4903404836045
 20
139.9751408399213
 30
0.0
 11
255.9149616853923
 21
143.050519636796
 31
0.0
  0
TEXT
  5
2A06
  8
10
 10
-1.5
 20
0.5
 30
0.0
 40
10.0
  1
2023.09.12 AD-13[丸ハンドル][2方向チックナット付]
 11
-1.5
 21
0.5
 31
0.0
 73
     1
  0
LINE
  5
2A07
  8
7
 10
230.1649616853962
 20
66.34728946989003
 30
0.0
 11
230.1649616853962
 21
298.0505739563411
 31
0.0
  0
LINE
  5
2A08
  8
0
 10
63.8656606971856
 20
246.5505196367969
 30
0.0
 11
63.8656606971856
 21
224.0505196367968
 31
0.0
  0
LINE
  5
2A09
  8
0
 10
36.8656606971856
 20
246.5505196367969
 30
0.0
 11
36.8656606971856
 21
224.0505196367968
 31
0.0
  0
ARC
  5
2A0A
  8
0
 10
38.8656606971856
 20
246.5505196367969
 30
0.0
 40
2.0
 50
90.0
 51
180.0
1001
GENIUS_GENODEF_13
1002
{
1000
HIER
1070
     0
1002
}
1002
{
1000
MANEDIT
1070
     0
1002
}
1002
{
1000
NOSEL
1070
     0
1002
}
1002
{
1000
BEHIND
1070
     0
1002
}
1002
{
1000
OTHER
1070
     0
1002
}
1002
{
1000
REACTOR
1002
}
1001
GENIUS_GENOBJ-N-FIL_13
1002
{
1000
OWNER
1000
GEN
1002
}
  0
LINE
  5
2A0B
  8
0
 10
69.36566069718526
 20
216.0505196367969
 30
0.0
 11
31.36566069718549
 21
216.0505196367974
 31
0.0
  0
LINE
  5
2A0C
  8
0
 10
69.3656606971856
 20
224.0505196367963
 30
0.0
 11
31.3656606971856
 21
224.0505196367969
 31
0.0
  0
LINE
  5
2A0D
  8
0
 10
31.3656606971856
 20
224.0505196367968
 30
0.0
 11
31.36566069718549
 21
216.0505196367969
 31
0.0
  0
LINE
  5
2A0E
  8
0
 10
69.3656606971856
 20
224.0505196367967
 30
0.0
 11
69.36566069718526
 21
216.0505196367969
 31
0.0
  0
LINE
  5
2A0F
  8
0
 10
61.8656606971856
 20
248.5505196367969
 30
0.0
 11
38.8656606971856
 21
248.5505196367969
 31
0.0
  0
ARC
  5
2A10
  8
0
 10
61.8656606971856
 20
246.5505196367969
 30
0.0
 40
2.0
 50
0.0
 51
90.0
1001
GENIUS_GENODEF_13
1002
{
1000
HIER
1070
     0
1002
}
1002
{
1000
MANEDIT
1070
     0
1002
}
1002
{
1000
NOSEL
1070
     0
1002
}
1002
{
1000
BEHIND
1070
     0
1002
}
1002
{
1000
OTHER
1070
     0
1002
}
1002
{
1000
REACTOR
1002
}
1001
GENIUS_GENOBJ-N-FIL_13
1002
{
1000
OWNER
1000
GEN
1002
}
  0
LINE
  5
2A11
  8
0
 10
44.3656606971856
 20
248.5505196367969
 30
0.0
 11
44.3656606971856
 21
253.0505739563432
 31
0.0
  0
LINE
  5
2A12
  8
0
 10
56.3656606971856
 20
253.0505739563432
 30
0.0
 11
56.3656606971856
 21
248.5505196367969
 31
0.0
  0
LINE
  5
2A13
  8
0
 10
334.6649616853962
 20
123.4920316276314
 30
0.0
 11
321.6649616853962
 21
123.0206376369811
 31
0.0
  0
LINE
  5
2A14
  8
0
 10
325.789000076437
 20
122.050519636796
 30
0.0
 11
292.1649616853957
 21
122.050519636796
 31
0.0
  0
LINE
  5
2A15
  8
0
 10
313.1649616853962
 20
123.550519636796
 30
0.0
 11
296.1649616853962
 21
123.550519636796
 31
0.0
  0
LINE
  5
2A16
  8
0
 10
313.6649616853962
 20
131.050519636796
 30
0.0
 11
295.6649616853962
 21
131.050519636796
 31
0.0
  0
LINE
  5
2A17
  8
0
 10
294.6649616853962
 20
130.050519636796
 30
0.0
 11
294.6649616853962
 21
122.050519636796
 31
0.0
  0
ARC
  5
2A18
  8
0
 10
296.1649616853962
 20
122.050519636796
 30
0.0
 40
1.5
 50
90.0
 51
180.0
  0
ARC
  5
2A19
  8
0
 10
295.6649616853962
 20
130.050519636796
 30
0.0
 40
1.0
 50
90.0
 51
180.0
  0
LINE
  5
2A1A
  8
0
 10
321.6649616853962
 20
132.550519636796
 30
0.0
 11
321.6649616853962
 21
122.050519636796
 31
0.0
  0
LINE
  5
2A1B
  8
0
 10
314.6649616853962
 20
130.050519636796
 30
0.0
 11
314.6649616853962
 21
122.050519636796
 31
0.0
  0
ARC
  5
2A1C
  8
0
 10
-313.1649616853962
 20
122.050519636796
 30
0.0
 40
1.5
 50
90.0
 51
180.0
210
0.0
220
0.0
230
-1.0
  0
LINE
  5
2A1D
  8
0
 10
321.6649616853962
 20
123.0206376369811
 30
0.0
 11
319.9846680197385
 21
122.050519636796
 31
0.0
  0
ARC
  5
2A1E
  8
0
 10
-313.6649616853962
 20
130.050519636796
 30
0.0
 40
1.0
 50
90.0
 51
180.0
210
0.0
220
0.0
230
-1.0
  0
LINE
  5
2A1F
  8
0
 10
334.664961685396
 20
123.4920316276314
 30
0.0
 11
334.664961685396
 21
132.550519636796
 31
0.0
  0
LINE
  5
2A20
  8
0
 10
334.664961685396
 20
123.4920316276314
 30
0.0
 11
333.4646672533223
 21
122.2917371955571
 31
0.0
  0
LINE
  5
2A21
  8
0
 10
333.4646672533223
 20
122.2917371955571
 30
0.0
 11
325.789000076437
 21
122.050519636796
 31
0.0
  0
LINE
  5
2A22
  8
0
 10
274.1649616853955
 20
132.550519636796
 30
0.0
 11
274.1649616853955
 21
116.800519636796
 31
0.0
  0
LINE
  5
2A23
  8
0
 10
289.4397530713276
 20
123.3129153297621
 30
0.0
 11
276.8901702994636
 21
123.3129153297621
 31
0.0
  0
LINE
  5
2A24
  8
0
 10
289.4397530713276
 20
114.0753110227281
 30
0.0
 11
276.8901702994636
 21
114.0753110227281
 31
0.0
  0
ARC
  5
2A25
  8
0
 10
286.3679563016032
 20
118.6941131762451
 30
0.0
 40
5.54700538379242
 50
303.6264291359797
 51
56.37357086402022
  0
LINE
  5
2A26
  8
0
 10
292.1649616853955
 20
116.800519636796
 30
0.0
 11
289.4397530713276
 21
114.0753110227281
 31
0.0
  0
ARC
  5
2A27
  8
0
 10
273.4397530713273
 20
132.550519636796
 30
0.0
 40
18.47520861406827
 50
329.9999999999996
 51
0.0
  0
ARC
  5
2A28
  8
0
 10
279.9619670691878
 20
118.6941131762451
 30
0.0
 40
5.54700538379242
 50
123.6264291359798
 51
236.3735708640203
  0
LINE
  5
2A29
  8
0
 10
274.1649616853955
 20
116.800519636796
 30
0.0
 11
276.8901702994636
 21
114.0753110227281
 31
0.0
  0
ARC
  5
2A2A
  8
0
 10
292.8901702994639
 20
132.550519636796
 30
0.0
 40
18.47520861406827
 50
180.0
 51
210.0000000000004
  0
LINE
  5
2A2B
  8
0
 10
292.1649616853957
 20
132.550519636796
 30
0.0
 11
292.1649616853955
 21
116.800519636796
 31
0.0
  0
LINE
  5
2A2C
  8
0
 10
319.9846680197385
 20
122.050519636796
 30
0.0
 11
319.9846680197385
 21
132.550519636796
 31
0.0
  0
LINE
  5
2A2D
  8
0
 10
334.6649616853962
 20
141.6090076459607
 30
0.0
 11
321.6649616853962
 21
142.080401636611
 31
0.0
  0
LINE
  5
2A2E
  8
0
 10
325.789000076437
 20
143.050519636796
 30
0.0
 11
292.1649616853957
 21
143.050519636796
 31
0.0
  0
LINE
  5
2A2F
  8
0
 10
313.1649616853962
 20
141.550519636796
 30
0.0
 11
296.1649616853962
 21
141.550519636796
 31
0.0
  0
LINE
  5
2A30
  8
0
 10
313.6649616853962
 20
134.050519636796
 30
0.0
 11
295.6649616853962
 21
134.050519636796
 31
0.0
  0
LINE
  5
2A31
  8
0
 10
294.6649616853962
 20
135.050519636796
 30
0.0
 11
294.6649616853962
 21
143.050519636796
 31
0.0
  0
ARC
  5
2A32
  8
0
 10
296.1649616853962
 20
143.050519636796
 30
0.0
 40
1.5
 50
180.0
 51
270.0
  0
ARC
  5
2A33
  8
0
 10
295.6649616853962
 20
135.050519636796
 30
0.0
 40
1.0
 50
180.0
 51
270.0
  0
LINE
  5
2A34
  8
0
 10
321.6649616853962
 20
132.550519636796
 30
0.0
 11
321.6649616853962
 21
143.050519636796
 31
0.0
  0
LINE
  5
2A35
  8
0
 10
314.6649616853962
 20
135.050519636796
 30
0.0
 11
314.6649616853962
 21
143.050519636796
 31
0.0
  0
ARC
  5
2A36
  8
0
 10
-313.1649616853962
 20
143.050519636796
 30
0.0
 40
1.5
 50
180.0
 51
270.0
210
0.0
220
0.0
230
-1.0
  0
LINE
  5
2A37
  8
0
 10
321.6649616853962
 20
142.080401636611
 30
0.0
 11
319.9846680197385
 21
143.050519636796
 31
0.0
  0
ARC
  5
2A38
  8
0
 10
-313.6649616853962
 20
135.050519636796
 30
0.0
 40
1.0
 50
180.0
 51
270.0
210
0.0
220
0.0
230
-1.0
  0
LINE
  5
2A39
  8
0
 10
334.664961685396
 20
141.6090076459607
 30
0.0
 11
334.664961685396
 21
132.550519636796
 31
0.0
  0
LINE
  5
2A3A
  8
0
 10
334.664961685396
 20
141.6090076459607
 30
0.0
 11
333.4646672533223
 21
142.809302078035
 31
0.0
  0
LINE
  5
2A3B
  8
0
 10
333.4646672533223
 20
142.809302078035
 30
0.0
 11
325.789000076437
 21
143.050519636796
 31
0.0
  0
LINE
  5
2A3C
  8
0
 10
274.1649616853955
 20
132.550519636796
 30
0.0
 11
274.1649616853955
 21
148.300519636796
 31
0.0
  0
LINE
  5
2A3D
  8
0
 10
289.4397530713276
 20
141.78812394383
 30
0.0
 11
276.8901702994636
 21
141.78812394383
 31
0.0
  0
LINE
  5
2A3E
  8
0
 10
289.4397530713276
 20
151.0257282508639
 30
0.0
 11
276.8901702994636
 21
151.0257282508639
 31
0.0
  0
ARC
  5
2A3F
  8
0
 10
286.3679563016032
 20
146.406926097347
 30
0.0
 40
5.54700538379242
 50
303.6264291359824
 51
56.37357086401762
  0
LINE
  5
2A40
  8
0
 10
292.1649616853955
 20
148.300519636796
 30
0.0
 11
289.4397530713276
 21
151.0257282508639
 31
0.0
  0
ARC
  5
2A41
  8
0
 10
273.4397530713273
 20
132.550519636796
 30
0.0
 40
18.47520861406827
 50
0.0
 51
30.00000000000037
  0
ARC
  5
2A42
  8
0
 10
279.9619670691878
 20
146.406926097347
 30
0.0
 40
5.54700538379242
 50
123.6264291359824
 51
236.3735708640176
  0
LINE
  5
2A43
  8
0
 10
274.1649616853955
 20
148.300519636796
 30
0.0
 11
276.8901702994636
 21
151.0257282508639
 31
0.0
  0
ARC
  5
2A44
  8
0
 10
292.8901702994639
 20
132.550519636796
 30
0.0
 40
18.47520861406827
 50
149.9999999999996
 51
180.0
  0
LINE
  5
2A45
  8
0
 10
292.1649616853957
 20
132.550519636796
 30
0.0
 11
292.1649616853955
 21
148.300519636796
 31
0.0
  0
LINE
  5
2A46
  8
0
 10
319.9846680197385
 20
143.050519636796
 30
0.0
 11
319.9846680197385
 21
132.550519636796
 31
0.0
  0
LINE
  5
2A47
  8
0
 10
142.6649616853962
 20
123.4920316276314
 30
0.0
 11
155.6649616853962
 21
123.0206376369811
 31
0.0
  0
LINE
  5
2A48
  8
0
 10
151.5409232943554
 20
122.050519636796
 30
0.0
 11
185.1649616853966
 21
122.050519636796
 31
0.0
  0
LINE
  5
2A49
  8
0
 10
164.1649616853962
 20
123.550519636796
 30
0.0
 11
181.1649616853962
 21
123.550519636796
 31
0.0
  0
LINE
  5
2A4A
  8
0
 10
163.6649616853962
 20
131.050519636796
 30
0.0
 11
181.6649616853962
 21
131.050519636796
 31
0.0
  0
LINE
  5
2A4B
  8
0
 10
182.6649616853962
 20
130.050519636796
 30
0.0
 11
182.6649616853962
 21
122.050519636796
 31
0.0
  0
ARC
  5
2A4C
  8
0
 10
181.1649616853962
 20
122.050519636796
 30
0.0
 40
1.5
 50
0.0
 51
90.0
  0
ARC
  5
2A4D
  8
0
 10
181.6649616853962
 20
130.050519636796
 30
0.0
 40
1.0
 50
0.0
 51
90.0
  0
LINE
  5
2A4E
  8
0
 10
155.6649616853962
 20
132.550519636796
 30
0.0
 11
155.6649616853962
 21
122.050519636796
 31
0.0
  0
LINE
  5
2A4F
  8
0
 10
162.6649616853962
 20
130.050519636796
 30
0.0
 11
162.6649616853962
 21
122.050519636796
 31
0.0
  0
ARC
  5
2A50
  8
0
 10
-164.1649616853962
 20
122.050519636796
 30
0.0
 40
1.5
 50
0.0
 51
90.0
210
0.0
220
0.0
230
-1.0
  0
LINE
  5
2A51
  8
0
 10
155.6649616853962
 20
123.0206376369811
 30
0.0
 11
157.3452553510539
 21
122.050519636796
 31
0.0
  0
ARC
  5
2A52
  8
0
 10
-163.6649616853962
 20
130.050519636796
 30
0.0
 40
1.0
 50
0.0
 51
90.0
210
0.0
220
0.0
230
-1.0
  0
LINE
  5
2A53
  8
0
 10
142.6649616853964
 20
123.4920316276314
 30
0.0
 11
142.6649616853964
 21
132.550519636796
 31
0.0
  0
LINE
  5
2A54
  8
0
 10
142.6649616853964
 20
123.4920316276314
 30
0.0
 11
143.86525611747
 21
122.2917371955571
 31
0.0
  0
LINE
  5
2A55
  8
0
 10
143.86525611747
 20
122.2917371955571
 30
0.0
 11
151.5409232943554
 21
122.050519636796
 31
0.0
  0
LINE
  5
2A56
  8
0
 10
203.1649616853969
 20
132.550519636796
 30
0.0
 11
203.1649616853969
 21
116.800519636796
 31
0.0
  0
LINE
  5
2A57
  8
0
 10
187.8901702994648
 20
123.3129153297621
 30
0.0
 11
200.4397530713287
 21
123.3129153297621
 31
0.0
  0
LINE
  5
2A58
  8
0
 10
187.8901702994648
 20
114.0753110227281
 30
0.0
 11
200.4397530713287
 21
114.0753110227281
 31
0.0
  0
ARC
  5
2A59
  8
0
 10
190.9619670691892
 20
118.6941131762451
 30
0.0
 40
5.54700538379242
 50
123.6264291359798
 51
236.3735708640203
  0
LINE
  5
2A5A
  8
0
 10
185.1649616853969
 20
116.800519636796
 30
0.0
 11
187.8901702994648
 21
114.0753110227281
 31
0.0
  0
ARC
  5
2A5B
  8
0
 10
203.890170299465
 20
132.550519636796
 30
0.0
 40
18.47520861406827
 50
180.0
 51
209.9999999999993
  0
ARC
  5
2A5C
  8
0
 10
197.3679563016045
 20
118.6941131762451
 30
0.0
 40
5.54700538379242
 50
303.6264291359797
 51
56.37357086402022
  0
LINE
  5
2A5D
  8
0
 10
203.1649616853969
 20
116.800519636796
 30
0.0
 11
200.4397530713287
 21
114.0753110227281
 31
0.0
  0
ARC
  5
2A5E
  8
0
 10
184.4397530713285
 20
132.550519636796
 30
0.0
 40
18.47520861406827
 50
330.0000000000006
 51
0.0
  0
LINE
  5
2A5F
  8
0
 10
185.1649616853966
 20
132.550519636796
 30
0.0
 11
185.1649616853969
 21
116.800519636796
 31
0.0
  0
LINE
  5
2A60
  8
0
 10
157.3452553510539
 20
122.050519636796
 30
0.0
 11
157.3452553510539
 21
132.550519636796
 31
0.0
  0
LINE
  5
2A61
  8
0
 10
142.6649616853962
 20
141.6090076459607
 30
0.0
 11
155.6649616853962
 21
142.080401636611
 31
0.0
  0
LINE
  5
2A62
  8
0
 10
151.5409232943554
 20
143.050519636796
 30
0.0
 11
185.1649616853966
 21
143.050519636796
 31
0.0
  0
LINE
  5
2A63
  8
0
 10
164.1649616853962
 20
141.550519636796
 30
0.0
 11
181.1649616853962
 21
141.550519636796
 31
0.0
  0
LINE
  5
2A64
  8
0
 10
163.6649616853962
 20
134.050519636796
 30
0.0
 11
181.6649616853962
 21
134.050519636796
 31
0.0
  0
LINE
  5
2A65
  8
0
 10
182.6649616853962
 20
135.050519636796
 30
0.0
 11
182.6649616853962
 21
143.050519636796
 31
0.0
  0
ARC
  5
2A66
  8
0
 10
181.1649616853962
 20
143.050519636796
 30
0.0
 40
1.5
 50
270.0
 51
0.0
  0
ARC
  5
2A67
  8
0
 10
181.6649616853962
 20
135.050519636796
 30
0.0
 40
1.0
 50
270.0
 51
0.0
  0
LINE
  5
2A68
  8
0
 10
155.6649616853962
 20
132.550519636796
 30
0.0
 11
155.6649616853962
 21
143.050519636796
 31
0.0
  0
LINE
  5
2A69
  8
0
 10
162.6649616853962
 20
135.050519636796
 30
0.0
 11
162.6649616853962
 21
143.050519636796
 31
0.0
  0
ARC
  5
2A6A
  8
0
 10
-164.1649616853962
 20
143.050519636796
 30
0.0
 40
1.5
 50
270.0
 51
0.0
210
0.0
220
0.0
230
-1.0
  0
LINE
  5
2A6B
  8
0
 10
155.6649616853962
 20
142.080401636611
 30
0.0
 11
157.3452553510539
 21
143.050519636796
 31
0.0
  0
ARC
  5
2A6C
  8
0
 10
-163.6649616853962
 20
135.050519636796
 30
0.0
 40
1.0
 50
270.0
 51
0.0
210
0.0
220
0.0
230
-1.0
  0
LINE
  5
2A6D
  8
0
 10
142.6649616853964
 20
141.6090076459607
 30
0.0
 11
142.6649616853964
 21
132.550519636796
 31
0.0
  0
LINE
  5
2A6E
  8
0
 10
142.6649616853964
 20
141.6090076459607
 30
0.0
 11
143.86525611747
 21
142.809302078035
 31
0.0
  0
LINE
  5
2A6F
  8
0
 10
143.86525611747
 20
142.809302078035
 30
0.0
 11
151.5409232943554
 21
143.050519636796
 31
0.0
  0
LINE
  5
2A70
  8
0
 10
203.1649616853969
 20
132.550519636796
 30
0.0
 11
203.1649616853969
 21
148.300519636796
 31
0.0
  0
LINE
  5
2A71
  8
0
 10
187.8901702994648
 20
141.78812394383
 30
0.0
 11
200.4397530713287
 21
141.78812394383
 31
0.0
  0
LINE
  5
2A72
  8
0
 10
187.8901702994648
 20
151.0257282508639
 30
0.0
 11
200.4397530713287
 21
151.0257282508639
 31
0.0
  0
ARC
  5
2A73
  8
0
 10
190.9619670691892
 20
146.406926097347
 30
0.0
 40
5.54700538379242
 50
123.6264291359798
 51
236.3735708640203
  0
LINE
  5
2A74
  8
0
 10
185.1649616853969
 20
148.300519636796
 30
0.0
 11
187.8901702994648
 21
151.0257282508639
 31
0.0
  0
ARC
  5
2A75
  8
0
 10
203.890170299465
 20
132.550519636796
 30
0.0
 40
18.47520861406827
 50
149.9999999999996
 51
180.0
  0
ARC
  5
2A76
  8
0
 10
197.3679563016045
 20
146.406926097347
 30
0.0
 40
5.54700538379242
 50
303.6264291359797
 51
56.37357086402022
  0
LINE
  5
2A77
  8
0
 10
203.1649616853969
 20
148.300519636796
 30
0.0
 11
200.4397530713287
 21
151.0257282508639
 31
0.0
  0
ARC
  5
2A78
  8
0
 10
184.4397530713285
 20
132.550519636796
 30
0.0
 40
18.47520861406827
 50
0.0
 51
30.00000000000037
  0
LINE
  5
2A79
  8
0
 10
185.1649616853966
 20
132.550519636796
 30
0.0
 11
185.1649616853969
 21
148.300519636796
 31
0.0
  0
LINE
  5
2A7A
  8
0
 10
157.3452553510539
 20
143.050519636796
 30
0.0
 11
157.3452553510539
 21
132.550519636796
 31
0.0
  0
LINE
  5
2A7B
  8
7
 10
130.6117634776165
 20
132.550519636796
 30
0.0
 11
339.0388760013047
 21
132.550519636796
 31
0.0
  0
LINE
  5
2A7C
  8
7
 10
70.9159928501324
 20
132.550519636796
 30
0.0
 11
29.81532854423858
 21
132.550519636796
 31
0.0
  0
LINE
  5
2A7D
  8
7
 10
50.36566069718549
 20
63.62007728211756
 30
0.0
 11
50.36566069718549
 21
298.0505739563395
 31
0.0
  0
LINE
  5
2A7E
  8
0
  6
CONTINUOUS
 10
34.36566069718549
 20
141.78812394383
 30
0.0
 11
34.36566069718549
 21
123.3129153297621
 31
0.0
1001
GENIUS_GENODEF_13
1002
{
1000
HIER
1070
     0
1002
}
1002
{
1000
MANEDIT
1070
     0
1002
}
1002
{
1000
NOSEL
1070
     0
1002
}
1002
{
1000
BEHIND
1070
     0
1002
}
1002
{
1000
REACTOR
1002
}
1001
GENIUS_GENOBJ-N-CEN_13
1002
{
1000
OWNER
1000
GEN
1002
}
  0
LINE
  5
2A7F
  8
0
  6
CONTINUOUS
 10
34.36566069718549
 20
123.3129153297621
 30
0.0
 11
50.36566069718549
 21
114.0753110227281
 31
0.0
1001
GENIUS_GENODEF_13
1002
{
1000
HIER
1070
     0
1002
}
1002
{
1000
MANEDIT
1070
     0
1002
}
1002
{
1000
NOSEL
1070
     0
1002
}
1002
{
1000
BEHIND
1070
     0
1002
}
1002
{
1000
REACTOR
1002
}
1001
GENIUS_GENOBJ-N-CEN_13
1002
{
1000
OWNER
1000
GEN
1002
}
  0
LINE
  5
2A80
  8
0
  6
CONTINUOUS
 10
50.36566069718549
 20
114.0753110227281
 30
0.0
 11
66.36566069718549
 21
123.3129153297621
 31
0.0
1001
GENIUS_GENODEF_13
1002
{
1000
HIER
1070
     0
1002
}
1002
{
1000
MANEDIT
1070
     0
1002
}
1002
{
1000
NOSEL
1070
     0
1002
}
1002
{
1000
BEHIND
1070
     0
1002
}
1002
{
1000
REACTOR
1002
}
1001
GENIUS_GENOBJ-N-CEN_13
1002
{
1000
OWNER
1000
GEN
1002
}
  0
LINE
  5
2A81
  8
0
  6
CONTINUOUS
 10
66.36566069718549
 20
123.3129153297621
 30
0.0
 11
66.36566069718549
 21
141.7881239438302
 31
0.0
1001
GENIUS_GENODEF_13
1002
{
1000
HIER
1070
     0
1002
}
1002
{
1000
MANEDIT
1070
     0
1002
}
1002
{
1000
NOSEL
1070
     0
1002
}
1002
{
1000
BEHIND
1070
     0
1002
}
1002
{
1000
REACTOR
1002
}
1001
GENIUS_GENOBJ-N-CEN_13
1002
{
1000
OWNER
1000
GEN
1002
}
  0
LINE
  5
2A82
  8
0
  6
CONTINUOUS
 10
66.36566069718549
 20
141.7881239438302
 30
0.0
 11
50.36566069718549
 21
151.0257282508642
 31
0.0
1001
GENIUS_GENODEF_13
1002
{
1000
HIER
1070
     0
1002
}
1002
{
1000
MANEDIT
1070
     0
1002
}
1002
{
1000
NOSEL
1070
     0
1002
}
1002
{
1000
BEHIND
1070
     0
1002
}
1002
{
1000
REACTOR
1002
}
1001
GENIUS_GENOBJ-N-CEN_13
1002
{
1000
OWNER
1000
GEN
1002
}
  0
LINE
  5
2A83
  8
0
  6
CONTINUOUS
 10
50.36566069718549
 20
151.0257282508642
 30
0.0
 11
34.36566069718549
 21
141.78812394383
 31
0.0
1001
GENIUS_GENODEF_13
1002
{
1000
HIER
1070
     0
1002
}
1002
{
1000
MANEDIT
1070
     0
1002
}
1002
{
1000
NOSEL
1070
     0
1002
}
1002
{
1000
BEHIND
1070
     0
1002
}
1002
{
1000
REACTOR
1002
}
1001
GENIUS_GENOBJ-N-CEN_13
1002
{
1000
OWNER
1000
GEN
1002
}
  0
CIRCLE
  5
2A84
  8
0
  6
CONTINUOUS
 10
50.36566069718549
 20
132.550519636796
 30
0.0
 40
15.75
  0
LINE
  5
2A85
  8
7
 10
339.4997681420941
 20
421.1590055793498
 30
0.0
 11
138.9810141567638
 21
421.1590055793498
 31
0.0
  0
LINE
  5
2A86
  8
7
 10
230.1649616853962
 20
382.4497319455662
 30
0.0
 11
230.1649616853962
 21
459.8682792131334
 31
0.0
  0
LINE
  5
2A87
  8
0
 10
334.6649616853962
 20
412.1005175701852
 30
0.0
 11
321.6649616853962
 21
411.6291235795348
 31
0.0
  0
LINE
  5
2A88
  8
0
 10
325.789000076437
 20
410.6590055793498
 30
0.0
 11
292.1649616853957
 21
410.6590055793498
 31
0.0
  0
LINE
  5
2A89
  8
0
 10
313.1649616853962
 20
412.1590055793498
 30
0.0
 11
296.1649616853962
 21
412.1590055793498
 31
0.0
  0
LINE
  5
2A8A
  8
0
 10
313.6649616853962
 20
419.6590055793498
 30
0.0
 11
295.6649616853962
 21
419.6590055793498
 31
0.0
  0
LINE
  5
2A8B
  8
0
 10
294.6649616853962
 20
418.6590055793498
 30
0.0
 11
294.6649616853962
 21
410.6590055793498
 31
0.0
  0
ARC
  5
2A8C
  8
0
 10
296.1649616853962
 20
410.6590055793498
 30
0.0
 40
1.5
 50
90.0
 51
180.0
  0
ARC
  5
2A8D
  8
0
 10
295.6649616853962
 20
418.6590055793498
 30
0.0
 40
1.0
 50
90.0
 51
180.0
  0
LINE
  5
2A8E
  8
0
 10
321.6649616853962
 20
421.1590055793498
 30
0.0
 11
321.6649616853962
 21
410.6590055793498
 31
0.0
  0
LINE
  5
2A8F
  8
0
 10
314.6649616853962
 20
418.6590055793498
 30
0.0
 11
314.6649616853962
 21
410.6590055793498
 31
0.0
  0
ARC
  5
2A90
  8
0
 10
-313.1649616853962
 20
410.6590055793498
 30
0.0
 40
1.5
 50
90.0
 51
180.0
210
0.0
220
0.0
230
-1.0
  0
LINE
  5
2A91
  8
0
 10
321.6649616853962
 20
411.6291235795348
 30
0.0
 11
319.9846680197385
 21
410.6590055793498
 31
0.0
  0
ARC
  5
2A92
  8
0
 10
-313.6649616853962
 20
418.6590055793498
 30
0.0
 40
1.0
 50
90.0
 51
180.0
210
0.0
220
0.0
230
-1.0
  0
LINE
  5
2A93
  8
0
 10
334.664961685396
 20
412.1005175701852
 30
0.0
 11
334.664961685396
 21
421.1590055793498
 31
0.0
  0
LINE
  5
2A94
  8
0
 10
334.664961685396
 20
412.1005175701852
 30
0.0
 11
333.4646672533223
 21
410.9002231381108
 31
0.0
  0
LINE
  5
2A95
  8
0
 10
333.4646672533223
 20
410.9002231381108
 30
0.0
 11
325.789000076437
 21
410.6590055793498
 31
0.0
  0
LINE
  5
2A96
  8
0
 10
274.1649616853955
 20
421.1590055793498
 30
0.0
 11
274.1649616853955
 21
405.4090055793498
 31
0.0
  0
LINE
  5
2A97
  8
0
 10
289.4397530713276
 20
411.9214012723158
 30
0.0
 11
276.8901702994636
 21
411.9214012723158
 31
0.0
  0
LINE
  5
2A98
  8
0
 10
289.4397530713276
 20
402.6837969652819
 30
0.0
 11
276.8901702994636
 21
402.6837969652819
 31
0.0
  0
ARC
  5
2A99
  8
0
 10
286.3679563016032
 20
407.3025991187989
 30
0.0
 40
5.54700538379242
 50
303.6264291359796
 51
56.37357086402039
  0
LINE
  5
2A9A
  8
0
 10
292.1649616853955
 20
405.4090055793498
 30
0.0
 11
289.4397530713276
 21
402.6837969652819
 31
0.0
  0
ARC
  5
2A9B
  8
0
 10
273.4397530713273
 20
421.1590055793498
 30
0.0
 40
18.47520861406827
 50
329.9999999999998
 51
0.0
  0
ARC
  5
2A9C
  8
0
 10
279.9619670691878
 20
407.3025991187989
 30
0.0
 40
5.54700538379242
 50
123.6264291359796
 51
236.3735708640203
  0
LINE
  5
2A9D
  8
0
 10
274.1649616853955
 20
405.4090055793498
 30
0.0
 11
276.8901702994636
 21
402.6837969652819
 31
0.0
  0
ARC
  5
2A9E
  8
0
 10
292.8901702994639
 20
421.1590055793498
 30
0.0
 40
18.47520861406827
 50
180.0
 51
210.0000000000003
  0
LINE
  5
2A9F
  8
0
 10
292.1649616853957
 20
421.1590055793498
 30
0.0
 11
292.1649616853955
 21
405.4090055793498
 31
0.0
  0
LINE
  5
2AA0
  8
0
 10
319.9846680197385
 20
410.6590055793498
 30
0.0
 11
319.9846680197385
 21
421.1590055793498
 31
0.0
  0
LINE
  5
2AA1
  8
0
 10
334.6649616853962
 20
430.2174935885145
 30
0.0
 11
321.6649616853962
 21
430.6888875791648
 31
0.0
  0
LINE
  5
2AA2
  8
0
 10
325.789000076437
 20
431.6590055793498
 30
0.0
 11
292.1649616853957
 21
431.6590055793498
 31
0.0
  0
LINE
  5
2AA3
  8
0
 10
313.1649616853962
 20
430.1590055793498
 30
0.0
 11
296.1649616853962
 21
430.1590055793498
 31
0.0
  0
LINE
  5
2AA4
  8
0
 10
313.6649616853962
 20
422.6590055793498
 30
0.0
 11
295.6649616853962
 21
422.6590055793498
 31
0.0
  0
LINE
  5
2AA5
  8
0
 10
294.6649616853962
 20
423.6590055793498
 30
0.0
 11
294.6649616853962
 21
431.6590055793498
 31
0.0
  0
ARC
  5
2AA6
  8
0
 10
296.1649616853962
 20
431.6590055793498
 30
0.0
 40
1.5
 50
180.0
 51
270.0
  0
ARC
  5
2AA7
  8
0
 10
295.6649616853962
 20
423.6590055793498
 30
0.0
 40
1.0
 50
180.0
 51
270.0
  0
LINE
  5
2AA8
  8
0
 10
321.6649616853962
 20
421.1590055793498
 30
0.0
 11
321.6649616853962
 21
431.6590055793498
 31
0.0
  0
LINE
  5
2AA9
  8
0
 10
314.6649616853962
 20
423.6590055793498
 30
0.0
 11
314.6649616853962
 21
431.6590055793498
 31
0.0
  0
ARC
  5
2AAA
  8
0
 10
-313.1649616853962
 20
431.6590055793498
 30
0.0
 40
1.5
 50
180.0
 51
270.0
210
0.0
220
0.0
230
-1.0
  0
LINE
  5
2AAB
  8
0
 10
321.6649616853962
 20
430.6888875791648
 30
0.0
 11
319.9846680197385
 21
431.6590055793498
 31
0.0
  0
ARC
  5
2AAC
  8
0
 10
-313.6649616853962
 20
423.6590055793498
 30
0.0
 40
1.0
 50
180.0
 51
270.0
210
0.0
220
0.0
230
-1.0
  0
LINE
  5
2AAD
  8
0
 10
334.664961685396
 20
430.2174935885145
 30
0.0
 11
334.664961685396
 21
421.1590055793498
 31
0.0
  0
LINE
  5
2AAE
  8
0
 10
334.664961685396
 20
430.2174935885145
 30
0.0
 11
333.4646672533223
 21
431.4177880205888
 31
0.0
  0
LINE
  5
2AAF
  8
0
 10
333.4646672533223
 20
431.4177880205888
 30
0.0
 11
325.789000076437
 21
431.6590055793498
 31
0.0
  0
LINE
  5
2AB0
  8
0
 10
274.1649616853955
 20
421.1590055793498
 30
0.0
 11
274.1649616853955
 21
436.9090055793498
 31
0.0
  0
LINE
  5
2AB1
  8
0
 10
289.4397530713276
 20
430.3966098863838
 30
0.0
 11
276.8901702994636
 21
430.3966098863838
 31
0.0
  0
LINE
  5
2AB2
  8
0
 10
289.4397530713276
 20
439.6342141934177
 30
0.0
 11
276.8901702994636
 21
439.6342141934177
 31
0.0
  0
ARC
  5
2AB3
  8
0
 10
286.3679563016032
 20
435.0154120399008
 30
0.0
 40
5.54700538379242
 50
303.6264291359826
 51
56.37357086401745
  0
LINE
  5
2AB4
  8
0
 10
292.1649616853955
 20
436.9090055793498
 30
0.0
 11
289.4397530713276
 21
439.6342141934177
 31
0.0
  0
ARC
  5
2AB5
  8
0
 10
273.4397530713273
 20
421.1590055793498
 30
0.0
 40
18.47520861406827
 50
0.0
 51
30.0000000000003
  0
ARC
  5
2AB6
  8
0
 10
279.9619670691878
 20
435.0154120399008
 30
0.0
 40
5.54700538379242
 50
123.6264291359826
 51
236.3735708640175
  0
LINE
  5
2AB7
  8
0
 10
274.1649616853955
 20
436.9090055793498
 30
0.0
 11
276.8901702994636
 21
439.6342141934177
 31
0.0
  0
ARC
  5
2AB8
  8
0
 10
292.8901702994639
 20
421.1590055793498
 30
0.0
 40
18.47520861406827
 50
149.9999999999995
 51
180.0
  0
LINE
  5
2AB9
  8
0
 10
292.1649616853957
 20
421.1590055793498
 30
0.0
 11
292.1649616853955
 21
436.9090055793498
 31
0.0
  0
LINE
  5
2ABA
  8
0
 10
319.9846680197385
 20
431.6590055793498
 30
0.0
 11
319.9846680197385
 21
421.1590055793498
 31
0.0
  0
LINE
  5
2ABB
  8
0
 10
142.6649616853962
 20
412.1005175701852
 30
0.0
 11
155.6649616853962
 21
411.6291235795348
 31
0.0
  0
LINE
  5
2ABC
  8
0
 10
151.5409232943554
 20
410.6590055793498
 30
0.0
 11
185.1649616853966
 21
410.6590055793498
 31
0.0
  0
LINE
  5
2ABD
  8
0
 10
164.1649616853962
 20
412.1590055793498
 30
0.0
 11
181.1649616853962
 21
412.1590055793498
 31
0.0
  0
LINE
  5
2ABE
  8
0
 10
163.6649616853962
 20
419.6590055793498
 30
0.0
 11
181.6649616853962
 21
419.6590055793498
 31
0.0
  0
LINE
  5
2ABF
  8
0
 10
182.6649616853962
 20
418.6590055793498
 30
0.0
 11
182.6649616853962
 21
410.6590055793498
 31
0.0
  0
ARC
  5
2AC0
  8
0
 10
181.1649616853962
 20
410.6590055793498
 30
0.0
 40
1.5
 50
0.0
 51
90.0
  0
ARC
  5
2AC1
  8
0
 10
181.6649616853962
 20
418.6590055793498
 30
0.0
 40
1.0
 50
0.0
 51
90.0
  0
LINE
  5
2AC2
  8
0
 10
155.6649616853962
 20
421.1590055793498
 30
0.0
 11
155.6649616853962
 21
410.6590055793498
 31
0.0
  0
LINE
  5
2AC3
  8
0
 10
162.6649616853962
 20
418.6590055793498
 30
0.0
 11
162.6649616853962
 21
410.6590055793498
 31
0.0
  0
ARC
  5
2AC4
  8
0
 10
-164.1649616853962
 20
410.6590055793498
 30
0.0
 40
1.5
 50
0.0
 51
90.0
210
0.0
220
0.0
230
-1.0
  0
LINE
  5
2AC5
  8
0
 10
155.6649616853962
 20
411.6291235795348
 30
0.0
 11
157.3452553510539
 21
410.6590055793498
 31
0.0
  0
ARC
  5
2AC6
  8
0
 10
-163.6649616853962
 20
418.6590055793498
 30
0.0
 40
1.0
 50
0.0
 51
90.0
210
0.0
220
0.0
230
-1.0
  0
LINE
  5
2AC7
  8
0
 10
142.6649616853964
 20
412.1005175701852
 30
0.0
 11
142.6649616853964
 21
421.1590055793498
 31
0.0
  0
LINE
  5
2AC8
  8
0
 10
142.6649616853964
 20
412.1005175701852
 30
0.0
 11
143.86525611747
 21
410.9002231381108
 31
0.0
  0
LINE
  5
2AC9
  8
0
 10
143.86525611747
 20
410.9002231381108
 30
0.0
 11
151.5409232943554
 21
410.6590055793498
 31
0.0
  0
LINE
  5
2ACA
  8
0
 10
203.1649616853969
 20
405.927459367621
 30
0.0
 11
203.1649616853969
 21
405.4090055793498
 31
0.0
  0
LINE
  5
2ACB
  8
0
 10
187.8901702994648
 20
411.9214012723158
 30
0.0
 11
200.4397530713287
 21
411.9214012723158
 31
0.0
  0
LINE
  5
2ACC
  8
0
 10
187.8901702994648
 20
402.6837969652819
 30
0.0
 11
200.4397530713287
 21
402.6837969652819
 31
0.0
  0
ARC
  5
2ACD
  8
0
 10
190.9619670691892
 20
407.3025991187989
 30
0.0
 40
5.54700538379242
 50
123.6264291359796
 51
236.3735708640203
  0
LINE
  5
2ACE
  8
0
 10
185.1649616853969
 20
405.4090055793498
 30
0.0
 11
187.8901702994648
 21
402.6837969652819
 31
0.0
  0
ARC
  5
2ACF
  8
0
 10
203.890170299465
 20
421.1590055793498
 30
0.0
 40
18.47520861406827
 50
180.0
 51
210.0000000000003
  0
ARC
  5
2AD0
  8
0
 10
197.3679563016045
 20
407.3025991187989
 30
0.0
 40
5.54700538379242
 50
303.6264291359796
 51
351.5782596577747
  0
ARC
  5
2AD1
  8
0
 10
197.3679563016045
 20
407.3025991187989
 30
0.0
 40
5.54700538379242
 50
54.22888258020659
 51
56.37357086402039
  0
LINE
  5
2AD2
  8
0
 10
203.1649616853969
 20
405.4090055793498
 30
0.0
 11
200.4397530713287
 21
402.6837969652819
 31
0.0
  0
ARC
  5
2AD3
  8
0
 10
184.4397530713285
 20
421.1590055793498
 30
0.0
 40
18.47520861406827
 50
329.9999999999998
 51
330.5416944348203
  0
LINE
  5
2AD4
  8
0
 10
185.1649616853966
 20
421.1590055793498
 30
0.0
 11
185.1649616853969
 21
405.4090055793498
 31
0.0
  0
LINE
  5
2AD5
  8
0
 10
157.3452553510539
 20
410.6590055793498
 30
0.0
 11
157.3452553510539
 21
421.1590055793498
 31
0.0
  0
LINE
  5
2AD6
  8
0
 10
142.6649616853962
 20
430.2174935885145
 30
0.0
 11
155.6649616853962
 21
430.6888875791648
 31
0.0
  0
LINE
  5
2AD7
  8
0
 10
151.5409232943554
 20
431.6590055793498
 30
0.0
 11
185.1649616853966
 21
431.6590055793498
 31
0.0
  0
LINE
  5
2AD8
  8
0
 10
164.1649616853962
 20
430.1590055793498
 30
0.0
 11
181.1649616853962
 21
430.1590055793498
 31
0.0
  0
LINE
  5
2AD9
  8
0
 10
163.6649616853962
 20
422.6590055793498
 30
0.0
 11
181.6649616853962
 21
422.6590055793498
 31
0.0
  0
LINE
  5
2ADA
  8
0
 10
182.6649616853962
 20
423.6590055793498
 30
0.0
 11
182.6649616853962
 21
431.6590055793498
 31
0.0
  0
ARC
  5
2ADB
  8
0
 10
181.1649616853962
 20
431.6590055793498
 30
0.0
 40
1.5
 50
270.0
 51
0.0
  0
ARC
  5
2ADC
  8
0
 10
181.6649616853962
 20
423.6590055793498
 30
0.0
 40
1.0
 50
270.0
 51
0.0
  0
LINE
  5
2ADD
  8
0
 10
155.6649616853962
 20
421.1590055793498
 30
0.0
 11
155.6649616853962
 21
431.6590055793498
 31
0.0
  0
LINE
  5
2ADE
  8
0
 10
162.6649616853962
 20
423.6590055793498
 30
0.0
 11
162.6649616853962
 21
431.6590055793498
 31
0.0
  0
ARC
  5
2ADF
  8
0
 10
-164.1649616853962
 20
431.6590055793498
 30
0.0
 40
1.5
 50
270.0
 51
0.0
210
0.0
220
0.0
230
-1.0
  0
LINE
  5
2AE0
  8
0
 10
155.6649616853962
 20
430.6888875791648
 30
0.0
 11
157.3452553510539
 21
431.6590055793498
 31
0.0
  0
ARC
  5
2AE1
  8
0
 10
-163.6649616853962
 20
423.6590055793498
 30
0.0
 40
1.0
 50
270.0
 51
0.0
210
0.0
220
0.0
230
-1.0
  0
LINE
  5
2AE2
  8
0
 10
142.6649616853964
 20
430.2174935885145
 30
0.0
 11
142.6649616853964
 21
421.1590055793498
 31
0.0
  0
LINE
  5
2AE3
  8
0
 10
142.6649616853964
 20
430.2174935885145
 30
0.0
 11
143.86525611747
 21
431.4177880205888
 31
0.0
  0
LINE
  5
2AE4
  8
0
 10
143.86525611747
 20
431.4177880205888
 30
0.0
 11
151.5409232943554
 21
431.6590055793498
 31
0.0
  0
LINE
  5
2AE5
  8
0
 10
203.1649616853969
 20
436.3905517910782
 30
0.0
 11
203.1649616853969
 21
436.9090055793498
 31
0.0
  0
LINE
  5
2AE6
  8
0
 10
187.8901702994648
 20
430.3966098863838
 30
0.0
 11
200.4397530713287
 21
430.3966098863838
 31
0.0
  0
LINE
  5
2AE7
  8
0
 10
187.8901702994648
 20
439.6342141934177
 30
0.0
 11
200.4397530713287
 21
439.6342141934177
 31
0.0
  0
ARC
  5
2AE8
  8
0
 10
190.9619670691892
 20
435.0154120399008
 30
0.0
 40
5.54700538379242
 50
123.6264291359796
 51
236.3735708640203
  0
LINE
  5
2AE9
  8
0
 10
185.1649616853969
 20
436.9090055793498
 30
0.0
 11
187.8901702994648
 21
439.6342141934177
 31
0.0
  0
ARC
  5
2AEA
  8
0
 10
203.890170299465
 20
421.1590055793498
 30
0.0
 40
18.47520861406827
 50
149.9999999999995
 51
180.0
  0
ARC
  5
2AEB
  8
0
 10
197.3679563016045
 20
435.0154120399008
 30
0.0
 40
5.54700538379242
 50
303.6264291359796
 51
305.7711174197976
  0
ARC
  5
2AEC
  8
0
 10
197.3679563016045
 20
435.0154120399008
 30
0.0
 40
5.54700538379242
 50
8.421740342222261
 51
56.37357086402039
  0
LINE
  5
2AED
  8
0
 10
203.1649616853969
 20
436.9090055793498
 30
0.0
 11
200.4397530713287
 21
439.6342141934177
 31
0.0
  0
ARC
  5
2AEE
  8
0
 10
184.4397530713285
 20
421.1590055793498
 30
0.0
 40
18.47520861406827
 50
29.45830556517638
 51
30.0000000000003
  0
LINE
  5
2AEF
  8
0
 10
185.1649616853966
 20
421.1590055793498
 30
0.0
 11
185.1649616853969
 21
436.9090055793498
 31
0.0
  0
LINE
  5
2AF0
  8
0
 10
157.3452553510539
 20
431.6590055793498
 30
0.0
 11
157.3452553510539
 21
421.1590055793498
 31
0.0
  0
LINE
  5
2AF1
  8
0
 10
216.1649616853961
 20
178.5505196367969
 30
0.0
 11
213.6649616853961
 21
177.1071439638229
 31
0.0
  0
LINE
  5
2AF2
  8
0
 10
213.6649616853961
 20
177.1071439638229
 30
0.0
 11
213.6649616853961
 21
173.4165450405812
 31
0.0
1001
GENIUS_GENODEF_13
1002
{
1000
HIER
1070
     0
1002
}
1002
{
1000
MANEDIT
1070
     0
1002
}
1002
{
1000
NOSEL
1070
     0
1002
}
1002
{
1000
BEHIND
1070
     0
1002
}
1002
{
1000
REACTOR
1002
}
1001
GENIUS_GENOBJ-N-CEN_13
1002
{
1000
OWNER
1000
GEN
1002
}
  0
LINE
  5
2AF3
  8
0
 10
215.1649616853961
 20
172.5505196367969
 30
0.0
 11
213.6649616853961
 21
173.4165450405815
 31
0.0
  0
LINE
  5
2AF4
  8
0
 10
246.6649616853961
 20
177.1071439638229
 30
0.0
 11
246.6649616853961
 21
173.4165450405812
 31
0.0
1001
GENIUS_GENODEF_13
1002
{
1000
HIER
1070
     0
1002
}
1002
{
1000
MANEDIT
1070
     0
1002
}
1002
{
1000
NOSEL
1070
     0
1002
}
1002
{
1000
BEHIND
1070
     0
1002
}
1002
{
1000
REACTOR
1002
}
1001
GENIUS_GENOBJ-N-CEN_13
1002
{
1000
OWNER
1000
GEN
1002
}
  0
LINE
  5
2AF5
  8
0
 10
245.1649616853963
 20
172.5505196367969
 30
0.0
 11
215.1649616853961
 21
172.5505196367969
 31
0.0
  0
LINE
  5
2AF6
  8
0
 10
245.1649616853961
 20
172.5505196367969
 30
0.0
 11
246.6649616853961
 21
173.4165450405815
 31
0.0
  0
LINE
  5
2AF7
  8
0
 10
216.1649616853961
 20
194.0505196367969
 30
0.0
 11
216.1649616853961
 21
178.5505196367969
 31
0.0
1001
GENIUS_GENODEF_13
1002
{
1000
HIER
1070
     0
1002
}
1002
{
1000
MANEDIT
1070
     0
1002
}
1002
{
1000
NOSEL
1070
     0
1002
}
1002
{
1000
BEHIND
1070
     0
1002
}
1002
{
1000
REACTOR
1002
}
1001
GENIUS_GENOBJ-N-CEN_13
1002
{
1000
OWNER
1000
GEN
1002
}
  0
LINE
  5
2AF8
  8
0
 10
244.1649616853961
 20
194.0505196367969
 30
0.0
 11
244.1649616853961
 21
178.5505196367969
 31
0.0
1001
GENIUS_GENODEF_13
1002
{
1000
HIER
1070
     0
1002
}
1002
{
1000
MANEDIT
1070
     0
1002
}
1002
{
1000
NOSEL
1070
     0
1002
}
1002
{
1000
BEHIND
1070
     0
1002
}
1002
{
1000
REACTOR
1002
}
1001
GENIUS_GENOBJ-N-CEN_13
1002
{
1000
OWNER
1000
GEN
1002
}
  0
LINE
  5
2AF9
  8
0
 10
244.1649616853961
 20
178.5505196367969
 30
0.0
 11
246.6649616853961
 21
177.1071439638229
 31
0.0
  0
LINE
  5
2AFA
  8
0
 10
216.1649616853961
 20
178.5505196367969
 30
0.0
 11
244.1649616853961
 21
178.5505196367969
 31
0.0
  0
LINE
  5
2AFB
  8
0
 10
216.1649616853961
 20
194.0505196367969
 30
0.0
 11
214.5149616853962
 21
195.0031475809599
 31
0.0
  0
LINE
  5
2AFC
  8
0
 10
244.1649616853961
 20
194.0505196367969
 30
0.0
 11
245.8149616853962
 21
195.0031475809599
 31
0.0
  0
LINE
  5
2AFD
  8
0
 10
216.1649616853961
 20
194.0505196367969
 30
0.0
 11
244.1649616853961
 21
194.0505196367969
 31
0.0
  0
LINE
  5
2AFE
  8
0
 10
36.3656606971856
 20
194.0505196367967
 30
0.0
 11
34.71566069718574
 21
195.0031475809596
 31
0.0
  0
LINE
  5
2AFF
  8
0
 10
36.3656606971856
 20
178.5505196367967
 30
0.0
 11
35.3656606971856
 21
177.9731693676069
 31
0.0
  0
LINE
  5
2B00
  8
0
 10
35.3656606971856
 20
177.9731693676069
 30
0.0
 11
35.3656606971856
 21
172.5505196367969
 31
0.0
1001
GENIUS_GENODEF_13
1002
{
1000
HIER
1070
     0
1002
}
1002
{
1000
MANEDIT
1070
     0
1002
}
1002
{
1000
NOSEL
1070
     0
1002
}
1002
{
1000
BEHIND
1070
     0
1002
}
1002
{
1000
REACTOR
1002
}
1001
GENIUS_GENOBJ-N-CEN_13
1002
{
1000
OWNER
1000
GEN
1002
}
  0
LINE
  5
2B01
  8
0
 10
65.3656606971856
 20
177.9731693676069
 30
0.0
 11
65.3656606971856
 21
172.5505196367967
 31
0.0
1001
GENIUS_GENODEF_13
1002
{
1000
HIER
1070
     0
1002
}
1002
{
1000
MANEDIT
1070
     0
1002
}
1002
{
1000
NOSEL
1070
     0
1002
}
1002
{
1000
BEHIND
1070
     0
1002
}
1002
{
1000
REACTOR
1002
}
1001
GENIUS_GENOBJ-N-CEN_13
1002
{
1000
OWNER
1000
GEN
1002
}
  0
LINE
  5
2B02
  8
0
 10
65.3656606971856
 20
172.5505196367967
 30
0.0
 11
35.3656606971856
 21
172.5505196367967
 31
0.0
  0
LINE
  5
2B03
  8
0
 10
36.3656606971856
 20
194.0505196367967
 30
0.0
 11
36.3656606971856
 21
178.5505196367967
 31
0.0
1001
GENIUS_GENODEF_13
1002
{
1000
HIER
1070
     0
1002
}
1002
{
1000
MANEDIT
1070
     0
1002
}
1002
{
1000
NOSEL
1070
     0
1002
}
1002
{
1000
BEHIND
1070
     0
1002
}
1002
{
1000
REACTOR
1002
}
1001
GENIUS_GENOBJ-N-CEN_13
1002
{
1000
OWNER
1000
GEN
1002
}
  0
LINE
  5
2B04
  8
0
 10
64.3656606971856
 20
194.0505196367967
 30
0.0
 11
64.3656606971856
 21
178.5505196367967
 31
0.0
1001
GENIUS_GENODEF_13
1002
{
1000
HIER
1070
     0
1002
}
1002
{
1000
MANEDIT
1070
     0
1002
}
1002
{
1000
NOSEL
1070
     0
1002
}
1002
{
1000
BEHIND
1070
     0
1002
}
1002
{
1000
REACTOR
1002
}
1001
GENIUS_GENOBJ-N-CEN_13
1002
{
1000
OWNER
1000
GEN
1002
}
  0
LINE
  5
2B05
  8
0
 10
64.3656606971856
 20
178.5505196367967
 30
0.0
 11
65.36566069718549
 21
177.9731693676072
 31
0.0
  0
LINE
  5
2B06
  8
0
 10
64.3656606971856
 20
194.0505196367967
 30
0.0
 11
66.01566069718547
 21
195.0031475809596
 31
0.0
  0
LINE
  5
2B07
  8
0
 10
36.3656606971856
 20
178.5505196367967
 30
0.0
 11
64.3656606971856
 21
178.5505196367967
 31
0.0
  0
LINE
  5
2B08
  8
0
 10
36.3656606971856
 20
194.0505196367967
 30
0.0
 11
64.3656606971856
 21
194.0505196367967
 31
0.0
  0
CIRCLE
  5
2B09
  8
0
 10
50.36566069718549
 20
132.550519636796
 30
0.0
 40
6.500546954623674
  0
CIRCLE
  5
2B0A
  8
0
 10
50.36566069718549
 20
132.550519636796
 30
0.0
 40
10.25887470655383
  0
CIRCLE
  5
2B0B
  8
0
 10
50.36566069718549
 20
132.550519636796
 30
0.0
 40
9.060972168732901
  0
CIRCLE
  5
2B0C
  8
0
 10
50.36566069718549
 20
132.550519636796
 30
0.0
 40
7.552980314443869
  0
CIRCLE
  5
2B0D
  8
0
 10
50.36566069718549
 20
132.550519636796
 30
0.0
 40
6.750034936408412
  0
ARC
  5
2B0E
  8
0
 10
48.32670540928189
 20
261.2540794081128
 30
0.0
 40
30.91919402524992
 50
78.72967692071798
 51
86.21889213639939
  0
LINE
  5
2B0F
  8
0
 10
37.36566831203845
 20
294.0505739563432
 30
0.0
 11
63.36566831204937
 21
294.0505739563359
 31
0.0
  0
LINE
  5
2B10
  8
0
 10
27.86566831203845
 20
253.0505739563432
 30
0.0
 11
72.86566831203754
 21
253.0505739563432
 31
0.0
  0
LINE
  5
2B11
  8
0
 10
25.86566831203845
 20
260.7922437071456
 30
0.0
 11
74.86566831203754
 21
260.7922437071456
 31
0.0
  0
ARC
  5
2B12
  8
0
 10
50.41049363066918
 20
266.2285328774691
 30
0.0
 40
3.704509570427573
 50
269.3066925052599
 51
329.9640267076173
  0
LINE
  5
2B13
  8
0
 10
19.36566831203845
 20
286.5467275748878
 30
0.0
 11
19.36566831203845
 21
272.050573956345
 31
0.0
  0
LINE
  5
2B14
  8
0
 10
20.14063343311091
 20
272.050573956345
 30
0.0
 11
20.14063343311091
 21
288.6305714965064
 31
0.0
  0
LINE
  5
2B15
  8
0
 10
43.53770421211129
 20
289.7717161553273
 30
0.0
 11
43.53770421211129
 21
272.050573956345
 31
0.0
  0
LINE
  5
2B16
  8
0
 10
28.80364768922436
 20
272.050573956345
 30
0.0
 11
28.80364768922436
 21
289.7717161553273
 31
0.0
  0
ARC
  5
2B17
  8
0
 10
28.01221740309984
 20
263.1684714123476
 30
0.0
 40
0.5000000000001373
 50
246.2367264954113
 51
357.253232453353
1001
GENIUS_GENODEF_13
1002
{
1000
HIER
1070
     0
1002
}
1002
{
1000
MANEDIT
1070
     0
1002
}
1002
{
1000
NOSEL
1070
     0
1002
}
1002
{
1000
BEHIND
1070
     0
1002
}
1002
{
1000
REACTOR
1002
}
1001
GENIUS_GENOBJ-N-FIL_13
1002
{
1000
OWNER
1000
GEN
1002
}
  0
ARC
  5
2B18
  8
0
 10
27.86566831203845
 20
255.0505739563432
 30
0.0
 40
2.0
 50
180.0
 51
270.0
1001
GENIUS_GENODEF_13
1002
{
1000
HIER
1070
     0
1002
}
1002
{
1000
MANEDIT
1070
     0
1002
}
1002
{
1000
NOSEL
1070
     0
1002
}
1002
{
1000
BEHIND
1070
     0
1002
}
1002
{
1000
REACTOR
1002
}
1001
GENIUS_GENOBJ-N-FIL_13
1002
{
1000
OWNER
1000
GEN
1002
}
  0
LINE
  5
2B19
  8
0
 10
25.86566831203845
 20
260.7922437071456
 30
0.0
 11
25.86566831203845
 21
255.0505739563422
 31
0.0
  0
LINE
  5
2B1A
  8
0
 10
25.86566831203845
 20
260.7922437071456
 30
0.0
 11
19.36566831203845
 21
272.050573956345
 31
0.0
  0
ARC
  5
2B1B
  8
0
 10
31.25410477830565
 20
270.0338362989159
 30
0.0
 40
8.092139528442901
 50
218.3219467238787
 51
244.8164215542301
  0
ARC
  5
2B1C
  8
0
 10
56.71651486053293
 20
291.6944873337594
 30
0.0
 40
41.51720649287704
 50
208.2390387289536
 51
219.9850051421011
  0
LINE
  5
2B1D
  8
0
 10
29.80364768922436
 20
272.0617359820962
 30
0.0
 11
42.53770421211129
 21
272.0505739563422
 31
0.0
  0
ARC
  5
2B1E
  8
0
 10
-151.9460876901798
 20
271.8023125733139
 30
0.0
 40
180.6652985045642
 50
357.2532324534187
 51
0.0787330719278605
  0
ARC
  5
2B1F
  8
0
 10
50.32084299342227
 20
266.2285328774691
 30
0.0
 40
3.704509570427561
 50
210.0359732923841
 51
270.6933074947436
  0
ARC
  5
2B20
  8
0
 10
59.68448087157776
 20
274.9016071189757
 30
0.0
 40
16.39654800819768
 50
190.0134925743618
 51
219.9445765225452
  0
ARC
  5
2B21
  8
0
 10
37.36566831203845
 20
254.0505739563457
 30
0.0
 40
39.99999999999841
 50
90.0
 51
111.8037479893857
  0
ARC
  5
2B22
  8
0
 10
24.91869663870284
 20
286.8365731502886
 30
0.0
 40
4.869076824715424
 50
37.07163361014624
 51
88.33534575517591
  0
ARC
  5
2B23
  8
0
 10
24.36566831203822
 20
286.5467275748878
 30
0.0
 40
4.999999999999826
 50
111.803747989381
 51
180.0
1001
GENIUS_GENODEF_13
1002
{
1000
HIER
1070
     0
1002
}
1002
{
1000
MANEDIT
1070
     0
1002
}
1002
{
1000
NOSEL
1070
     0
1002
}
1002
{
1000
BEHIND
1070
     0
1002
}
1002
{
1000
REACTOR
1002
}
1001
GENIUS_GENOBJ-N-FIL_13
1002
{
1000
OWNER
1000
GEN
1002
}
  0
ARC
  5
2B24
  8
0
 10
26.7143171496441
 20
283.5812210075911
 30
0.0
 40
8.289104774638442
 50
101.5112441720059
 51
142.471563406326
  0
LINE
  5
2B25
  8
0
 10
29.80364768922436
 20
289.7717161553273
 30
0.0
 11
42.53770421211129
 21
289.7717161553273
 31
0.0
  0
ARC
  5
2B26
  8
0
 10
52.40463121481002
 20
261.2540794081094
 30
0.0
 40
30.91919402525333
 50
93.78110786360062
 51
101.2703230792816
  0
ARC
  5
2B27
  8
0
 10
46.7229961826506
 20
287.9004333906075
 30
0.0
 40
3.694290746966676
 50
95.61023783028725
 51
149.5667841226169
  0
LINE
  5
2B28
  8
0
 10
81.36566831203845
 20
286.5467275748869
 30
0.0
 11
81.36566831203845
 21
272.050573956345
 31
0.0
  0
LINE
  5
2B29
  8
0
 10
71.92768893486709
 20
272.050573956345
 30
0.0
 11
71.92768893486709
 21
289.7717161553273
 31
0.0
  0
LINE
  5
2B2A
  8
0
 10
80.59070319098055
 20
272.050573956345
 30
0.0
 11
80.59070319098055
 21
288.6305714965064
 31
0.0
  0
LINE
  5
2B2B
  8
0
 10
57.19363241198107
 20
289.7717161553273
 30
0.0
 11
57.19363241198107
 21
272.050573956345
 31
0.0
  0
LINE
  5
2B2C
  8
0
 10
74.86566831203754
 20
260.7922437071447
 30
0.0
 11
81.36566831203845
 21
272.050573956345
 31
0.0
  0
ARC
  5
2B2D
  8
0
 10
44.01482176355194
 20
291.6944873337644
 30
0.0
 40
41.51720649288583
 50
320.0149948579001
 51
331.7609612710451
  0
ARC
  5
2B2E
  8
0
 10
72.86566831203754
 20
255.0505739563432
 30
0.0
 40
2.0
 50
270.0
 51
0.0
1001
GENIUS_GENODEF_13
1002
{
1000
HIER
1070
     0
1002
}
1002
{
1000
MANEDIT
1070
     0
1002
}
1002
{
1000
NOSEL
1070
     0
1002
}
1002
{
1000
BEHIND
1070
     0
1002
}
1002
{
1000
REACTOR
1002
}
1001
GENIUS_GENOBJ-N-FIL_13
1002
{
1000
OWNER
1000
GEN
1002
}
  0
LINE
  5
2B2F
  8
0
 10
71.01229638409086
 20
272.050573956345
 30
0.0
 11
58.19363241198107
 21
272.050573956345
 31
0.0
  0
ARC
  5
2B30
  8
0
 10
41.04685575251688
 20
274.901607118974
 30
0.0
 40
16.39654800819415
 50
320.0554234774525
 51
349.9865074256933
  0
LINE
  5
2B31
  8
0
 10
74.86566831203754
 20
260.7922437071447
 30
0.0
 11
74.86566831203754
 21
255.0505739563422
 31
0.0
  0
ARC
  5
2B32
  8
0
 10
252.6774243142711
 20
271.802312573316
 30
0.0
 40
180.6652985045639
 50
179.9212669280768
 51
182.7467675465875
  0
ARC
  5
2B33
  8
0
 10
69.47723184578672
 20
270.0338362989159
 30
0.0
 40
8.092139528442887
 50
295.1835784457699
 51
321.6780532761216
  0
ARC
  5
2B34
  8
0
 10
72.71911922099252
 20
263.1684714123475
 30
0.0
 40
0.5000000000000417
 50
182.7467675466345
 51
293.763273504594
1001
GENIUS_GENODEF_13
1002
{
1000
HIER
1070
     0
1002
}
1002
{
1000
MANEDIT
1070
     0
1002
}
1002
{
1000
NOSEL
1070
     0
1002
}
1002
{
1000
BEHIND
1070
     0
1002
}
1002
{
1000
REACTOR
1002
}
1001
GENIUS_GENOBJ-N-FIL_13
1002
{
1000
OWNER
1000
GEN
1002
}
  0
ARC
  5
2B35
  8
0
 10
63.36566831203754
 20
254.0505739563442
 30
0.0
 40
39.99999999999903
 50
68.19625201061453
 51
90.0
  0
ARC
  5
2B36
  8
0
 10
74.01701947444838
 20
283.5812210075911
 30
0.0
 40
8.289104774638432
 50
37.52843659367432
 51
78.48875582799408
  0
LINE
  5
2B37
  8
0
 10
71.01229638409086
 20
289.7717161553264
 30
0.0
 11
58.19363241198107
 21
289.7717161553273
 31
0.0
  0
ARC
  5
2B38
  8
0
 10
54.00834044144085
 20
287.9004333906075
 30
0.0
 40
3.69429074696669
 50
30.43321587738312
 51
84.38976216971277
  0
ARC
  5
2B39
  8
0
 10
75.81263998538952
 20
286.8365731502886
 30
0.0
 40
4.869076824715402
 50
91.66465424482277
 51
142.9283663898524
  0
ARC
  5
2B3A
  8
0
 10
76.36566831203868
 20
286.546727574887
 30
0.0
 40
4.999999999999716
 50
0.0
 51
68.19625201061855
1001
GENIUS_GENODEF_13
1002
{
1000
HIER
1070
     0
1002
}
1002
{
1000
MANEDIT
1070
     0
1002
}
1002
{
1000
NOSEL
1070
     0
1002
}
1002
{
1000
BEHIND
1070
     0
1002
}
1002
{
1000
REACTOR
1002
}
1001
GENIUS_GENOBJ-N-FIL_13
1002
{
1000
OWNER
1000
GEN
1002
}
  0
LINE
  5
2B3B
  8
0
 10
205.6649693002507
 20
260.7922437071467
 30
0.0
 11
254.6649693002498
 21
260.7922437071467
 31
0.0
  0
LINE
  5
2B3C
  8
0
 10
207.6649693002507
 20
253.0505739563452
 30
0.0
 11
252.6649693002498
 21
253.0505739563452
 31
0.0
  0
LINE
  5
2B3D
  8
0
 10
217.1649693002507
 20
294.0505739563452
 30
0.0
 11
243.1649693002616
 21
294.050573956337
 31
0.0
  0
ARC
  5
2B3E
  8
0
 10
216.9287066678444
 20
286.1580216770021
 30
0.0
 40
5.951205005509391
 50
37.38880691368343
 51
97.21420027622548
  0
ARC
  5
2B3F
  8
0
 10
217.0590423209877
 20
265.0437909978849
 30
0.0
 40
2.565357953936887
 50
240.6774080382666
 51
316.523877554376
  0
LINE
  5
2B40
  8
0
 10
200.4186457708463
 20
269.8791426130212
 30
0.0
 11
200.4186457708472
 21
289.8580807745695
 31
0.0
  0
LINE
  5
2B41
  8
0
 10
208.602948677453
 20
272.0505739563461
 30
0.0
 11
208.6029486774521
 21
289.7717161553284
 31
0.0
  0
ARC
  5
2B42
  8
0
 10
207.6649693002507
 20
255.0505739563452
 30
0.0
 40
1.999999999999943
 50
180.0
 51
270.0
1001
GENIUS_GENODEF_13
1002
{
1000
HIER
1070
     0
1002
}
1002
{
1000
MANEDIT
1070
     0
1002
}
1002
{
1000
NOSEL
1070
     0
1002
}
1002
{
1000
BEHIND
1070
     0
1002
}
1002
{
1000
REACTOR
1002
}
1001
GENIUS_GENOBJ-N-FIL_13
1002
{
1000
OWNER
1000
GEN
1002
}
  0
LINE
  5
2B43
  8
0
 10
201.8308162425744
 20
272.050573956347
 30
0.0
 11
207.6029486774366
 21
272.050573956347
 31
0.0
  0
LINE
  5
2B44
  8
0
 10
205.6649693002507
 20
260.7922437071467
 30
0.0
 11
200.4186457708463
 21
269.8791426130203
 31
0.0
  0
LINE
  5
2B45
  8
0
 10
205.6649693002507
 20
260.7922437071467
 30
0.0
 11
205.6649693002507
 21
255.0505739563443
 31
0.0
  0
ARC
  5
2B46
  8
0
 10
221.3935671424524
 20
274.5875483628045
 30
0.0
 40
13.03979140386123
 50
191.2188087997441
 51
244.6115597288426
  0
LINE
  5
2B47
  8
0
 10
201.6867420248079
 20
289.7717161553284
 30
0.0
 11
207.6029486774366
 21
289.7717161553284
 31
0.0
  0
ARC
  5
2B48
  8
0
 10
217.1649693002507
 20
254.0505739563438
 30
0.0
 40
40.00000000000136
 50
90.0
 51
111.803747989384
  0
ARC
  5
2B49
  8
0
 10
204.1649693002498
 20
286.5467275748903
 30
0.0
 40
4.999999999998328
 50
111.8037479893795
 51
138.526724531337
1001
GENIUS_GENODEF_13
1002
{
1000
HIER
1070
     0
1002
}
1002
{
1000
MANEDIT
1070
     0
1002
}
1002
{
1000
NOSEL
1070
     0
1002
}
1002
{
1000
BEHIND
1070
     0
1002
}
1002
{
1000
REACTOR
1002
}
1001
GENIUS_GENOBJ-N-FIL_13
1002
{
1000
OWNER
1000
GEN
1002
}
  0
ARC
  5
2B4A
  8
0
 10
215.5679396894445
 20
280.4089586366868
 30
0.0
 40
11.66928995911952
 50
86.98674223133894
 51
126.6456998178243
  0
LINE
  5
2B4B
  8
0
 10
259.9112928296697
 20
269.8791426130212
 30
0.0
 11
259.9112928296697
 21
289.8580807745695
 31
0.0
  0
LINE
  5
2B4C
  8
0
 10
221.6571369819028
 20
289.7717161553284
 30
0.0
 11
221.6571369819037
 21
272.050573956347
 31
0.0
  0
LINE
  5
2B4D
  8
0
 10
238.6728016186132
 20
289.7717161553284
 30
0.0
 11
238.6728016186132
 21
272.050573956347
 31
0.0
  0
LINE
  5
2B4E
  8
0
 10
251.7269899230639
 20
272.0505739563461
 30
0.0
 11
251.7269899230639
 21
289.7717161553284
 31
0.0
  0
ARC
  5
2B4F
  8
0
 10
243.2708962795284
 20
265.0437909978849
 30
0.0
 40
2.565357953936903
 50
223.4761224456249
 51
299.3225919617333
  0
LINE
  5
2B50
  8
0
 10
222.6571369818882
 20
272.050573956347
 30
0.0
 11
237.6728016186132
 21
272.050573956347
 31
0.0
  0
ARC
  5
2B51
  8
0
 10
197.9105737151269
 20
274.6458639712335
 30
0.0
 40
23.88796343861021
 50
331.5850581069331
 51
353.7628312294631
  0
ARC
  5
2B52
  8
0
 10
262.4193648853892
 20
274.6458639712336
 30
0.0
 40
23.88796343861022
 50
186.2371687705372
 51
208.414941893067
  0
ARC
  5
2B53
  8
0
 10
252.6649693002499
 20
255.0505739563452
 30
0.0
 40
2.0
 50
269.9999999999968
 51
0.0
1001
GENIUS_GENODEF_13
1002
{
1000
HIER
1070
     0
1002
}
1002
{
1000
MANEDIT
1070
     0
1002
}
1002
{
1000
NOSEL
1070
     0
1002
}
1002
{
1000
BEHIND
1070
     0
1002
}
1002
{
1000
REACTOR
1002
}
1001
GENIUS_GENOBJ-N-FIL_13
1002
{
1000
OWNER
1000
GEN
1002
}
  0
LINE
  5
2B54
  8
0
 10
258.3774947957643
 20
272.050573956347
 30
0.0
 11
252.7269899230639
 21
272.050573956347
 31
0.0
  0
ARC
  5
2B55
  8
0
 10
238.9363714580636
 20
274.5875483628045
 30
0.0
 40
13.03979140386123
 50
295.3884402711573
 51
348.7811912002559
  0
LINE
  5
2B56
  8
0
 10
254.6649693002498
 20
260.7922437071467
 30
0.0
 11
254.6649693002498
 21
255.0505739563434
 31
0.0
  0
LINE
  5
2B57
  8
0
 10
254.6649693002498
 20
260.7922437071467
 30
0.0
 11
259.9112928296697
 21
269.8791426130467
 31
0.0
  0
ARC
  5
2B58
  8
0
 10
243.401231932673
 20
286.1580216770017
 30
0.0
 40
5.951205005509814
 50
82.78579972377942
 51
142.6111930863149
  0
LINE
  5
2B59
  8
0
 10
222.6571369818882
 20
289.7717161553284
 30
0.0
 11
237.6728016186132
 21
289.7717161553284
 31
0.0
  0
LINE
  5
2B5A
  8
0
 10
258.6431965756926
 20
289.7717161553284
 30
0.0
 11
252.7269899230639
 21
289.7717161553284
 31
0.0
  0
ARC
  5
2B5B
  8
0
 10
243.1649693002498
 20
254.0505739563438
 30
0.0
 40
40.00000000000134
 50
68.19625201061604
 51
90.0
  0
ARC
  5
2B5C
  8
0
 10
244.7619989110725
 20
280.4089586366868
 30
0.0
 40
11.66928995911953
 50
53.35430018217634
 51
93.01325776866163
  0
ARC
  5
2B5D
  8
0
 10
256.1649693002664
 20
286.5467275748907
 30
0.0
 40
4.99999999999799
 50
41.47327546866229
 51
68.19625201061902
1001
GENIUS_GENODEF_13
1002
{
1000
HIER
1070
     0
1002
}
1002
{
1000
MANEDIT
1070
     0
1002
}
1002
{
1000
NOSEL
1070
     0
1002
}
1002
{
1000
BEHIND
1070
     0
1002
}
1002
{
1000
REACTOR
1002
}
1001
GENIUS_GENOBJ-N-FIL_13
1002
{
1000
OWNER
1000
GEN
1002
}
  0
POLYLINE
  5
2B5E
  8
0
 66
     1
 10
0.0
 20
0.0
 30
0.0
 70
     1
  0
VERTEX
  5
2B71
  8
0
 10
237.1866033107441
 20
451.3533187671859
 30
0.0
 42
0.1147433684531263
  0
VERTEX
  5
2B72
  8
0
 10
223.1433200600483
 20
451.3533187671859
 30
0.0
 42
0.3169980516087132
  0
VERTEX
  5
2B73
  8
0
 10
221.6094020520683
 20
449.6335977513285
 30
0.0
 42
-0.5034443575988989
  0
VERTEX
  5
2B74
  8
0
 10
209.783021318725
 20
442.805633651394
 30
0.0
 42
0.3169980516087056
  0
VERTEX
  5
2B75
  8
0
 10
207.52674022758
 20
442.3370821970897
 30
0.0
 42
0.1147433684531285
  0
VERTEX
  5
2B76
  8
0
 10
200.5050986022321
 20
430.175242149446
 30
0.0
 42
0.3169980516087055
  0
VERTEX
  5
2B77
  8
0
 10
201.2274616853962
 20
427.9869696792842
 30
0.0
 42
-0.5034443575988864
  0
VERTEX
  5
2B78
  8
0
 10
201.2274616853962
 20
414.3310414794145
 30
0.0
 42
0.3169980516087206
  0
VERTEX
  5
2B79
  8
0
 10
200.5050986022321
 20
412.1427690092527
 30
0.0
 42
0.1147433684531274
  0
VERTEX
  5
2B7A
  8
0
 10
207.52674022758
 20
399.9809289616099
 30
0.0
 42
0.3169980516087066
  0
VERTEX
  5
2B7B
  8
0
 10
209.783021318725
 20
399.5123775073047
 30
0.0
 42
-0.503444357598898
  0
VERTEX
  5
2B7C
  8
0
 10
221.6094020520683
 20
392.6844134073702
 30
0.0
 42
0.316998051608725
  0
VERTEX
  5
2B7D
  8
0
 10
223.1433200600483
 20
390.9646923915128
 30
0.0
 42
0.1147433684531251
  0
VERTEX
  5
2B7E
  8
0
 10
237.1866033107441
 20
390.9646923915128
 30
0.0
 42
0.3169980516087174
  0
VERTEX
  5
2B7F
  8
0
 10
238.7205213187241
 20
392.6844134073702
 30
0.0
 42
-0.503444357598898
  0
VERTEX
  5
2B80
  8
0
 10
250.5469020520674
 20
399.5123775073047
 30
0.0
 42
0.3169980516087068
  0
VERTEX
  5
2B81
  8
0
 10
252.8031831432123
 20
399.9809289616099
 30
0.0
 42
0.1147433684531273
  0
VERTEX
  5
2B82
  8
0
 10
259.8248247685602
 20
412.1427690092527
 30
0.0
 42
0.3169980516087207
  0
VERTEX
  5
2B83
  8
0
 10
259.1024616853962
 20
414.3310414794145
 30
0.0
 42
-0.5034443575988866
  0
VERTEX
  5
2B84
  8
0
 10
259.1024616853962
 20
427.9869696792842
 30
0.0
 42
0.3169980516087057
  0
VERTEX
  5
2B85
  8
0
 10
259.8248247685602
 20
430.175242149446
 30
0.0
 42
0.1147433684531281
  0
VERTEX
  5
2B86
  8
0
 10
252.8031831432123
 20
442.3370821970897
 30
0.0
 42
0.3169980516087061
  0
VERTEX
  5
2B87
  8
0
 10
250.5469020520674
 20
442.805633651394
 30
0.0
 42
-0.5034443575988988
  0
VERTEX
  5
2B88
  8
0
 10
238.7205213187241
 20
449.6335977513285
 30
0.0
 42
0.3169980516087095
  0
SEQEND
  5
2B89
  8
0
  0
CIRCLE
  5
2B5F
  8
0
 10
230.1649616853962
 20
421.1590055793498
 30
0.0
 40
11.0
  0
LINE
  5
2B60
  8
0
  6
CONTINUOUS
 10
203.164961685398
 20
416.3371801988555
 30
0.0
 11
203.164961685398
 21
421.1590055793492
 31
0.0
  0
ARC
  5
2B61
  8
0
  6
CONTINUOUS
 10
-182.1441283520641
 20
421.1590055793492
 30
0.0
 40
21.02083333333343
 50
180.0
 51
196.1458218653449
210
0.0
220
0.0
230
-1.0
  0
LINE
  5
2B62
  8
0
  6
CONTINUOUS
 10
203.1649616853978
 20
425.9808309598436
 30
0.0
 11
203.164961685398
 21
421.1590055793506
 31
0.0
  0
ARC
  5
2B63
  8
0
  6
CONTINUOUS
 10
-182.1441283520641
 20
421.1590055793499
 30
0.0
 40
21.02083333333343
 50
163.854178134657
 51
180.0
210
0.0
220
0.0
230
-1.0
  0
VIEWPORT
  5
22
 67
     1
  8
0
 10
5.269134197284911
 20
5.545311567251436
 30
0.0
 40
11.13808705479925
 41
12.32365374410561
 68
     1
 69
     1
1001
GENIUS_GENSCREG_15
1000
PF
1040
1.0
1000
DF
1040
1.0
1000
MIN
1011
-0.2999093301147138
1021
-0.6165153048013714
1031
0.0
1021
-0.6165153048013714
1031
0.0
1000
MAX
1011
10.83817772468454
1021
11.70713843930424
1031
0.0
1021
11.70713843930424
1031
0.0
1000
FLAGS
1070
     4
1001
GENIUS_GENODEF_13
1002
{
1000
HIER
1070
     0
1002
}
1002
{
1000
MANEDIT
1070
     0
1002
}
1002
{
1000
NOSEL
1070
     0
1002
}
1002
{
1000
BEHIND
1070
     0
1002
}
1002
{
1000
OTHER
1070
     0
1002
}
1002
{
1000
REACTOR
1002
}
1001
GENIUS_GENOBJ-N-SDF_13
1002
{
1000
OWNER
1000
GEN
1002
}
1001
ACAD
1000
MVIEW
1002
{
1070
    16
1010
0.0
1020
0.0
1030
0.0
1020
0.0
1030
0.0
1010
0.0
1020
0.0
1030
1.0
1020
0.0
1030
1.0
1040
0.0
1040
12.32365374410561
1040
5.269134197284911
1040
5.545311567251436
1040
50.0
1040
0.0
1040
0.0
1070
     0
1070
   100
1070
     0
1070
     1
1070
     0
1070
     0
1070
     0
1070
     0
1040
0.0
1040
0.0
1040
0.0
1040
1.0
1040
1.0
1040
10.0
1040
10.0
1070
     0
1002
{
1002
}
1002
}
  0
ENDSEC
  0
EOF
