  0
SECTION
  2
HEADER
  9
$ACADVER
  1
AC1009
  9
$DWGCODEPAGE
  3
ansi_932
  9
$INSBASE
 10
0.0
 20
0.0
 30
0.0
  9
$EXTMIN
 10
1.5
 20
0.0
 30
0.0
  9
$EXTMAX
 10
230.8158543427305
 20
294.6851311965019
 30
0.0
  9
$LIMMIN
 10
0.0
 20
0.0
  9
$LIMMAX
 10
420.0
 20
420.0
  9
$ORTHOMODE
 70
     0
  9
$REGENMODE
 70
     1
  9
$FILLMODE
 70
     1
  9
$QTEXTMODE
 70
     0
  9
$MIRRTEXT
 70
     0
  9
$DRAGMODE
 70
     2
  9
$LTSCALE
 40
10.0
  9
$OSMODE
 70
   549
  9
$ATTMODE
 70
     1
  9
$TEXTSIZE
 40
1.0
  9
$TRACEWID
 40
1.0
  9
$TEXTSTYLE
  7
STANDARD
  9
$CLAYER
  8
0
  9
$CELTYPE
  6
BYLAYER
  9
$CECOLOR
 62
   256
  9
$DIMSCALE
 40
1.0
  9
$DIMASZ
 40
2.5
  9
$DIMEXO
 40
1.0
  9
$DIMDLI
 40
7.0
  9
$DIMRND
 40
0.0
  9
$DIMDLE
 40
0.0
  9
$DIMEXE
 40
1.0
  9
$DIMTP
 40
0.1
  9
$DIMTM
 40
0.1
  9
$DIMTXT
 40
3.0
  9
$DIMCEN
 40
0.0
  9
$DIMTSZ
 40
0.0
  9
$DIMTOL
 70
     0
  9
$DIMLIM
 70
     0
  9
$DIMTIH
 70
     0
  9
$DIMTOH
 70
     0
  9
$DIMSE1
 70
     0
  9
$DIMSE2
 70
     0
  9
$DIMTAD
 70
     3
  9
$DIMZIN
 70
     8
  9
$DIMBLK
  1
OPEN
  9
$DIMASO
 70
     1
  9
$DIMSHO
 70
     1
  9
$DIMPOST
  1

  9
$DIMAPOST
  1
"
  9
$DIMALT
 70
     0
  9
$DIMALTD
 70
     2
  9
$DIMALTF
 40
0.0393701
  9
$DIMLFAC
 40
1.0
  9
$DIMTOFL
 70
     1
  9
$DIMTVP
 40
0.0
  9
$DIMTIX
 70
     0
  9
$DIMSOXD
 70
     0
  9
$DIMSAH
 70
     0
  9
$DIMBLK1
  1

  9
$DIMBLK2
  1

  9
$DIMSTYLE
  2
AM_JIS
  9
$DIMCLRD
 70
   256
  9
$DIMCLRE
 70
   256
  9
$DIMCLRT
 70
     2
  9
$DIMTFAC
 40
0.71
  9
$DIMGAP
 40
1.0
  9
$LUNITS
 70
     2
  9
$LUPREC
 70
     2
  9
$SKETCHINC
 40
1.0
  9
$FILLETRAD
 40
2.5
  9
$AUNITS
 70
     0
  9
$AUPREC
 70
     0
  9
$MENU
  1
.
  9
$ELEVATION
 40
0.0
  9
$PELEVATION
 40
0.0
  9
$THICKNESS
 40
0.0
  9
$LIMCHECK
 70
     0
  9
$CHAMFERA
 40
2.5
  9
$CHAMFERB
 40
2.5
  9
$SKPOLY
 70
     1
  9
$TDCREATE
 40
2457226.578216493
  9
$TDUPDATE
 40
2460346.618465498
  9
$TDINDWG
 40
0.0447014931
  9
$TDUSRTIMER
 40
0.0446961806
  9
$USRTIMER
 70
     1
  9
$ANGBASE
 50
0.0
  9
$ANGDIR
 70
     0
  9
$PDMODE
 70
     0
  9
$PDSIZE
 40
0.0
  9
$PLINEWID
 40
0.0
  9
$COORDS
 70
     0
  9
$SPLFRAME
 70
     0
  9
$SPLINETYPE
 70
     6
  9
$SPLINESEGS
 70
     8
  9
$ATTDIA
 70
     1
  9
$ATTREQ
 70
     1
  9
$HANDLING
 70
     1
  9
$HANDSEED
  5
BE92
  9
$SURFTAB1
 70
     6
  9
$SURFTAB2
 70
     6
  9
$SURFTYPE
 70
     6
  9
$SURFU
 70
     6
  9
$SURFV
 70
     6
  9
$UCSNAME
  2

  9
$UCSORG
 10
0.0
 20
0.0
 30
0.0
  9
$UCSXDIR
 10
1.0
 20
0.0
 30
0.0
  9
$UCSYDIR
 10
0.0
 20
1.0
 30
0.0
  9
$PUCSNAME
  2

  9
$PUCSORG
 10
0.0
 20
0.0
 30
0.0
  9
$PUCSXDIR
 10
1.0
 20
0.0
 30
0.0
  9
$PUCSYDIR
 10
0.0
 20
1.0
 30
0.0
  9
$USERI1
 70
     0
  9
$USERI2
 70
     0
  9
$USERI3
 70
     0
  9
$USERI4
 70
     0
  9
$USERI5
 70
     0
  9
$USERR1
 40
0.0
  9
$USERR2
 40
0.0
  9
$USERR3
 40
0.0
  9
$USERR4
 40
0.0
  9
$USERR5
 40
0.0
  9
$WORLDVIEW
 70
     1
  9
$SHADEDGE
 70
     3
  9
$SHADEDIF
 70
    70
  9
$TILEMODE
 70
     1
  9
$MAXACTVP
 70
    48
  9
$PLIMCHECK
 70
     0
  9
$PEXTMIN
 10
1.000000000000000E+20
 20
1.000000000000000E+20
 30
1.000000000000000E+20
  9
$PEXTMAX
 10
-1.000000000000000E+20
 20
-1.000000000000000E+20
 30
-1.000000000000000E+20
  9
$PLIMMIN
 10
-0.2500002402958907
 20
-0.2499999962453767
  9
$PLIMMAX
 10
10.74999951940822
 20
8.249999763458732
  9
$UNITMODE
 70
     0
  9
$VISRETAIN
 70
     1
  9
$PLINEGEN
 70
     0
  9
$PSLTSCALE
 70
     1
  0
ENDSEC
  0
SECTION
  2
TABLES
  0
TABLE
  2
VPORT
 70
     1
  0
VPORT
  2
*ACTIVE
 70
     0
 10
0.0
 20
0.0
 11
1.0
 21
1.0
 12
210.0
 22
210.0
 13
0.0
 23
0.0
 14
2.5
 24
2.5
 15
10.0
 25
10.0
 16
0.0
 26
0.0
 36
1.0
 17
0.0
 27
0.0
 37
0.0
 40
423.2589718719689
 41
2.05293551491819
 42
50.0
 43
0.0
 44
0.0
 50
0.0
 51
0.0
 71
     0
 72
   100
 73
     1
 74
     3
 75
     0
 76
     0
 77
     0
 78
     0
  0
ENDTAB
  0
TABLE
  2
LTYPE
 70
    22
  0
LTYPE
  2
CONTINUOUS
 70
     0
  3
Solid line
 72
    65
 73
     0
 40
0.0
  0
LTYPE
  2
HIDDEN
 70
     0
  3
__ __ __ __ __ __ __ __ __ __ __ __ __ __ __ __
 72
    65
 73
     2
 40
0.375
 49
0.25
 49
-0.125
  0
LTYPE
  2
PHANTOM2
 70
     0
  3
___ _ _ ___ _ _ ___ _ _ ___ _ _ ___ _ _ ___ _ _
 72
    65
 73
     6
 40
1.25
 49
0.625
 49
-0.125
 49
0.125
 49
-0.125
 49
0.125
 49
-0.125
  0
LTYPE
  2
CENTER
 70
     0
  3
____ _ ____ _ ____ _ ____ _ ____ _ ____ _ ____ 
 72
    65
 73
     4
 40
2.0
 49
1.25
 49
-0.25
 49
0.25
 49
-0.25
  0
LTYPE
  2
ACJISTGB
 70
     0
  3
__ . . __ . .
 72
    65
 73
     6
 40
9.0
 49
4.0
 49
-1.0
 49
1.0
 49
-1.0
 49
1.0
 49
-1.0
  0
LTYPE
  2
ACJISTGL
 70
     0
  3
_ _ _ _ _
 72
    65
 73
     2
 40
3.0
 49
2.0
 49
-1.0
  0
LTYPE
  2
ACISOWELD
 70
     0
  3
_ _ _ _ _
 72
    65
 73
     2
 40
2.0
 49
2.0
 49
-1.0
  0
LTYPE
  2
ACISOTGB
 70
     0
  3
__ . . __ . .
 72
    65
 73
     6
 40
9.0
 49
4.0
 49
-1.0
 49
1.0
 49
-1.0
 49
1.0
 49
-1.0
  0
LTYPE
  2
ACISOTGL
 70
     0
  3
_ _ _ _ _
 72
    65
 73
     2
 40
3.0
 49
2.0
 49
-1.0
  0
LTYPE
  2
AM_ISO02W050
 70
     0
  3
__ __ __ __ __ __ __ __ __ __ __ __ __ __ __
 72
    65
 73
     2
 40
7.5
 49
6.0
 49
-1.5
  0
LTYPE
  2
AM_ISO08W050
 70
     0
  3
____ . ____ . ____ . ____ . ____ . ____ . ____
 72
    65
 73
     4
 40
18.0
 49
12.0
 49
-1.5
 49
3.0
 49
-1.5
  0
LTYPE
  2
AM_ISO09W050
 70
     0
  3
_____ . . _____ . . _____ . . ____ .. ____
 72
    65
 73
     6
 40
22.5
 49
12.0
 49
-1.5
 49
3.0
 49
-1.5
 49
3.0
 49
-1.5
  0
LTYPE
  2
AM_ISO02W050X2
 70
     0
  3
 _ _ _ _ _ _ _ _ _ _ _ _
 72
    65
 73
     2
 40
3.75
 49
3.0
 49
-0.75
  0
LTYPE
  2
AM_ISO08W050X2
 70
     0
  3
__ . __ . __ . __ . __ . __
 72
    65
 73
     4
 40
9.0
 49
6.0
 49
-0.75
 49
1.5
 49
-0.75
  0
LTYPE
  2
AMZIGZAG
 70
     0
  3
/\/-/\/-/\/-/\/-/\/-/\/
 72
    65
 73
     2
 40
11.0001
 49
0.0001
 49
-11.0
  0
LTYPE
  2
AMCONSTR
 70
     0
  3
_______________________
 72
    65
 73
     2
 40
9999.0
 49
9999.0
 49
0.0
  0
LTYPE
  2
CENTER2
 70
     0
  3
Center (.5x) ___ _ ___ _ ___ _ ___ _ ___ _ ___
 72
    65
 73
     4
 40
1.125
 49
0.75
 49
-0.125
 49
0.125
 49
-0.125
  0
LTYPE
  2
HIDDEN2
 70
     0
  3
Hidden (.5x) _ _ _ _ _ _ _ _ _ _ _ _ _ _ _ _ _
 72
    65
 73
     2
 40
0.1875
 49
0.125
 49
-0.0625
  0
LTYPE
  2
ACJISWELD
 70
     0
  3
_ _ _ _ _
 72
    65
 73
     2
 40
2.0
 49
2.0
 49
-1.0
  0
LTYPE
  2
AMZIGZAG2
 70
     0
  3
/\/-/\/-/\/-/\/-/\/-/\/
 72
    65
 73
     2
 40
0.4401
 49
0.0001
 49
-0.44
  0
LTYPE
  2
ACANSTGB
 70
     0
  3
__ . . __ . .
 72
    65
 73
     6
 40
0.35433070866
 49
0.15748031496
 49
-0.03937007874
 49
0.03937007874
 49
-0.03937007874
 49
0.03937007874
 49
-0.03937007874
  0
LTYPE
  2
ACANSTGL
 70
     0
  3
_ _ _ _ _
 72
    65
 73
     2
 40
0.11811023622
 49
0.07874015748
 49
-0.03937007874
  0
ENDTAB
  0
TABLE
  2
LAYER
 70
     9
  0
LAYER
  2
0
 70
     0
 62
     7
  6
CONTINUOUS
  0
LAYER
  2
7
 70
     0
 62
     4
  6
CENTER2
  0
LAYER
  2
10
 70
     0
 62
     2
  6
CONTINUOUS
  0
LAYER
  2
DEFPOINTS
 70
     0
 62
     7
  6
CONTINUOUS
  0
LAYER
  2
AM_7
 70
     0
 62
     4
  6
CENTER2
  0
LAYER
  2
AM_0
 70
     0
 62
     7
  6
CONTINUOUS
  0
LAYER
  2
D002
 70
     0
 62
   152
  6
CONTINUOUS
  0
ENDTAB
  0
TABLE
  2
STYLE
 70
     8
  0
STYLE
  2
STANDARD
 70
     0
 40
0.0
 41
1.0
 50
0.0
 71
     0
 42
1.0
  3
ISOCP.SHX
  4
EXTFONT.SHX
  0
STYLE
  2
ACJISTS
 70
     0
 40
1.0
 41
1.0
 50
0.0
 71
     0
 42
3.5
  3
isocp.shx
  4
extfont.shx
  0
STYLE
  2
ACJISGDT
 70
     0
 40
0.0
 41
1.0
 50
0.0
 71
     0
 42
3.5
  3
amgdt.shx
  4
extfont.shx
  0
STYLE
  2
ACISOTS
 70
     0
 40
1.0
 41
1.0
 50
0.0
 71
     0
 42
1.0
  3
isocp.shx
  4
extfont.shx
  0
STYLE
  2
ACISOGDT
 70
     0
 40
0.0
 41
1.0
 50
0.0
 71
     0
 42
3.5
  3
amgdt.shx
  4
extfont.shx
  0
STYLE
  2

 70
     1
 40
0.0
 41
1.0
 50
0.0
 71
     0
 42
3.5
  3
ltypeshp.shx
  4

  0
STYLE
  2

 70
     1
 40
0.0
 41
1.0
 50
0.0
 71
     0
 42
4.0
  3
genltshp.shx
  4

  0
STYLE
  2
ACANSGDT
 70
     0
 40
0.0
 41
1.0
 50
0.0
 71
     0
 42
4.0
  3
amgdt.shx
  4

  0
ENDTAB
  0
TABLE
  2
VIEW
 70
     3
  0
VIEW
  2
AMDTVIEW1
 70
     0
 40
329.0721649484536
 10
210.0
 20
164.5360824742268
 41
420.0
 11
0.0
 21
0.0
 31
1.0
 12
0.0
 22
0.0
 32
0.0
 42
50.0
 43
0.0
 44
0.0
 50
0.0
 71
     0
  0
VIEW
  2
AMDTVIEW2
 70
     0
 40
329.0721649484536
 10
210.0
 20
164.5360824742268
 41
420.0
 11
0.0
 21
0.0
 31
1.0
 12
0.0
 22
0.0
 32
0.0
 42
50.0
 43
0.0
 44
0.0
 50
0.0
 71
     0
  0
VIEW
  2
AMDTVIEW3
 70
     0
 40
329.0721649484536
 10
210.0
 20
164.5360824742268
 41
420.0
 11
0.0
 21
0.0
 31
1.0
 12
0.0
 22
0.0
 32
0.0
 42
50.0
 43
0.0
 44
0.0
 50
0.0
 71
     0
  0
ENDTAB
  0
TABLE
  2
UCS
 70
     0
  0
ENDTAB
  0
TABLE
  2
APPID
 70
    66
  0
APPID
  2
ACAD
 70
     0
  0
APPID
  2
AD_DRAW
 70
     0
  0
APPID
  2
DESIGNERASSEMBLIES
 70
     0
  0
APPID
  2
MCAD_NO_VIS
 70
     0
  0
APPID
  2
ASURF_PCURVE_APPNAME
 70
     0
  0
APPID
  2
ACAD_TEMP_GRAPHIC
 70
     0
  0
APPID
  2
ACATTRIBSERVICES
 70
     0
  0
APPID
  2
ACADM_DIM_EDIT
 70
     0
  0
APPID
  2
GENIUS_GENDIM_13
 70
     0
  0
APPID
  2
GENIUS_GENDTOL_13
 70
     0
  0
APPID
  2
GENIUS_GE3DTOL_13
 70
     0
  0
APPID
  2
AMG_3D2D_5_0
 70
     0
  0
APPID
  2
AMDT_DM_ADJ
 70
     0
  0
APPID
  2
ACAD_PSEXT
 70
     0
  0
APPID
  2
ACAD_DSTYLE_DIMTEXT_FILL
 70
     0
  0
APPID
  2
ACAECLAYERSTANDARD
 70
     0
  0
APPID
  2
GENIUS_GENREC_14
 70
     0
  0
APPID
  2
GENIUS_GENODEF_13
 70
     0
  0
APPID
  2
GENIUS_GENOBJ-N-REC_13
 70
     0
  0
APPID
  2
DCO15
 70
     0
  0
APPID
  2
ACAD_DSTYLE_DIMJAG
 70
     0
  0
APPID
  2
ACAD_DSTYLE_DIMTALN
 70
     0
  0
APPID
  2
ACAD_MLEADERVER
 70
     0
  0
APPID
  2
GENIUS_GENSCREG_15
 70
     0
  0
APPID
  2
GENIUS_GENOBJ-N-SDF_13
 70
     0
  0
APPID
  2
ACAD_NAV_VCDISPLAY
 70
     0
  0
APPID
  2
ACAD_EXEMPT_FROM_CAD_STAND
 70
     0
  0
APPID
  2
ACCMTRANSPARENCY
 70
     0
  0
APPID
  2
GENIUS_GENOBJ-N-FIL_13
 70
     0
  0
APPID
  2
ACAD_DSTYLE_DIMINSPECT
 70
     0
  0
APPID
  2
GENIUS_GENOBJ-N-CEN_13
 70
     0
  0
APPID
  2
GENIUS_GENCEN_19
 70
     0
  0
APPID
  2
ACAD_DSTYLE_DIMBREAK
 70
     0
  0
APPID
  2
PLOTTRANSPARENCY
 70
     0
  0
APPID
  2
GENIUS_GENOLIS_13
 70
     0
  0
APPID
  2
GENIUS_GENOENT_13
 70
     0
  0
APPID
  2
GENIUS_GENOBJ-N-CRS_13
 70
     0
  0
APPID
  2
GENIUS_GENOREF_13
 70
     0
  0
APPID
  2
HC_SUPERPART
 70
     0
  0
APPID
  2
HC_SP4BLOCK
 70
     0
  0
APPID
  2
HC_XDATA_SPRING
 70
     0
  0
APPID
  2
HCCAD_FRAME
 70
     0
  0
APPID
  2
GENIUS_GENOBJ-N-TIT_13
 70
     0
  0
APPID
  2
GENIUS_GENOBJ-N-ZOO_13
 70
     0
  0
APPID
  2
GENIUS_GENTITLE_13
 70
     0
  0
APPID
  2
GENIUS_GENSYMENT_13
 70
     0
  0
APPID
  2
GENIUS_GENSCSYM_13
 70
     0
  0
APPID
  2
GENIUS_GENOBJ-N-REV_13
 70
     0
  0
APPID
  2
GENIUS_GENOBJ-N-RSSYM_13
 70
     0
  0
APPID
  2
GENIUS_GENREV_15
 70
     0
  0
APPID
  2
HRA
 70
     0
  0
APPID
  2
HTIT
 70
     0
  0
APPID
  2
GENIUS_GENZOO_17
 70
     0
  0
APPID
  2
GENIUS_GENCRS_20
 70
     0
  0
APPID
  2
GENIUS_GENOBJ-N-CRC_13
 70
     0
  0
APPID
  2
GENIUS_GENCRC_14
 70
     0
  0
APPID
  2
GENIUS_GENFIL_13
 70
     0
  0
APPID
  2
GENIUS_GENOBJ-N-CHA_13
 70
     0
  0
APPID
  2
GENIUS_GENHATCH_13
 70
     0
  0
APPID
  2
GENIUS_GENOBJ-N-HTC_13
 70
     0
  0
APPID
  2
GENIUS_GENOBJ-N-DIM_13
 70
     0
  0
APPID
  2
GENIUS_GENOBJ-N-DIMLI_13
 70
     0
  0
APPID
  2
GENIUS_GENOBJ-N-FITL_13
 70
     0
  0
APPID
  2
GENIUS_GENFITL_13
 70
     0
  0
APPID
  2
GENLAYCOLOR
 70
     0
  0
APPID
  2
ACADANNOTATIVE
 70
     0
  0
ENDTAB
  0
TABLE
  2
DIMSTYLE
 70
    23
  0
DIMSTYLE
  2
STANDARD
 70
     0
  3

  4

  5

  6

  7

 40
1.0
 41
2.5
 42
0.625
 43
3.75
 44
1.25
 45
0.0
 46
0.0
 47
0.0
 48
0.0
140
2.5
141
2.5
142
0.0
143
0.0394
144
1.0
145
0.0
146
1.0
147
0.625
 71
     0
 72
     0
 73
     0
 74
     0
 75
     0
 76
     0
 77
     1
 78
     8
170
     0
171
     4
172
     1
173
     0
174
     0
175
     0
176
     0
177
     0
178
     0
  0
DIMSTYLE
  2
AM_JIS
 70
     0
  3

  4
"
  5
OPEN
  6

  7

 40
1.0
 41
2.5
 42
1.0
 43
7.0
 44
1.0
 45
0.0
 46
0.0
 47
0.1
 48
0.1
140
3.0
141
0.0
142
0.0
143
0.0393701
144
1.0
145
0.0
146
0.71
147
1.0
 71
     0
 72
     0
 73
     0
 74
     0
 75
     0
 76
     0
 77
     3
 78
     8
170
     0
171
     2
172
     1
173
     0
174
     0
175
     0
176
   256
177
   256
178
     2
  0
DIMSTYLE
  2
AM_JIS$3
 70
     0
  3

  4
"
  5
OPEN
  6

  7

 40
1.0
 41
2.5
 42
1.0
 43
10.0
 44
1.0
 45
0.0
 46
0.0
 47
0.1
 48
0.1
140
3.0
141
0.0
142
0.0
143
0.0393701
144
1.0
145
0.0
146
0.71
147
1.0
 71
     0
 72
     0
 73
     0
 74
     0
 75
     0
 76
     0
 77
     3
 78
     8
170
     0
171
     2
172
     1
173
     0
174
     0
175
     0
176
   256
177
   256
178
     2
  0
DIMSTYLE
  2
AM_JIS$4
 70
     0
  3

  4
"
  5

  6
OPEN30
  7
OPEN
 40
1.0
 41
2.5
 42
1.0
 43
10.0
 44
1.0
 45
0.0
 46
0.0
 47
0.1
 48
0.1
140
3.0
141
0.0
142
0.0
143
0.0393701
144
1.0
145
0.0
146
0.71
147
1.0
 71
     0
 72
     0
 73
     0
 74
     0
 75
     0
 76
     0
 77
     3
 78
     8
170
     0
171
     2
172
     1
173
     1
174
     0
175
     0
176
   256
177
   256
178
     2
  0
DIMSTYLE
  2
AM_JIS$6
 70
     0
  3

  4
"
  5
OPEN30
  6
OPEN30
  7
OPEN30
 40
1.0
 41
2.5
 42
1.0
 43
10.0
 44
1.0
 45
0.0
 46
0.0
 47
0.1
 48
0.1
140
3.5
141
0.0
142
0.0
143
0.0393701
144
1.0
145
0.0
146
0.71
147
1.5
 71
     0
 72
     0
 73
     0
 74
     0
 75
     0
 76
     0
 77
     0
 78
     8
170
     0
171
     2
172
     1
173
     0
174
     0
175
     0
176
   256
177
   256
178
     2
  0
DIMSTYLE
  2
AM_JIS$7
 70
     0
  3

  4
"
  5
OPEN30
  6

  7

 40
1.0
 41
2.5
 42
1.0
 43
10.0
 44
1.0
 45
0.0
 46
0.0
 47
0.1
 48
0.1
140
3.0
141
0.0
142
0.0
143
0.0393701
144
1.0
145
0.0
146
0.71
147
1.0
 71
     0
 72
     0
 73
     0
 74
     0
 75
     0
 76
     0
 77
     3
 78
     8
170
     0
171
     2
172
     1
173
     0
174
     0
175
     0
176
   256
177
   256
178
     2
  0
DIMSTYLE
  2
AM_JIS$SF
 70
     0
  3

  4
"
  5
OPEN
  6

  7

 40
1.0
 41
2.5
 42
1.0
 43
7.0
 44
1.0
 45
0.0
 46
0.0
 47
0.1
 48
0.1
140
3.5
141
0.0
142
0.0
143
0.0393701
144
1.0
145
0.0
146
0.71
147
1.5
 71
     0
 72
     0
 73
     0
 74
     0
 75
     1
 76
     1
 77
     3
 78
     8
170
     0
171
     2
172
     1
173
     0
174
     0
175
     0
176
   256
177
   256
178
     2
  0
DIMSTYLE
  2
AM_JIS$SH
 70
     0
  3

  4
"
  5

  6
GENAXEH
  7
OPEN
 40
1.0
 41
2.5
 42
1.0
 43
7.0
 44
1.0
 45
0.0
 46
0.0
 47
0.1
 48
0.1
140
3.5
141
0.0
142
0.0
143
0.0393701
144
2.0
145
0.0
146
0.71
147
1.5
 71
     0
 72
     0
 73
     0
 74
     0
 75
     1
 76
     1
 77
     3
 78
     8
170
     0
171
     2
172
     1
173
     1
174
     0
175
     0
176
   256
177
   256
178
     2
  0
DIMSTYLE
  2
AM_ISO
 70
     0
  3

  4
"
  5

  6

  7

 40
1.0
 41
2.5
 42
1.0
 43
10.0
 44
1.0
 45
0.0
 46
0.0
 47
0.1
 48
0.1
140
3.5
141
0.0
142
0.0
143
0.0393701
144
1.0
145
0.0
146
0.71
147
1.5
 71
     0
 72
     0
 73
     0
 74
     0
 75
     0
 76
     0
 77
     1
 78
     8
170
     0
171
     2
172
     1
173
     0
174
     0
175
     0
176
   256
177
   256
178
     2
  0
DIMSTYLE
  2
AM_ISO$3
 70
     0
  3

  4
"
  5

  6

  7

 40
1.0
 41
2.5
 42
1.0
 43
10.0
 44
1.0
 45
0.0
 46
0.0
 47
0.1
 48
0.1
140
3.5
141
0.0
142
0.0
143
0.0393701
144
1.0
145
0.0
146
0.71
147
1.5
 71
     0
 72
     0
 73
     0
 74
     1
 75
     0
 76
     0
 77
     1
 78
     8
170
     0
171
     2
172
     0
173
     0
174
     0
175
     0
176
   256
177
   256
178
     2
  0
DIMSTYLE
  2
AM_ISO$4
 70
     0
  3

  4
"
  5

  6

  7

 40
1.0
 41
2.5
 42
1.0
 43
10.0
 44
1.0
 45
0.0
 46
0.0
 47
0.1
 48
0.1
140
3.5
141
0.0
142
0.0
143
0.0393701
144
1.0
145
0.0
146
0.71
147
1.5
 71
     0
 72
     0
 73
     0
 74
     1
 75
     0
 76
     0
 77
     1
 78
     8
170
     0
171
     2
172
     0
173
     0
174
     0
175
     0
176
   256
177
   256
178
     2
  0
DIMSTYLE
  2
AM_ISO$6
 70
     0
  3

  4
"
  5

  6

  7

 40
1.0
 41
2.5
 42
1.0
 43
10.0
 44
1.0
 45
0.0
 46
0.0
 47
0.1
 48
0.1
140
3.5
141
0.0
142
0.0
143
0.0393701
144
1.0
145
0.0
146
0.71
147
1.5
 71
     0
 72
     0
 73
     0
 74
     0
 75
     0
 76
     0
 77
     0
 78
     8
170
     0
171
     2
172
     1
173
     0
174
     0
175
     0
176
   256
177
   256
178
     2
  0
DIMSTYLE
  2
AM_ISO$7
 70
     0
  3

  4
"
  5

  6

  7

 40
1.0
 41
2.5
 42
1.0
 43
10.0
 44
1.0
 45
0.0
 46
0.0
 47
0.1
 48
0.1
140
5.0
141
0.0
142
0.0
143
0.0393701
144
1.0
145
0.0
146
0.71
147
1.5
 71
     0
 72
     0
 73
     0
 74
     0
 75
     0
 76
     0
 77
     1
 78
     8
170
     0
171
     2
172
     1
173
     0
174
     0
175
     0
176
   256
177
   256
178
     2
  0
DIMSTYLE
  2
AM_ISO$SF
 70
     0
  3

  4
"
  5

  6

  7

 40
1.0
 41
2.5
 42
1.0
 43
10.0
 44
1.0
 45
0.0
 46
0.0
 47
0.1
 48
0.1
140
3.5
141
0.0
142
0.0
143
0.0393701
144
1.0
145
0.0
146
0.71
147
1.5
 71
     0
 72
     0
 73
     0
 74
     0
 75
     1
 76
     1
 77
     1
 78
     8
170
     0
171
     2
172
     1
173
     0
174
     0
175
     0
176
   256
177
   256
178
     2
  0
DIMSTYLE
  2
AM_ISO$SH
 70
     0
  3

  4
"
  5

  6
GENAXEH
  7

 40
1.0
 41
2.5
 42
1.0
 43
10.0
 44
1.0
 45
0.0
 46
0.0
 47
0.1
 48
0.1
140
3.5
141
0.0
142
0.0
143
0.0393701
144
2.0
145
0.0
146
0.71
147
1.5
 71
     0
 72
     0
 73
     0
 74
     0
 75
     1
 76
     1
 77
     1
 78
     8
170
     0
171
     2
172
     1
173
     1
174
     0
175
     0
176
   256
177
   256
178
     2
  0
DIMSTYLE
  2
AM_JIS$2
 70
     0
  3

  4
"
  5
OPEN
  6

  7

 40
1.0
 41
2.5
 42
1.0
 43
7.0
 44
1.0
 45
0.0
 46
0.0
 47
0.1
 48
0.1
140
3.0
141
0.0
142
0.0
143
0.0393701
144
1.0
145
0.0
146
0.71
147
1.0
 71
     0
 72
     0
 73
     0
 74
     0
 75
     0
 76
     0
 77
     3
 78
     8
170
     0
171
     2
172
     1
173
     0
174
     0
175
     0
176
   256
177
   256
178
     2
  0
DIMSTYLE
  2
AM_JIS$0
 70
     0
  3

  4
"
  5
OPEN
  6

  7

 40
1.0
 41
2.5
 42
1.0
 43
7.0
 44
1.0
 45
0.0
 46
0.0
 47
0.1
 48
0.1
140
3.0
141
0.0
142
0.0
143
0.0393701
144
1.0
145
0.0
146
0.71
147
1.0
 71
     0
 72
     0
 73
     0
 74
     0
 75
     0
 76
     0
 77
     3
 78
     8
170
     0
171
     2
172
     1
173
     0
174
     0
175
     0
176
   256
177
   256
178
     2
  0
DIMSTYLE
  2
AM_ANSI
 70
     0
  3

  4
mm
  5

  6

  7

 40
1.0
 41
0.12
 42
0.05
 43
0.5
 44
0.1
 45
0.0
 46
0.0
 47
0.1
 48
0.1
140
0.12
141
0.0
142
0.0
143
25.4
144
1.0
145
0.0
146
0.71
147
0.06
 71
     0
 72
     0
 73
     1
 74
     1
 75
     0
 76
     0
 77
     0
 78
     7
170
     0
171
     2
172
     0
173
     0
174
     0
175
     0
176
   256
177
   256
178
     2
  0
DIMSTYLE
  2
AM_ANSI$3
 70
     0
  3

  4
mm
  5

  6

  7

 40
1.0
 41
0.12
 42
0.05
 43
0.5
 44
0.1
 45
0.0
 46
0.0
 47
0.1
 48
0.1
140
0.12
141
0.0
142
0.0
143
25.4
144
1.0
145
0.0
146
0.71
147
0.06
 71
     0
 72
     0
 73
     1
 74
     1
 75
     0
 76
     0
 77
     0
 78
     7
170
     0
171
     2
172
     0
173
     0
174
     0
175
     0
176
   256
177
   256
178
     2
  0
DIMSTYLE
  2
AM_ANSI$4
 70
     0
  3

  4
mm
  5

  6

  7

 40
1.0
 41
0.12
 42
0.05
 43
0.5
 44
0.1
 45
0.0
 46
0.0
 47
0.1
 48
0.1
140
0.12
141
0.0
142
0.0
143
25.4
144
1.0
145
0.0
146
0.71
147
0.06
 71
     0
 72
     0
 73
     1
 74
     1
 75
     0
 76
     0
 77
     0
 78
     7
170
     0
171
     2
172
     0
173
     0
174
     0
175
     0
176
   256
177
   256
178
     2
  0
DIMSTYLE
  2
AM_ANSI$7
 70
     0
  3

  4
mm
  5

  6

  7

 40
1.0
 41
0.12
 42
0.05
 43
0.5
 44
0.1
 45
0.0
 46
0.0
 47
0.1
 48
0.1
140
0.12
141
0.0
142
0.0
143
25.4
144
1.0
145
0.0
146
0.71
147
0.06
 71
     0
 72
     0
 73
     1
 74
     1
 75
     0
 76
     0
 77
     0
 78
     7
170
     0
171
     2
172
     0
173
     0
174
     0
175
     0
176
   256
177
   256
178
     2
  0
DIMSTYLE
  2
AM_ANSI$SF
 70
     0
  3

  4
mm
  5

  6

  7

 40
1.0
 41
0.12
 42
0.05
 43
0.5
 44
0.1
 45
0.0
 46
0.0
 47
0.1
 48
0.1
140
0.12
141
0.0
142
0.0
143
25.4
144
1.0
145
0.0
146
0.71
147
0.06
 71
     0
 72
     0
 73
     1
 74
     1
 75
     1
 76
     1
 77
     0
 78
     7
170
     0
171
     2
172
     0
173
     0
174
     0
175
     0
176
   256
177
   256
178
     2
  0
DIMSTYLE
  2
AM_ANSI$SH
 70
     0
  3

  4
mm
  5

  6
GENAXEH
  7

 40
1.0
 41
0.12
 42
0.05
 43
0.5
 44
0.1
 45
0.0
 46
0.0
 47
0.1
 48
0.1
140
0.12
141
0.0
142
0.0
143
25.4
144
1.0
145
0.0
146
0.71
147
0.06
 71
     0
 72
     0
 73
     1
 74
     1
 75
     1
 76
     1
 77
     0
 78
     7
170
     0
171
     2
172
     0
173
     1
174
     0
175
     0
176
   256
177
   256
178
     2
  0
ENDTAB
  0
ENDSEC
  0
SECTION
  2
BLOCKS
  0
BLOCK
  8
0
  2
$MODEL_SPACE
 70
     0
 10
0.0
 20
0.0
 30
0.0
  3
$MODEL_SPACE
  1

  0
ENDBLK
  5
1C
  8
0
  0
BLOCK
 67
     1
  8
0
  2
$PAPER_SPACE
 70
     0
 10
0.0
 20
0.0
 30
0.0
  3
$PAPER_SPACE
  1

  0
ENDBLK
  5
19
 67
     1
  8
0
  0
BLOCK
  8
0
  2
_OPEN30
 70
     0
 10
0.0
 20
0.0
 30
0.0
  3
_OPEN30
  1

  0
LINE
  5
2EF
  8
0
  6
BYBLOCK
 62
     0
 10
-1.0
 20
0.26794919
 30
0.0
 11
0.0
 21
0.0
 31
0.0
  0
LINE
  5
2F0
  8
0
  6
BYBLOCK
 62
     0
 10
0.0
 20
0.0
 30
0.0
 11
-1.0
 21
-0.26794919
 31
0.0
  0
LINE
  5
2F1
  8
0
  6
BYBLOCK
 62
     0
 10
0.0
 20
0.0
 30
0.0
 11
-1.0
 21
0.0
 31
0.0
  0
ENDBLK
  5
2F3
  8
0
  0
BLOCK
  8
0
  2
GENAXEH
 70
     0
 10
0.0
 20
0.0
 30
0.0
  3
GENAXEH
  1

  0
LINE
  5
2F5
  8
0
 10
-1.0
 20
0.0
 30
0.0
 11
1.0
 21
0.0
 31
0.0
  0
ENDBLK
  5
2F7
  8
0
  0
BLOCK
  8
0
  2
_OPEN
 70
     0
 10
0.0
 20
0.0
 30
0.0
  3
_OPEN
  1

  0
LINE
  5
597
  8
0
  6
BYBLOCK
 62
     0
 10
-1.0
 20
0.1666666666666667
 30
0.0
 11
0.0
 21
0.0
 31
0.0
  0
LINE
  5
598
  8
0
  6
BYBLOCK
 62
     0
 10
-1.0
 20
-0.1666666666666667
 30
0.0
 11
0.0
 21
0.0
 31
0.0
  0
LINE
  5
599
  8
0
  6
BYBLOCK
 62
     0
 10
0.0
 20
0.0
 30
0.0
 11
-1.0
 21
0.0
 31
0.0
  0
ENDBLK
  5
59B
  8
0
  0
BLOCK
  8
0
  2
_TAGCIRCLE
 70
     2
 10
0.0
 20
0.0
 30
0.0
  3
_TAGCIRCLE
  1

  0
CIRCLE
  5
1151
  8
0
  6
BYBLOCK
 62
     0
 10
0.0
 20
0.0
 30
0.0
 40
4.0
  0
ATTDEF
  5
1152
  8
0
 62
     0
 10
-7.1
 20
-1.5
 30
0.0
 40
3.0
  1
タグ番号
 72
     1
 11
0.0
 21
-1.5
 31
0.0
  3
タグ番号を入力
  2
タグ番号
 70
     0
  0
ENDBLK
  5
1154
  8
0
  0
BLOCK
  8
0
  2
_ACMFILLED15
 70
     0
 10
0.0
 20
0.0
 30
0.0
  3
_ACMFILLED15
  1
Acad:XRef
  0
TRACE
  5
9B6B
  8
AM_0
 62
     0
 10
-1.0
 20
0.1316524975873958
 30
0.0
 11
-1.0
 21
-0.1316524975873958
 31
0.0
 12
0.0
 22
0.0
 32
0.0
 13
0.0
 23
0.0
 33
0.0
  0
ENDBLK
  5
9B69
  8
0
  0
BLOCK
  8
0
  2
_ACMOPEN30
 70
     0
 10
0.0
 20
0.0
 30
0.0
  3
_ACMOPEN30
  1
Acad:XRef
  0
LINE
  5
9B75
  8
AM_0
 62
     0
 10
-1.0
 20
0.0
 30
0.0
 11
0.0
 21
0.0
 31
0.0
  0
LINE
  5
9B76
  8
AM_0
 62
     0
 10
-1.0
 20
-0.2679491924311227
 30
0.0
 11
0.0
 21
0.0
 31
0.0
  0
LINE
  5
9B77
  8
AM_0
 62
     0
 10
-1.0
 20
0.2679491924311227
 30
0.0
 11
0.0
 21
0.0
 31
0.0
  0
ENDBLK
  5
9B74
  8
0
  0
BLOCK
  8
0
  2
_ACMFILLEDHALF
 70
     0
 10
0.0
 20
0.0
 30
0.0
  3
_ACMFILLEDHALF
  1

  0
TRACE
  5
9B80
  8
0
 62
     0
 10
-0.8
 20
0.0
 30
0.0
 11
-1.0
 21
0.166666666
 31
0.0
 12
0.0
 22
0.0
 32
0.0
 13
0.0
 23
0.0
 33
0.0
  0
LINE
  5
9B81
  8
0
 62
     0
 10
-1.0
 20
0.0
 30
0.0
 11
-0.8
 21
0.0
 31
0.0
  0
ENDBLK
  5
9B82
  8
0
  0
BLOCK
  8
0
  2
_ACMOPEN15
 70
     0
 10
0.0
 20
0.0
 30
0.0
  3
_ACMOPEN15
  1
Acad:XRef
  0
LINE
  5
9B8F
  8
AM_0
 62
     0
 10
-1.0
 20
0.0
 30
0.0
 11
0.0
 21
0.0
 31
0.0
  0
LINE
  5
9B90
  8
AM_0
 62
     0
 10
-1.0
 20
-0.1316524975873958
 30
0.0
 11
0.0
 21
0.0
 31
0.0
  0
LINE
  5
9B91
  8
AM_0
 62
     0
 10
-1.0
 20
0.1316524975873958
 30
0.0
 11
0.0
 21
0.0
 31
0.0
  0
ENDBLK
  5
9B8E
  8
0
  0
BLOCK
  8
0
  2
*X14
 70
     1
 10
0.0
 20
0.0
 30
0.0
  3
*X14
  1
Acad:XRef
  0
TEXT
  5
BE89
  8
0
 10
70.85712513305619
 20
206.6384410295257
 30
0.0
 40
1.9
  1
凍結
  0
TEXT
  5
BE8A
  8
0
 10
70.84302494752743
 20
203.3143222911212
 30
0.0
 40
1.9
  1
予防
  0
ENDBLK
  5
BE8F
  8
0
  0
BLOCK
  8
0
  2
*X15
 70
     1
 10
0.0
 20
0.0
 30
0.0
  3
*X15
  1
Acad:XRef
  0
TEXT
  5
BE8C
  8
0
 10
70.85712513305619
 20
226.638441029526
 30
0.0
 40
1.9
  1
凍結
  0
TEXT
  5
BE8D
  8
0
 10
70.84302494752743
 20
223.3143222911216
 30
0.0
 40
1.9
  1
予防
  0
ENDBLK
  5
BE91
  8
0
  0
ENDSEC
  0
SECTION
  2
ENTITIES
  0
TEXT
  5
320C
  8
10
 10
0.0
 20
0.0
 30
0.0
 40
10.0
  1
2024.02.01 ER2000-2 2台単独 露出型
 11
0.0
 21
0.0
 31
0.0
 73
     1
  0
LINE
  5
5D9F
  8
0
 10
27.02185421979584
 20
289.8911311965019
 30
0.0
 11
127.0218542197958
 21
289.8911311965016
 31
0.0
  0
LINE
  5
5DA0
  8
0
 10
27.02185421979584
 20
169.8911311965018
 30
0.0
 11
127.0218542197958
 21
169.8911311965018
 31
0.0
  0
ARC
  5
5DA1
  8
0
 10
27.02185421979584
 20
281.8911311965019
 30
0.0
 40
8.0
 50
90.0
 51
180.0
  0
LINE
  5
5DA2
  8
0
 10
22.77921353267652
 20
286.133771883621
 30
0.0
 11
31.02185421979584
 21
277.8911311965019
 31
0.0
  0
LINE
  5
5DA3
  8
0
 10
33.02185421979584
 20
181.8911311965017
 30
0.0
 11
121.0218542197958
 21
181.8911311965019
 31
0.0
  0
LINE
  5
5DA4
  8
0
 10
33.02185421979584
 20
277.8911311965019
 30
0.0
 11
121.0218542197958
 21
277.8911311965018
 31
0.0
  0
LINE
  5
5DA7
  8
0
 10
31.02185421979584
 20
275.8911311965019
 30
0.0
 11
31.02185421979584
 21
183.8911311965018
 31
0.0
  0
LINE
  5
5DA9
  8
0
 10
19.02185421979584
 20
281.8911311965019
 30
0.0
 11
19.02185421979584
 21
177.8911311965018
 31
0.0
  0
LINE
  5
5DAA
  8
0
 10
22.77921353267675
 20
173.6484905093824
 30
0.0
 11
31.02185421979584
 21
181.8911311965018
 31
0.0
  0
ARC
  5
5DAB
  8
0
 10
27.02185421979584
 20
177.8911311965018
 30
0.0
 40
8.0
 50
180.0
 51
270.0
  0
LINE
  5
5DAD
  8
0
 10
180.4776219758821
 20
280.4759166207317
 30
0.0
 11
181.7735080301627
 21
287.8252516406691
 31
0.0
  0
LINE
  5
5DAE
  8
0
 10
185.5218545662483
 20
169.891131196502
 30
0.0
 11
185.5218545662483
 21
289.891131196502
 31
0.0
  0
ARC
  5
5DAF
  8
0
 10
127.0218542197958
 20
281.8911311965016
 30
0.0
 40
8.0
 50
0.0
 51
90.0
  0
LINE
  5
5DB0
  8
0
 10
131.2644949069152
 20
286.133771883621
 30
0.0
 11
123.0218542197958
 21
277.8911311965016
 31
0.0
  0
LINE
  5
5DB1
  8
0
 10
180.0218545662483
 20
184.5157911022795
 30
0.0
 11
180.0218545662483
 21
275.2664712907239
 31
0.0
  0
LINE
  5
5DB2
  8
0
 10
123.0218542197958
 20
275.8911311965018
 30
0.0
 11
123.0218542197958
 21
183.8911311965019
 31
0.0
  0
LINE
  5
5DB3
  8
0
 10
135.0218542197958
 20
281.8911311965016
 30
0.0
 11
135.0218542197958
 21
177.8911311965018
 31
0.0
  0
LINE
  5
5DB4
  8
0
 10
123.0218542197958
 20
181.8911311965019
 30
0.0
 11
131.2644949069152
 21
173.6484905093823
 31
0.0
  0
ARC
  5
5DB5
  8
0
 10
127.0218542197958
 20
177.8911311965018
 30
0.0
 40
8.0
 50
270.0
 51
0.0
  0
LINE
  5
5DB6
  8
0
 10
180.4776219758821
 20
179.3063457722717
 30
0.0
 11
181.7735080301626
 21
171.9570107523348
 31
0.0
  0
ARC
  5
5DB7
  8
0
 10
184.2355274126932
 20
172.3911311965021
 30
0.0
 40
2.5
 50
190.0000000000002
 51
270.0
  0
LINE
  5
5DB8
  8
0
 10
185.5218545662483
 20
169.8911311965021
 30
0.0
 11
184.235527412693
 21
169.8911311965021
 31
0.0
  0
ARC
  5
5DB9
  8
0
 10
210.0218545662483
 20
184.5157911022795
 30
0.0
 40
30.0
 50
180.0
 51
190.0000000000002
  0
ARC
  5
5DC3
  8
0
 10
210.0218545662483
 20
275.2664712907239
 30
0.0
 40
30.0
 50
169.9999999999998
 51
180.0
  0
ARC
  5
5DCA
  8
0
 10
184.2355274126933
 20
287.3911311965018
 30
0.0
 40
2.5
 50
90.0
 51
170.0000000000002
  0
LINE
  5
5DCB
  8
0
 10
185.5218545662417
 20
289.891131196502
 30
0.0
 11
184.2355274126865
 21
289.891131196502
 31
0.0
  0
ARC
  5
5DCC
  8
0
 10
177.3218545662478
 20
259.691131196502
 30
0.0
 40
1.0
 50
90.0
 51
180.0
  0
LINE
  5
5DCD
  8
0
 10
177.3218545662478
 20
260.691131196502
 30
0.0
 11
180.0218545662478
 21
260.691131196502
 31
0.0
  0
LINE
  5
5DCE
  8
0
 10
177.3218545662478
 20
253.691131196502
 30
0.0
 11
180.0218545662478
 21
253.691131196502
 31
0.0
  0
LINE
  5
5DCF
  8
0
 10
176.3218545662478
 20
259.691131196502
 30
0.0
 11
176.3218545662478
 21
254.691131196502
 31
0.0
  0
ARC
  5
5DD0
  8
0
 10
177.3218545662478
 20
254.691131196502
 30
0.0
 40
1.0
 50
180.0
 51
270.0
  0
LINE
  5
5DEF
  8
0
 10
127.0218549648539
 20
144.5475003604925
 30
0.0
 11
27.02185347473784
 21
144.5475003604925
 31
0.0
  0
LINE
  5
5DF0
  8
0
 10
127.0218549648539
 20
140.5475005197487
 30
0.0
 11
27.02185347473784
 21
140.5475005197487
 31
0.0
  0
LINE
  5
5DF1
  8
0
 10
19.02185588872595
 20
140.5475005197487
 30
0.0
 11
19.02185588872595
 21
144.5475003604925
 31
0.0
  0
LINE
  5
5DF2
  8
0
 10
27.02185347473784
 20
144.5475003604925
 30
0.0
 11
19.02185588872595
 21
144.5475003604925
 31
0.0
  0
LINE
  5
5DF3
  8
0
 10
27.02185347473784
 20
140.5475005197487
 30
0.0
 11
19.02185588872595
 21
140.5475005197487
 31
0.0
  0
LINE
  5
5DF4
  8
0
 10
135.0218525508658
 20
140.5475005197487
 30
0.0
 11
135.0218525508658
 21
144.5475003604925
 31
0.0
  0
LINE
  5
5DF5
  8
0
 10
135.0218525508658
 20
144.5475003604925
 30
0.0
 11
127.0218549648539
 21
144.5475003604925
 31
0.0
  0
LINE
  5
5DF6
  8
0
 10
135.0218525508658
 20
140.5475005197487
 30
0.0
 11
127.0218549648539
 21
140.5475005197487
 31
0.0
  0
LINE
  5
5DF7
  8
0
 10
20.12185588276549
 20
144.5475003604925
 30
0.0
 11
20.12185588276549
 21
145.0475003604896
 31
0.0
  0
LINE
  5
5DF8
  8
0
 10
133.9218525568263
 20
144.5475003604925
 30
0.0
 11
133.9218525568263
 21
145.0475003604896
 31
0.0
  0
LINE
  5
5DF9
  8
0
 10
40.5218547562377
 20
150.5475002962312
 30
0.0
 11
113.521853683354
 21
150.5475002962312
 31
0.0
  0
LINE
  5
5E21
  8
0
 10
54.46668441794037
 20
153.7471330315954
 30
0.0
 11
53.4666844179406
 21
153.7471330315954
 31
0.0
  0
LINE
  5
5E22
  8
0
 10
55.4666844179406
 20
154.2471330315954
 30
0.0
 11
54.4666844179406
 21
154.2471330315954
 31
0.0
  0
LINE
  5
5E23
  8
0
 10
53.4666844179406
 20
154.2471330315954
 30
0.0
 11
52.4666844179406
 21
154.2471330315954
 31
0.0
  0
LINE
  5
5E24
  8
0
 10
53.4666844179406
 20
154.2471330315954
 30
0.0
 11
53.4666844179406
 21
153.7471330315954
 31
0.0
  0
LINE
  5
5E25
  8
0
 10
56.4666844179406
 20
154.2471330315954
 30
0.0
 11
56.4666844179406
 21
153.7471330315954
 31
0.0
  0
LINE
  5
5E26
  8
0
 10
54.4666844179406
 20
154.2471330315954
 30
0.0
 11
54.46668441794037
 21
153.7471330315954
 31
0.0
  0
LINE
  5
5E27
  8
0
 10
55.4666844179406
 20
154.2471330315954
 30
0.0
 11
55.4666844179406
 21
153.7471330315954
 31
0.0
  0
LINE
  5
5E28
  8
0
 10
56.4666844179406
 20
153.7471330315954
 30
0.0
 11
55.4666844179406
 21
153.7471330315954
 31
0.0
  0
LINE
  5
5E29
  8
0
 10
58.46668441794054
 20
150.5475002962312
 30
0.0
 11
58.46668441794031
 21
153.2471330315954
 31
0.0
  0
ARC
  5
5E2A
  8
0
 10
57.46668441794037
 20
153.2471330315954
 30
0.0
 40
1.0
 50
0.0
 51
90.0
  0
LINE
  5
5E2B
  8
0
 10
57.46668441794037
 20
154.2471330315954
 30
0.0
 11
56.4666844179406
 21
154.2471330315954
 31
0.0
  0
LINE
  5
5E2C
  8
0
 10
51.4666844179406
 20
150.5475002962312
 30
0.0
 11
51.4666844179406
 21
153.2471330315954
 31
0.0
  0
ARC
  5
5E2D
  8
0
 10
52.4666844179406
 20
153.2471330315954
 30
0.0
 40
1.0
 50
90.0
 51
180.0
  0
LINE
  5
84F2
  8
0
 10
135.0218542197956
 20
145.0475003604896
 30
0.0
 11
19.02185421979544
 21
145.0475003604896
 31
0.0
  0
ARC
  5
84F3
  8
0
 10
120.3971943140182
 20
120.5475003604896
 30
0.0
 40
30.0
 50
80.00000000000146
 51
90.0
  0
LINE
  5
84F4
  8
0
 10
120.3971943140182
 20
150.5475003604896
 30
0.0
 11
33.64651412557356
 21
150.5475003604896
 31
0.0
  0
ARC
  5
84F5
  8
0
 10
132.5218542197956
 20
146.3338275140448
 30
0.0
 40
2.5
 50
0.0
 51
80.00000000000146
  0
LINE
  5
84F6
  8
0
 10
135.0218542197956
 20
145.0475003604896
 30
0.0
 11
135.0218542197956
 21
146.3338275140448
 31
0.0
  0
LINE
  5
84F7
  8
0
 10
125.606639644026
 20
150.0917329508558
 30
0.0
 11
132.9559746639629
 21
148.7958468965753
 31
0.0
  0
ARC
  5
84F8
  8
0
 10
33.64651412557356
 20
120.5475003604896
 30
0.0
 40
30.0
 50
90.0
 51
99.99999999999855
  0
ARC
  5
84F9
  8
0
 10
21.52185421979567
 20
146.3338275140447
 30
0.0
 40
2.5
 50
99.99999999999855
 51
180.0
  0
LINE
  5
84FA
  8
0
 10
28.43706879556572
 20
150.0917329508558
 30
0.0
 11
21.08773377562835
 21
148.7958468965753
 31
0.0
  0
LINE
  5
84FB
  8
0
 10
19.02185421979544
 20
145.0475003604962
 30
0.0
 11
19.02185421979544
 21
146.3338275140514
 31
0.0
  0
LINE
  5
84FC
  8
0
 10
190.0218543427304
 20
290.0161291773955
 30
0.0
 11
186.0218545019866
 21
290.0161291773955
 31
0.0
  0
LINE
  5
84FD
  8
0
 10
186.0218545019866
 20
290.0161291773955
 30
0.0
 11
186.0218545019866
 21
282.0161315913836
 31
0.0
  0
LINE
  5
84FE
  8
0
 10
190.0218543427304
 20
290.0161291773955
 30
0.0
 11
190.0218543427304
 21
282.0161315913836
 31
0.0
  0
LINE
  5
84FF
  8
0
 10
186.0218545019866
 20
282.0161315913836
 30
0.0
 11
186.0218545019866
 21
178.0161294456164
 31
0.0
  0
LINE
  5
8500
  8
0
 10
190.0218543427304
 20
282.0161315913836
 30
0.0
 11
190.0218543427304
 21
178.0161294456164
 31
0.0
  0
LINE
  5
8501
  8
0
 10
190.0218543427304
 20
170.0161318596045
 30
0.0
 11
186.0218545019866
 21
170.0161318596045
 31
0.0
  0
LINE
  5
8502
  8
0
 10
186.0218545019866
 20
178.0161294456164
 30
0.0
 11
186.0218545019866
 21
170.0161318596045
 31
0.0
  0
LINE
  5
8503
  8
0
 10
190.0218543427304
 20
178.0161294456164
 30
0.0
 11
190.0218543427304
 21
170.0161318596045
 31
0.0
  0
LINE
  5
8505
  8
0
 10
186.0218545019866
 20
171.116131853644
 30
0.0
 11
185.5218545662483
 21
171.1161318536441
 31
0.0
  0
LINE
  5
8507
  8
0
 10
186.0218545019866
 20
288.916129183356
 30
0.0
 11
185.5218545662483
 21
288.916129183356
 31
0.0
  0
LINE
  5
8738
  8
0
 10
190.0218543427304
 20
290.0161305184999
 30
0.0
 11
190.0218543427304
 21
170.0161305185001
 31
0.0
  0
LINE
  5
8739
  8
0
 10
228.0218543427306
 20
290.6794229857722
 30
0.0
 11
228.0218543427303
 21
169.3528380512277
 31
0.0
  0
LINE
  5
873A
  8
0
 10
190.0218543427304
 20
170.0161305185001
 30
0.0
 11
228.0218543427303
 21
169.3528380512277
 31
0.0
  0
LINE
  5
873B
  8
0
 10
190.0218543427304
 20
290.0161305184999
 30
0.0
 11
228.0218543427306
 21
290.6794229857722
 31
0.0
  0
LINE
  5
87D3
  8
0
 10
27.02185421979584
 20
290.5544311965018
 30
0.0
 11
127.0218542197958
 21
290.5544311965016
 31
0.0
  0
ARC
  5
87D4
  8
0
 10
27.02185421979584
 20
281.8911311965018
 30
0.0
 40
8.6633
 50
90.0
 51
180.0
  0
LINE
  5
87D5
  8
0
 10
18.35855421979591
 20
281.8911311965018
 30
0.0
 11
18.35855421979591
 21
177.8911311965018
 31
0.0
  0
ARC
  5
87D6
  8
0
 10
27.02185421979584
 20
177.8911311965018
 30
0.0
 40
8.6633
 50
180.0
 51
270.0
  0
LINE
  5
87D7
  8
0
 10
27.02185421979584
 20
169.2278311965018
 30
0.0
 11
127.0218542197958
 21
169.2278311965018
 31
0.0
  0
ARC
  5
87D8
  8
0
 10
127.0218542197958
 20
177.8911311965018
 30
0.0
 40
8.6633
 50
270.0
 51
0.0
  0
LINE
  5
87D9
  8
0
 10
135.6851542197958
 20
281.8911311965016
 30
0.0
 11
135.6851542197958
 21
177.8911311965018
 31
0.0
  0
ARC
  5
87DA
  8
0
 10
127.0218542197958
 20
281.8911311965016
 30
0.0
 40
8.6633
 50
0.0
 51
90.0
  0
LINE
  5
87DB
  8
0
 10
135.0218542197961
 20
140.5475005197487
 30
0.0
 11
135.685146687068
 21
102.5475005197487
 31
0.0
  0
LINE
  5
87DC
  8
0
 10
19.02185421979578
 20
140.5475005197487
 30
0.0
 11
18.35856175252337
 21
102.5475005197487
 31
0.0
  0
ARC
  5
87DD
  8
0
 10
71.52185421979561
 20
106.5475005197487
 30
0.0
 40
4.0
 50
0.0
 51
90.0
  0
ARC
  5
87DE
  8
0
 10
71.52185421979561
 20
106.5475005197487
 30
0.0
 40
3.0
 50
0.0
 51
180.0
  0
LINE
  5
87DF
  8
0
 10
18.35856175252337
 20
102.5475005197487
 30
0.0
 11
135.685146687068
 21
102.5475005197487
 31
0.0
  0
LINE
  5
87E0
  8
0
 10
67.52185421979561
 20
102.5475005197487
 30
0.0
 11
67.52185421979561
 21
106.5475005197487
 31
0.0
  0
LINE
  5
87E1
  8
0
 10
68.52185421979561
 20
102.5475005197487
 30
0.0
 11
68.52185421979561
 21
106.5475005197487
 31
0.0
  0
LINE
  5
87E2
  8
0
 10
57.02185421979567
 20
102.5475005197487
 30
0.0
 11
57.02185421979567
 21
106.5475005197487
 31
0.0
  0
LINE
  5
87E3
  8
0
 10
58.02185421979561
 20
102.5475005197487
 30
0.0
 11
58.02185421979561
 21
106.5475005197487
 31
0.0
  0
LINE
  5
87E4
  8
0
 10
65.02185421979561
 20
106.5475005197487
 30
0.0
 11
65.02185421979561
 21
102.5475005197487
 31
0.0
  0
LINE
  5
87E5
  8
0
 10
64.02185421979561
 20
106.5475005197487
 30
0.0
 11
64.02185421979561
 21
102.5475005197487
 31
0.0
  0
ARC
  5
87E6
  8
0
 10
61.02185421979561
 20
106.5475005197487
 30
0.0
 40
4.0
 50
0.0
 51
48.59037789073106
  0
ARC
  5
87E7
  8
0
 10
61.02185421979561
 20
106.5475005197487
 30
0.0
 40
3.0
 50
0.0
 51
180.0
  0
LINE
  5
87E8
  8
0
 10
63.66760553086033
 20
109.5475005197487
 30
0.0
 11
68.87610290873113
 21
109.5475005197487
 31
0.0
  0
ARC
  5
87E9
  8
0
 10
71.52185421979561
 20
106.5475005197487
 30
0.0
 40
4.0
 50
131.409622109269
 51
180.0
  0
ARC
  5
87EA
  8
0
 10
61.02185421979561
 20
106.5475005197487
 30
0.0
 40
4.0
 50
90.0
 51
180.0
  0
LINE
  5
87EB
  8
0
 10
61.02185421979561
 20
110.5475005197487
 30
0.0
 11
71.52185421979561
 21
110.5475005197487
 31
0.0
  0
LINE
  5
87EC
  8
0
 10
96.02185421979561
 20
106.5475005197487
 30
0.0
 11
96.02185421979561
 21
102.5475005197487
 31
0.0
  0
LINE
  5
87ED
  8
0
 10
97.02185421979561
 20
106.5475005197487
 30
0.0
 11
97.02185421979561
 21
102.5475005197487
 31
0.0
  0
LINE
  5
87EE
  8
0
 10
90.02185421979561
 20
102.5475005197487
 30
0.0
 11
90.02185421979561
 21
106.5475005197487
 31
0.0
  0
LINE
  5
87EF
  8
0
 10
89.02185421979561
 20
102.5475005197487
 30
0.0
 11
89.02185421979561
 21
106.5475005197487
 31
0.0
  0
LINE
  5
87F0
  8
0
 10
75.52185421979561
 20
106.5475005197487
 30
0.0
 11
75.52185421979561
 21
102.5475005197487
 31
0.0
  0
LINE
  5
87F1
  8
0
 10
74.52185421979561
 20
106.5475005197487
 30
0.0
 11
74.52185421979561
 21
102.5475005197487
 31
0.0
  0
LINE
  5
87F2
  8
0
 10
78.52185421979561
 20
102.5475005197487
 30
0.0
 11
78.52185421979561
 21
106.5475005197487
 31
0.0
  0
LINE
  5
87F3
  8
0
 10
79.52185421979561
 20
102.5475005197487
 30
0.0
 11
79.52185421979561
 21
106.5475005197487
 31
0.0
  0
LINE
  5
87F4
  8
0
 10
86.52185421979561
 20
106.5475005197487
 30
0.0
 11
86.52185421979561
 21
102.5475005197487
 31
0.0
  0
LINE
  5
87F5
  8
0
 10
85.52185421979561
 20
106.5475005197487
 30
0.0
 11
85.52185421979561
 21
102.5475005197487
 31
0.0
  0
LINE
  5
87F6
  8
0
 10
82.52185421979561
 20
110.5475005197487
 30
0.0
 11
93.02185421979561
 21
110.5475005197487
 31
0.0
  0
ARC
  5
87F7
  8
0
 10
93.02185421979561
 20
106.5475005197487
 30
0.0
 40
4.0
 50
131.409622109269
 51
180.0
  0
LINE
  5
87F8
  8
0
 10
85.1676055308601
 20
109.5475005197487
 30
0.0
 11
90.37610290873113
 21
109.5475005197487
 31
0.0
  0
ARC
  5
87F9
  8
0
 10
82.52185421979561
 20
106.5475005197487
 30
0.0
 40
4.0
 50
0.0
 51
48.59037789073106
  0
ARC
  5
87FA
  8
0
 10
82.52185421979561
 20
106.5475005197487
 30
0.0
 40
3.0
 50
0.0
 51
180.0
  0
ARC
  5
87FB
  8
0
 10
82.52185421979561
 20
106.5475005197487
 30
0.0
 40
4.0
 50
90.0
 51
180.0
  0
ARC
  5
87FC
  8
0
 10
93.02185421979561
 20
106.5475005197487
 30
0.0
 40
3.0
 50
0.0
 51
180.0
  0
ARC
  5
87FD
  8
0
 10
93.02185421979561
 20
106.5475005197487
 30
0.0
 40
4.0
 50
0.0
 51
90.0
  0
LINE
  5
87FE
  8
0
 10
19.02185421979578
 20
140.5475005197487
 30
0.0
 11
135.0218542197961
 21
140.5475005197487
 31
0.0
  0
LINE
  5
9239
  8
7
 10
14.22785421979574
 20
229.8911311965018
 30
0.0
 11
139.8158542197957
 21
229.8911311965015
 31
0.0
1001
GENIUS_GENOBJ-N-CEN_13
1002
{
1000
OWNER
1000
GEN
1002
}
1001
GENIUS_GENODEF_13
1002
{
1000
HIER
1070
     0
1002
}
1002
{
1000
MANEDIT
1070
     0
1002
}
1002
{
1000
NOSEL
1070
     0
1002
}
1002
{
1000
BEHIND
1070
     0
1002
}
1002
{
1000
OTHER
1070
     0
1002
}
1002
{
1000
REACTOR
1002
}
1001
GENIUS_GENCEN_19
1002
{
1040
2.794
1002
}
  0
LINE
  5
923A
  8
7
 10
77.02185421979584
 20
294.6851311965019
 30
0.0
 11
77.02185421979584
 21
165.0971311965017
 31
0.0
1001
GENIUS_GENOBJ-N-CEN_13
1002
{
1000
OWNER
1000
GEN
1002
}
1001
GENIUS_GENODEF_13
1002
{
1000
HIER
1070
     0
1002
}
1002
{
1000
MANEDIT
1070
     0
1002
}
1002
{
1000
NOSEL
1070
     0
1002
}
1002
{
1000
BEHIND
1070
     0
1002
}
1002
{
1000
OTHER
1070
     0
1002
}
1002
{
1000
REACTOR
1002
}
1001
GENIUS_GENCEN_19
1002
{
1040
2.794
1002
}
  0
LINE
  5
9246
  8
AM_7
 10
77.02185421979584
 20
153.3415003604896
 30
0.0
 11
77.02185421979583
 21
99.7535005197487
 31
0.0
1001
GENIUS_GENOBJ-N-CEN_13
1002
{
1000
OWNER
1000
GEN
1002
}
1001
GENIUS_GENODEF_13
1002
{
1000
HIER
1070
     0
1002
}
1002
{
1000
MANEDIT
1070
     0
1002
}
1002
{
1000
NOSEL
1070
     0
1002
}
1002
{
1000
BEHIND
1070
     0
1002
}
1002
{
1000
OTHER
1070
     0
1002
}
1002
{
1000
REACTOR
1002
}
1001
GENIUS_GENCEN_19
1002
{
1040
2.794
1002
}
  0
LINE
  5
9291
  8
AM_7
 10
177.2278545662483
 20
229.8911311965013
 30
0.0
 11
230.8158543427305
 21
229.8911311965012
 31
0.0
1001
GENIUS_GENODEF_13
1002
{
1000
HIER
1070
     0
1002
}
1002
{
1000
MANEDIT
1070
     0
1002
}
1002
{
1000
NOSEL
1070
     0
1002
}
1002
{
1000
BEHIND
1070
     0
1002
}
1002
{
1000
OTHER
1070
     0
1002
}
1002
{
1000
REACTOR
1002
}
1001
GENIUS_GENOBJ-N-CEN_13
1002
{
1000
OWNER
1000
GEN
1002
}
1001
GENIUS_GENCEN_19
1002
{
1040
2.794
1002
}
  0
LINE
  5
A566
  8
0
 10
39.77185421979581
 20
264.9911311965017
 30
0.0
 11
114.2718542197958
 21
264.9911311965017
 31
0.0
  0
LINE
  5
A567
  8
0
 10
39.77185421979581
 20
194.7911311965017
 30
0.0
 11
114.2718542197958
 21
194.7911311965017
 31
0.0
  0
LINE
  5
A568
  8
0
 10
39.77185421979581
 20
264.9911311965017
 30
0.0
 11
39.77185421979581
 21
194.7911311965017
 31
0.0
  0
LINE
  5
A569
  8
0
 10
114.2718542197958
 20
264.9911311965017
 30
0.0
 11
114.2718542197958
 21
194.7911311965017
 31
0.0
  0
LINE
  5
A56A
  8
0
 10
113.521853683354
 20
195.391132060769
 30
0.0
 11
113.521853683354
 21
264.3911303322343
 31
0.0
  0
LINE
  5
A56B
  8
0
 10
40.52185475623762
 20
195.391132060769
 30
0.0
 11
113.521853683354
 21
195.391132060769
 31
0.0
  0
LINE
  5
A56C
  8
0
 10
40.52185475623762
 20
264.3911303322343
 30
0.0
 11
40.52185475623762
 21
195.391132060769
 31
0.0
  0
LINE
  5
A56D
  8
0
 10
113.521853683354
 20
264.3911303322343
 30
0.0
 11
40.52185475623762
 21
264.3911303322343
 31
0.0
  0
LINE
  5
A56E
  8
0
 10
42.0218540707842
 20
196.8911313753156
 30
0.0
 11
112.0218543688074
 21
196.8911313753156
 31
0.0
  0
LINE
  5
A56F
  8
0
 10
112.0218543688074
 20
196.8911313753156
 30
0.0
 11
112.0218543688074
 21
262.8911310176877
 31
0.0
  0
LINE
  5
A570
  8
0
 10
112.0218543688074
 20
262.8911310176877
 30
0.0
 11
67.02185444331322
 21
262.8911310176877
 31
0.0
  0
LINE
  5
A571
  8
0
 10
42.0218540707842
 20
250.8911309133796
 30
0.0
 11
67.02185444331322
 21
250.8911309133796
 31
0.0
  0
LINE
  5
A572
  8
0
 10
42.0218540707842
 20
250.8911309133796
 30
0.0
 11
42.0218540707842
 21
196.8911313753156
 31
0.0
  0
LINE
  5
A573
  8
0
 10
48.82185369527494
 20
253.1911307315854
 30
0.0
 11
58.82185347175751
 21
253.1911307315854
 31
0.0
  0
LINE
  5
A574
  8
0
 10
58.82185347175751
 20
253.1911307315854
 30
0.0
 11
58.82185347175751
 21
261.1911320428876
 31
0.0
  0
LINE
  5
A575
  8
0
 10
58.82185347175751
 20
261.1911320428876
 30
0.0
 11
48.82185369527494
 21
261.1911320428876
 31
0.0
  0
LINE
  5
A576
  8
0
 10
48.82185369527494
 20
261.1911320428876
 30
0.0
 11
48.82185369527494
 21
253.1911307315854
 31
0.0
  0
LINE
  5
A577
  8
0
 10
67.02185444331322
 20
250.8911309133796
 30
0.0
 11
67.02185444331322
 21
262.8911310176877
 31
0.0
  0
LINE
  5
A578
  8
0
 10
114.021854696633
 20
194.8911310474901
 30
0.0
 11
114.021854696633
 21
264.8911313455133
 31
0.0
  0
LINE
  5
A579
  8
0
 10
40.02185374295865
 20
194.8911310474901
 30
0.0
 11
114.021854696633
 21
194.8911310474901
 31
0.0
  0
LINE
  5
A57A
  8
0
 10
40.02185374295865
 20
264.8911313455133
 30
0.0
 11
40.02185374295865
 21
194.8911310474901
 31
0.0
  0
LINE
  5
A57B
  8
0
 10
114.021854696633
 20
264.8911313455133
 30
0.0
 11
40.02185374295865
 21
264.8911313455133
 31
0.0
  0
ARC
  5
A57C
  8
0
 10
50.22185358351621
 20
259.6911307315854
 30
0.0
 40
1.0
 50
90.0
 51
180.0
  0
ARC
  5
A57D
  8
0
 10
55.22185358351619
 20
259.6911307315854
 30
0.0
 40
1.0
 50
0.0
 51
90.0
  0
LINE
  5
A57E
  8
0
 10
50.22185358351621
 20
260.6911307315854
 30
0.0
 11
55.22185358351619
 21
260.6911307315854
 31
0.0
  0
LINE
  5
A57F
  8
0
 10
55.22185358351619
 20
253.6911307315856
 30
0.0
 11
50.22185358351621
 21
253.6911307315854
 31
0.0
  0
ARC
  5
A580
  8
0
 10
50.22185358351621
 20
254.6911307315854
 30
0.0
 40
1.0
 50
180.0
 51
270.0
  0
ARC
  5
A581
  8
0
 10
55.22185358351619
 20
254.6911307315856
 30
0.0
 40
1.0
 50
270.0
 51
0.0
  0
LINE
  5
A582
  8
0
 10
54.22185358351619
 20
253.6911307315856
 30
0.0
 11
54.22185358351619
 21
260.6911307315854
 31
0.0
  0
LINE
  5
A583
  8
0
 10
53.22185358351619
 20
253.6911307315854
 30
0.0
 11
53.22185358351619
 21
260.6911307315854
 31
0.0
  0
LINE
  5
A584
  8
0
 10
52.22185358351621
 20
253.6911307315853
 30
0.0
 11
52.22185358351621
 21
260.6911307315854
 31
0.0
  0
LINE
  5
A585
  8
0
 10
51.22185358351621
 20
253.6911307315853
 30
0.0
 11
51.22185358351621
 21
260.6911307315854
 31
0.0
  0
LINE
  5
A586
  8
0
 10
49.22185358351621
 20
254.6911307315854
 30
0.0
 11
49.22185358351621
 21
259.6911307315854
 31
0.0
  0
LINE
  5
A587
  8
0
 10
56.22185358351619
 20
259.6911307315854
 30
0.0
 11
56.22185358351619
 21
254.6911307315856
 31
0.0
  0
LINE
  5
A588
  8
0
 10
67.27185444331322
 20
262.6411311965018
 30
0.0
 11
111.7718542197958
 21
262.6411311965016
 31
0.0
  0
LINE
  5
A589
  8
0
 10
111.7718542197958
 20
262.6411311965016
 30
0.0
 11
111.7718542197958
 21
197.1411311965016
 31
0.0
  0
LINE
  5
A58A
  8
0
 10
42.27185421979581
 20
197.1411311965018
 30
0.0
 11
42.27185421979581
 21
250.6411309133796
 31
0.0
  0
LINE
  5
A58B
  8
0
 10
111.7718542197958
 20
197.1411311965016
 30
0.0
 11
42.27185421979581
 21
197.1411311965018
 31
0.0
  0
LINE
  5
A58C
  8
0
  6
CONTINUOUS
 10
67.27185444331322
 20
250.6411309133796
 30
0.0
 11
67.27185444331322
 21
262.6411311965018
 31
0.0
  0
LINE
  5
A58D
  8
0
  6
CONTINUOUS
 10
42.27185421979581
 20
250.6411309133796
 30
0.0
 11
67.27185444331322
 21
250.6411309133796
 31
0.0
  0
LINE
  5
A58E
  8
0
 10
55.0718535835162
 20
249.7411311965018
 30
0.0
 11
52.5718535835162
 21
249.7411311965018
 31
0.0
  0
LINE
  5
A704
  8
0
 10
57.32185358351622
 20
248.2411311965017
 30
0.0
 11
57.32185358351622
 21
246.2411311965017
 31
0.0
  0
LINE
  5
A705
  8
0
 10
50.32185358351623
 20
248.2411311965017
 30
0.0
 11
50.32185358351623
 21
246.2411311965017
 31
0.0
  0
ARC
  5
A706
  8
0
 10
51.32185358351623
 20
248.2411311965017
 30
0.0
 40
1.0
 50
90.0
 51
180.0
  0
ARC
  5
A707
  8
0
 10
51.32185358351623
 20
246.2411311965017
 30
0.0
 40
1.0
 50
180.0
 51
270.0
  0
ARC
  5
A708
  8
0
 10
56.32185358351622
 20
246.2411311965017
 30
0.0
 40
1.0
 50
270.0
 51
0.0
  0
ARC
  5
A709
  8
0
 10
56.32185358351622
 20
248.2411311965017
 30
0.0
 40
1.0
 50
0.0
 51
90.0
  0
LINE
  5
A70A
  8
0
 10
51.32185358351623
 20
249.2411311965017
 30
0.0
 11
56.32185358351622
 21
249.2411311965017
 31
0.0
  0
TEXT
  5
A70C
  8
0
 10
43.66044042640336
 20
246.278855377083
 30
0.0
 40
2.0
  1
OFF
 41
1.5
  0
TEXT
  5
A70D
  8
0
 10
58.70728957609506
 20
246.278855377083
 30
0.0
 40
2.0
  1
ON
 41
1.5
  0
TEXT
  5
A70E
  8
0
 10
51.25042501208765
 20
246.2980266819686
 30
0.0
 40
2.0
  1
電源
  0
LINE
  5
A710
  8
0
 10
43.77185421979581
 20
217.1012393038067
 30
0.0
 11
43.77185421979581
 21
219.6387393038073
 31
0.0
  0
LINE
  5
A711
  8
0
 10
45.87435421979578
 20
217.1012393038067
 30
0.0
 11
45.87435421979578
 21
219.6387393038073
 31
0.0
  0
LINE
  5
A712
  8
0
 10
46.09185421979598
 20
217.1012393038067
 30
0.0
 11
46.09185421979598
 21
219.6387393038073
 31
0.0
  0
LINE
  5
A713
  8
0
 10
43.77185421979581
 20
217.1012393038067
 30
0.0
 11
44.56935421979594
 21
217.1012393038067
 31
0.0
  0
LINE
  5
A714
  8
0
 10
43.77185421979581
 20
219.6387393038073
 30
0.0
 11
44.56935421979594
 21
219.6387393038073
 31
0.0
  0
LINE
  5
A715
  8
0
 10
44.56935421979594
 20
219.6387393038073
 30
0.0
 11
44.56935421979594
 21
218.7687393038072
 31
0.0
  0
LINE
  5
A716
  8
0
 10
45.07685421979565
 20
219.6387393038073
 30
0.0
 11
45.07685421979565
 21
218.7687393038072
 31
0.0
  0
LINE
  5
A717
  8
0
 10
44.56935421979594
 20
217.1012393038067
 30
0.0
 11
44.56935421979594
 21
217.9712393038066
 31
0.0
  0
LINE
  5
A718
  8
0
 10
45.07685421979565
 20
217.1012393038067
 30
0.0
 11
45.07685421979565
 21
217.9712393038066
 31
0.0
  0
LINE
  5
A719
  8
0
 10
45.07685421979565
 20
219.6387393038073
 30
0.0
 11
45.87435421979578
 21
219.6387393038073
 31
0.0
  0
LINE
  5
A71A
  8
0
 10
45.07685421979565
 20
217.1012393038067
 30
0.0
 11
45.87435421979578
 21
217.1012393038067
 31
0.0
  0
LINE
  5
A71B
  8
0
 10
44.56935421979594
 20
218.7687393038072
 30
0.0
 11
45.07685421979565
 21
218.7687393038072
 31
0.0
  0
LINE
  5
A71C
  8
0
 10
44.56935421979594
 20
217.9712393038066
 30
0.0
 11
45.07685421979565
 21
217.9712393038066
 31
0.0
  0
LINE
  5
A71D
  8
0
 10
46.88935421979565
 20
217.1012393038067
 30
0.0
 11
46.88935421979565
 21
219.6387393038073
 31
0.0
  0
LINE
  5
A71E
  8
0
 10
47.10685421979585
 20
217.1012393038067
 30
0.0
 11
47.10685421979585
 21
219.6387393038073
 31
0.0
  0
LINE
  5
A71F
  8
0
 10
46.09185421979598
 20
219.6387393038073
 30
0.0
 11
46.88935421979565
 21
219.6387393038073
 31
0.0
  0
LINE
  5
A720
  8
0
 10
46.09185421979598
 20
217.1012393038067
 30
0.0
 11
46.88935421979565
 21
217.1012393038067
 31
0.0
  0
LINE
  5
A721
  8
0
 10
49.20935421979581
 20
217.1012393038067
 30
0.0
 11
49.20935421979581
 21
217.6812393038066
 31
0.0
  0
LINE
  5
A722
  8
0
 10
49.20935421979581
 20
219.0587393038074
 30
0.0
 11
49.20935421979581
 21
219.6387393038073
 31
0.0
  0
LINE
  5
A723
  8
0
 10
47.10685421979585
 20
217.1012393038067
 30
0.0
 11
47.90435421979598
 21
217.1012393038067
 31
0.0
  0
LINE
  5
A724
  8
0
 10
47.10685421979585
 20
219.6387393038073
 30
0.0
 11
47.90435421979598
 21
219.6387393038073
 31
0.0
  0
LINE
  5
A725
  8
0
 10
47.90435421979598
 20
219.6387393038073
 30
0.0
 11
47.90435421979598
 21
218.7687393038072
 31
0.0
  0
LINE
  5
A726
  8
0
 10
48.41185421979569
 20
219.6387393038073
 30
0.0
 11
48.41185421979569
 21
219.0587393038074
 31
0.0
  0
LINE
  5
A727
  8
0
 10
47.90435421979598
 20
217.1012393038067
 30
0.0
 11
47.90435421979598
 21
217.9712393038066
 31
0.0
  0
LINE
  5
A728
  8
0
 10
48.41185421979569
 20
217.1012393038067
 30
0.0
 11
48.41185421979569
 21
217.6812393038066
 31
0.0
  0
ARC
  5
A729
  8
0
 10
48.12185421979572
 20
217.6812393038066
 30
0.0
 40
0.29
 50
0.0
 51
90.0
  0
ARC
  5
A72A
  8
0
 10
48.12185421979572
 20
217.6812393038066
 30
0.0
 40
1.0875
 50
0.0
 51
39.29648023919388
  0
LINE
  5
A72B
  8
0
 10
48.41185421979569
 20
219.6387393038073
 30
0.0
 11
49.20935421979581
 21
219.6387393038073
 31
0.0
  0
LINE
  5
A72C
  8
0
 10
48.41185421979569
 20
217.1012393038067
 30
0.0
 11
49.20935421979581
 21
217.1012393038067
 31
0.0
  0
LINE
  5
A72D
  8
0
 10
47.90435421979598
 20
218.7687393038072
 30
0.0
 11
48.12185421979572
 21
218.7687393038072
 31
0.0
  0
ARC
  5
A72E
  8
0
 10
48.12185421979572
 20
219.0587393038074
 30
0.0
 40
0.29
 50
270.0
 51
0.0
  0
ARC
  5
A72F
  8
0
 10
48.12185421979572
 20
219.0587393038074
 30
0.0
 40
1.0875
 50
320.703519760823
 51
0.0
  0
LINE
  5
A730
  8
0
 10
47.90435421979598
 20
217.9712393038066
 30
0.0
 11
48.12185421979572
 21
217.9712393038066
 31
0.0
  0
LINE
  5
A731
  8
0
 10
49.42685421979601
 20
217.1012393038067
 30
0.0
 11
49.42685421979601
 21
218.5874893038066
 31
0.0
  0
LINE
  5
A732
  8
0
 10
51.52935421979598
 20
217.1012393038067
 30
0.0
 11
51.52935421979598
 21
218.5874893038066
 31
0.0
  0
LINE
  5
A733
  8
0
 10
49.42685421979601
 20
217.1012393038067
 30
0.0
 11
50.22435421979569
 21
217.1012393038067
 31
0.0
  0
LINE
  5
A734
  8
0
 10
50.22435421979569
 20
217.1012393038067
 30
0.0
 11
50.22435421979569
 21
217.6087393038064
 31
0.0
  0
LINE
  5
A735
  8
0
 10
50.73185421979585
 20
217.1012393038067
 30
0.0
 11
50.73185421979585
 21
217.6087393038064
 31
0.0
  0
LINE
  5
A736
  8
0
 10
50.73185421979585
 20
217.1012393038067
 30
0.0
 11
51.52935421979598
 21
217.1012393038067
 31
0.0
  0
LINE
  5
A737
  8
0
 10
50.22435421979569
 20
217.6087393038064
 30
0.0
 11
50.73185421979585
 21
217.6087393038064
 31
0.0
  0
LINE
  5
A738
  8
0
 10
50.22435421979569
 20
218.3337393038068
 30
0.0
 11
50.73185421979585
 21
218.3337393038068
 31
0.0
  0
ARC
  5
A739
  8
0
 10
50.47810421979599
 20
218.5874893038066
 30
0.0
 40
1.05125
 50
0.0
 51
180.0
  0
ARC
  5
A73A
  8
0
 10
50.47810421979599
 20
218.5874893038066
 30
0.0
 40
0.25375
 50
0.0
 51
180.0
  0
LINE
  5
A73B
  8
0
 10
50.22435421979569
 20
218.3337393038068
 30
0.0
 11
50.22435421979569
 21
218.5874893038066
 31
0.0
  0
LINE
  5
A73C
  8
0
 10
50.73185421979585
 20
218.5874893038066
 30
0.0
 11
50.73185421979585
 21
218.3337393038068
 31
0.0
  0
LINE
  5
A73D
  8
0
 10
51.74685421979572
 20
217.1012393038067
 30
0.0
 11
51.74685421979572
 21
219.6387393038073
 31
0.0
  0
LINE
  5
A73E
  8
0
 10
53.84935421979567
 20
217.1012393038067
 30
0.0
 11
53.84935421979567
 21
217.6812393038066
 31
0.0
  0
LINE
  5
A73F
  8
0
 10
51.74685421979572
 20
217.1012393038067
 30
0.0
 11
52.54435421979584
 21
217.1012393038067
 31
0.0
  0
LINE
  5
A740
  8
0
 10
52.68935421979582
 20
217.8987393038068
 30
0.0
 11
52.8343542197958
 21
217.8987393038068
 31
0.0
  0
LINE
  5
A741
  8
0
 10
52.68935421979582
 20
218.4787393038072
 30
0.0
 11
52.8343542197958
 21
218.4787393038072
 31
0.0
  0
LINE
  5
A742
  8
0
 10
52.54435421979584
 20
217.1012393038067
 30
0.0
 11
52.54435421979584
 21
218.9137393038069
 31
0.0
  0
LINE
  5
A743
  8
0
 10
53.051854219796
 20
217.1012393038067
 30
0.0
 11
53.051854219796
 21
217.6812393038066
 31
0.0
  0
ARC
  5
A744
  8
0
 10
52.8343542197958
 20
217.6812393038066
 30
0.0
 40
0.2175
 50
0.0
 51
90.0
  0
ARC
  5
A745
  8
0
 10
52.8343542197958
 20
217.6812393038066
 30
0.0
 40
1.015
 50
0.0
 51
30.66296328368486
  0
LINE
  5
A746
  8
0
 10
51.74685421979572
 20
219.6387393038073
 30
0.0
 11
52.90685421979556
 21
219.6387393038073
 31
0.0
  0
LINE
  5
A747
  8
0
 10
52.54435421979584
 20
218.9137393038069
 30
0.0
 11
52.8343542197958
 21
218.9137393038069
 31
0.0
  0
LINE
  5
A748
  8
0
 10
53.051854219796
 20
217.1012393038067
 30
0.0
 11
53.84935421979567
 21
217.1012393038067
 31
0.0
  0
ARC
  5
A749
  8
0
 10
52.8343542197958
 20
218.6962393038069
 30
0.0
 40
0.2175
 50
270.0
 51
90.0
  0
ARC
  5
A74A
  8
0
 10
52.90685421979556
 20
218.6962393038069
 30
0.0
 40
0.9425
 50
328.1493895340824
 51
90.0
  0
LINE
  5
A74B
  8
0
 10
52.68935421979582
 20
218.4787393038072
 30
0.0
 11
52.68935421979582
 21
217.8987393038068
 31
0.0
  0
LINE
  5
A74C
  8
0
 10
54.06685421979587
 20
217.1012393038067
 30
0.0
 11
54.06685421979587
 21
219.6387393038073
 31
0.0
  0
LINE
  5
A74D
  8
0
 10
54.864354219796
 20
217.1012393038067
 30
0.0
 11
54.864354219796
 21
219.6387393038073
 31
0.0
  0
LINE
  5
A74E
  8
0
 10
57.76435421979564
 20
217.1374893038068
 30
0.0
 11
57.76435421979564
 21
218.5874893038066
 31
0.0
  0
LINE
  5
A74F
  8
0
 10
54.06685421979587
 20
219.6387393038073
 30
0.0
 11
54.864354219796
 21
219.6387393038073
 31
0.0
  0
LINE
  5
A750
  8
0
 10
54.06685421979587
 20
217.1012393038067
 30
0.0
 11
54.864354219796
 21
217.1012393038067
 31
0.0
  0
ARC
  5
A751
  8
0
 10
57.03935421979573
 20
218.3699893038069
 30
0.0
 40
1.305
 50
84.27518954777628
 51
281.4211862750073
  0
ARC
  5
A752
  8
0
 10
57.03935421979573
 20
218.3699893038069
 30
0.0
 40
0.5075000000000001
 50
84.27518954777645
 51
270.0
  0
CIRCLE
  5
A753
  8
0
 10
59.28685421979567
 20
218.3699893038069
 30
0.0
 40
1.305
  0
CIRCLE
  5
A754
  8
0
 10
59.28685421979567
 20
218.3699893038069
 30
0.0
 40
0.5075000000000001
  0
LINE
  5
A755
  8
0
 10
57.03935421979573
 20
217.8624893038072
 30
0.0
 11
57.03935421979573
 21
218.5874893038066
 31
0.0
  0
LINE
  5
A756
  8
0
 10
57.03935421979573
 20
218.5874893038066
 30
0.0
 11
57.76435421979564
 21
218.5874893038066
 31
0.0
  0
LINE
  5
A757
  8
0
 10
57.29777006138006
 20
217.0908308879656
 30
0.0
 11
57.76435421979564
 21
217.1374893038068
 31
0.0
  0
LINE
  5
A758
  8
0
 10
57.16952878338675
 20
219.6684805756273
 30
0.0
 11
57.76435421979564
 21
219.6387393038073
 31
0.0
  0
LINE
  5
A759
  8
0
 10
57.76435421979564
 20
219.6387393038073
 30
0.0
 11
57.76435421979564
 21
218.8412393038067
 31
0.0
  0
LINE
  5
A75A
  8
0
 10
57.76435421979564
 20
218.8412393038067
 30
0.0
 11
57.08997766119224
 21
218.8749581317376
 31
0.0
  0
LINE
  5
A75B
  8
0
 10
60.80935421979571
 20
217.1012393038067
 30
0.0
 11
60.80935421979571
 21
219.6387393038073
 31
0.0
  0
LINE
  5
A75C
  8
0
 10
62.91185421979567
 20
217.1012393038067
 30
0.0
 11
62.91185421979567
 21
217.6812393038066
 31
0.0
  0
LINE
  5
A75D
  8
0
 10
62.91185421979567
 20
219.0587393038074
 30
0.0
 11
62.91185421979567
 21
219.6387393038073
 31
0.0
  0
LINE
  5
A75E
  8
0
 10
60.80935421979571
 20
217.1012393038067
 30
0.0
 11
61.60685421979584
 21
217.1012393038067
 31
0.0
  0
LINE
  5
A75F
  8
0
 10
60.80935421979571
 20
219.6387393038073
 30
0.0
 11
61.60685421979584
 21
219.6387393038073
 31
0.0
  0
LINE
  5
A760
  8
0
 10
61.60685421979584
 20
219.6387393038073
 30
0.0
 11
61.60685421979584
 21
218.7687393038072
 31
0.0
  0
LINE
  5
A761
  8
0
 10
62.114354219796
 20
219.6387393038073
 30
0.0
 11
62.114354219796
 21
219.0587393038074
 31
0.0
  0
LINE
  5
A762
  8
0
 10
61.60685421979584
 20
217.1012393038067
 30
0.0
 11
61.60685421979584
 21
217.9712393038066
 31
0.0
  0
LINE
  5
A763
  8
0
 10
62.114354219796
 20
217.1012393038067
 30
0.0
 11
62.114354219796
 21
217.6812393038066
 31
0.0
  0
ARC
  5
A764
  8
0
 10
61.82435421979558
 20
217.6812393038066
 30
0.0
 40
0.29
 50
0.0
 51
90.0
  0
ARC
  5
A765
  8
0
 10
61.82435421979558
 20
217.6812393038066
 30
0.0
 40
1.0875
 50
0.0
 51
39.29648023919341
  0
LINE
  5
A766
  8
0
 10
62.114354219796
 20
219.6387393038073
 30
0.0
 11
62.91185421979567
 21
219.6387393038073
 31
0.0
  0
LINE
  5
A767
  8
0
 10
62.114354219796
 20
217.1012393038067
 30
0.0
 11
62.91185421979567
 21
217.1012393038067
 31
0.0
  0
LINE
  5
A768
  8
0
 10
61.60685421979584
 20
218.7687393038072
 30
0.0
 11
61.82435421979558
 21
218.7687393038072
 31
0.0
  0
ARC
  5
A769
  8
0
 10
61.82435421979558
 20
219.0587393038074
 30
0.0
 40
0.29
 50
270.0
 51
0.0
  0
ARC
  5
A76A
  8
0
 10
61.82435421979558
 20
219.0587393038074
 30
0.0
 40
1.0875
 50
320.7035197608241
 51
0.0
  0
LINE
  5
A76B
  8
0
 10
61.60685421979584
 20
217.9712393038066
 30
0.0
 11
61.82435421979558
 21
217.9712393038066
 31
0.0
  0
LINE
  5
A76C
  8
0
 10
63.12935421979587
 20
217.1012393038067
 30
0.0
 11
63.12935421979587
 21
219.6387393038073
 31
0.0
  0
LINE
  5
A76D
  8
0
 10
63.926854219796
 20
217.1012393038067
 30
0.0
 11
63.926854219796
 21
219.6387393038073
 31
0.0
  0
LINE
  5
A76E
  8
0
 10
63.12935421979587
 20
219.6387393038073
 30
0.0
 11
63.926854219796
 21
219.6387393038073
 31
0.0
  0
LINE
  5
A76F
  8
0
 10
63.12935421979587
 20
217.1012393038067
 30
0.0
 11
63.926854219796
 21
217.1012393038067
 31
0.0
  0
LINE
  5
A770
  8
0
 10
64.14435421979574
 20
217.1012393038067
 30
0.0
 11
64.14435421979574
 21
218.5874893038066
 31
0.0
  0
LINE
  5
A771
  8
0
 10
66.24685421979571
 20
217.1012393038067
 30
0.0
 11
66.24685421979571
 21
218.5874893038066
 31
0.0
  0
LINE
  5
A772
  8
0
 10
64.14435421979574
 20
217.1012393038067
 30
0.0
 11
64.94185421979587
 21
217.1012393038067
 31
0.0
  0
LINE
  5
A773
  8
0
 10
64.94185421979587
 20
217.1012393038067
 30
0.0
 11
64.94185421979587
 21
218.5874893038066
 31
0.0
  0
LINE
  5
A774
  8
0
 10
65.44935421979558
 20
217.1012393038067
 30
0.0
 11
65.44935421979558
 21
218.5874893038066
 31
0.0
  0
LINE
  5
A775
  8
0
 10
65.44935421979558
 20
217.1012393038067
 30
0.0
 11
66.24685421979571
 21
217.1012393038067
 31
0.0
  0
ARC
  5
A776
  8
0
 10
65.19560421979573
 20
218.5874893038066
 30
0.0
 40
1.05125
 50
0.0
 51
180.0
  0
ARC
  5
A777
  8
0
 10
65.19560421979573
 20
218.5874893038066
 30
0.0
 40
0.25375
 50
0.0
 51
180.0
  0
LINE
  5
A778
  8
0
 10
58.0218542197958
 20
212.8911311965016
 30
0.0
 11
66.0218542197958
 21
212.8911311965016
 31
0.0
  0
ARC
  5
A779
  8
0
 10
66.0218542197958
 20
210.8911311965016
 30
0.0
 40
2.0
 50
0.0
 51
90.0
  0
ARC
  5
A77A
  8
0
 10
58.0218542197958
 20
210.8911311965016
 30
0.0
 40
2.0
 50
90.0
 51
180.0
  0
ARC
  5
A77B
  8
0
 10
66.0218542197958
 20
203.8911311965011
 30
0.0
 40
2.0
 50
270.0
 51
0.0
  0
LINE
  5
A77C
  8
0
 10
68.0218542197958
 20
203.8911311965011
 30
0.0
 11
68.0218542197958
 21
210.8911311965016
 31
0.0
  0
LINE
  5
A77D
  8
0
 10
58.0218542197958
 20
201.8911311965011
 30
0.0
 11
66.0218542197958
 21
201.8911311965011
 31
0.0
  0
ARC
  5
A77E
  8
0
 10
58.0218542197958
 20
203.8911311965011
 30
0.0
 40
2.0
 50
180.0
 51
270.0
  0
LINE
  5
A77F
  8
0
 10
56.0218542197958
 20
203.8911311965011
 30
0.0
 11
56.0218542197958
 21
210.8911311965016
 31
0.0
  0
CIRCLE
  5
A780
  8
0
 10
97.0218542197958
 20
209.8911311965016
 30
0.0
 40
7.499999999999949
  0
CIRCLE
  5
A781
  8
0
 10
97.0218542197958
 20
209.8911311965016
 30
0.0
 40
8.20000000000001
  0
CIRCLE
  5
A782
  8
0
 10
97.0218542197958
 20
209.8911311965016
 30
0.0
 40
8.499999999999963
  0
LINE
  5
A783
  8
0
 10
69.7718542197958
 20
203.8911311965011
 30
0.0
 11
69.7718542197958
 21
215.8911311965016
 31
0.0
  0
LINE
  5
A784
  8
0
 10
70.07185421979575
 20
203.8911311965011
 30
0.0
 11
70.07185421979575
 21
209.8911311965011
 31
0.0
  0
ARC
  5
A785
  8
0
 10
71.7718542197958
 20
203.8911311965011
 30
0.0
 40
2.0
 50
180.0
 51
270.0
1001
GENIUS_GENOBJ-N-FIL_13
1002
{
1000
OWNER
1000
GEN
1002
}
1001
GENIUS_GENODEF_13
1002
{
1000
HIER
1070
     0
1002
}
1002
{
1000
MANEDIT
1070
     0
1002
}
1002
{
1000
NOSEL
1070
     0
1002
}
1002
{
1000
BEHIND
1070
     0
1002
}
1002
{
1000
OTHER
1070
     0
1002
}
1002
{
1000
REACTOR
1002
}
  0
ARC
  5
A786
  8
0
 10
71.7718542197958
 20
203.8911311965011
 30
0.0
 40
1.7
 50
180.0
 51
270.0
1001
GENIUS_GENOBJ-N-FIL_13
1002
{
1000
OWNER
1000
GEN
1002
}
1001
GENIUS_GENODEF_13
1002
{
1000
HIER
1070
     0
1002
}
1002
{
1000
MANEDIT
1070
     0
1002
}
1002
{
1000
NOSEL
1070
     0
1002
}
1002
{
1000
BEHIND
1070
     0
1002
}
1002
{
1000
OTHER
1070
     0
1002
}
1002
{
1000
REACTOR
1002
}
  0
LINE
  5
A787
  8
0
 10
87.77185421979489
 20
203.8911311965011
 30
0.0
 11
87.77185421979489
 21
215.8911311965007
 31
0.0
  0
LINE
  5
A788
  8
0
 10
87.47185421979493
 20
203.8911311965011
 30
0.0
 11
87.47185421979493
 21
209.8911311965011
 31
0.0
  0
ARC
  5
A789
  8
0
 10
85.77185421979489
 20
215.8911311965007
 30
0.0
 40
2.0
 50
0.0
 51
90.0
1001
GENIUS_GENODEF_13
1002
{
1000
HIER
1070
     0
1002
}
1002
{
1000
MANEDIT
1070
     0
1002
}
1002
{
1000
NOSEL
1070
     0
1002
}
1002
{
1000
BEHIND
1070
     0
1002
}
1002
{
1000
OTHER
1070
     0
1002
}
1002
{
1000
REACTOR
1002
}
1001
GENIUS_GENOBJ-N-FIL_13
1002
{
1000
OWNER
1000
GEN
1002
}
  0
INSERT
  5
A78A
  8
0
  2
*X14
 10
0.0
 20
0.0
 30
0.0
  0
LINE
  5
A78B
  8
0
 10
87.77185421979489
 20
209.8911311965011
 30
0.0
 11
69.7718542197958
 21
209.8911311965011
 31
0.0
  0
CIRCLE
  5
A78C
  8
0
 10
78.97346775921092
 20
213.8911311965016
 30
0.0
 40
2.0
  0
LINE
  5
A78D
  8
0
 10
85.77185421979489
 20
217.8911311965007
 30
0.0
 11
71.7718542197958
 21
217.8911311965016
 31
0.0
  0
ARC
  5
A78E
  8
0
 10
71.7718542197958
 20
215.8911311965016
 30
0.0
 40
2.0
 50
90.0
 51
180.0
1001
GENIUS_GENOBJ-N-FIL_13
1002
{
1000
OWNER
1000
GEN
1002
}
1001
GENIUS_GENODEF_13
1002
{
1000
HIER
1070
     0
1002
}
1002
{
1000
MANEDIT
1070
     0
1002
}
1002
{
1000
NOSEL
1070
     0
1002
}
1002
{
1000
BEHIND
1070
     0
1002
}
1002
{
1000
OTHER
1070
     0
1002
}
1002
{
1000
REACTOR
1002
}
  0
LINE
  5
A78F
  8
0
 10
85.77185421979489
 20
201.8911311965011
 30
0.0
 11
71.7718542197958
 21
201.8911311965011
 31
0.0
  0
LINE
  5
A790
  8
0
 10
85.77185421979489
 20
202.1911311965011
 30
0.0
 11
71.7718542197958
 21
202.1911311965011
 31
0.0
  0
ARC
  5
A791
  8
0
 10
85.77185421979489
 20
203.8911311965011
 30
0.0
 40
2.0
 50
270.0
 51
0.0
1001
GENIUS_GENODEF_13
1002
{
1000
HIER
1070
     0
1002
}
1002
{
1000
MANEDIT
1070
     0
1002
}
1002
{
1000
NOSEL
1070
     0
1002
}
1002
{
1000
BEHIND
1070
     0
1002
}
1002
{
1000
OTHER
1070
     0
1002
}
1002
{
1000
REACTOR
1002
}
1001
GENIUS_GENOBJ-N-FIL_13
1002
{
1000
OWNER
1000
GEN
1002
}
  0
ARC
  5
A792
  8
0
 10
85.77185421979489
 20
203.8911311965011
 30
0.0
 40
1.7
 50
270.0
 51
0.0
1001
GENIUS_GENODEF_13
1002
{
1000
HIER
1070
     0
1002
}
1002
{
1000
MANEDIT
1070
     0
1002
}
1002
{
1000
NOSEL
1070
     0
1002
}
1002
{
1000
BEHIND
1070
     0
1002
}
1002
{
1000
OTHER
1070
     0
1002
}
1002
{
1000
REACTOR
1002
}
1001
GENIUS_GENOBJ-N-FIL_13
1002
{
1000
OWNER
1000
GEN
1002
}
  0
TEXT
  5
A793
  8
0
 10
70.84772500937034
 20
212.9769691680538
 30
0.0
 40
1.9
  1
給水
  0
TEXT
  5
A794
  8
0
 10
90.84300449808893
 20
207.9715269911831
 30
0.0
 40
4.0
  1
PUSH
 41
1.2
  0
TEXT
  5
A795
  8
0
 10
43.65051841274572
 20
220.3458336992696
 30
0.0
 40
1.8
  1
電動水抜操作盤
  0
TEXT
  5
A796
  8
0
 10
43.57370950736539
 20
214.4200452020524
 30
0.0
 40
1.8
  1
ER2000-2
  0
TEXT
  5
A798
  8
0
 10
45.97302104610605
 20
198.5567139828576
 30
0.0
 40
1.3
  1
冬期以外(凍結の心配がない期間)や長期間使用しないときは電源をOFFにしてください
  0
CIRCLE
  5
A79B
  8
0
 10
44.33878989620072
 20
198.5903655242977
 30
0.0
 40
0.1
  0
LINE
  5
A79C
  8
0
 10
44.23878989620081
 20
199.5903655242977
 30
0.0
 11
44.28923237407682
 21
198.8337283561572
 31
0.0
  0
LINE
  5
A79D
  8
0
 10
44.43878989620109
 20
199.5903655242977
 30
0.0
 11
44.38834741832463
 21
198.8337283561554
 31
0.0
  0
ARC
  5
A79E
  8
0
 10
44.33878989620072
 20
199.5903655242977
 30
0.0
 40
0.1
 50
0.0
 51
180.0
  0
ARC
  5
A79F
  8
0
 10
44.33878989620072
 20
198.8403655242977
 30
0.0
 40
0.05
 50
187.6281496672678
 51
352.3718503306272
  0
TEXT
  5
A7A3
  8
0
 10
57.15608849214286
 20
203.1068505901877
 30
0.0
 40
1.9
  1
点検
  0
CIRCLE
  5
A7A4
  8
0
 10
84.02185421979625
 20
205.8911311965014
 30
0.0
 40
2.0
  0
CIRCLE
  5
A7A5
  8
0
 10
84.02185421979625
 20
205.8911311965014
 30
0.0
 40
1.5
  0
CIRCLE
  5
A7A6
  8
0
 10
84.02185421979625
 20
213.8911311965014
 30
0.0
 40
2.0
  0
CIRCLE
  5
A7A7
  8
0
 10
84.02185421979625
 20
213.8911311965014
 30
0.0
 40
1.5
  0
ARC
  5
A7A8
  8
0
 10
65.77349041352396
 20
204.4584469619241
 30
0.0
 40
0.9999999999999992
 50
233.0491207032584
 51
57.32628399712448
  0
LINE
  5
A7A9
  8
0
 10
65.17236029605338
 20
203.6592957985829
 30
0.0
 11
60.46522608443878
 21
207.2000528810659
 31
0.0
  0
LINE
  5
A7AA
  8
0
 10
61.35524593508357
 20
208.4800373105346
 30
0.0
 11
66.3133446405861
 21
205.3002054863975
 31
0.0
  0
ARC
  5
A7AB
  8
0
 10
58.90559484088652
 20
209.2339452032086
 30
0.0
 40
1.99079584716086
 50
1.683229077249547
 51
160.7903378653518
  0
ARC
  5
A7AC
  8
0
 10
61.89510016214614
 20
209.3217958350078
 30
0.0
 40
0.9999999999999992
 50
181.6832290772424
 51
237.3262839971254
1001
GENIUS_GENODEF_13
1002
{
1000
HIER
1070
     0
1002
}
1002
{
1000
MANEDIT
1070
     0
1002
}
1002
{
1000
NOSEL
1070
     0
1002
}
1002
{
1000
BEHIND
1070
     0
1002
}
1002
{
1000
OTHER
1070
     0
1002
}
1002
{
1000
REACTOR
1002
}
1001
GENIUS_GENOBJ-N-FIL_13
1002
{
1000
OWNER
1000
GEN
1002
}
  0
ARC
  5
A7AD
  8
0
 10
58.90559484088652
 20
209.2339452032086
 30
0.0
 40
1.99079584716086
 50
219.5850668351124
 51
288.6921756231421
  0
ARC
  5
A7AE
  8
0
 10
59.86409596696858
 20
206.4009017177244
 30
0.0
 40
0.9999999999999992
 50
53.04912070325908
 51
108.6921756231398
1001
GENIUS_GENOBJ-N-FIL_13
1002
{
1000
OWNER
1000
GEN
1002
}
1001
GENIUS_GENODEF_13
1002
{
1000
HIER
1070
     0
1002
}
1002
{
1000
MANEDIT
1070
     0
1002
}
1002
{
1000
NOSEL
1070
     0
1002
}
1002
{
1000
BEHIND
1070
     0
1002
}
1002
{
1000
OTHER
1070
     0
1002
}
1002
{
1000
REACTOR
1002
}
  0
LINE
  5
A7AF
  8
0
 10
59.46653936611118
 20
209.334750762685
 30
0.0
 11
59.08408498941814
 21
208.2731578426452
 31
0.0
  0
LINE
  5
A7B0
  8
0
 10
59.08408498941814
 20
208.2731578426452
 30
0.0
 11
57.37132959088827
 21
207.96536400844
 31
0.0
  0
LINE
  5
A7B1
  8
0
 10
59.46653936611106
 20
209.3347507626857
 30
0.0
 11
58.73840011722433
 21
210.1967624287101
 31
0.0
  0
LINE
  5
A7B2
  8
0
 10
58.73840011722433
 20
210.1967624287101
 30
0.0
 11
57.02564471869421
 21
209.8889685945045
 31
0.0
  0
CIRCLE
  5
A7B3
  8
0
 10
65.77349041352396
 20
204.4584469619241
 30
0.0
 40
0.4999999999999996
  0
LINE
  5
A7B4
  8
0
 10
44.03436461426097
 20
212.5722661965011
 30
0.0
 11
46.37114611426099
 21
212.5722661965011
 31
0.0
  0
LINE
  5
A7B5
  8
0
 10
46.37114611426099
 20
212.5722661965011
 30
0.0
 11
46.37114611426099
 21
212.9062500965011
 31
0.0
  0
LINE
  5
A7B6
  8
0
 10
46.37114611426099
 20
212.9062500965011
 30
0.0
 11
44.03436461426097
 21
212.9062500965011
 31
0.0
  0
LINE
  5
A7B7
  8
0
 10
44.03436461426097
 20
212.9062500965011
 30
0.0
 11
44.03436461426097
 21
212.5722661965011
 31
0.0
  0
LINE
  5
A7B8
  8
0
 10
47.03873961426095
 20
212.5722661965011
 30
0.0
 11
48.03995411426095
 21
212.5722661965011
 31
0.0
  0
LINE
  5
A7B9
  8
0
 10
48.03995411426095
 20
212.5722661965011
 30
0.0
 11
48.03995411426095
 21
212.9062500965011
 31
0.0
  0
LINE
  5
A7BA
  8
0
 10
48.03995411426095
 20
212.9062500965011
 30
0.0
 11
47.03873961426095
 21
212.9062500965011
 31
0.0
  0
LINE
  5
A7BB
  8
0
 10
47.03873961426095
 20
212.9062500965011
 30
0.0
 11
47.03873961426095
 21
212.5722661965011
 31
0.0
  0
LINE
  5
A7BC
  8
0
 10
48.70750961426097
 20
212.5722661965011
 30
0.0
 11
49.04149351426096
 21
212.5722661965011
 31
0.0
  0
LINE
  5
A7BD
  8
0
 10
49.04149351426096
 20
212.5722661965011
 30
0.0
 11
49.04149351426096
 21
212.9062500965011
 31
0.0
  0
LINE
  5
A7BE
  8
0
 10
49.04149351426096
 20
212.9062500965011
 30
0.0
 11
48.70750961426097
 21
212.9062500965011
 31
0.0
  0
LINE
  5
A7BF
  8
0
 10
48.70750961426097
 20
212.9062500965011
 30
0.0
 11
48.70750961426097
 21
212.5722661965011
 31
0.0
  0
LINE
  5
A7C0
  8
0
 10
49.37507461426097
 20
212.5722661965011
 30
0.0
 11
49.70905946426095
 21
212.5722661965011
 31
0.0
  0
LINE
  5
A7C1
  8
0
 10
49.70905946426095
 20
212.5722661965011
 30
0.0
 11
49.70905946426095
 21
212.9062500965011
 31
0.0
  0
LINE
  5
A7C2
  8
0
 10
49.70905946426095
 20
212.9062500965011
 30
0.0
 11
49.37507461426097
 21
212.9062500965011
 31
0.0
  0
LINE
  5
A7C3
  8
0
 10
49.37507461426097
 20
212.9062500965011
 30
0.0
 11
49.37507461426097
 21
212.5722661965011
 31
0.0
  0
LINE
  5
A7C4
  8
0
 10
50.04273461426095
 20
212.5722661965011
 30
0.0
 11
50.37671946426096
 21
212.5722661965011
 31
0.0
  0
LINE
  5
A7C5
  8
0
 10
50.37671946426096
 20
212.5722661965011
 30
0.0
 11
50.37671946426096
 21
212.9062500965011
 31
0.0
  0
LINE
  5
A7C6
  8
0
 10
50.37671946426096
 20
212.9062500965011
 30
0.0
 11
50.04273461426095
 21
212.9062500965011
 31
0.0
  0
LINE
  5
A7C7
  8
0
 10
50.04273461426095
 20
212.9062500965011
 30
0.0
 11
50.04273461426095
 21
212.5722661965011
 31
0.0
  0
LINE
  5
A7C8
  8
0
 10
51.37748461426096
 20
212.5722661965011
 30
0.0
 11
51.71146851426096
 21
212.5722661965011
 31
0.0
  0
LINE
  5
A7C9
  8
0
 10
51.71146851426096
 20
212.5722661965011
 30
0.0
 11
51.71146851426096
 21
212.9062500965011
 31
0.0
  0
LINE
  5
A7CA
  8
0
 10
51.71146851426096
 20
212.9062500965011
 30
0.0
 11
51.37748461426096
 21
212.9062500965011
 31
0.0
  0
LINE
  5
A7CB
  8
0
 10
51.37748461426096
 20
212.9062500965011
 30
0.0
 11
51.37748461426096
 21
212.5722661965011
 31
0.0
  0
LINE
  5
A7CD
  8
0
 10
53.04707351426096
 20
212.5722661965011
 30
0.0
 11
54.71549961426096
 21
212.5722661965011
 31
0.0
  0
LINE
  5
A7CE
  8
0
 10
55.04987111426095
 20
210.5690961965011
 30
0.0
 11
55.04987111426095
 21
212.9062500965011
 31
0.0
  0
LINE
  5
A7CF
  8
0
 10
55.04987111426095
 20
212.9062500965011
 30
0.0
 11
52.71308961426097
 21
212.9062500965011
 31
0.0
  0
LINE
  5
A7D0
  8
0
 10
52.71308961426097
 20
212.9062500965011
 30
0.0
 11
52.71308961426097
 21
210.5690961965011
 31
0.0
  0
LINE
  5
A7D1
  8
0
 10
44.03436461426097
 20
212.2383411965011
 30
0.0
 11
44.36871996426098
 21
212.2383411965011
 31
0.0
  0
LINE
  5
A7D2
  8
0
 10
44.36871996426098
 20
212.2383411965011
 30
0.0
 11
44.36871996426098
 21
212.5723260465011
 31
0.0
  0
LINE
  5
A7D3
  8
0
 10
44.36871996426098
 20
212.5723260465011
 30
0.0
 11
44.03436461426097
 21
212.5723260465011
 31
0.0
  0
LINE
  5
A7D4
  8
0
 10
44.03436461426097
 20
212.5723260465011
 30
0.0
 11
44.03436461426097
 21
212.2383411965011
 31
0.0
  0
LINE
  5
A7D5
  8
0
 10
46.03743961426093
 20
212.2383411965011
 30
0.0
 11
46.37142351426095
 21
212.2383411965011
 31
0.0
  0
LINE
  5
A7D6
  8
0
 10
46.37142351426095
 20
212.2383411965011
 30
0.0
 11
46.37142351426095
 21
212.5723260465011
 31
0.0
  0
LINE
  5
A7D7
  8
0
 10
46.37142351426095
 20
212.5723260465011
 30
0.0
 11
46.03743961426093
 21
212.5723260465011
 31
0.0
  0
LINE
  5
A7D8
  8
0
 10
46.03743961426093
 20
212.5723260465011
 30
0.0
 11
46.03743961426093
 21
212.2383411965011
 31
0.0
  0
LINE
  5
A7D9
  8
0
 10
46.70509961426094
 20
212.2383411965011
 30
0.0
 11
47.70668461426095
 21
212.2383411965011
 31
0.0
  0
LINE
  5
A7DA
  8
0
 10
47.70668461426095
 20
212.2383411965011
 30
0.0
 11
47.70668461426095
 21
212.5723260465011
 31
0.0
  0
LINE
  5
A7DB
  8
0
 10
47.70668461426095
 20
212.5723260465011
 30
0.0
 11
46.70509961426094
 21
212.5723260465011
 31
0.0
  0
LINE
  5
A7DC
  8
0
 10
46.70509961426094
 20
212.5723260465011
 30
0.0
 11
46.70509961426094
 21
212.2383411965011
 31
0.0
  0
LINE
  5
A7DD
  8
0
 10
48.04032461426098
 20
212.2383411965011
 30
0.0
 11
49.04153911426096
 21
212.2383411965011
 31
0.0
  0
LINE
  5
A7DE
  8
0
 10
49.04153911426096
 20
212.2383411965011
 30
0.0
 11
49.04153911426096
 21
212.5723260465011
 31
0.0
  0
LINE
  5
A7DF
  8
0
 10
49.04153911426096
 20
212.5723260465011
 30
0.0
 11
48.04032461426098
 21
212.5723260465011
 31
0.0
  0
LINE
  5
A7E0
  8
0
 10
48.04032461426098
 20
212.5723260465011
 30
0.0
 11
48.04032461426098
 21
212.2383411965011
 31
0.0
  0
LINE
  5
A7E1
  8
0
 10
49.70909461426098
 20
212.2383411965011
 30
0.0
 11
50.04307851426094
 21
212.2383411965011
 31
0.0
  0
LINE
  5
A7E2
  8
0
 10
50.04307851426094
 20
212.2383411965011
 30
0.0
 11
50.04307851426094
 21
212.5723260465011
 31
0.0
  0
LINE
  5
A7E3
  8
0
 10
50.04307851426094
 20
212.5723260465011
 30
0.0
 11
49.70909461426098
 21
212.5723260465011
 31
0.0
  0
LINE
  5
A7E4
  8
0
 10
49.70909461426098
 20
212.5723260465011
 30
0.0
 11
49.70909461426098
 21
212.2383411965011
 31
0.0
  0
LINE
  5
A7E5
  8
0
 10
50.70991961426097
 20
212.2383411965011
 30
0.0
 11
51.04427496426095
 21
212.2383411965011
 31
0.0
  0
LINE
  5
A7E6
  8
0
 10
51.04427496426095
 20
212.2383411965011
 30
0.0
 11
51.04427496426095
 21
212.5723260465011
 31
0.0
  0
LINE
  5
A7E7
  8
0
 10
51.04427496426095
 20
212.5723260465011
 30
0.0
 11
50.70991961426097
 21
212.5723260465011
 31
0.0
  0
LINE
  5
A7E8
  8
0
 10
50.70991961426097
 20
212.5723260465011
 30
0.0
 11
50.70991961426097
 21
212.2383411965011
 31
0.0
  0
LINE
  5
A7E9
  8
0
 10
51.37748461426096
 20
212.2383411965011
 30
0.0
 11
51.71146851426096
 21
212.2383411965011
 31
0.0
  0
LINE
  5
A7EA
  8
0
 10
51.71146851426096
 20
212.2383411965011
 30
0.0
 11
51.71146851426096
 21
212.5723260465011
 31
0.0
  0
LINE
  5
A7EB
  8
0
 10
51.71146851426096
 20
212.5723260465011
 30
0.0
 11
51.37748461426096
 21
212.5723260465011
 31
0.0
  0
LINE
  5
A7EC
  8
0
 10
51.37748461426096
 20
212.5723260465011
 30
0.0
 11
51.37748461426096
 21
212.2383411965011
 31
0.0
  0
LINE
  5
A7ED
  8
0
 10
52.04590461426093
 20
212.2383411965011
 30
0.0
 11
52.37988946426097
 21
212.2383411965011
 31
0.0
  0
LINE
  5
A7EF
  8
0
 10
52.37988946426097
 20
212.2382965465011
 30
0.0
 11
52.37988946426097
 21
212.5723260465011
 31
0.0
  0
LINE
  5
A7F0
  8
0
 10
52.37988946426097
 20
212.5723260465011
 30
0.0
 11
52.04590461426093
 21
212.5723260465011
 31
0.0
  0
LINE
  5
A7F1
  8
0
 10
52.04590461426093
 20
212.5723260465011
 30
0.0
 11
52.04590461426093
 21
212.2382965465011
 31
0.0
  0
LINE
  5
A7F2
  8
0
 10
44.03436461426097
 20
211.9039411965011
 30
0.0
 11
44.36871996426098
 21
211.9039411965011
 31
0.0
  0
LINE
  5
A7F3
  8
0
 10
44.36871996426098
 20
211.9039411965011
 30
0.0
 11
44.36871996426098
 21
212.2382965465011
 31
0.0
  0
LINE
  5
A7F4
  8
0
 10
44.36871996426098
 20
212.2382965465011
 30
0.0
 11
44.03436461426097
 21
212.2382965465011
 31
0.0
  0
LINE
  5
A7F5
  8
0
 10
44.03436461426097
 20
212.2382965465011
 30
0.0
 11
44.03436461426097
 21
211.9039411965011
 31
0.0
  0
LINE
  5
A7F6
  8
0
 10
44.70192961426093
 20
211.9039411965011
 30
0.0
 11
45.70351461426097
 21
211.9039411965011
 31
0.0
  0
LINE
  5
A7F7
  8
0
 10
45.70351461426097
 20
211.9039411965011
 30
0.0
 11
45.70351461426097
 21
212.2382965465011
 31
0.0
  0
LINE
  5
A7F8
  8
0
 10
45.70351461426097
 20
212.2382965465011
 30
0.0
 11
44.70192961426093
 21
212.2382965465011
 31
0.0
  0
LINE
  5
A7F9
  8
0
 10
44.70192961426093
 20
212.2382965465011
 30
0.0
 11
44.70192961426093
 21
211.9039411965011
 31
0.0
  0
LINE
  5
A7FA
  8
0
 10
46.03743961426093
 20
211.9039411965011
 30
0.0
 11
46.37142351426095
 21
211.9039411965011
 31
0.0
  0
LINE
  5
A7FB
  8
0
 10
46.37142351426095
 20
211.9039411965011
 30
0.0
 11
46.37142351426095
 21
212.2382965465011
 31
0.0
  0
LINE
  5
A7FC
  8
0
 10
46.37142351426095
 20
212.2382965465011
 30
0.0
 11
46.03743961426093
 21
212.2382965465011
 31
0.0
  0
LINE
  5
A7FD
  8
0
 10
46.03743961426093
 20
212.2382965465011
 30
0.0
 11
46.03743961426093
 21
211.9039411965011
 31
0.0
  0
LINE
  5
A7FE
  8
0
 10
46.70509961426094
 20
211.9039411965011
 30
0.0
 11
47.70668461426095
 21
211.9039411965011
 31
0.0
  0
LINE
  5
A7FF
  8
0
 10
47.70668461426095
 20
211.9039411965011
 30
0.0
 11
47.70668461426095
 21
212.2382965465011
 31
0.0
  0
LINE
  5
A800
  8
0
 10
47.70668461426095
 20
212.2382965465011
 30
0.0
 11
46.70509961426094
 21
212.2382965465011
 31
0.0
  0
LINE
  5
A801
  8
0
 10
46.70509961426094
 20
212.2382965465011
 30
0.0
 11
46.70509961426094
 21
211.9039411965011
 31
0.0
  0
LINE
  5
A802
  8
0
 10
48.04032461426098
 20
211.9039411965011
 30
0.0
 11
48.70755141426096
 21
211.9039411965011
 31
0.0
  0
LINE
  5
A803
  8
0
 10
48.70755141426096
 20
211.9039411965011
 30
0.0
 11
48.70755141426096
 21
212.2382965465011
 31
0.0
  0
LINE
  5
A804
  8
0
 10
48.70755141426096
 20
212.2382965465011
 30
0.0
 11
48.04032461426098
 21
212.2382965465011
 31
0.0
  0
LINE
  5
A805
  8
0
 10
48.04032461426098
 20
212.2382965465011
 30
0.0
 11
48.04032461426098
 21
211.9039411965011
 31
0.0
  0
LINE
  5
A806
  8
0
 10
49.04152961426095
 20
211.9039411965011
 30
0.0
 11
49.37588496426096
 21
211.9039411965011
 31
0.0
  0
LINE
  5
A807
  8
0
 10
49.37588496426096
 20
211.9039411965011
 30
0.0
 11
49.37588496426096
 21
212.2382965465011
 31
0.0
  0
LINE
  5
A808
  8
0
 10
49.37588496426096
 20
212.2382965465011
 30
0.0
 11
49.04152961426095
 21
212.2382965465011
 31
0.0
  0
LINE
  5
A809
  8
0
 10
49.04152961426095
 20
212.2382965465011
 30
0.0
 11
49.04152961426095
 21
211.9039411965011
 31
0.0
  0
LINE
  5
A80A
  8
0
 10
49.70909461426098
 20
211.9039411965011
 30
0.0
 11
50.71067961426095
 21
211.9039411965011
 31
0.0
  0
LINE
  5
A80B
  8
0
 10
50.71067961426095
 20
211.9039411965011
 30
0.0
 11
50.71067961426095
 21
212.2382965465011
 31
0.0
  0
LINE
  5
A80C
  8
0
 10
50.71067961426095
 20
212.2382965465011
 30
0.0
 11
49.70909461426098
 21
212.2382965465011
 31
0.0
  0
LINE
  5
A80D
  8
0
 10
49.70909461426098
 20
212.2382965465011
 30
0.0
 11
49.70909461426098
 21
211.9039411965011
 31
0.0
  0
LINE
  5
A80E
  8
0
 10
51.04431961426096
 20
211.9039411965011
 30
0.0
 11
51.37830446426094
 21
211.9039411965011
 31
0.0
  0
LINE
  5
A80F
  8
0
 10
51.37830446426094
 20
211.9039411965011
 30
0.0
 11
51.37830446426094
 21
212.2382965465011
 31
0.0
  0
LINE
  5
A810
  8
0
 10
51.37830446426094
 20
212.2382965465011
 30
0.0
 11
51.04431961426096
 21
212.2382965465011
 31
0.0
  0
LINE
  5
A811
  8
0
 10
51.04431961426096
 20
212.2382965465011
 30
0.0
 11
51.04431961426096
 21
211.9039411965011
 31
0.0
  0
LINE
  5
A812
  8
0
 10
52.04590461426093
 20
211.9039411965011
 30
0.0
 11
52.37988946426097
 21
211.9039411965011
 31
0.0
  0
LINE
  5
A813
  8
0
 10
52.37988946426097
 20
211.9039411965011
 30
0.0
 11
52.37988946426097
 21
212.2382965465011
 31
0.0
  0
LINE
  5
A814
  8
0
 10
52.37988946426097
 20
212.2382965465011
 30
0.0
 11
52.04590461426093
 21
212.2382965465011
 31
0.0
  0
LINE
  5
A815
  8
0
 10
52.04590461426093
 20
212.2382965465011
 30
0.0
 11
52.04590461426093
 21
211.9039411965011
 31
0.0
  0
LINE
  5
A817
  8
0
 10
54.38223961426095
 20
211.2367561965011
 30
0.0
 11
54.38223961426095
 21
212.2382965465011
 31
0.0
  0
LINE
  5
A818
  8
0
 10
54.38223961426095
 20
212.2382965465011
 30
0.0
 11
53.38065461426095
 21
212.2382965465011
 31
0.0
  0
LINE
  5
A819
  8
0
 10
53.38065461426095
 20
212.2382965465011
 30
0.0
 11
53.38065461426095
 21
211.2367561965011
 31
0.0
  0
LINE
  5
A81A
  8
0
 10
44.03436461426097
 20
211.5706811965011
 30
0.0
 11
44.36871996426098
 21
211.5706811965011
 31
0.0
  0
LINE
  5
A81B
  8
0
 10
44.36871996426098
 20
211.5706811965011
 30
0.0
 11
44.36871996426098
 21
211.9046650965011
 31
0.0
  0
LINE
  5
A81C
  8
0
 10
44.36871996426098
 20
211.9046650965011
 30
0.0
 11
44.03436461426097
 21
211.9046650965011
 31
0.0
  0
LINE
  5
A81D
  8
0
 10
44.03436461426097
 20
211.9046650965011
 30
0.0
 11
44.03436461426097
 21
211.5706811965011
 31
0.0
  0
LINE
  5
A81E
  8
0
 10
44.70192961426093
 20
211.5706811965011
 30
0.0
 11
45.70351461426097
 21
211.5706811965011
 31
0.0
  0
LINE
  5
A81F
  8
0
 10
45.70351461426097
 20
211.5706811965011
 30
0.0
 11
45.70351461426097
 21
211.9046650965011
 31
0.0
  0
LINE
  5
A820
  8
0
 10
45.70351461426097
 20
211.9046650965011
 30
0.0
 11
44.70192961426093
 21
211.9046650965011
 31
0.0
  0
LINE
  5
A821
  8
0
 10
44.70192961426093
 20
211.9046650965011
 30
0.0
 11
44.70192961426093
 21
211.5706811965011
 31
0.0
  0
LINE
  5
A822
  8
0
 10
46.03743961426093
 20
211.5706811965011
 30
0.0
 11
46.37142351426095
 21
211.5706811965011
 31
0.0
  0
LINE
  5
A823
  8
0
 10
46.37142351426095
 20
211.5706811965011
 30
0.0
 11
46.37142351426095
 21
211.9046650965011
 31
0.0
  0
LINE
  5
A824
  8
0
 10
46.37142351426095
 20
211.9046650965011
 30
0.0
 11
46.03743961426093
 21
211.9046650965011
 31
0.0
  0
LINE
  5
A825
  8
0
 10
46.03743961426093
 20
211.9046650965011
 30
0.0
 11
46.03743961426093
 21
211.5706811965011
 31
0.0
  0
LINE
  5
A826
  8
0
 10
46.70509961426094
 20
211.5706811965011
 30
0.0
 11
47.03908446426098
 21
211.5706811965011
 31
0.0
  0
LINE
  5
A827
  8
0
 10
47.03908446426098
 20
211.5706811965011
 30
0.0
 11
47.03908446426098
 21
211.9046650965011
 31
0.0
  0
LINE
  5
A828
  8
0
 10
47.03908446426098
 20
211.9046650965011
 30
0.0
 11
46.70509961426094
 21
211.9046650965011
 31
0.0
  0
LINE
  5
A829
  8
0
 10
46.70509961426094
 20
211.9046650965011
 30
0.0
 11
46.70509961426094
 21
211.5706811965011
 31
0.0
  0
LINE
  5
A82A
  8
0
 10
50.37665961426094
 20
211.5706811965011
 30
0.0
 11
50.71064351426097
 21
211.5706811965011
 31
0.0
  0
LINE
  5
A82B
  8
0
 10
50.71064351426097
 20
211.5706811965011
 30
0.0
 11
50.71064351426097
 21
211.9046650965011
 31
0.0
  0
LINE
  5
A82C
  8
0
 10
50.71064351426097
 20
211.9046650965011
 30
0.0
 11
50.37665961426094
 21
211.9046650965011
 31
0.0
  0
LINE
  5
A82D
  8
0
 10
50.37665961426094
 20
211.9046650965011
 30
0.0
 11
50.37665961426094
 21
211.5706811965011
 31
0.0
  0
LINE
  5
A82E
  8
0
 10
51.04431961426096
 20
211.5706811965011
 30
0.0
 11
52.37914561426095
 21
211.5706811965011
 31
0.0
  0
LINE
  5
A82F
  8
0
 10
52.37914561426095
 20
211.5706811965011
 30
0.0
 11
52.37914561426095
 21
211.9046650965011
 31
0.0
  0
LINE
  5
A830
  8
0
 10
52.37914561426095
 20
211.9046650965011
 30
0.0
 11
51.04431961426096
 21
211.9046650965011
 31
0.0
  0
LINE
  5
A831
  8
0
 10
51.04431961426096
 20
211.9046650965011
 30
0.0
 11
51.04431961426096
 21
211.5706811965011
 31
0.0
  0
LINE
  5
A832
  8
0
 10
44.03436461426097
 20
211.2367561965011
 30
0.0
 11
44.36871996426098
 21
211.2367561965011
 31
0.0
  0
LINE
  5
A833
  8
0
 10
44.36871996426098
 20
211.2367561965011
 30
0.0
 11
44.36871996426098
 21
211.5707410465011
 31
0.0
  0
LINE
  5
A834
  8
0
 10
44.36871996426098
 20
211.5707410465011
 30
0.0
 11
44.03436461426097
 21
211.5707410465011
 31
0.0
  0
LINE
  5
A835
  8
0
 10
44.03436461426097
 20
211.5707410465011
 30
0.0
 11
44.03436461426097
 21
211.2367561965011
 31
0.0
  0
LINE
  5
A836
  8
0
 10
44.70192961426093
 20
211.2367561965011
 30
0.0
 11
45.70351461426097
 21
211.2367561965011
 31
0.0
  0
LINE
  5
A837
  8
0
 10
45.70351461426097
 20
211.2367561965011
 30
0.0
 11
45.70351461426097
 21
211.5707410465011
 31
0.0
  0
LINE
  5
A838
  8
0
 10
45.70351461426097
 20
211.5707410465011
 30
0.0
 11
44.70192961426093
 21
211.5707410465011
 31
0.0
  0
LINE
  5
A839
  8
0
 10
44.70192961426093
 20
211.5707410465011
 30
0.0
 11
44.70192961426093
 21
211.2367561965011
 31
0.0
  0
LINE
  5
A83A
  8
0
 10
46.03743961426093
 20
211.2367561965011
 30
0.0
 11
46.37142351426095
 21
211.2367561965011
 31
0.0
  0
LINE
  5
A83B
  8
0
 10
46.37142351426095
 20
211.2367561965011
 30
0.0
 11
46.37142351426095
 21
211.5707410465011
 31
0.0
  0
LINE
  5
A83C
  8
0
 10
46.37142351426095
 20
211.5707410465011
 30
0.0
 11
46.03743961426093
 21
211.5707410465011
 31
0.0
  0
LINE
  5
A83D
  8
0
 10
46.03743961426093
 20
211.5707410465011
 30
0.0
 11
46.03743961426093
 21
211.2367561965011
 31
0.0
  0
LINE
  5
A83E
  8
0
 10
47.03873961426095
 20
211.2367561965011
 30
0.0
 11
47.37272446426093
 21
211.2367561965011
 31
0.0
  0
LINE
  5
A83F
  8
0
 10
47.37272446426093
 20
211.2367561965011
 30
0.0
 11
47.37272446426093
 21
211.5707410465011
 31
0.0
  0
LINE
  5
A840
  8
0
 10
47.37272446426093
 20
211.5707410465011
 30
0.0
 11
47.03873961426095
 21
211.5707410465011
 31
0.0
  0
LINE
  5
A841
  8
0
 10
47.03873961426095
 20
211.5707410465011
 30
0.0
 11
47.03873961426095
 21
211.2367561965011
 31
0.0
  0
LINE
  5
A842
  8
0
 10
47.70592461426097
 20
211.2367561965011
 30
0.0
 11
48.70750961426097
 21
211.2367561965011
 31
0.0
  0
LINE
  5
A843
  8
0
 10
48.70750961426097
 20
211.2367561965011
 30
0.0
 11
48.70750961426097
 21
211.5707410465011
 31
0.0
  0
LINE
  5
A844
  8
0
 10
48.70750961426097
 20
211.5707410465011
 30
0.0
 11
47.70592461426097
 21
211.5707410465011
 31
0.0
  0
LINE
  5
A845
  8
0
 10
47.70592461426097
 20
211.5707410465011
 30
0.0
 11
47.70592461426097
 21
211.2367561965011
 31
0.0
  0
LINE
  5
A846
  8
0
 10
49.04152961426095
 20
211.2367561965011
 30
0.0
 11
49.37588496426096
 21
211.2367561965011
 31
0.0
  0
LINE
  5
A847
  8
0
 10
49.37588496426096
 20
211.2367561965011
 30
0.0
 11
49.37588496426096
 21
211.5707410465011
 31
0.0
  0
LINE
  5
A848
  8
0
 10
49.37588496426096
 20
211.5707410465011
 30
0.0
 11
49.04152961426095
 21
211.5707410465011
 31
0.0
  0
LINE
  5
A849
  8
0
 10
49.04152961426095
 20
211.5707410465011
 30
0.0
 11
49.04152961426095
 21
211.2367561965011
 31
0.0
  0
LINE
  5
A84A
  8
0
 10
49.70909461426098
 20
211.2367561965011
 30
0.0
 11
50.37669191426096
 21
211.2367561965011
 31
0.0
  0
LINE
  5
A84B
  8
0
 10
50.37669191426096
 20
211.2367561965011
 30
0.0
 11
50.37669191426096
 21
211.5707410465011
 31
0.0
  0
LINE
  5
A84C
  8
0
 10
50.37669191426096
 20
211.5707410465011
 30
0.0
 11
49.70909461426098
 21
211.5707410465011
 31
0.0
  0
LINE
  5
A84D
  8
0
 10
49.70909461426098
 20
211.5707410465011
 30
0.0
 11
49.70909461426098
 21
211.2367561965011
 31
0.0
  0
LINE
  5
A84E
  8
0
 10
51.71150461426097
 20
211.2367561965011
 30
0.0
 11
52.04585996426096
 21
211.2367561965011
 31
0.0
  0
LINE
  5
A84F
  8
0
 10
52.04585996426096
 20
211.2367561965011
 30
0.0
 11
52.04585996426096
 21
211.5707410465011
 31
0.0
  0
LINE
  5
A850
  8
0
 10
52.04585996426096
 20
211.5707410465011
 30
0.0
 11
51.71150461426097
 21
211.5707410465011
 31
0.0
  0
LINE
  5
A851
  8
0
 10
51.71150461426097
 20
211.5707410465011
 30
0.0
 11
51.71150461426097
 21
211.2367561965011
 31
0.0
  0
LINE
  5
A852
  8
0
 10
53.38065461426095
 20
211.2367561965011
 30
0.0
 11
54.38223961426095
 21
211.2367561965011
 31
0.0
  0
LINE
  5
A853
  8
0
 10
44.03436461426097
 20
210.9031161965011
 30
0.0
 11
44.36871996426098
 21
210.9031161965011
 31
0.0
  0
LINE
  5
A854
  8
0
 10
44.36871996426098
 20
210.9031161965011
 30
0.0
 11
44.36871996426098
 21
211.2371010465011
 31
0.0
  0
LINE
  5
A855
  8
0
 10
44.36871996426098
 20
211.2371010465011
 30
0.0
 11
44.03436461426097
 21
211.2371010465011
 31
0.0
  0
LINE
  5
A856
  8
0
 10
44.03436461426097
 20
211.2371010465011
 30
0.0
 11
44.03436461426097
 21
210.9031161965011
 31
0.0
  0
LINE
  5
A857
  8
0
 10
46.03743961426093
 20
210.9031161965011
 30
0.0
 11
46.37142351426095
 21
210.9031161965011
 31
0.0
  0
LINE
  5
A858
  8
0
 10
46.37142351426095
 20
210.9031161965011
 30
0.0
 11
46.37142351426095
 21
211.2371010465011
 31
0.0
  0
LINE
  5
A859
  8
0
 10
46.37142351426095
 20
211.2371010465011
 30
0.0
 11
46.03743961426093
 21
211.2371010465011
 31
0.0
  0
LINE
  5
A85A
  8
0
 10
46.03743961426093
 20
211.2371010465011
 30
0.0
 11
46.03743961426093
 21
210.9031161965011
 31
0.0
  0
LINE
  5
A85B
  8
0
 10
48.37348961426093
 20
210.9031161965011
 30
0.0
 11
49.04108786426096
 21
210.9031161965011
 31
0.0
  0
LINE
  5
A85C
  8
0
 10
49.04108786426096
 20
210.9031161965011
 30
0.0
 11
49.04108786426096
 21
211.2371010465011
 31
0.0
  0
LINE
  5
A85D
  8
0
 10
49.04108786426096
 20
211.2371010465011
 30
0.0
 11
48.37348961426093
 21
211.2371010465011
 31
0.0
  0
LINE
  5
A85E
  8
0
 10
48.37348961426093
 20
211.2371010465011
 30
0.0
 11
48.37348961426093
 21
210.9031161965011
 31
0.0
  0
LINE
  5
A85F
  8
0
 10
49.37507461426097
 20
210.9031161965011
 30
0.0
 11
49.70905946426095
 21
210.9031161965011
 31
0.0
  0
LINE
  5
A860
  8
0
 10
49.70905946426095
 20
210.9031161965011
 30
0.0
 11
49.70905946426095
 21
211.2371010465011
 31
0.0
  0
LINE
  5
A861
  8
0
 10
49.70905946426095
 20
211.2371010465011
 30
0.0
 11
49.37507461426097
 21
211.2371010465011
 31
0.0
  0
LINE
  5
A862
  8
0
 10
49.37507461426097
 20
211.2371010465011
 30
0.0
 11
49.37507461426097
 21
210.9031161965011
 31
0.0
  0
LINE
  5
A863
  8
0
 10
50.04273461426095
 20
210.9031161965011
 30
0.0
 11
50.37671946426096
 21
210.9031161965011
 31
0.0
  0
LINE
  5
A864
  8
0
 10
50.37671946426096
 20
210.9031161965011
 30
0.0
 11
50.37671946426096
 21
211.2371010465011
 31
0.0
  0
LINE
  5
A865
  8
0
 10
50.37671946426096
 20
211.2371010465011
 30
0.0
 11
50.04273461426095
 21
211.2371010465011
 31
0.0
  0
LINE
  5
A866
  8
0
 10
50.04273461426095
 20
211.2371010465011
 30
0.0
 11
50.04273461426095
 21
210.9031161965011
 31
0.0
  0
LINE
  5
A867
  8
0
 10
50.70991961426097
 20
210.9031161965011
 30
0.0
 11
51.04427496426095
 21
210.9031161965011
 31
0.0
  0
LINE
  5
A868
  8
0
 10
51.04427496426095
 20
210.9031161965011
 30
0.0
 11
51.04427496426095
 21
211.2371010465011
 31
0.0
  0
LINE
  5
A869
  8
0
 10
51.04427496426095
 20
211.2371010465011
 30
0.0
 11
50.70991961426097
 21
211.2371010465011
 31
0.0
  0
LINE
  5
A86A
  8
0
 10
50.70991961426097
 20
211.2371010465011
 30
0.0
 11
50.70991961426097
 21
210.9031161965011
 31
0.0
  0
LINE
  5
A86B
  8
0
 10
53.04707351426096
 20
210.9030800965011
 30
0.0
 11
53.04707351426096
 21
212.5722661965011
 31
0.0
  0
LINE
  5
A86C
  8
0
 10
54.71549961426096
 20
212.5722661965011
 30
0.0
 11
54.71549961426096
 21
210.9030800965011
 31
0.0
  0
LINE
  5
A86D
  8
0
 10
44.03436461426097
 20
210.5690961965011
 30
0.0
 11
46.37114611426099
 21
210.5690961965011
 31
0.0
  0
LINE
  5
A86E
  8
0
 10
46.37114611426099
 20
210.5690961965011
 30
0.0
 11
46.37114611426099
 21
210.9030800965011
 31
0.0
  0
LINE
  5
A86F
  8
0
 10
46.37114611426099
 20
210.9030800965011
 30
0.0
 11
44.03436461426097
 21
210.9030800965011
 31
0.0
  0
LINE
  5
A870
  8
0
 10
44.03436461426097
 20
210.9030800965011
 30
0.0
 11
44.03436461426097
 21
210.5690961965011
 31
0.0
  0
LINE
  5
A871
  8
0
 10
46.70509961426094
 20
210.5690961965011
 30
0.0
 11
47.03908446426098
 21
210.5690961965011
 31
0.0
  0
LINE
  5
A872
  8
0
 10
47.03908446426098
 20
210.5690961965011
 30
0.0
 11
47.03908446426098
 21
210.9030800965011
 31
0.0
  0
LINE
  5
A873
  8
0
 10
47.03908446426098
 20
210.9030800965011
 30
0.0
 11
46.70509961426094
 21
210.9030800965011
 31
0.0
  0
LINE
  5
A874
  8
0
 10
46.70509961426094
 20
210.9030800965011
 30
0.0
 11
46.70509961426094
 21
210.5690961965011
 31
0.0
  0
LINE
  5
A875
  8
0
 10
47.37266461426097
 20
210.5690961965011
 30
0.0
 11
47.70664851426096
 21
210.5690961965011
 31
0.0
  0
LINE
  5
A876
  8
0
 10
47.70664851426096
 20
210.5690961965011
 30
0.0
 11
47.70664851426096
 21
210.9030800965011
 31
0.0
  0
LINE
  5
A877
  8
0
 10
47.70664851426096
 20
210.9030800965011
 30
0.0
 11
47.37266461426097
 21
210.9030800965011
 31
0.0
  0
LINE
  5
A878
  8
0
 10
47.37266461426097
 20
210.9030800965011
 30
0.0
 11
47.37266461426097
 21
210.5690961965011
 31
0.0
  0
LINE
  5
A879
  8
0
 10
48.04032461426098
 20
210.5690961965011
 30
0.0
 11
48.37430851426095
 21
210.5690961965011
 31
0.0
  0
LINE
  5
A87A
  8
0
 10
48.37430851426095
 20
210.5690961965011
 30
0.0
 11
48.37430851426095
 21
210.9030800965011
 31
0.0
  0
LINE
  5
A87B
  8
0
 10
48.37430851426095
 20
210.9030800965011
 30
0.0
 11
48.04032461426098
 21
210.9030800965011
 31
0.0
  0
LINE
  5
A87C
  8
0
 10
48.04032461426098
 20
210.9030800965011
 30
0.0
 11
48.04032461426098
 21
210.5690961965011
 31
0.0
  0
LINE
  5
A87D
  8
0
 10
48.70750961426097
 20
210.5690961965011
 30
0.0
 11
49.04149351426096
 21
210.5690961965011
 31
0.0
  0
LINE
  5
A87E
  8
0
 10
49.04149351426096
 20
210.5690961965011
 30
0.0
 11
49.04149351426096
 21
210.9030800965011
 31
0.0
  0
LINE
  5
A87F
  8
0
 10
49.04149351426096
 20
210.9030800965011
 30
0.0
 11
48.70750961426097
 21
210.9030800965011
 31
0.0
  0
LINE
  5
A880
  8
0
 10
48.70750961426097
 20
210.9030800965011
 30
0.0
 11
48.70750961426097
 21
210.5690961965011
 31
0.0
  0
LINE
  5
A881
  8
0
 10
49.37507461426097
 20
210.5690961965011
 30
0.0
 11
49.70905946426095
 21
210.5690961965011
 31
0.0
  0
LINE
  5
A882
  8
0
 10
49.70905946426095
 20
210.5690961965011
 30
0.0
 11
49.70905946426095
 21
210.9030800965011
 31
0.0
  0
LINE
  5
A883
  8
0
 10
49.70905946426095
 20
210.9030800965011
 30
0.0
 11
49.37507461426097
 21
210.9030800965011
 31
0.0
  0
LINE
  5
A884
  8
0
 10
49.37507461426097
 20
210.9030800965011
 30
0.0
 11
49.37507461426097
 21
210.5690961965011
 31
0.0
  0
LINE
  5
A885
  8
0
 10
50.04273461426095
 20
210.5690961965011
 30
0.0
 11
50.37671946426096
 21
210.5690961965011
 31
0.0
  0
LINE
  5
A886
  8
0
 10
50.37671946426096
 20
210.5690961965011
 30
0.0
 11
50.37671946426096
 21
210.9030800965011
 31
0.0
  0
LINE
  5
A887
  8
0
 10
50.37671946426096
 20
210.9030800965011
 30
0.0
 11
50.04273461426095
 21
210.9030800965011
 31
0.0
  0
LINE
  5
A888
  8
0
 10
50.04273461426095
 20
210.9030800965011
 30
0.0
 11
50.04273461426095
 21
210.5690961965011
 31
0.0
  0
LINE
  5
A889
  8
0
 10
50.70991961426097
 20
210.5690961965011
 30
0.0
 11
51.04427496426095
 21
210.5690961965011
 31
0.0
  0
LINE
  5
A88A
  8
0
 10
51.04427496426095
 20
210.5690961965011
 30
0.0
 11
51.04427496426095
 21
210.9030800965011
 31
0.0
  0
LINE
  5
A88B
  8
0
 10
51.04427496426095
 20
210.9030800965011
 30
0.0
 11
50.70991961426097
 21
210.9030800965011
 31
0.0
  0
LINE
  5
A88C
  8
0
 10
50.70991961426097
 20
210.9030800965011
 30
0.0
 11
50.70991961426097
 21
210.5690961965011
 31
0.0
  0
LINE
  5
A88D
  8
0
 10
51.37748461426096
 20
210.5690961965011
 30
0.0
 11
51.71146851426096
 21
210.5690961965011
 31
0.0
  0
LINE
  5
A88E
  8
0
 10
51.71146851426096
 20
210.5690961965011
 30
0.0
 11
51.71146851426096
 21
210.9030800965011
 31
0.0
  0
LINE
  5
A88F
  8
0
 10
51.71146851426096
 20
210.9030800965011
 30
0.0
 11
51.37748461426096
 21
210.9030800965011
 31
0.0
  0
LINE
  5
A890
  8
0
 10
51.37748461426096
 20
210.9030800965011
 30
0.0
 11
51.37748461426096
 21
210.5690961965011
 31
0.0
  0
LINE
  5
A891
  8
0
 10
52.04590461426093
 20
210.5690961965011
 30
0.0
 11
52.37988946426097
 21
210.5690961965011
 31
0.0
  0
LINE
  5
A892
  8
0
 10
52.37988946426097
 20
210.5690961965011
 30
0.0
 11
52.37988946426097
 21
210.9030800965011
 31
0.0
  0
LINE
  5
A893
  8
0
 10
52.37988946426097
 20
210.9030800965011
 30
0.0
 11
52.04590461426093
 21
210.9030800965011
 31
0.0
  0
LINE
  5
A894
  8
0
 10
52.04590461426093
 20
210.9030800965011
 30
0.0
 11
52.04590461426093
 21
210.5690961965011
 31
0.0
  0
LINE
  5
A895
  8
0
 10
52.71308961426097
 20
210.5690961965011
 30
0.0
 11
55.04987111426095
 21
210.5690961965011
 31
0.0
  0
LINE
  5
A896
  8
0
 10
54.71549961426096
 20
210.9030800965011
 30
0.0
 11
53.04707351426096
 21
210.9030800965011
 31
0.0
  0
LINE
  5
A897
  8
0
 10
46.70509961426094
 20
210.2359311965011
 30
0.0
 11
47.03908446426098
 21
210.2359311965011
 31
0.0
  0
LINE
  5
A898
  8
0
 10
47.03908446426098
 20
210.2359311965011
 30
0.0
 11
47.03908446426098
 21
210.5699150965011
 31
0.0
  0
LINE
  5
A899
  8
0
 10
47.03908446426098
 20
210.5699150965011
 30
0.0
 11
46.70509961426094
 21
210.5699150965011
 31
0.0
  0
LINE
  5
A89A
  8
0
 10
46.70509961426094
 20
210.5699150965011
 30
0.0
 11
46.70509961426094
 21
210.2359311965011
 31
0.0
  0
LINE
  5
A89B
  8
0
 10
48.04032461426098
 20
210.2359311965011
 30
0.0
 11
48.37430851426095
 21
210.2359311965011
 31
0.0
  0
LINE
  5
A89C
  8
0
 10
48.37430851426095
 20
210.2359311965011
 30
0.0
 11
48.37430851426095
 21
210.5699150965011
 31
0.0
  0
LINE
  5
A89D
  8
0
 10
48.37430851426095
 20
210.5699150965011
 30
0.0
 11
48.04032461426098
 21
210.5699150965011
 31
0.0
  0
LINE
  5
A89E
  8
0
 10
48.04032461426098
 20
210.5699150965011
 30
0.0
 11
48.04032461426098
 21
210.2359311965011
 31
0.0
  0
LINE
  5
A89F
  8
0
 10
48.70750961426097
 20
210.2359311965011
 30
0.0
 11
49.04149351426096
 21
210.2359311965011
 31
0.0
  0
LINE
  5
A8A0
  8
0
 10
49.04149351426096
 20
210.2359311965011
 30
0.0
 11
49.04149351426096
 21
210.5699150965011
 31
0.0
  0
LINE
  5
A8A1
  8
0
 10
49.04149351426096
 20
210.5699150965011
 30
0.0
 11
48.70750961426097
 21
210.5699150965011
 31
0.0
  0
LINE
  5
A8A2
  8
0
 10
48.70750961426097
 20
210.5699150965011
 30
0.0
 11
48.70750961426097
 21
210.2359311965011
 31
0.0
  0
LINE
  5
A8A3
  8
0
 10
51.37748461426096
 20
210.2359311965011
 30
0.0
 11
51.71146851426096
 21
210.2359311965011
 31
0.0
  0
LINE
  5
A8A4
  8
0
 10
51.71146851426096
 20
210.2359311965011
 30
0.0
 11
51.71146851426096
 21
210.5699150965011
 31
0.0
  0
LINE
  5
A8A5
  8
0
 10
51.71146851426096
 20
210.5699150965011
 30
0.0
 11
51.37748461426096
 21
210.5699150965011
 31
0.0
  0
LINE
  5
A8A6
  8
0
 10
51.37748461426096
 20
210.5699150965011
 30
0.0
 11
51.37748461426096
 21
210.2359311965011
 31
0.0
  0
LINE
  5
A8A7
  8
0
 10
52.04590461426093
 20
210.2359311965011
 30
0.0
 11
52.37988946426097
 21
210.2359311965011
 31
0.0
  0
LINE
  5
A8A8
  8
0
 10
52.37988946426097
 20
210.2359311965011
 30
0.0
 11
52.37988946426097
 21
210.5699150965011
 31
0.0
  0
LINE
  5
A8A9
  8
0
 10
52.37988946426097
 20
210.5699150965011
 30
0.0
 11
52.04590461426093
 21
210.5699150965011
 31
0.0
  0
LINE
  5
A8AA
  8
0
 10
52.04590461426093
 20
210.5699150965011
 30
0.0
 11
52.04590461426093
 21
210.2359311965011
 31
0.0
  0
LINE
  5
A8AB
  8
0
 10
44.03436461426097
 20
209.9015311965011
 30
0.0
 11
44.36871996426098
 21
209.9015311965011
 31
0.0
  0
LINE
  5
A8AC
  8
0
 10
44.36871996426098
 20
209.9015311965011
 30
0.0
 11
44.36871996426098
 21
210.2358865465011
 31
0.0
  0
LINE
  5
A8AD
  8
0
 10
44.36871996426098
 20
210.2358865465011
 30
0.0
 11
44.03436461426097
 21
210.2358865465011
 31
0.0
  0
LINE
  5
A8AE
  8
0
 10
44.03436461426097
 20
210.2358865465011
 30
0.0
 11
44.03436461426097
 21
209.9015311965011
 31
0.0
  0
LINE
  5
A8AF
  8
0
 10
46.03743961426093
 20
209.9015311965011
 30
0.0
 11
46.37142351426095
 21
209.9015311965011
 31
0.0
  0
LINE
  5
A8B0
  8
0
 10
46.37142351426095
 20
209.9015311965011
 30
0.0
 11
46.37142351426095
 21
210.2358865465011
 31
0.0
  0
LINE
  5
A8B1
  8
0
 10
46.37142351426095
 20
210.2358865465011
 30
0.0
 11
46.03743961426093
 21
210.2358865465011
 31
0.0
  0
LINE
  5
A8B2
  8
0
 10
46.03743961426093
 20
210.2358865465011
 30
0.0
 11
46.03743961426093
 21
209.9015311965011
 31
0.0
  0
LINE
  5
A8B3
  8
0
 10
46.70509961426094
 20
209.9015311965011
 30
0.0
 11
47.70668461426095
 21
209.9015311965011
 31
0.0
  0
LINE
  5
A8B4
  8
0
 10
47.70668461426095
 20
209.9015311965011
 30
0.0
 11
47.70668461426095
 21
210.2358865465011
 31
0.0
  0
LINE
  5
A8B5
  8
0
 10
47.70668461426095
 20
210.2358865465011
 30
0.0
 11
46.70509961426094
 21
210.2358865465011
 31
0.0
  0
LINE
  5
A8B6
  8
0
 10
46.70509961426094
 20
210.2358865465011
 30
0.0
 11
46.70509961426094
 21
209.9015311965011
 31
0.0
  0
LINE
  5
A8B7
  8
0
 10
48.37348961426093
 20
209.9015311965011
 30
0.0
 11
50.04266811426098
 21
209.9015311965011
 31
0.0
  0
LINE
  5
A8B8
  8
0
 10
50.04266811426098
 20
209.9015311965011
 30
0.0
 11
50.04266811426098
 21
210.2358865465011
 31
0.0
  0
LINE
  5
A8B9
  8
0
 10
50.04266811426098
 20
210.2358865465011
 30
0.0
 11
48.37348961426093
 21
210.2358865465011
 31
0.0
  0
LINE
  5
A8BA
  8
0
 10
48.37348961426093
 20
210.2358865465011
 30
0.0
 11
48.37348961426093
 21
209.9015311965011
 31
0.0
  0
LINE
  5
A8BB
  8
0
 10
51.37748461426096
 20
209.9015311965011
 30
0.0
 11
51.71146851426096
 21
209.9015311965011
 31
0.0
  0
LINE
  5
A8BC
  8
0
 10
51.71146851426096
 20
209.9015311965011
 30
0.0
 11
51.71146851426096
 21
210.2358865465011
 31
0.0
  0
LINE
  5
A8BD
  8
0
 10
51.71146851426096
 20
210.2358865465011
 30
0.0
 11
51.37748461426096
 21
210.2358865465011
 31
0.0
  0
LINE
  5
A8BE
  8
0
 10
51.37748461426096
 20
210.2358865465011
 30
0.0
 11
51.37748461426096
 21
209.9015311965011
 31
0.0
  0
LINE
  5
A8BF
  8
0
 10
52.04590461426093
 20
209.9015311965011
 30
0.0
 11
53.04711911426095
 21
209.9015311965011
 31
0.0
  0
LINE
  5
A8C0
  8
0
 10
53.04711911426095
 20
209.9015311965011
 30
0.0
 11
53.04711911426095
 21
210.2358865465011
 31
0.0
  0
LINE
  5
A8C1
  8
0
 10
53.04711911426095
 20
210.2358865465011
 30
0.0
 11
52.04590461426093
 21
210.2358865465011
 31
0.0
  0
LINE
  5
A8C2
  8
0
 10
52.04590461426093
 20
210.2358865465011
 30
0.0
 11
52.04590461426093
 21
209.9015311965011
 31
0.0
  0
LINE
  5
A8C3
  8
0
 10
53.71391461426096
 20
209.9015311965011
 30
0.0
 11
54.71549961426096
 21
209.9015311965011
 31
0.0
  0
LINE
  5
A8C4
  8
0
 10
54.71549961426096
 20
209.9015311965011
 30
0.0
 11
54.71549961426096
 21
210.2358865465011
 31
0.0
  0
LINE
  5
A8C5
  8
0
 10
54.71549961426096
 20
210.2358865465011
 30
0.0
 11
53.71391461426096
 21
210.2358865465011
 31
0.0
  0
LINE
  5
A8C6
  8
0
 10
53.71391461426096
 20
210.2358865465011
 30
0.0
 11
53.71391461426096
 21
209.9015311965011
 31
0.0
  0
LINE
  5
A8C7
  8
0
 10
44.03436461426097
 20
209.5682711965011
 30
0.0
 11
44.36871996426098
 21
209.5682711965011
 31
0.0
  0
LINE
  5
A8C8
  8
0
 10
44.36871996426098
 20
209.5682711965011
 30
0.0
 11
44.36871996426098
 21
209.9022560465011
 31
0.0
  0
LINE
  5
A8C9
  8
0
 10
44.36871996426098
 20
209.9022560465011
 30
0.0
 11
44.03436461426097
 21
209.9022560465011
 31
0.0
  0
LINE
  5
A8CA
  8
0
 10
44.03436461426097
 20
209.9022560465011
 30
0.0
 11
44.03436461426097
 21
209.5682711965011
 31
0.0
  0
LINE
  5
A8CB
  8
0
 10
45.70351461426097
 20
209.5682711965011
 30
0.0
 11
46.03749946426095
 21
209.5682711965011
 31
0.0
  0
LINE
  5
A8CC
  8
0
 10
46.03749946426095
 20
209.5682711965011
 30
0.0
 11
46.03749946426095
 21
209.9022560465011
 31
0.0
  0
LINE
  5
A8CD
  8
0
 10
46.03749946426095
 20
209.9022560465011
 30
0.0
 11
45.70351461426097
 21
209.9022560465011
 31
0.0
  0
LINE
  5
A8CE
  8
0
 10
45.70351461426097
 20
209.9022560465011
 30
0.0
 11
45.70351461426097
 21
209.5682711965011
 31
0.0
  0
LINE
  5
A8CF
  8
0
 10
46.70509961426094
 20
209.5682711965011
 30
0.0
 11
47.03908446426098
 21
209.5682711965011
 31
0.0
  0
LINE
  5
A8D0
  8
0
 10
47.03908446426098
 20
209.5682711965011
 30
0.0
 11
47.03908446426098
 21
209.9022560465011
 31
0.0
  0
LINE
  5
A8D1
  8
0
 10
47.03908446426098
 20
209.9022560465011
 30
0.0
 11
46.70509961426094
 21
209.9022560465011
 31
0.0
  0
LINE
  5
A8D2
  8
0
 10
46.70509961426094
 20
209.9022560465011
 30
0.0
 11
46.70509961426094
 21
209.5682711965011
 31
0.0
  0
LINE
  5
A8D3
  8
0
 10
47.37266461426097
 20
209.5682711965011
 30
0.0
 11
48.37387911426097
 21
209.5682711965011
 31
0.0
  0
LINE
  5
A8D4
  8
0
 10
48.37387911426097
 20
209.5682711965011
 30
0.0
 11
48.37387911426097
 21
209.9022560465011
 31
0.0
  0
LINE
  5
A8D5
  8
0
 10
48.37387911426097
 20
209.9022560465011
 30
0.0
 11
47.37266461426097
 21
209.9022560465011
 31
0.0
  0
LINE
  5
A8D6
  8
0
 10
47.37266461426097
 20
209.9022560465011
 30
0.0
 11
47.37266461426097
 21
209.5682711965011
 31
0.0
  0
LINE
  5
A8D7
  8
0
 10
49.04152961426095
 20
209.5682711965011
 30
0.0
 11
49.37588496426096
 21
209.5682711965011
 31
0.0
  0
LINE
  5
A8D8
  8
0
 10
49.37588496426096
 20
209.5682711965011
 30
0.0
 11
49.37588496426096
 21
209.9022560465011
 31
0.0
  0
LINE
  5
A8D9
  8
0
 10
49.37588496426096
 20
209.9022560465011
 30
0.0
 11
49.04152961426095
 21
209.9022560465011
 31
0.0
  0
LINE
  5
A8DA
  8
0
 10
49.04152961426095
 20
209.9022560465011
 30
0.0
 11
49.04152961426095
 21
209.5682711965011
 31
0.0
  0
LINE
  5
A8DB
  8
0
 10
50.04273461426095
 20
209.5682711965011
 30
0.0
 11
50.70996141426096
 21
209.5682711965011
 31
0.0
  0
LINE
  5
A8DC
  8
0
 10
50.70996141426096
 20
209.5682711965011
 30
0.0
 11
50.70996141426096
 21
209.9022560465011
 31
0.0
  0
LINE
  5
A8DD
  8
0
 10
50.70996141426096
 20
209.9022560465011
 30
0.0
 11
50.04273461426095
 21
209.9022560465011
 31
0.0
  0
LINE
  5
A8DE
  8
0
 10
50.04273461426095
 20
209.9022560465011
 30
0.0
 11
50.04273461426095
 21
209.5682711965011
 31
0.0
  0
LINE
  5
A8DF
  8
0
 10
51.04431961426096
 20
209.5682711965011
 30
0.0
 11
52.04590461426093
 21
209.5682711965011
 31
0.0
  0
LINE
  5
A8E0
  8
0
 10
52.04590461426093
 20
209.5682711965011
 30
0.0
 11
52.04590461426093
 21
209.9022560465011
 31
0.0
  0
LINE
  5
A8E1
  8
0
 10
52.04590461426093
 20
209.9022560465011
 30
0.0
 11
51.04431961426096
 21
209.9022560465011
 31
0.0
  0
LINE
  5
A8E2
  8
0
 10
51.04431961426096
 20
209.9022560465011
 30
0.0
 11
51.04431961426096
 21
209.5682711965011
 31
0.0
  0
LINE
  5
A8E3
  8
0
 10
53.38065461426095
 20
209.5682711965011
 30
0.0
 11
54.38223961426095
 21
209.5682711965011
 31
0.0
  0
LINE
  5
A8E4
  8
0
 10
54.38223961426095
 20
209.5682711965011
 30
0.0
 11
54.38223961426095
 21
209.9022560465011
 31
0.0
  0
LINE
  5
A8E5
  8
0
 10
54.38223961426095
 20
209.9022560465011
 30
0.0
 11
53.38065461426095
 21
209.9022560465011
 31
0.0
  0
LINE
  5
A8E6
  8
0
 10
53.38065461426095
 20
209.9022560465011
 30
0.0
 11
53.38065461426095
 21
209.5682711965011
 31
0.0
  0
LINE
  5
A8E7
  8
0
 10
44.70192961426093
 20
209.2343461965011
 30
0.0
 11
45.03628591426096
 21
209.2343461965011
 31
0.0
  0
LINE
  5
A8E8
  8
0
 10
45.03628591426096
 20
209.2343461965011
 30
0.0
 11
45.03628591426096
 21
209.5683300965011
 31
0.0
  0
LINE
  5
A8E9
  8
0
 10
45.03628591426096
 20
209.5683300965011
 30
0.0
 11
44.70192961426093
 21
209.5683300965011
 31
0.0
  0
LINE
  5
A8EA
  8
0
 10
44.70192961426093
 20
209.5683300965011
 30
0.0
 11
44.70192961426093
 21
209.2343461965011
 31
0.0
  0
LINE
  5
A8EB
  8
0
 10
45.36949461426096
 20
209.2343461965011
 30
0.0
 11
46.70469111426095
 21
209.2343461965011
 31
0.0
  0
LINE
  5
A8EC
  8
0
 10
46.70469111426095
 20
209.2343461965011
 30
0.0
 11
46.70469111426095
 21
209.5683300965011
 31
0.0
  0
LINE
  5
A8ED
  8
0
 10
46.70469111426095
 20
209.5683300965011
 30
0.0
 11
45.36949461426096
 21
209.5683300965011
 31
0.0
  0
LINE
  5
A8EE
  8
0
 10
45.36949461426096
 20
209.5683300965011
 30
0.0
 11
45.36949461426096
 21
209.2343461965011
 31
0.0
  0
LINE
  5
A8EF
  8
0
 10
47.03873961426095
 20
209.2343461965011
 30
0.0
 11
47.70596641426096
 21
209.2343461965011
 31
0.0
  0
LINE
  5
A8F0
  8
0
 10
47.70596641426096
 20
209.2343461965011
 30
0.0
 11
47.70596641426096
 21
209.5683300965011
 31
0.0
  0
LINE
  5
A8F1
  8
0
 10
47.70596641426096
 20
209.5683300965011
 30
0.0
 11
47.03873961426095
 21
209.5683300965011
 31
0.0
  0
LINE
  5
A8F2
  8
0
 10
47.03873961426095
 20
209.5683300965011
 30
0.0
 11
47.03873961426095
 21
209.2343461965011
 31
0.0
  0
LINE
  5
A8F3
  8
0
 10
48.04032461426098
 20
209.2343461965011
 30
0.0
 11
48.37430851426095
 21
209.2343461965011
 31
0.0
  0
LINE
  5
A8F4
  8
0
 10
48.37430851426095
 20
209.2343461965011
 30
0.0
 11
48.37430851426095
 21
209.5683300965011
 31
0.0
  0
LINE
  5
A8F5
  8
0
 10
48.37430851426095
 20
209.5683300965011
 30
0.0
 11
48.04032461426098
 21
209.5683300965011
 31
0.0
  0
LINE
  5
A8F6
  8
0
 10
48.04032461426098
 20
209.5683300965011
 30
0.0
 11
48.04032461426098
 21
209.2343461965011
 31
0.0
  0
LINE
  5
A8F7
  8
0
 10
49.04152961426095
 20
209.2343461965011
 30
0.0
 11
49.37588496426096
 21
209.2343461965011
 31
0.0
  0
LINE
  5
A8F8
  8
0
 10
49.37588496426096
 20
209.2343461965011
 30
0.0
 11
49.37588496426096
 21
209.5683300965011
 31
0.0
  0
LINE
  5
A8F9
  8
0
 10
49.37588496426096
 20
209.5683300965011
 30
0.0
 11
49.04152961426095
 21
209.5683300965011
 31
0.0
  0
LINE
  5
A8FA
  8
0
 10
49.04152961426095
 20
209.5683300965011
 30
0.0
 11
49.04152961426095
 21
209.2343461965011
 31
0.0
  0
LINE
  5
A8FB
  8
0
 10
50.04273461426095
 20
209.2343461965011
 30
0.0
 11
50.37671946426096
 21
209.2343461965011
 31
0.0
  0
LINE
  5
A8FC
  8
0
 10
50.37671946426096
 20
209.2343461965011
 30
0.0
 11
50.37671946426096
 21
209.5683300965011
 31
0.0
  0
LINE
  5
A8FD
  8
0
 10
50.37671946426096
 20
209.5683300965011
 30
0.0
 11
50.04273461426095
 21
209.5683300965011
 31
0.0
  0
LINE
  5
A8FE
  8
0
 10
50.04273461426095
 20
209.5683300965011
 30
0.0
 11
50.04273461426095
 21
209.2343461965011
 31
0.0
  0
LINE
  5
A8FF
  8
0
 10
50.70991961426097
 20
209.2343461965011
 30
0.0
 11
51.04427496426095
 21
209.2343461965011
 31
0.0
  0
LINE
  5
A900
  8
0
 10
51.04427496426095
 20
209.2343461965011
 30
0.0
 11
51.04427496426095
 21
209.5683300965011
 31
0.0
  0
LINE
  5
A901
  8
0
 10
51.04427496426095
 20
209.5683300965011
 30
0.0
 11
50.70991961426097
 21
209.5683300965011
 31
0.0
  0
LINE
  5
A902
  8
0
 10
50.70991961426097
 20
209.5683300965011
 30
0.0
 11
50.70991961426097
 21
209.2343461965011
 31
0.0
  0
LINE
  5
A903
  8
0
 10
51.37748461426096
 20
209.2343461965011
 30
0.0
 11
51.71146851426096
 21
209.2343461965011
 31
0.0
  0
LINE
  5
A904
  8
0
 10
51.71146851426096
 20
209.2343461965011
 30
0.0
 11
51.71146851426096
 21
209.5683300965011
 31
0.0
  0
LINE
  5
A905
  8
0
 10
51.71146851426096
 20
209.5683300965011
 30
0.0
 11
51.37748461426096
 21
209.5683300965011
 31
0.0
  0
LINE
  5
A906
  8
0
 10
51.37748461426096
 20
209.5683300965011
 30
0.0
 11
51.37748461426096
 21
209.2343461965011
 31
0.0
  0
LINE
  5
A907
  8
0
 10
52.04590461426093
 20
209.2343461965011
 30
0.0
 11
53.04711911426095
 21
209.2343461965011
 31
0.0
  0
LINE
  5
A908
  8
0
 10
53.04711911426095
 20
209.2343461965011
 30
0.0
 11
53.04711911426095
 21
209.5683300965011
 31
0.0
  0
LINE
  5
A909
  8
0
 10
53.04711911426095
 20
209.5683300965011
 30
0.0
 11
52.04590461426093
 21
209.5683300965011
 31
0.0
  0
LINE
  5
A90A
  8
0
 10
52.04590461426093
 20
209.5683300965011
 30
0.0
 11
52.04590461426093
 21
209.2343461965011
 31
0.0
  0
LINE
  5
A90B
  8
0
 10
53.38065461426095
 20
209.2343461965011
 30
0.0
 11
53.71463946426096
 21
209.2343461965011
 31
0.0
  0
LINE
  5
A90C
  8
0
 10
53.71463946426096
 20
209.2343461965011
 30
0.0
 11
53.71463946426096
 21
209.5683300965011
 31
0.0
  0
LINE
  5
A90D
  8
0
 10
53.71463946426096
 20
209.5683300965011
 30
0.0
 11
53.38065461426095
 21
209.5683300965011
 31
0.0
  0
LINE
  5
A90E
  8
0
 10
53.38065461426095
 20
209.5683300965011
 30
0.0
 11
53.38065461426095
 21
209.2343461965011
 31
0.0
  0
LINE
  5
A90F
  8
0
 10
54.04831461426095
 20
209.2343461965011
 30
0.0
 11
54.71554046426097
 21
209.2343461965011
 31
0.0
  0
LINE
  5
A910
  8
0
 10
54.71554046426097
 20
209.2343461965011
 30
0.0
 11
54.71554046426097
 21
209.5683300965011
 31
0.0
  0
LINE
  5
A911
  8
0
 10
54.71554046426097
 20
209.5683300965011
 30
0.0
 11
54.04831461426095
 21
209.5683300965011
 31
0.0
  0
LINE
  5
A912
  8
0
 10
54.04831461426095
 20
209.5683300965011
 30
0.0
 11
54.04831461426095
 21
209.2343461965011
 31
0.0
  0
LINE
  5
A913
  8
0
 10
44.03436461426097
 20
208.8999461965011
 30
0.0
 11
44.70196191426095
 21
208.8999461965011
 31
0.0
  0
LINE
  5
A914
  8
0
 10
44.70196191426095
 20
208.8999461965011
 30
0.0
 11
44.70196191426095
 21
209.2343015465011
 31
0.0
  0
LINE
  5
A915
  8
0
 10
44.70196191426095
 20
209.2343015465011
 30
0.0
 11
44.03436461426097
 21
209.2343015465011
 31
0.0
  0
LINE
  5
A916
  8
0
 10
44.03436461426097
 20
209.2343015465011
 30
0.0
 11
44.03436461426097
 21
208.8999461965011
 31
0.0
  0
LINE
  5
A917
  8
0
 10
45.03585461426096
 20
208.8999461965011
 30
0.0
 11
45.70345191426097
 21
208.8999461965011
 31
0.0
  0
LINE
  5
A918
  8
0
 10
45.70345191426097
 20
208.8999461965011
 30
0.0
 11
45.70345191426097
 21
209.2343015465011
 31
0.0
  0
LINE
  5
A919
  8
0
 10
45.70345191426097
 20
209.2343015465011
 30
0.0
 11
45.03585461426096
 21
209.2343015465011
 31
0.0
  0
LINE
  5
A91A
  8
0
 10
45.03585461426096
 20
209.2343015465011
 30
0.0
 11
45.03585461426096
 21
208.8999461965011
 31
0.0
  0
LINE
  5
A91B
  8
0
 10
46.37107961426094
 20
208.8999461965011
 30
0.0
 11
46.70506351426096
 21
208.8999461965011
 31
0.0
  0
LINE
  5
A91C
  8
0
 10
46.70506351426096
 20
208.8999461965011
 30
0.0
 11
46.70506351426096
 21
209.2343015465011
 31
0.0
  0
LINE
  5
A91D
  8
0
 10
46.70506351426096
 20
209.2343015465011
 30
0.0
 11
46.37107961426094
 21
209.2343015465011
 31
0.0
  0
LINE
  5
A91E
  8
0
 10
46.37107961426094
 20
209.2343015465011
 30
0.0
 11
46.37107961426094
 21
208.8999461965011
 31
0.0
  0
LINE
  5
A91F
  8
0
 10
47.37266461426097
 20
208.8999461965011
 30
0.0
 11
48.03989046426094
 21
208.8999461965011
 31
0.0
  0
LINE
  5
A920
  8
0
 10
48.03989046426094
 20
208.8999461965011
 30
0.0
 11
48.03989046426094
 21
209.2343015465011
 31
0.0
  0
LINE
  5
A921
  8
0
 10
48.03989046426094
 20
209.2343015465011
 30
0.0
 11
47.37266461426097
 21
209.2343015465011
 31
0.0
  0
LINE
  5
A922
  8
0
 10
47.37266461426097
 20
209.2343015465011
 30
0.0
 11
47.37266461426097
 21
208.8999461965011
 31
0.0
  0
LINE
  5
A923
  8
0
 10
48.70750961426097
 20
208.8999461965011
 30
0.0
 11
49.37510691426095
 21
208.8999461965011
 31
0.0
  0
LINE
  5
A924
  8
0
 10
49.37510691426095
 20
208.8999461965011
 30
0.0
 11
49.37510691426095
 21
209.2343015465011
 31
0.0
  0
LINE
  5
A925
  8
0
 10
49.37510691426095
 20
209.2343015465011
 30
0.0
 11
48.70750961426097
 21
209.2343015465011
 31
0.0
  0
LINE
  5
A926
  8
0
 10
48.70750961426097
 20
209.2343015465011
 30
0.0
 11
48.70750961426097
 21
208.8999461965011
 31
0.0
  0
LINE
  5
A927
  8
0
 10
50.37665961426094
 20
208.8999461965011
 30
0.0
 11
51.04425691426096
 21
208.8999461965011
 31
0.0
  0
LINE
  5
A928
  8
0
 10
51.04425691426096
 20
208.8999461965011
 30
0.0
 11
51.04425691426096
 21
209.2343015465011
 31
0.0
  0
LINE
  5
A929
  8
0
 10
51.04425691426096
 20
209.2343015465011
 30
0.0
 11
50.37665961426094
 21
209.2343015465011
 31
0.0
  0
LINE
  5
A92A
  8
0
 10
50.37665961426094
 20
209.2343015465011
 30
0.0
 11
50.37665961426094
 21
208.8999461965011
 31
0.0
  0
LINE
  5
A92B
  8
0
 10
51.37748461426096
 20
208.8999461965011
 30
0.0
 11
52.04508191426098
 21
208.8999461965011
 31
0.0
  0
LINE
  5
A92C
  8
0
 10
52.04508191426098
 20
208.8999461965011
 30
0.0
 11
52.04508191426098
 21
209.2343015465011
 31
0.0
  0
LINE
  5
A92D
  8
0
 10
52.04508191426098
 20
209.2343015465011
 30
0.0
 11
51.37748461426096
 21
209.2343015465011
 31
0.0
  0
LINE
  5
A92E
  8
0
 10
51.37748461426096
 20
209.2343015465011
 30
0.0
 11
51.37748461426096
 21
208.8999461965011
 31
0.0
  0
LINE
  5
A92F
  8
0
 10
52.37906961426094
 20
208.8999461965011
 30
0.0
 11
52.71305446426096
 21
208.8999461965011
 31
0.0
  0
LINE
  5
A930
  8
0
 10
52.71305446426096
 20
208.8999461965011
 30
0.0
 11
52.71305446426096
 21
209.2343015465011
 31
0.0
  0
LINE
  5
A931
  8
0
 10
52.71305446426096
 20
209.2343015465011
 30
0.0
 11
52.37906961426094
 21
209.2343015465011
 31
0.0
  0
LINE
  5
A932
  8
0
 10
52.37906961426094
 20
209.2343015465011
 30
0.0
 11
52.37906961426094
 21
208.8999461965011
 31
0.0
  0
LINE
  5
A933
  8
0
 10
53.04672961426095
 20
208.8999461965011
 30
0.0
 11
55.04914911426097
 21
208.8999461965011
 31
0.0
  0
LINE
  5
A934
  8
0
 10
55.04914911426097
 20
208.8999461965011
 30
0.0
 11
55.04914911426097
 21
209.2343015465011
 31
0.0
  0
LINE
  5
A935
  8
0
 10
55.04914911426097
 20
209.2343015465011
 30
0.0
 11
53.04672961426095
 21
209.2343015465011
 31
0.0
  0
LINE
  5
A936
  8
0
 10
53.04672961426095
 20
209.2343015465011
 30
0.0
 11
53.04672961426095
 21
208.8999461965011
 31
0.0
  0
LINE
  5
A937
  8
0
 10
44.36866961426094
 20
208.5666861965011
 30
0.0
 11
44.70265446426097
 21
208.5666861965011
 31
0.0
  0
LINE
  5
A938
  8
0
 10
44.70265446426097
 20
208.5666861965011
 30
0.0
 11
44.70265446426097
 21
208.9006710465011
 31
0.0
  0
LINE
  5
A939
  8
0
 10
44.70265446426097
 20
208.9006710465011
 30
0.0
 11
44.36866961426094
 21
208.9006710465011
 31
0.0
  0
LINE
  5
A93A
  8
0
 10
44.36866961426094
 20
208.9006710465011
 30
0.0
 11
44.36866961426094
 21
208.5666861965011
 31
0.0
  0
LINE
  5
A93B
  8
0
 10
45.03585461426096
 20
208.5666861965011
 30
0.0
 11
45.36983851426098
 21
208.5666861965011
 31
0.0
  0
LINE
  5
A93C
  8
0
 10
45.36983851426098
 20
208.5666861965011
 30
0.0
 11
45.36983851426098
 21
208.9006710465011
 31
0.0
  0
LINE
  5
A93D
  8
0
 10
45.36983851426098
 20
208.9006710465011
 30
0.0
 11
45.03585461426096
 21
208.9006710465011
 31
0.0
  0
LINE
  5
A93E
  8
0
 10
45.03585461426096
 20
208.9006710465011
 30
0.0
 11
45.03585461426096
 21
208.5666861965011
 31
0.0
  0
LINE
  5
A93F
  8
0
 10
46.03743961426093
 20
208.5666861965011
 30
0.0
 11
47.03902461426097
 21
208.5666861965011
 31
0.0
  0
LINE
  5
A940
  8
0
 10
47.03902461426097
 20
208.5666861965011
 30
0.0
 11
47.03902461426097
 21
208.9006710465011
 31
0.0
  0
LINE
  5
A941
  8
0
 10
47.03902461426097
 20
208.9006710465011
 30
0.0
 11
46.03743961426093
 21
208.9006710465011
 31
0.0
  0
LINE
  5
A942
  8
0
 10
46.03743961426093
 20
208.9006710465011
 30
0.0
 11
46.03743961426093
 21
208.5666861965011
 31
0.0
  0
LINE
  5
A943
  8
0
 10
48.37348961426093
 20
208.5666861965011
 30
0.0
 11
49.04108786426096
 21
208.5666861965011
 31
0.0
  0
LINE
  5
A944
  8
0
 10
49.04108786426096
 20
208.5666861965011
 30
0.0
 11
49.04108786426096
 21
208.9006710465011
 31
0.0
  0
LINE
  5
A945
  8
0
 10
49.04108786426096
 20
208.9006710465011
 30
0.0
 11
48.37348961426093
 21
208.9006710465011
 31
0.0
  0
LINE
  5
A946
  8
0
 10
48.37348961426093
 20
208.9006710465011
 30
0.0
 11
48.37348961426093
 21
208.5666861965011
 31
0.0
  0
LINE
  5
A947
  8
0
 10
49.37507461426097
 20
208.5666861965011
 30
0.0
 11
50.37665961426094
 21
208.5666861965011
 31
0.0
  0
LINE
  5
A948
  8
0
 10
50.37665961426094
 20
208.5666861965011
 30
0.0
 11
50.37665961426094
 21
208.9006710465011
 31
0.0
  0
LINE
  5
A949
  8
0
 10
50.37665961426094
 20
208.9006710465011
 30
0.0
 11
49.37507461426097
 21
208.9006710465011
 31
0.0
  0
LINE
  5
A94A
  8
0
 10
49.37507461426097
 20
208.9006710465011
 30
0.0
 11
49.37507461426097
 21
208.5666861965011
 31
0.0
  0
LINE
  5
A94B
  8
0
 10
50.70991961426097
 20
208.5666861965011
 30
0.0
 11
51.71150461426097
 21
208.5666861965011
 31
0.0
  0
LINE
  5
A94C
  8
0
 10
51.71150461426097
 20
208.5666861965011
 30
0.0
 11
51.71150461426097
 21
208.9006710465011
 31
0.0
  0
LINE
  5
A94D
  8
0
 10
51.71150461426097
 20
208.9006710465011
 30
0.0
 11
50.70991961426097
 21
208.9006710465011
 31
0.0
  0
LINE
  5
A94E
  8
0
 10
50.70991961426097
 20
208.9006710465011
 30
0.0
 11
50.70991961426097
 21
208.5666861965011
 31
0.0
  0
LINE
  5
A94F
  8
0
 10
52.04590461426093
 20
208.5666861965011
 30
0.0
 11
52.37988946426097
 21
208.5666861965011
 31
0.0
  0
LINE
  5
A950
  8
0
 10
52.37988946426097
 20
208.5666861965011
 30
0.0
 11
52.37988946426097
 21
208.9006710465011
 31
0.0
  0
LINE
  5
A951
  8
0
 10
52.37988946426097
 20
208.9006710465011
 30
0.0
 11
52.04590461426093
 21
208.9006710465011
 31
0.0
  0
LINE
  5
A952
  8
0
 10
52.04590461426093
 20
208.9006710465011
 30
0.0
 11
52.04590461426093
 21
208.5666861965011
 31
0.0
  0
LINE
  5
A953
  8
0
 10
52.71308961426097
 20
208.5666861965011
 30
0.0
 11
53.38068691426095
 21
208.5666861965011
 31
0.0
  0
LINE
  5
A954
  8
0
 10
53.38068691426095
 20
208.5666861965011
 30
0.0
 11
53.38068691426095
 21
208.9006710465011
 31
0.0
  0
LINE
  5
A955
  8
0
 10
53.38068691426095
 20
208.9006710465011
 30
0.0
 11
52.71308961426097
 21
208.9006710465011
 31
0.0
  0
LINE
  5
A956
  8
0
 10
52.71308961426097
 20
208.9006710465011
 30
0.0
 11
52.71308961426097
 21
208.5666861965011
 31
0.0
  0
LINE
  5
A957
  8
0
 10
44.03436461426097
 20
208.2327611965011
 30
0.0
 11
44.70196191426095
 21
208.2327611965011
 31
0.0
  0
LINE
  5
A958
  8
0
 10
44.70196191426095
 20
208.2327611965011
 30
0.0
 11
44.70196191426095
 21
208.5667450965011
 31
0.0
  0
LINE
  5
A959
  8
0
 10
44.70196191426095
 20
208.5667450965011
 30
0.0
 11
44.03436461426097
 21
208.5667450965011
 31
0.0
  0
LINE
  5
A95A
  8
0
 10
44.03436461426097
 20
208.5667450965011
 30
0.0
 11
44.03436461426097
 21
208.2327611965011
 31
0.0
  0
LINE
  5
A95B
  8
0
 10
45.03585461426096
 20
208.2327611965011
 30
0.0
 11
45.70345191426097
 21
208.2327611965011
 31
0.0
  0
LINE
  5
A95C
  8
0
 10
45.70345191426097
 20
208.2327611965011
 30
0.0
 11
45.70345191426097
 21
208.5667450965011
 31
0.0
  0
LINE
  5
A95D
  8
0
 10
45.70345191426097
 20
208.5667450965011
 30
0.0
 11
45.03585461426096
 21
208.5667450965011
 31
0.0
  0
LINE
  5
A95E
  8
0
 10
45.03585461426096
 20
208.5667450965011
 30
0.0
 11
45.03585461426096
 21
208.2327611965011
 31
0.0
  0
LINE
  5
A95F
  8
0
 10
46.37107961426094
 20
208.2327611965011
 30
0.0
 11
47.03867691426095
 21
208.2327611965011
 31
0.0
  0
LINE
  5
A960
  8
0
 10
47.03867691426095
 20
208.2327611965011
 30
0.0
 11
47.03867691426095
 21
208.5667450965011
 31
0.0
  0
LINE
  5
A961
  8
0
 10
47.03867691426095
 20
208.5667450965011
 30
0.0
 11
46.37107961426094
 21
208.5667450965011
 31
0.0
  0
LINE
  5
A962
  8
0
 10
46.37107961426094
 20
208.5667450965011
 30
0.0
 11
46.37107961426094
 21
208.2327611965011
 31
0.0
  0
LINE
  5
A963
  8
0
 10
47.70592461426097
 20
208.2327611965011
 30
0.0
 11
48.37352191426098
 21
208.2327611965011
 31
0.0
  0
LINE
  5
A964
  8
0
 10
48.37352191426098
 20
208.2327611965011
 30
0.0
 11
48.37352191426098
 21
208.5667450965011
 31
0.0
  0
LINE
  5
A965
  8
0
 10
48.37352191426098
 20
208.5667450965011
 30
0.0
 11
47.70592461426097
 21
208.5667450965011
 31
0.0
  0
LINE
  5
A966
  8
0
 10
47.70592461426097
 20
208.5667450965011
 30
0.0
 11
47.70592461426097
 21
208.2327611965011
 31
0.0
  0
LINE
  5
A967
  8
0
 10
48.70750961426097
 20
208.2327611965011
 30
0.0
 11
49.04149351426096
 21
208.2327611965011
 31
0.0
  0
LINE
  5
A968
  8
0
 10
49.04149351426096
 20
208.2327611965011
 30
0.0
 11
49.04149351426096
 21
208.5667450965011
 31
0.0
  0
LINE
  5
A969
  8
0
 10
49.04149351426096
 20
208.5667450965011
 30
0.0
 11
48.70750961426097
 21
208.5667450965011
 31
0.0
  0
LINE
  5
A96A
  8
0
 10
48.70750961426097
 20
208.5667450965011
 30
0.0
 11
48.70750961426097
 21
208.2327611965011
 31
0.0
  0
LINE
  5
A96B
  8
0
 10
49.37507461426097
 20
208.2327611965011
 30
0.0
 11
50.04267191426095
 21
208.2327611965011
 31
0.0
  0
LINE
  5
A96C
  8
0
 10
50.04267191426095
 20
208.2327611965011
 30
0.0
 11
50.04267191426095
 21
208.5667450965011
 31
0.0
  0
LINE
  5
A96D
  8
0
 10
50.04267191426095
 20
208.5667450965011
 30
0.0
 11
49.37507461426097
 21
208.5667450965011
 31
0.0
  0
LINE
  5
A96E
  8
0
 10
49.37507461426097
 20
208.5667450965011
 30
0.0
 11
49.37507461426097
 21
208.2327611965011
 31
0.0
  0
LINE
  5
A96F
  8
0
 10
50.70991961426097
 20
208.2327611965011
 30
0.0
 11
51.37751786426097
 21
208.2327611965011
 31
0.0
  0
LINE
  5
A970
  8
0
 10
51.37751786426097
 20
208.2327611965011
 30
0.0
 11
51.37751786426097
 21
208.5667450965011
 31
0.0
  0
LINE
  5
A971
  8
0
 10
51.37751786426097
 20
208.5667450965011
 30
0.0
 11
50.70991961426097
 21
208.5667450965011
 31
0.0
  0
LINE
  5
A972
  8
0
 10
50.70991961426097
 20
208.5667450965011
 30
0.0
 11
50.70991961426097
 21
208.2327611965011
 31
0.0
  0
LINE
  5
A973
  8
0
 10
51.71150461426097
 20
208.2327611965011
 30
0.0
 11
52.04585996426096
 21
208.2327611965011
 31
0.0
  0
LINE
  5
A974
  8
0
 10
52.04585996426096
 20
208.2327611965011
 30
0.0
 11
52.04585996426096
 21
208.5667450965011
 31
0.0
  0
LINE
  5
A975
  8
0
 10
52.04585996426096
 20
208.5667450965011
 30
0.0
 11
51.71150461426097
 21
208.5667450965011
 31
0.0
  0
LINE
  5
A976
  8
0
 10
51.71150461426097
 20
208.5667450965011
 30
0.0
 11
51.71150461426097
 21
208.2327611965011
 31
0.0
  0
LINE
  5
A977
  8
0
 10
52.71308961426097
 20
208.2327611965011
 30
0.0
 11
53.04707351426096
 21
208.2327611965011
 31
0.0
  0
LINE
  5
A978
  8
0
 10
53.04707351426096
 20
208.2327611965011
 30
0.0
 11
53.04707351426096
 21
208.5667450965011
 31
0.0
  0
LINE
  5
A979
  8
0
 10
53.04707351426096
 20
208.5667450965011
 30
0.0
 11
52.71308961426097
 21
208.5667450965011
 31
0.0
  0
LINE
  5
A97A
  8
0
 10
52.71308961426097
 20
208.5667450965011
 30
0.0
 11
52.71308961426097
 21
208.2327611965011
 31
0.0
  0
LINE
  5
A97B
  8
0
 10
53.71391461426096
 20
208.2327611965011
 30
0.0
 11
55.04911111426095
 21
208.2327611965011
 31
0.0
  0
LINE
  5
A97C
  8
0
 10
55.04911111426095
 20
208.2327611965011
 30
0.0
 11
55.04911111426095
 21
208.5667450965011
 31
0.0
  0
LINE
  5
A97D
  8
0
 10
55.04911111426095
 20
208.5667450965011
 30
0.0
 11
53.71391461426096
 21
208.5667450965011
 31
0.0
  0
LINE
  5
A97E
  8
0
 10
53.71391461426096
 20
208.5667450965011
 30
0.0
 11
53.71391461426096
 21
208.2327611965011
 31
0.0
  0
LINE
  5
A97F
  8
0
 10
44.36866961426094
 20
207.8991211965011
 30
0.0
 11
47.70665611426094
 21
207.8991211965011
 31
0.0
  0
LINE
  5
A980
  8
0
 10
47.70665611426094
 20
207.8991211965011
 30
0.0
 11
47.70665611426094
 21
208.2331060465011
 31
0.0
  0
LINE
  5
A981
  8
0
 10
47.70665611426094
 20
208.2331060465011
 30
0.0
 11
44.36866961426094
 21
208.2331060465011
 31
0.0
  0
LINE
  5
A982
  8
0
 10
44.36866961426094
 20
208.2331060465011
 30
0.0
 11
44.36866961426094
 21
207.8991211965011
 31
0.0
  0
LINE
  5
A983
  8
0
 10
48.37348961426093
 20
207.8991211965011
 30
0.0
 11
48.70747446426097
 21
207.8991211965011
 31
0.0
  0
LINE
  5
A984
  8
0
 10
48.70747446426097
 20
207.8991211965011
 30
0.0
 11
48.70747446426097
 21
208.2331060465011
 31
0.0
  0
LINE
  5
A985
  8
0
 10
48.70747446426097
 20
208.2331060465011
 30
0.0
 11
48.37348961426093
 21
208.2331060465011
 31
0.0
  0
LINE
  5
A986
  8
0
 10
48.37348961426093
 20
208.2331060465011
 30
0.0
 11
48.37348961426093
 21
207.8991211965011
 31
0.0
  0
LINE
  5
A987
  8
0
 10
49.70909461426098
 20
207.8991211965011
 30
0.0
 11
50.04307851426094
 21
207.8991211965011
 31
0.0
  0
LINE
  5
A988
  8
0
 10
50.04307851426094
 20
207.8991211965011
 30
0.0
 11
50.04307851426094
 21
208.2331060465011
 31
0.0
  0
LINE
  5
A989
  8
0
 10
50.04307851426094
 20
208.2331060465011
 30
0.0
 11
49.70909461426098
 21
208.2331060465011
 31
0.0
  0
LINE
  5
A98A
  8
0
 10
49.70909461426098
 20
208.2331060465011
 30
0.0
 11
49.70909461426098
 21
207.8991211965011
 31
0.0
  0
LINE
  5
A98B
  8
0
 10
50.37665961426094
 20
207.8991211965011
 30
0.0
 11
50.71064351426097
 21
207.8991211965011
 31
0.0
  0
LINE
  5
A98C
  8
0
 10
50.71064351426097
 20
207.8991211965011
 30
0.0
 11
50.71064351426097
 21
208.2331060465011
 31
0.0
  0
LINE
  5
A98D
  8
0
 10
50.71064351426097
 20
208.2331060465011
 30
0.0
 11
50.37665961426094
 21
208.2331060465011
 31
0.0
  0
LINE
  5
A98E
  8
0
 10
50.37665961426094
 20
208.2331060465011
 30
0.0
 11
50.37665961426094
 21
207.8991211965011
 31
0.0
  0
LINE
  5
A98F
  8
0
 10
52.37906961426094
 20
207.8991211965011
 30
0.0
 11
53.04666786426095
 21
207.8991211965011
 31
0.0
  0
LINE
  5
A990
  8
0
 10
53.04666786426095
 20
207.8991211965011
 30
0.0
 11
53.04666786426095
 21
208.2331060465011
 31
0.0
  0
LINE
  5
A991
  8
0
 10
53.04666786426095
 20
208.2331060465011
 30
0.0
 11
52.37906961426094
 21
208.2331060465011
 31
0.0
  0
LINE
  5
A992
  8
0
 10
52.37906961426094
 20
208.2331060465011
 30
0.0
 11
52.37906961426094
 21
207.8991211965011
 31
0.0
  0
LINE
  5
A993
  8
0
 10
53.38065461426095
 20
207.8991211965011
 30
0.0
 11
53.71463946426096
 21
207.8991211965011
 31
0.0
  0
LINE
  5
A994
  8
0
 10
53.71463946426096
 20
207.8991211965011
 30
0.0
 11
53.71463946426096
 21
208.2331060465011
 31
0.0
  0
LINE
  5
A995
  8
0
 10
53.71463946426096
 20
208.2331060465011
 30
0.0
 11
53.38065461426095
 21
208.2331060465011
 31
0.0
  0
LINE
  5
A996
  8
0
 10
53.38065461426095
 20
208.2331060465011
 30
0.0
 11
53.38065461426095
 21
207.8991211965011
 31
0.0
  0
LINE
  5
A997
  8
0
 10
54.04831461426095
 20
207.8991211965011
 30
0.0
 11
54.71554046426097
 21
207.8991211965011
 31
0.0
  0
LINE
  5
A998
  8
0
 10
54.71554046426097
 20
207.8991211965011
 30
0.0
 11
54.71554046426097
 21
208.2331060465011
 31
0.0
  0
LINE
  5
A999
  8
0
 10
54.71554046426097
 20
208.2331060465011
 30
0.0
 11
54.04831461426095
 21
208.2331060465011
 31
0.0
  0
LINE
  5
A99A
  8
0
 10
54.04831461426095
 20
208.2331060465011
 30
0.0
 11
54.04831461426095
 21
207.8991211965011
 31
0.0
  0
LINE
  5
A99B
  8
0
 10
44.03436461426097
 20
207.5651011965011
 30
0.0
 11
44.70196191426095
 21
207.5651011965011
 31
0.0
  0
LINE
  5
A99C
  8
0
 10
44.70196191426095
 20
207.5651011965011
 30
0.0
 11
44.70196191426095
 21
207.8991211965011
 31
0.0
  0
LINE
  5
A99D
  8
0
 10
44.70196191426095
 20
207.8991211965011
 30
0.0
 11
44.03436461426097
 21
207.8991211965011
 31
0.0
  0
LINE
  5
A99E
  8
0
 10
44.03436461426097
 20
207.8991211965011
 30
0.0
 11
44.03436461426097
 21
207.5651011965011
 31
0.0
  0
LINE
  5
A99F
  8
0
 10
45.03585461426096
 20
207.5651011965011
 30
0.0
 11
45.70345191426097
 21
207.5651011965011
 31
0.0
  0
LINE
  5
A9A0
  8
0
 10
45.70345191426097
 20
207.5651011965011
 30
0.0
 11
45.70345191426097
 21
207.8991211965011
 31
0.0
  0
LINE
  5
A9A1
  8
0
 10
45.70345191426097
 20
207.8991211965011
 30
0.0
 11
45.03585461426096
 21
207.8991211965011
 31
0.0
  0
LINE
  5
A9A2
  8
0
 10
45.03585461426096
 20
207.8991211965011
 30
0.0
 11
45.03585461426096
 21
207.5651011965011
 31
0.0
  0
LINE
  5
A9A3
  8
0
 10
47.03873961426095
 20
207.5651011965011
 30
0.0
 11
47.37272446426093
 21
207.5651011965011
 31
0.0
  0
LINE
  5
A9A4
  8
0
 10
47.37272446426093
 20
207.5651011965011
 30
0.0
 11
47.37272446426093
 21
207.8991211965011
 31
0.0
  0
LINE
  5
A9A5
  8
0
 10
47.37272446426093
 20
207.8991211965011
 30
0.0
 11
47.03873961426095
 21
207.8991211965011
 31
0.0
  0
LINE
  5
A9A6
  8
0
 10
47.03873961426095
 20
207.8991211965011
 30
0.0
 11
47.03873961426095
 21
207.5651011965011
 31
0.0
  0
LINE
  5
A9A7
  8
0
 10
48.04032461426098
 20
207.5651011965011
 30
0.0
 11
48.37430851426095
 21
207.5651011965011
 31
0.0
  0
LINE
  5
A9A8
  8
0
 10
48.37430851426095
 20
207.5651011965011
 30
0.0
 11
48.37430851426095
 21
207.8991211965011
 31
0.0
  0
LINE
  5
A9A9
  8
0
 10
48.37430851426095
 20
207.8991211965011
 30
0.0
 11
48.04032461426098
 21
207.8991211965011
 31
0.0
  0
LINE
  5
A9AA
  8
0
 10
48.04032461426098
 20
207.8991211965011
 30
0.0
 11
48.04032461426098
 21
207.5651011965011
 31
0.0
  0
LINE
  5
A9AB
  8
0
 10
48.70750961426097
 20
207.5651011965011
 30
0.0
 11
49.37510691426095
 21
207.5651011965011
 31
0.0
  0
LINE
  5
A9AC
  8
0
 10
49.37510691426095
 20
207.5651011965011
 30
0.0
 11
49.37510691426095
 21
207.8991211965011
 31
0.0
  0
LINE
  5
A9AD
  8
0
 10
49.37510691426095
 20
207.8991211965011
 30
0.0
 11
48.70750961426097
 21
207.8991211965011
 31
0.0
  0
LINE
  5
A9AE
  8
0
 10
48.70750961426097
 20
207.8991211965011
 30
0.0
 11
48.70750961426097
 21
207.5651011965011
 31
0.0
  0
LINE
  5
A9AF
  8
0
 10
50.04273461426095
 20
207.5651011965011
 30
0.0
 11
50.70996141426096
 21
207.5651011965011
 31
0.0
  0
LINE
  5
A9B0
  8
0
 10
50.70996141426096
 20
207.5651011965011
 30
0.0
 11
50.70996141426096
 21
207.8991211965011
 31
0.0
  0
LINE
  5
A9B1
  8
0
 10
50.70996141426096
 20
207.8991211965011
 30
0.0
 11
50.04273461426095
 21
207.8991211965011
 31
0.0
  0
LINE
  5
A9B2
  8
0
 10
50.04273461426095
 20
207.8991211965011
 30
0.0
 11
50.04273461426095
 21
207.5651011965011
 31
0.0
  0
LINE
  5
A9B3
  8
0
 10
52.37906961426094
 20
207.5651011965011
 30
0.0
 11
52.71308961426097
 21
207.5651011965011
 31
0.0
  0
LINE
  5
A9B4
  8
0
 10
52.71308961426097
 20
207.5651011965011
 30
0.0
 11
52.71308961426097
 21
207.8991211965011
 31
0.0
  0
LINE
  5
A9B5
  8
0
 10
52.71308961426097
 20
207.8991211965011
 30
0.0
 11
52.37910476426097
 21
207.8991211965011
 31
0.0
  0
LINE
  5
A9B6
  8
0
 10
52.37910476426097
 20
207.8991211965011
 30
0.0
 11
52.37906961426094
 21
207.5651011965011
 31
0.0
  0
LINE
  5
A9B7
  8
0
 10
53.38065461426095
 20
207.5651011965011
 30
0.0
 11
54.38223961426095
 21
207.5651011965011
 31
0.0
  0
LINE
  5
A9B8
  8
0
 10
54.38223961426095
 20
207.5651011965011
 30
0.0
 11
54.38223961426095
 21
207.8991211965011
 31
0.0
  0
LINE
  5
A9B9
  8
0
 10
54.38223961426095
 20
207.8991211965011
 30
0.0
 11
53.38065461426095
 21
207.8991211965011
 31
0.0
  0
LINE
  5
A9BA
  8
0
 10
53.38065461426095
 20
207.8991211965011
 30
0.0
 11
53.38065461426095
 21
207.5651011965011
 31
0.0
  0
LINE
  5
A9BB
  8
0
 10
54.71549961426096
 20
207.5651011965011
 30
0.0
 11
55.04985591426096
 21
207.5651011965011
 31
0.0
  0
LINE
  5
A9BC
  8
0
 10
55.04985591426096
 20
207.5651011965011
 30
0.0
 11
55.04985591426096
 21
207.8991211965011
 31
0.0
  0
LINE
  5
A9BD
  8
0
 10
55.04985591426096
 20
207.8991211965011
 30
0.0
 11
54.71549961426096
 21
207.8991211965011
 31
0.0
  0
LINE
  5
A9BE
  8
0
 10
54.71549961426096
 20
207.8991211965011
 30
0.0
 11
54.71549961426096
 21
207.5651011965011
 31
0.0
  0
LINE
  5
A9BF
  8
0
 10
44.36866961426094
 20
207.2315561965011
 30
0.0
 11
44.70265446426097
 21
207.2315561965011
 31
0.0
  0
LINE
  5
A9C0
  8
0
 10
44.70265446426097
 20
207.2315561965011
 30
0.0
 11
44.70265446426097
 21
207.5659115465011
 31
0.0
  0
LINE
  5
A9C1
  8
0
 10
44.70265446426097
 20
207.5659115465011
 30
0.0
 11
44.36866961426094
 21
207.5659115465011
 31
0.0
  0
LINE
  5
A9C2
  8
0
 10
44.36866961426094
 20
207.5659115465011
 30
0.0
 11
44.36866961426094
 21
207.2315561965011
 31
0.0
  0
LINE
  5
A9C3
  8
0
 10
46.03743961426093
 20
207.2315561965011
 30
0.0
 11
46.37142351426095
 21
207.2315561965011
 31
0.0
  0
LINE
  5
A9C4
  8
0
 10
46.37142351426095
 20
207.2315561965011
 30
0.0
 11
46.37142351426095
 21
207.5659115465011
 31
0.0
  0
LINE
  5
A9C5
  8
0
 10
46.37142351426095
 20
207.5659115465011
 30
0.0
 11
46.03743961426093
 21
207.5659115465011
 31
0.0
  0
LINE
  5
A9C6
  8
0
 10
46.03743961426093
 20
207.5659115465011
 30
0.0
 11
46.03743961426093
 21
207.2315561965011
 31
0.0
  0
LINE
  5
A9C7
  8
0
 10
47.03873961426095
 20
207.2315561965011
 30
0.0
 11
47.70596641426096
 21
207.2315561965011
 31
0.0
  0
LINE
  5
A9C8
  8
0
 10
47.70596641426096
 20
207.2315561965011
 30
0.0
 11
47.70596641426096
 21
207.5659115465011
 31
0.0
  0
LINE
  5
A9C9
  8
0
 10
47.70596641426096
 20
207.5659115465011
 30
0.0
 11
47.03873961426095
 21
207.5659115465011
 31
0.0
  0
LINE
  5
A9CA
  8
0
 10
47.03873961426095
 20
207.5659115465011
 30
0.0
 11
47.03873961426095
 21
207.2315561965011
 31
0.0
  0
LINE
  5
A9CB
  8
0
 10
48.04032461426098
 20
207.2315561965011
 30
0.0
 11
48.70755141426096
 21
207.2315561965011
 31
0.0
  0
LINE
  5
A9CC
  8
0
 10
48.70755141426096
 20
207.2315561965011
 30
0.0
 11
48.70755141426096
 21
207.5659115465011
 31
0.0
  0
LINE
  5
A9CD
  8
0
 10
48.70755141426096
 20
207.5659115465011
 30
0.0
 11
48.04032461426098
 21
207.5659115465011
 31
0.0
  0
LINE
  5
A9CE
  8
0
 10
48.04032461426098
 20
207.5659115465011
 30
0.0
 11
48.04032461426098
 21
207.2315561965011
 31
0.0
  0
LINE
  5
A9CF
  8
0
 10
49.70909461426098
 20
207.2315561965011
 30
0.0
 11
50.71067961426095
 21
207.2315561965011
 31
0.0
  0
LINE
  5
A9D0
  8
0
 10
50.71067961426095
 20
207.2315561965011
 30
0.0
 11
50.71067961426095
 21
207.5659115465011
 31
0.0
  0
LINE
  5
A9D1
  8
0
 10
50.71067961426095
 20
207.5659115465011
 30
0.0
 11
49.70909461426098
 21
207.5659115465011
 31
0.0
  0
LINE
  5
A9D2
  8
0
 10
49.70909461426098
 20
207.5659115465011
 30
0.0
 11
49.70909461426098
 21
207.2315561965011
 31
0.0
  0
LINE
  5
A9D3
  8
0
 10
51.37748461426096
 20
207.2315561965011
 30
0.0
 11
51.71146851426096
 21
207.2315561965011
 31
0.0
  0
LINE
  5
A9D4
  8
0
 10
51.71146851426096
 20
207.2315561965011
 30
0.0
 11
51.71146851426096
 21
207.5659115465011
 31
0.0
  0
LINE
  5
A9D5
  8
0
 10
51.71146851426096
 20
207.5659115465011
 30
0.0
 11
51.37748461426096
 21
207.5659115465011
 31
0.0
  0
LINE
  5
A9D6
  8
0
 10
51.37748461426096
 20
207.5659115465011
 30
0.0
 11
51.37748461426096
 21
207.2315561965011
 31
0.0
  0
LINE
  5
A9D7
  8
0
 10
52.04590461426093
 20
207.2315561965011
 30
0.0
 11
52.71313141426096
 21
207.2315561965011
 31
0.0
  0
LINE
  5
A9D8
  8
0
 10
52.71313141426096
 20
207.2315561965011
 30
0.0
 11
52.71313141426096
 21
207.5659115465011
 31
0.0
  0
LINE
  5
A9D9
  8
0
 10
52.71313141426096
 20
207.5659115465011
 30
0.0
 11
52.04590461426093
 21
207.5659115465011
 31
0.0
  0
LINE
  5
A9DA
  8
0
 10
52.04590461426093
 20
207.5659115465011
 30
0.0
 11
52.04590461426093
 21
207.2315561965011
 31
0.0
  0
LINE
  5
A9DB
  8
0
 10
53.04672961426095
 20
207.2315561965011
 30
0.0
 11
54.04831461426095
 21
207.2315561965011
 31
0.0
  0
LINE
  5
A9DC
  8
0
 10
54.04831461426095
 20
207.2315561965011
 30
0.0
 11
54.04831461426095
 21
207.5659115465011
 31
0.0
  0
LINE
  5
A9DD
  8
0
 10
54.04831461426095
 20
207.5659115465011
 30
0.0
 11
53.04672961426095
 21
207.5659115465011
 31
0.0
  0
LINE
  5
A9DE
  8
0
 10
53.04672961426095
 20
207.5659115465011
 30
0.0
 11
53.04672961426095
 21
207.2315561965011
 31
0.0
  0
LINE
  5
A9DF
  8
0
 10
54.71549961426096
 20
207.2315561965011
 30
0.0
 11
55.04985591426096
 21
207.2315561965011
 31
0.0
  0
LINE
  5
A9E0
  8
0
 10
55.04985591426096
 20
207.2315561965011
 30
0.0
 11
55.04985591426096
 21
207.5659115465011
 31
0.0
  0
LINE
  5
A9E1
  8
0
 10
55.04985591426096
 20
207.5659115465011
 30
0.0
 11
54.71549961426096
 21
207.5659115465011
 31
0.0
  0
LINE
  5
A9E2
  8
0
 10
54.71549961426096
 20
207.5659115465011
 30
0.0
 11
54.71549961426096
 21
207.2315561965011
 31
0.0
  0
LINE
  5
A9E3
  8
0
 10
44.36866961426094
 20
206.8975361965011
 30
0.0
 11
45.03589641426098
 21
206.8975361965011
 31
0.0
  0
LINE
  5
A9E4
  8
0
 10
45.03589641426098
 20
206.8975361965011
 30
0.0
 11
45.03589641426098
 21
207.2315210465011
 31
0.0
  0
LINE
  5
A9E5
  8
0
 10
45.03589641426098
 20
207.2315210465011
 30
0.0
 11
44.36866961426094
 21
207.2315210465011
 31
0.0
  0
LINE
  5
A9E6
  8
0
 10
44.36866961426094
 20
207.2315210465011
 30
0.0
 11
44.36866961426094
 21
206.8975361965011
 31
0.0
  0
LINE
  5
A9E7
  8
0
 10
45.36949461426096
 20
206.8975361965011
 30
0.0
 11
45.70347851426098
 21
206.8975361965011
 31
0.0
  0
LINE
  5
A9E8
  8
0
 10
45.70347851426098
 20
206.8975361965011
 30
0.0
 11
45.70347851426098
 21
207.2315210465011
 31
0.0
  0
LINE
  5
A9E9
  8
0
 10
45.70347851426098
 20
207.2315210465011
 30
0.0
 11
45.36949461426096
 21
207.2315210465011
 31
0.0
  0
LINE
  5
A9EA
  8
0
 10
45.36949461426096
 20
207.2315210465011
 30
0.0
 11
45.36949461426096
 21
206.8975361965011
 31
0.0
  0
LINE
  5
A9EB
  8
0
 10
47.70592461426097
 20
206.8975361965011
 30
0.0
 11
48.03990851426096
 21
206.8975361965011
 31
0.0
  0
LINE
  5
A9EC
  8
0
 10
48.03990851426096
 20
206.8975361965011
 30
0.0
 11
48.03990851426096
 21
207.2315210465011
 31
0.0
  0
LINE
  5
A9ED
  8
0
 10
48.03990851426096
 20
207.2315210465011
 30
0.0
 11
47.70592461426097
 21
207.2315210465011
 31
0.0
  0
LINE
  5
A9EE
  8
0
 10
47.70592461426097
 20
207.2315210465011
 30
0.0
 11
47.70592461426097
 21
206.8975361965011
 31
0.0
  0
LINE
  5
A9EF
  8
0
 10
48.37348961426093
 20
206.8975361965011
 30
0.0
 11
51.37749411426094
 21
206.8975361965011
 31
0.0
  0
LINE
  5
A9F0
  8
0
 10
51.37749411426094
 20
206.8975361965011
 30
0.0
 11
51.37749411426094
 21
207.2315210465011
 31
0.0
  0
LINE
  5
A9F1
  8
0
 10
51.37749411426094
 20
207.2315210465011
 30
0.0
 11
48.37348961426093
 21
207.2315210465011
 31
0.0
  0
LINE
  5
A9F2
  8
0
 10
48.37348961426093
 20
207.2315210465011
 30
0.0
 11
48.37348961426093
 21
206.8975361965011
 31
0.0
  0
LINE
  5
A9F3
  8
0
 10
51.71150461426097
 20
206.8975361965011
 30
0.0
 11
53.04670111426096
 21
206.8975361965011
 31
0.0
  0
LINE
  5
A9F4
  8
0
 10
53.04670111426096
 20
206.8975361965011
 30
0.0
 11
53.04670111426096
 21
207.2315210465011
 31
0.0
  0
LINE
  5
A9F5
  8
0
 10
53.04670111426096
 20
207.2315210465011
 30
0.0
 11
51.71150461426097
 21
207.2315210465011
 31
0.0
  0
LINE
  5
A9F6
  8
0
 10
51.71150461426097
 20
207.2315210465011
 30
0.0
 11
51.71150461426097
 21
206.8975361965011
 31
0.0
  0
LINE
  5
A9F7
  8
0
 10
53.71391461426096
 20
206.8975361965011
 30
0.0
 11
54.38151191426095
 21
206.8975361965011
 31
0.0
  0
LINE
  5
A9F8
  8
0
 10
54.38151191426095
 20
206.8975361965011
 30
0.0
 11
54.38151191426095
 21
207.2315210465011
 31
0.0
  0
LINE
  5
A9F9
  8
0
 10
54.38151191426095
 20
207.2315210465011
 30
0.0
 11
53.71391461426096
 21
207.2315210465011
 31
0.0
  0
LINE
  5
A9FA
  8
0
 10
53.71391461426096
 20
207.2315210465011
 30
0.0
 11
53.71391461426096
 21
206.8975361965011
 31
0.0
  0
LINE
  5
A9FB
  8
0
 10
54.71549961426096
 20
206.8975361965011
 30
0.0
 11
55.04985591426096
 21
206.8975361965011
 31
0.0
  0
LINE
  5
A9FC
  8
0
 10
55.04985591426096
 20
206.8975361965011
 30
0.0
 11
55.04985591426096
 21
207.2315210465011
 31
0.0
  0
LINE
  5
A9FD
  8
0
 10
55.04985591426096
 20
207.2315210465011
 30
0.0
 11
54.71549961426096
 21
207.2315210465011
 31
0.0
  0
LINE
  5
A9FE
  8
0
 10
54.71549961426096
 20
207.2315210465011
 30
0.0
 11
54.71549961426096
 21
206.8975361965011
 31
0.0
  0
LINE
  5
A9FF
  8
0
 10
44.70192961426093
 20
206.5642761965011
 30
0.0
 11
45.03628591426096
 21
206.5642761965011
 31
0.0
  0
LINE
  5
AA00
  8
0
 10
45.03628591426096
 20
206.5642761965011
 30
0.0
 11
45.03628591426096
 21
206.8982600965011
 31
0.0
  0
LINE
  5
AA01
  8
0
 10
45.03628591426096
 20
206.8982600965011
 30
0.0
 11
44.70192961426093
 21
206.8982600965011
 31
0.0
  0
LINE
  5
AA02
  8
0
 10
44.70192961426093
 20
206.8982600965011
 30
0.0
 11
44.70192961426093
 21
206.5642761965011
 31
0.0
  0
LINE
  5
AA03
  8
0
 10
45.36949461426096
 20
206.5642761965011
 30
0.0
 11
45.70347851426098
 21
206.5642761965011
 31
0.0
  0
LINE
  5
AA04
  8
0
 10
45.70347851426098
 20
206.5642761965011
 30
0.0
 11
45.70347851426098
 21
206.8982600965011
 31
0.0
  0
LINE
  5
AA05
  8
0
 10
45.70347851426098
 20
206.8982600965011
 30
0.0
 11
45.36949461426096
 21
206.8982600965011
 31
0.0
  0
LINE
  5
AA06
  8
0
 10
45.36949461426096
 20
206.8982600965011
 30
0.0
 11
45.36949461426096
 21
206.5642761965011
 31
0.0
  0
LINE
  5
AA07
  8
0
 10
46.03743961426093
 20
206.5642761965011
 30
0.0
 11
48.04022961426094
 21
206.5642761965011
 31
0.0
  0
LINE
  5
AA08
  8
0
 10
48.04022961426094
 20
206.5642761965011
 30
0.0
 11
48.04022961426094
 21
206.8982600965011
 31
0.0
  0
LINE
  5
AA09
  8
0
 10
48.04022961426094
 20
206.8982600965011
 30
0.0
 11
46.03743961426093
 21
206.8982600965011
 31
0.0
  0
LINE
  5
AA0A
  8
0
 10
46.03743961426093
 20
206.8982600965011
 30
0.0
 11
46.03743961426093
 21
206.5642761965011
 31
0.0
  0
LINE
  5
AA0B
  8
0
 10
48.37348961426093
 20
206.5642761965011
 30
0.0
 11
48.70747446426097
 21
206.5642761965011
 31
0.0
  0
LINE
  5
AA0C
  8
0
 10
48.70747446426097
 20
206.5642761965011
 30
0.0
 11
48.70747446426097
 21
206.8982600965011
 31
0.0
  0
LINE
  5
AA0D
  8
0
 10
48.70747446426097
 20
206.8982600965011
 30
0.0
 11
48.37348961426093
 21
206.8982600965011
 31
0.0
  0
LINE
  5
AA0E
  8
0
 10
48.37348961426093
 20
206.8982600965011
 30
0.0
 11
48.37348961426093
 21
206.5642761965011
 31
0.0
  0
LINE
  5
AA0F
  8
0
 10
49.04152961426095
 20
206.5642761965011
 30
0.0
 11
49.70912786426095
 21
206.5642761965011
 31
0.0
  0
LINE
  5
AA10
  8
0
 10
49.70912786426095
 20
206.5642761965011
 30
0.0
 11
49.70912786426095
 21
206.8982600965011
 31
0.0
  0
LINE
  5
AA11
  8
0
 10
49.70912786426095
 20
206.8982600965011
 30
0.0
 11
49.04152961426095
 21
206.8982600965011
 31
0.0
  0
LINE
  5
AA12
  8
0
 10
49.04152961426095
 20
206.8982600965011
 30
0.0
 11
49.04152961426095
 21
206.5642761965011
 31
0.0
  0
LINE
  5
AA13
  8
0
 10
50.37665961426094
 20
206.5642761965011
 30
0.0
 11
50.71064351426097
 21
206.5642761965011
 31
0.0
  0
LINE
  5
AA14
  8
0
 10
50.71064351426097
 20
206.5642761965011
 30
0.0
 11
50.71064351426097
 21
206.8982600965011
 31
0.0
  0
LINE
  5
AA15
  8
0
 10
50.71064351426097
 20
206.8982600965011
 30
0.0
 11
50.37665961426094
 21
206.8982600965011
 31
0.0
  0
LINE
  5
AA16
  8
0
 10
50.37665961426094
 20
206.8982600965011
 30
0.0
 11
50.37665961426094
 21
206.5642761965011
 31
0.0
  0
LINE
  5
AA17
  8
0
 10
51.71150461426097
 20
206.5642761965011
 30
0.0
 11
52.04585996426096
 21
206.5642761965011
 31
0.0
  0
LINE
  5
AA18
  8
0
 10
52.04585996426096
 20
206.5642761965011
 30
0.0
 11
52.04585996426096
 21
206.8982600965011
 31
0.0
  0
LINE
  5
AA19
  8
0
 10
52.04585996426096
 20
206.8982600965011
 30
0.0
 11
51.71150461426097
 21
206.8982600965011
 31
0.0
  0
LINE
  5
AA1A
  8
0
 10
51.71150461426097
 20
206.8982600965011
 30
0.0
 11
51.71150461426097
 21
206.5642761965011
 31
0.0
  0
LINE
  5
AA1B
  8
0
 10
53.04672961426095
 20
206.5642761965011
 30
0.0
 11
53.38071351426096
 21
206.5642761965011
 31
0.0
  0
LINE
  5
AA1C
  8
0
 10
53.38071351426096
 20
206.5642761965011
 30
0.0
 11
53.38071351426096
 21
206.8982600965011
 31
0.0
  0
LINE
  5
AA1D
  8
0
 10
53.38071351426096
 20
206.8982600965011
 30
0.0
 11
53.04672961426095
 21
206.8982600965011
 31
0.0
  0
LINE
  5
AA1E
  8
0
 10
53.04672961426095
 20
206.8982600965011
 30
0.0
 11
53.04672961426095
 21
206.5642761965011
 31
0.0
  0
LINE
  5
AA1F
  8
0
 10
53.71391461426096
 20
206.5642761965011
 30
0.0
 11
54.38151191426095
 21
206.5642761965011
 31
0.0
  0
LINE
  5
AA20
  8
0
 10
54.38151191426095
 20
206.5642761965011
 30
0.0
 11
54.38151191426095
 21
206.8982600965011
 31
0.0
  0
LINE
  5
AA21
  8
0
 10
54.38151191426095
 20
206.8982600965011
 30
0.0
 11
53.71391461426096
 21
206.8982600965011
 31
0.0
  0
LINE
  5
AA22
  8
0
 10
53.71391461426096
 20
206.8982600965011
 30
0.0
 11
53.71391461426096
 21
206.5642761965011
 31
0.0
  0
LINE
  5
AA23
  8
0
 10
54.71549961426096
 20
206.5642761965011
 30
0.0
 11
55.04985591426096
 21
206.5642761965011
 31
0.0
  0
LINE
  5
AA24
  8
0
 10
55.04985591426096
 20
206.5642761965011
 30
0.0
 11
55.04985591426096
 21
206.8982600965011
 31
0.0
  0
LINE
  5
AA25
  8
0
 10
55.04985591426096
 20
206.8982600965011
 30
0.0
 11
54.71549961426096
 21
206.8982600965011
 31
0.0
  0
LINE
  5
AA26
  8
0
 10
54.71549961426096
 20
206.8982600965011
 30
0.0
 11
54.71549961426096
 21
206.5642761965011
 31
0.0
  0
LINE
  5
AA27
  8
0
 10
44.36866961426094
 20
206.2303511965011
 30
0.0
 11
44.70265446426097
 21
206.2303511965011
 31
0.0
  0
LINE
  5
AA28
  8
0
 10
44.70265446426097
 20
206.2303511965011
 30
0.0
 11
44.70265446426097
 21
206.5643360465011
 31
0.0
  0
LINE
  5
AA29
  8
0
 10
44.70265446426097
 20
206.5643360465011
 30
0.0
 11
44.36866961426094
 21
206.5643360465011
 31
0.0
  0
LINE
  5
AA2A
  8
0
 10
44.36866961426094
 20
206.5643360465011
 30
0.0
 11
44.36866961426094
 21
206.2303511965011
 31
0.0
  0
LINE
  5
AA2B
  8
0
 10
45.03585461426096
 20
206.2303511965011
 30
0.0
 11
46.03743961426093
 21
206.2303511965011
 31
0.0
  0
LINE
  5
AA2C
  8
0
 10
46.03743961426093
 20
206.2303511965011
 30
0.0
 11
46.03743961426093
 21
206.5643360465011
 31
0.0
  0
LINE
  5
AA2D
  8
0
 10
46.03743961426093
 20
206.5643360465011
 30
0.0
 11
45.03585461426096
 21
206.5643360465011
 31
0.0
  0
LINE
  5
AA2E
  8
0
 10
45.03585461426096
 20
206.5643360465011
 30
0.0
 11
45.03585461426096
 21
206.2303511965011
 31
0.0
  0
LINE
  5
AA2F
  8
0
 10
46.37107961426094
 20
206.2303511965011
 30
0.0
 11
47.03867691426095
 21
206.2303511965011
 31
0.0
  0
LINE
  5
AA30
  8
0
 10
47.03867691426095
 20
206.2303511965011
 30
0.0
 11
47.03867691426095
 21
206.5643360465011
 31
0.0
  0
LINE
  5
AA31
  8
0
 10
47.03867691426095
 20
206.5643360465011
 30
0.0
 11
46.37107961426094
 21
206.5643360465011
 31
0.0
  0
LINE
  5
AA32
  8
0
 10
46.37107961426094
 20
206.5643360465011
 30
0.0
 11
46.37107961426094
 21
206.2303511965011
 31
0.0
  0
LINE
  5
AA33
  8
0
 10
47.37266461426097
 20
206.2303511965011
 30
0.0
 11
47.70664851426096
 21
206.2303511965011
 31
0.0
  0
LINE
  5
AA34
  8
0
 10
47.70664851426096
 20
206.2303511965011
 30
0.0
 11
47.70664851426096
 21
206.5643360465011
 31
0.0
  0
LINE
  5
AA35
  8
0
 10
47.70664851426096
 20
206.5643360465011
 30
0.0
 11
47.37266461426097
 21
206.5643360465011
 31
0.0
  0
LINE
  5
AA36
  8
0
 10
47.37266461426097
 20
206.5643360465011
 30
0.0
 11
47.37266461426097
 21
206.2303511965011
 31
0.0
  0
LINE
  5
AA37
  8
0
 10
49.04152961426095
 20
206.2303511965011
 30
0.0
 11
51.37831111426098
 21
206.2303511965011
 31
0.0
  0
LINE
  5
AA38
  8
0
 10
51.37831111426098
 20
206.2303511965011
 30
0.0
 11
51.37831111426098
 21
206.5643360465011
 31
0.0
  0
LINE
  5
AA39
  8
0
 10
51.37831111426098
 20
206.5643360465011
 30
0.0
 11
49.04152961426095
 21
206.5643360465011
 31
0.0
  0
LINE
  5
AA3A
  8
0
 10
49.04152961426095
 20
206.5643360465011
 30
0.0
 11
49.04152961426095
 21
206.2303511965011
 31
0.0
  0
LINE
  5
AA3B
  8
0
 10
51.71150461426097
 20
206.2303511965011
 30
0.0
 11
52.04585996426096
 21
206.2303511965011
 31
0.0
  0
LINE
  5
AA3C
  8
0
 10
52.04585996426096
 20
206.2303511965011
 30
0.0
 11
52.04585996426096
 21
206.5643360465011
 31
0.0
  0
LINE
  5
AA3D
  8
0
 10
52.04585996426096
 20
206.5643360465011
 30
0.0
 11
51.71150461426097
 21
206.5643360465011
 31
0.0
  0
LINE
  5
AA3E
  8
0
 10
51.71150461426097
 20
206.5643360465011
 30
0.0
 11
51.71150461426097
 21
206.2303511965011
 31
0.0
  0
LINE
  5
AA3F
  8
0
 10
52.37906961426094
 20
206.2303511965011
 30
0.0
 11
52.71305446426096
 21
206.2303511965011
 31
0.0
  0
LINE
  5
AA40
  8
0
 10
52.71305446426096
 20
206.2303511965011
 30
0.0
 11
52.71305446426096
 21
206.5643360465011
 31
0.0
  0
LINE
  5
AA41
  8
0
 10
52.71305446426096
 20
206.5643360465011
 30
0.0
 11
52.37906961426094
 21
206.5643360465011
 31
0.0
  0
LINE
  5
AA42
  8
0
 10
52.37906961426094
 20
206.5643360465011
 30
0.0
 11
52.37906961426094
 21
206.2303511965011
 31
0.0
  0
LINE
  5
AA43
  8
0
 10
53.38065461426095
 20
206.2303511965011
 30
0.0
 11
54.38223961426095
 21
206.2303511965011
 31
0.0
  0
LINE
  5
AA44
  8
0
 10
54.38223961426095
 20
206.2303511965011
 30
0.0
 11
54.38223961426095
 21
206.5643360465011
 31
0.0
  0
LINE
  5
AA45
  8
0
 10
54.38223961426095
 20
206.5643360465011
 30
0.0
 11
53.38065461426095
 21
206.5643360465011
 31
0.0
  0
LINE
  5
AA46
  8
0
 10
53.38065461426095
 20
206.5643360465011
 30
0.0
 11
53.38065461426095
 21
206.2303511965011
 31
0.0
  0
LINE
  5
AA47
  8
0
 10
54.71549961426096
 20
206.2303511965011
 30
0.0
 11
55.04985591426096
 21
206.2303511965011
 31
0.0
  0
LINE
  5
AA48
  8
0
 10
55.04985591426096
 20
206.2303511965011
 30
0.0
 11
55.04985591426096
 21
206.5643360465011
 31
0.0
  0
LINE
  5
AA49
  8
0
 10
55.04985591426096
 20
206.5643360465011
 30
0.0
 11
54.71549961426096
 21
206.5643360465011
 31
0.0
  0
LINE
  5
AA4A
  8
0
 10
54.71549961426096
 20
206.5643360465011
 30
0.0
 11
54.71549961426096
 21
206.2303511965011
 31
0.0
  0
LINE
  5
AA4B
  8
0
 10
44.03436461426097
 20
205.8959511965011
 30
0.0
 11
45.36956111426096
 21
205.8959511965011
 31
0.0
  0
LINE
  5
AA4C
  8
0
 10
45.36956111426096
 20
205.8959511965011
 30
0.0
 11
45.36956111426096
 21
206.2303065465011
 31
0.0
  0
LINE
  5
AA4D
  8
0
 10
45.36956111426096
 20
206.2303065465011
 30
0.0
 11
44.03436461426097
 21
206.2303065465011
 31
0.0
  0
LINE
  5
AA4E
  8
0
 10
44.03436461426097
 20
206.2303065465011
 30
0.0
 11
44.03436461426097
 21
205.8959511965011
 31
0.0
  0
LINE
  5
AA4F
  8
0
 10
46.03743961426093
 20
205.8959511965011
 30
0.0
 11
46.37142351426095
 21
205.8959511965011
 31
0.0
  0
LINE
  5
AA50
  8
0
 10
46.37142351426095
 20
205.8959511965011
 30
0.0
 11
46.37142351426095
 21
206.2303065465011
 31
0.0
  0
LINE
  5
AA51
  8
0
 10
46.37142351426095
 20
206.2303065465011
 30
0.0
 11
46.03743961426093
 21
206.2303065465011
 31
0.0
  0
LINE
  5
AA52
  8
0
 10
46.03743961426093
 20
206.2303065465011
 30
0.0
 11
46.03743961426093
 21
205.8959511965011
 31
0.0
  0
LINE
  5
AA53
  8
0
 10
46.70509961426094
 20
205.8959511965011
 30
0.0
 11
47.03908446426098
 21
205.8959511965011
 31
0.0
  0
LINE
  5
AA54
  8
0
 10
47.03908446426098
 20
205.8959511965011
 30
0.0
 11
47.03908446426098
 21
206.2303065465011
 31
0.0
  0
LINE
  5
AA55
  8
0
 10
47.03908446426098
 20
206.2303065465011
 30
0.0
 11
46.70509961426094
 21
206.2303065465011
 31
0.0
  0
LINE
  5
AA56
  8
0
 10
46.70509961426094
 20
206.2303065465011
 30
0.0
 11
46.70509961426094
 21
205.8959511965011
 31
0.0
  0
LINE
  5
AA57
  8
0
 10
47.37266461426097
 20
205.8959511965011
 30
0.0
 11
47.70664851426096
 21
205.8959511965011
 31
0.0
  0
LINE
  5
AA58
  8
0
 10
47.70664851426096
 20
205.8959511965011
 30
0.0
 11
47.70664851426096
 21
206.2303065465011
 31
0.0
  0
LINE
  5
AA59
  8
0
 10
47.70664851426096
 20
206.2303065465011
 30
0.0
 11
47.37266461426097
 21
206.2303065465011
 31
0.0
  0
LINE
  5
AA5A
  8
0
 10
47.37266461426097
 20
206.2303065465011
 30
0.0
 11
47.37266461426097
 21
205.8959511965011
 31
0.0
  0
LINE
  5
AA5B
  8
0
 10
48.04032461426098
 20
205.8959511965011
 30
0.0
 11
49.04153911426096
 21
205.8959511965011
 31
0.0
  0
LINE
  5
AA5C
  8
0
 10
49.04153911426096
 20
205.8959511965011
 30
0.0
 11
49.04153911426096
 21
206.2303065465011
 31
0.0
  0
LINE
  5
AA5D
  8
0
 10
49.04153911426096
 20
206.2303065465011
 30
0.0
 11
48.04032461426098
 21
206.2303065465011
 31
0.0
  0
LINE
  5
AA5E
  8
0
 10
48.04032461426098
 20
206.2303065465011
 30
0.0
 11
48.04032461426098
 21
205.8959511965011
 31
0.0
  0
LINE
  5
AA5F
  8
0
 10
49.37507461426097
 20
205.8959511965011
 30
0.0
 11
49.70905946426095
 21
205.8959511965011
 31
0.0
  0
LINE
  5
AA60
  8
0
 10
49.70905946426095
 20
205.8959511965011
 30
0.0
 11
49.70905946426095
 21
206.2303065465011
 31
0.0
  0
LINE
  5
AA61
  8
0
 10
49.70905946426095
 20
206.2303065465011
 30
0.0
 11
49.37507461426097
 21
206.2303065465011
 31
0.0
  0
LINE
  5
AA62
  8
0
 10
49.37507461426097
 20
206.2303065465011
 30
0.0
 11
49.37507461426097
 21
205.8959511965011
 31
0.0
  0
LINE
  5
AA63
  8
0
 10
50.70991961426097
 20
205.8959511965011
 30
0.0
 11
51.71150461426097
 21
205.8959511965011
 31
0.0
  0
LINE
  5
AA64
  8
0
 10
51.71150461426097
 20
205.8959511965011
 30
0.0
 11
51.71150461426097
 21
206.2303065465011
 31
0.0
  0
LINE
  5
AA65
  8
0
 10
51.71150461426097
 20
206.2303065465011
 30
0.0
 11
50.70991961426097
 21
206.2303065465011
 31
0.0
  0
LINE
  5
AA66
  8
0
 10
50.70991961426097
 20
206.2303065465011
 30
0.0
 11
50.70991961426097
 21
205.8959511965011
 31
0.0
  0
LINE
  5
AA67
  8
0
 10
52.37906961426094
 20
205.8959511965011
 30
0.0
 11
52.71305446426096
 21
205.8959511965011
 31
0.0
  0
LINE
  5
AA68
  8
0
 10
52.71305446426096
 20
205.8959511965011
 30
0.0
 11
52.71305446426096
 21
206.2303065465011
 31
0.0
  0
LINE
  5
AA69
  8
0
 10
52.71305446426096
 20
206.2303065465011
 30
0.0
 11
52.37906961426094
 21
206.2303065465011
 31
0.0
  0
LINE
  5
AA6A
  8
0
 10
52.37906961426094
 20
206.2303065465011
 30
0.0
 11
52.37906961426094
 21
205.8959511965011
 31
0.0
  0
LINE
  5
AA6B
  8
0
 10
53.38065461426095
 20
205.8959511965011
 30
0.0
 11
54.04788141426097
 21
205.8959511965011
 31
0.0
  0
LINE
  5
AA6C
  8
0
 10
54.04788141426097
 20
205.8959511965011
 30
0.0
 11
54.04788141426097
 21
206.2303065465011
 31
0.0
  0
LINE
  5
AA6D
  8
0
 10
54.04788141426097
 20
206.2303065465011
 30
0.0
 11
53.38065461426095
 21
206.2303065465011
 31
0.0
  0
LINE
  5
AA6E
  8
0
 10
53.38065461426095
 20
206.2303065465011
 30
0.0
 11
53.38065461426095
 21
205.8959511965011
 31
0.0
  0
LINE
  5
AA6F
  8
0
 10
44.03436461426097
 20
205.5626911965011
 30
0.0
 11
44.70196191426095
 21
205.5626911965011
 31
0.0
  0
LINE
  5
AA70
  8
0
 10
44.70196191426095
 20
205.5626911965011
 30
0.0
 11
44.70196191426095
 21
205.8966760465011
 31
0.0
  0
LINE
  5
AA71
  8
0
 10
44.70196191426095
 20
205.8966760465011
 30
0.0
 11
44.03436461426097
 21
205.8966760465011
 31
0.0
  0
LINE
  5
AA72
  8
0
 10
44.03436461426097
 20
205.8966760465011
 30
0.0
 11
44.03436461426097
 21
205.5626911965011
 31
0.0
  0
LINE
  5
AA73
  8
0
 10
45.03585461426096
 20
205.5626911965011
 30
0.0
 11
45.36983851426098
 21
205.5626911965011
 31
0.0
  0
LINE
  5
AA74
  8
0
 10
45.36983851426098
 20
205.5626911965011
 30
0.0
 11
45.36983851426098
 21
205.8966760465011
 31
0.0
  0
LINE
  5
AA75
  8
0
 10
45.36983851426098
 20
205.8966760465011
 30
0.0
 11
45.03585461426096
 21
205.8966760465011
 31
0.0
  0
LINE
  5
AA76
  8
0
 10
45.03585461426096
 20
205.8966760465011
 30
0.0
 11
45.03585461426096
 21
205.5626911965011
 31
0.0
  0
LINE
  5
AA77
  8
0
 10
45.70351461426097
 20
205.5626911965011
 30
0.0
 11
46.03749946426095
 21
205.5626911965011
 31
0.0
  0
LINE
  5
AA78
  8
0
 10
46.03749946426095
 20
205.5626911965011
 30
0.0
 11
46.03749946426095
 21
205.8966760465011
 31
0.0
  0
LINE
  5
AA79
  8
0
 10
46.03749946426095
 20
205.8966760465011
 30
0.0
 11
45.70351461426097
 21
205.8966760465011
 31
0.0
  0
LINE
  5
AA7A
  8
0
 10
45.70351461426097
 20
205.8966760465011
 30
0.0
 11
45.70351461426097
 21
205.5626911965011
 31
0.0
  0
LINE
  5
AA7B
  8
0
 10
46.70509961426094
 20
205.5626911965011
 30
0.0
 11
47.03908446426098
 21
205.5626911965011
 31
0.0
  0
LINE
  5
AA7C
  8
0
 10
47.03908446426098
 20
205.5626911965011
 30
0.0
 11
47.03908446426098
 21
205.8966760465011
 31
0.0
  0
LINE
  5
AA7D
  8
0
 10
47.03908446426098
 20
205.8966760465011
 30
0.0
 11
46.70509961426094
 21
205.8966760465011
 31
0.0
  0
LINE
  5
AA7E
  8
0
 10
46.70509961426094
 20
205.8966760465011
 30
0.0
 11
46.70509961426094
 21
205.5626911965011
 31
0.0
  0
LINE
  5
AA7F
  8
0
 10
47.37266461426097
 20
205.5626911965011
 30
0.0
 11
48.37387911426097
 21
205.5626911965011
 31
0.0
  0
LINE
  5
AA80
  8
0
 10
48.37387911426097
 20
205.5626911965011
 30
0.0
 11
48.37387911426097
 21
205.8966760465011
 31
0.0
  0
LINE
  5
AA81
  8
0
 10
48.37387911426097
 20
205.8966760465011
 30
0.0
 11
47.37266461426097
 21
205.8966760465011
 31
0.0
  0
LINE
  5
AA82
  8
0
 10
47.37266461426097
 20
205.8966760465011
 30
0.0
 11
47.37266461426097
 21
205.5626911965011
 31
0.0
  0
LINE
  5
AA83
  8
0
 10
48.70750961426097
 20
205.5626911965011
 30
0.0
 11
49.04149351426096
 21
205.5626911965011
 31
0.0
  0
LINE
  5
AA84
  8
0
 10
49.04149351426096
 20
205.5626911965011
 30
0.0
 11
49.04149351426096
 21
205.8966760465011
 31
0.0
  0
LINE
  5
AA85
  8
0
 10
49.04149351426096
 20
205.8966760465011
 30
0.0
 11
48.70750961426097
 21
205.8966760465011
 31
0.0
  0
LINE
  5
AA86
  8
0
 10
48.70750961426097
 20
205.8966760465011
 30
0.0
 11
48.70750961426097
 21
205.5626911965011
 31
0.0
  0
LINE
  5
AA87
  8
0
 10
49.37507461426097
 20
205.5626911965011
 30
0.0
 11
50.37665961426094
 21
205.5626911965011
 31
0.0
  0
LINE
  5
AA88
  8
0
 10
50.37665961426094
 20
205.5626911965011
 30
0.0
 11
50.37665961426094
 21
205.8966760465011
 31
0.0
  0
LINE
  5
AA89
  8
0
 10
50.37665961426094
 20
205.8966760465011
 30
0.0
 11
49.37507461426097
 21
205.8966760465011
 31
0.0
  0
LINE
  5
AA8A
  8
0
 10
49.37507461426097
 20
205.8966760465011
 30
0.0
 11
49.37507461426097
 21
205.5626911965011
 31
0.0
  0
LINE
  5
AA8B
  8
0
 10
50.70991961426097
 20
205.5626911965011
 30
0.0
 11
51.04427496426095
 21
205.5626911965011
 31
0.0
  0
LINE
  5
AA8C
  8
0
 10
51.04427496426095
 20
205.5626911965011
 30
0.0
 11
51.04427496426095
 21
205.8966760465011
 31
0.0
  0
LINE
  5
AA8D
  8
0
 10
51.04427496426095
 20
205.8966760465011
 30
0.0
 11
50.70991961426097
 21
205.8966760465011
 31
0.0
  0
LINE
  5
AA8E
  8
0
 10
50.70991961426097
 20
205.8966760465011
 30
0.0
 11
50.70991961426097
 21
205.5626911965011
 31
0.0
  0
LINE
  5
AA8F
  8
0
 10
51.37748461426096
 20
205.5626911965011
 30
0.0
 11
52.04508191426098
 21
205.5626911965011
 31
0.0
  0
LINE
  5
AA90
  8
0
 10
52.04508191426098
 20
205.5626911965011
 30
0.0
 11
52.04508191426098
 21
205.8966760465011
 31
0.0
  0
LINE
  5
AA91
  8
0
 10
52.04508191426098
 20
205.8966760465011
 30
0.0
 11
51.37748461426096
 21
205.8966760465011
 31
0.0
  0
LINE
  5
AA92
  8
0
 10
51.37748461426096
 20
205.8966760465011
 30
0.0
 11
51.37748461426096
 21
205.5626911965011
 31
0.0
  0
LINE
  5
AA93
  8
0
 10
53.04672961426095
 20
205.5626911965011
 30
0.0
 11
54.38155561426095
 21
205.5626911965011
 31
0.0
  0
LINE
  5
AA94
  8
0
 10
54.38155561426095
 20
205.5626911965011
 30
0.0
 11
54.38155561426095
 21
205.8966760465011
 31
0.0
  0
LINE
  5
AA95
  8
0
 10
54.38155561426095
 20
205.8966760465011
 30
0.0
 11
53.04672961426095
 21
205.8966760465011
 31
0.0
  0
LINE
  5
AA96
  8
0
 10
53.04672961426095
 20
205.8966760465011
 30
0.0
 11
53.04672961426095
 21
205.5626911965011
 31
0.0
  0
LINE
  5
AA97
  8
0
 10
44.03436461426097
 20
205.2287661965011
 30
0.0
 11
44.36871996426098
 21
205.2287661965011
 31
0.0
  0
LINE
  5
AA98
  8
0
 10
44.36871996426098
 20
205.2287661965011
 30
0.0
 11
44.36871996426098
 21
205.5627500965011
 31
0.0
  0
LINE
  5
AA99
  8
0
 10
44.36871996426098
 20
205.5627500965011
 30
0.0
 11
44.03436461426097
 21
205.5627500965011
 31
0.0
  0
LINE
  5
AA9A
  8
0
 10
44.03436461426097
 20
205.5627500965011
 30
0.0
 11
44.03436461426097
 21
205.2287661965011
 31
0.0
  0
LINE
  5
AA9B
  8
0
 10
44.70192961426093
 20
205.2287661965011
 30
0.0
 11
45.03628591426096
 21
205.2287661965011
 31
0.0
  0
LINE
  5
AA9C
  8
0
 10
45.03628591426096
 20
205.2287661965011
 30
0.0
 11
45.03628591426096
 21
205.5627500965011
 31
0.0
  0
LINE
  5
AA9D
  8
0
 10
45.03628591426096
 20
205.5627500965011
 30
0.0
 11
44.70192961426093
 21
205.5627500965011
 31
0.0
  0
LINE
  5
AA9E
  8
0
 10
44.70192961426093
 20
205.5627500965011
 30
0.0
 11
44.70192961426093
 21
205.2287661965011
 31
0.0
  0
LINE
  5
AA9F
  8
0
 10
45.36949461426096
 20
205.2287661965011
 30
0.0
 11
46.37107961426094
 21
205.2287661965011
 31
0.0
  0
LINE
  5
AAA0
  8
0
 10
46.37107961426094
 20
205.2287661965011
 30
0.0
 11
46.37107961426094
 21
205.5627500965011
 31
0.0
  0
LINE
  5
AAA1
  8
0
 10
46.37107961426094
 20
205.5627500965011
 30
0.0
 11
45.36949461426096
 21
205.5627500965011
 31
0.0
  0
LINE
  5
AAA2
  8
0
 10
45.36949461426096
 20
205.5627500965011
 30
0.0
 11
45.36949461426096
 21
205.2287661965011
 31
0.0
  0
LINE
  5
AAA3
  8
0
 10
47.03873961426095
 20
205.2287661965011
 30
0.0
 11
47.37272446426093
 21
205.2287661965011
 31
0.0
  0
LINE
  5
AAA4
  8
0
 10
47.37272446426093
 20
205.2287661965011
 30
0.0
 11
47.37272446426093
 21
205.5627500965011
 31
0.0
  0
LINE
  5
AAA5
  8
0
 10
47.37272446426093
 20
205.5627500965011
 30
0.0
 11
47.03873961426095
 21
205.5627500965011
 31
0.0
  0
LINE
  5
AAA6
  8
0
 10
47.03873961426095
 20
205.5627500965011
 30
0.0
 11
47.03873961426095
 21
205.2287661965011
 31
0.0
  0
LINE
  5
AAA7
  8
0
 10
47.70592461426097
 20
205.2287661965011
 30
0.0
 11
48.03990851426096
 21
205.2287661965011
 31
0.0
  0
LINE
  5
AAA8
  8
0
 10
48.03990851426096
 20
205.2287661965011
 30
0.0
 11
48.03990851426096
 21
205.5627500965011
 31
0.0
  0
LINE
  5
AAA9
  8
0
 10
48.03990851426096
 20
205.5627500965011
 30
0.0
 11
47.70592461426097
 21
205.5627500965011
 31
0.0
  0
LINE
  5
AAAA
  8
0
 10
47.70592461426097
 20
205.5627500965011
 30
0.0
 11
47.70592461426097
 21
205.2287661965011
 31
0.0
  0
LINE
  5
AAAB
  8
0
 10
49.04152961426095
 20
205.2287661965011
 30
0.0
 11
50.04311461426096
 21
205.2287661965011
 31
0.0
  0
LINE
  5
AAAC
  8
0
 10
50.04311461426096
 20
205.2287661965011
 30
0.0
 11
50.04311461426096
 21
205.5627500965011
 31
0.0
  0
LINE
  5
AAAD
  8
0
 10
50.04311461426096
 20
205.5627500965011
 30
0.0
 11
49.04152961426095
 21
205.5627500965011
 31
0.0
  0
LINE
  5
AAAE
  8
0
 10
49.04152961426095
 20
205.5627500965011
 30
0.0
 11
49.04152961426095
 21
205.2287661965011
 31
0.0
  0
LINE
  5
AAAF
  8
0
 10
50.70991961426097
 20
205.2287661965011
 30
0.0
 11
51.37751786426097
 21
205.2287661965011
 31
0.0
  0
LINE
  5
AAB0
  8
0
 10
51.37751786426097
 20
205.2287661965011
 30
0.0
 11
51.37751786426097
 21
205.5627500965011
 31
0.0
  0
LINE
  5
AAB1
  8
0
 10
51.37751786426097
 20
205.5627500965011
 30
0.0
 11
50.70991961426097
 21
205.5627500965011
 31
0.0
  0
LINE
  5
AAB2
  8
0
 10
50.70991961426097
 20
205.5627500965011
 30
0.0
 11
50.70991961426097
 21
205.2287661965011
 31
0.0
  0
LINE
  5
AAB3
  8
0
 10
52.04590461426093
 20
205.2287661965011
 30
0.0
 11
52.71313141426096
 21
205.2287661965011
 31
0.0
  0
LINE
  5
AAB4
  8
0
 10
52.71313141426096
 20
205.2287661965011
 30
0.0
 11
52.71313141426096
 21
205.5627500965011
 31
0.0
  0
LINE
  5
AAB5
  8
0
 10
52.71313141426096
 20
205.5627500965011
 30
0.0
 11
52.04590461426093
 21
205.5627500965011
 31
0.0
  0
LINE
  5
AAB6
  8
0
 10
52.04590461426093
 20
205.5627500965011
 30
0.0
 11
52.04590461426093
 21
205.2287661965011
 31
0.0
  0
LINE
  5
AAB7
  8
0
 10
53.04672961426095
 20
205.2287661965011
 30
0.0
 11
53.38071351426096
 21
205.2287661965011
 31
0.0
  0
LINE
  5
AAB8
  8
0
 10
53.38071351426096
 20
205.2287661965011
 30
0.0
 11
53.38071351426096
 21
205.5627500965011
 31
0.0
  0
LINE
  5
AAB9
  8
0
 10
53.38071351426096
 20
205.5627500965011
 30
0.0
 11
53.04672961426095
 21
205.5627500965011
 31
0.0
  0
LINE
  5
AABA
  8
0
 10
53.04672961426095
 20
205.5627500965011
 30
0.0
 11
53.04672961426095
 21
205.2287661965011
 31
0.0
  0
LINE
  5
AABB
  8
0
 10
53.71391461426096
 20
205.2287661965011
 30
0.0
 11
54.71549961426096
 21
205.2287661965011
 31
0.0
  0
LINE
  5
AABC
  8
0
 10
54.71549961426096
 20
205.2287661965011
 30
0.0
 11
54.71549961426096
 21
205.5627500965011
 31
0.0
  0
LINE
  5
AABD
  8
0
 10
54.71549961426096
 20
205.5627500965011
 30
0.0
 11
53.71391461426096
 21
205.5627500965011
 31
0.0
  0
LINE
  5
AABE
  8
0
 10
53.71391461426096
 20
205.5627500965011
 30
0.0
 11
53.71391461426096
 21
205.2287661965011
 31
0.0
  0
LINE
  5
AABF
  8
0
 10
44.03436461426097
 20
204.8951261965011
 30
0.0
 11
44.36871996426098
 21
204.8951261965011
 31
0.0
  0
LINE
  5
AAC0
  8
0
 10
44.36871996426098
 20
204.8951261965011
 30
0.0
 11
44.36871996426098
 21
205.2291100965011
 31
0.0
  0
LINE
  5
AAC1
  8
0
 10
44.36871996426098
 20
205.2291100965011
 30
0.0
 11
44.03436461426097
 21
205.2291100965011
 31
0.0
  0
LINE
  5
AAC2
  8
0
 10
44.03436461426097
 20
205.2291100965011
 30
0.0
 11
44.03436461426097
 21
204.8951261965011
 31
0.0
  0
LINE
  5
AAC3
  8
0
 10
45.36949461426096
 20
204.8951261965011
 30
0.0
 11
46.03709191426097
 21
204.8951261965011
 31
0.0
  0
LINE
  5
AAC4
  8
0
 10
46.03709191426097
 20
204.8951261965011
 30
0.0
 11
46.03709191426097
 21
205.2291100965011
 31
0.0
  0
LINE
  5
AAC5
  8
0
 10
46.03709191426097
 20
205.2291100965011
 30
0.0
 11
45.36949461426096
 21
205.2291100965011
 31
0.0
  0
LINE
  5
AAC6
  8
0
 10
45.36949461426096
 20
205.2291100965011
 30
0.0
 11
45.36949461426096
 21
204.8951261965011
 31
0.0
  0
LINE
  5
AAC7
  8
0
 10
46.37107961426094
 20
204.8951261965011
 30
0.0
 11
48.37349911426097
 21
204.8951261965011
 31
0.0
  0
LINE
  5
AAC8
  8
0
 10
48.37349911426097
 20
204.8951261965011
 30
0.0
 11
48.37349911426097
 21
205.2291100965011
 31
0.0
  0
LINE
  5
AAC9
  8
0
 10
48.37349911426097
 20
205.2291100965011
 30
0.0
 11
46.37107961426094
 21
205.2291100965011
 31
0.0
  0
LINE
  5
AACA
  8
0
 10
46.37107961426094
 20
205.2291100965011
 30
0.0
 11
46.37107961426094
 21
204.8951261965011
 31
0.0
  0
LINE
  5
AACB
  8
0
 10
50.04273461426095
 20
204.8951261965011
 30
0.0
 11
50.37671946426096
 21
204.8951261965011
 31
0.0
  0
LINE
  5
AACC
  8
0
 10
50.37671946426096
 20
204.8951261965011
 30
0.0
 11
50.37671946426096
 21
205.2291100965011
 31
0.0
  0
LINE
  5
AACD
  8
0
 10
50.37671946426096
 20
205.2291100965011
 30
0.0
 11
50.04273461426095
 21
205.2291100965011
 31
0.0
  0
LINE
  5
AACE
  8
0
 10
50.04273461426095
 20
205.2291100965011
 30
0.0
 11
50.04273461426095
 21
204.8951261965011
 31
0.0
  0
LINE
  5
AACF
  8
0
 10
51.37748461426096
 20
204.8951261965011
 30
0.0
 11
52.04508191426098
 21
204.8951261965011
 31
0.0
  0
LINE
  5
AAD0
  8
0
 10
52.04508191426098
 20
204.8951261965011
 30
0.0
 11
52.04508191426098
 21
205.2291100965011
 31
0.0
  0
LINE
  5
AAD1
  8
0
 10
52.04508191426098
 20
205.2291100965011
 30
0.0
 11
51.37748461426096
 21
205.2291100965011
 31
0.0
  0
LINE
  5
AAD2
  8
0
 10
51.37748461426096
 20
205.2291100965011
 30
0.0
 11
51.37748461426096
 21
204.8951261965011
 31
0.0
  0
LINE
  5
AAD3
  8
0
 10
52.37906961426094
 20
204.8951261965011
 30
0.0
 11
53.38065461426095
 21
204.8951261965011
 31
0.0
  0
LINE
  5
AAD4
  8
0
 10
53.38065461426095
 20
204.8951261965011
 30
0.0
 11
53.38065461426095
 21
205.2291100965011
 31
0.0
  0
LINE
  5
AAD5
  8
0
 10
53.38065461426095
 20
205.2291100965011
 30
0.0
 11
52.37906961426094
 21
205.2291100965011
 31
0.0
  0
LINE
  5
AAD6
  8
0
 10
52.37906961426094
 20
205.2291100965011
 30
0.0
 11
52.37906961426094
 21
204.8951261965011
 31
0.0
  0
LINE
  5
AAD7
  8
0
 10
53.71391461426096
 20
204.8951261965011
 30
0.0
 11
54.38151191426095
 21
204.8951261965011
 31
0.0
  0
LINE
  5
AAD8
  8
0
 10
54.38151191426095
 20
204.8951261965011
 30
0.0
 11
54.38151191426095
 21
205.2291100965011
 31
0.0
  0
LINE
  5
AAD9
  8
0
 10
54.38151191426095
 20
205.2291100965011
 30
0.0
 11
53.71391461426096
 21
205.2291100965011
 31
0.0
  0
LINE
  5
AADA
  8
0
 10
53.71391461426096
 20
205.2291100965011
 30
0.0
 11
53.71391461426096
 21
204.8951261965011
 31
0.0
  0
LINE
  5
AADB
  8
0
 10
54.71549961426096
 20
204.8951261965011
 30
0.0
 11
55.04985591426096
 21
204.8951261965011
 31
0.0
  0
LINE
  5
AADC
  8
0
 10
55.04985591426096
 20
204.8951261965011
 30
0.0
 11
55.04985591426096
 21
205.2291100965011
 31
0.0
  0
LINE
  5
AADD
  8
0
 10
55.04985591426096
 20
205.2291100965011
 30
0.0
 11
54.71549961426096
 21
205.2291100965011
 31
0.0
  0
LINE
  5
AADE
  8
0
 10
54.71549961426096
 20
205.2291100965011
 30
0.0
 11
54.71549961426096
 21
204.8951261965011
 31
0.0
  0
LINE
  5
AADF
  8
0
 10
44.03436461426097
 20
204.5611061965011
 30
0.0
 11
44.70196191426095
 21
204.5611061965011
 31
0.0
  0
LINE
  5
AAE0
  8
0
 10
44.70196191426095
 20
204.5611061965011
 30
0.0
 11
44.70196191426095
 21
204.8950910465011
 31
0.0
  0
LINE
  5
AAE1
  8
0
 10
44.70196191426095
 20
204.8950910465011
 30
0.0
 11
44.03436461426097
 21
204.8950910465011
 31
0.0
  0
LINE
  5
AAE2
  8
0
 10
44.03436461426097
 20
204.8950910465011
 30
0.0
 11
44.03436461426097
 21
204.5611061965011
 31
0.0
  0
LINE
  5
AAE3
  8
0
 10
45.03585461426096
 20
204.5611061965011
 30
0.0
 11
45.36983851426098
 21
204.5611061965011
 31
0.0
  0
LINE
  5
AAE4
  8
0
 10
45.36983851426098
 20
204.5611061965011
 30
0.0
 11
45.36983851426098
 21
204.8950910465011
 31
0.0
  0
LINE
  5
AAE5
  8
0
 10
45.36983851426098
 20
204.8950910465011
 30
0.0
 11
45.03585461426096
 21
204.8950910465011
 31
0.0
  0
LINE
  5
AAE6
  8
0
 10
45.03585461426096
 20
204.8950910465011
 30
0.0
 11
45.03585461426096
 21
204.5611061965011
 31
0.0
  0
LINE
  5
AAE7
  8
0
 10
45.70351461426097
 20
204.5611061965011
 30
0.0
 11
47.70593411426094
 21
204.5611061965011
 31
0.0
  0
LINE
  5
AAE8
  8
0
 10
47.70593411426094
 20
204.5611061965011
 30
0.0
 11
47.70593411426094
 21
204.8950910465011
 31
0.0
  0
LINE
  5
AAE9
  8
0
 10
47.70593411426094
 20
204.8950910465011
 30
0.0
 11
45.70351461426097
 21
204.8950910465011
 31
0.0
  0
LINE
  5
AAEA
  8
0
 10
45.70351461426097
 20
204.8950910465011
 30
0.0
 11
45.70351461426097
 21
204.5611061965011
 31
0.0
  0
LINE
  5
AAEB
  8
0
 10
49.04152961426095
 20
204.5611061965011
 30
0.0
 11
49.70912786426095
 21
204.5611061965011
 31
0.0
  0
LINE
  5
AAEC
  8
0
 10
49.70912786426095
 20
204.5611061965011
 30
0.0
 11
49.70912786426095
 21
204.8950910465011
 31
0.0
  0
LINE
  5
AAED
  8
0
 10
49.70912786426095
 20
204.8950910465011
 30
0.0
 11
49.04152961426095
 21
204.8950910465011
 31
0.0
  0
LINE
  5
AAEE
  8
0
 10
49.04152961426095
 20
204.8950910465011
 30
0.0
 11
49.04152961426095
 21
204.5611061965011
 31
0.0
  0
LINE
  5
AAEF
  8
0
 10
50.37665961426094
 20
204.5611061965011
 30
0.0
 11
51.04425691426096
 21
204.5611061965011
 31
0.0
  0
LINE
  5
AAF0
  8
0
 10
51.04425691426096
 20
204.5611061965011
 30
0.0
 11
51.04425691426096
 21
204.8950910465011
 31
0.0
  0
LINE
  5
AAF1
  8
0
 10
51.04425691426096
 20
204.8950910465011
 30
0.0
 11
50.37665961426094
 21
204.8950910465011
 31
0.0
  0
LINE
  5
AAF2
  8
0
 10
50.37665961426094
 20
204.8950910465011
 30
0.0
 11
50.37665961426094
 21
204.5611061965011
 31
0.0
  0
LINE
  5
AAF3
  8
0
 10
52.04590461426093
 20
204.5611061965011
 30
0.0
 11
54.04832411426095
 21
204.5611061965011
 31
0.0
  0
LINE
  5
AAF4
  8
0
 10
54.04832411426095
 20
204.5611061965011
 30
0.0
 11
54.04832411426095
 21
204.8950910465011
 31
0.0
  0
LINE
  5
AAF5
  8
0
 10
54.04832411426095
 20
204.8950910465011
 30
0.0
 11
52.04590461426093
 21
204.8950910465011
 31
0.0
  0
LINE
  5
AAF6
  8
0
 10
52.04590461426093
 20
204.8950910465011
 30
0.0
 11
52.04590461426093
 21
204.5611061965011
 31
0.0
  0
LINE
  5
AAF7
  8
0
 10
46.70509961426094
 20
204.2275611965011
 30
0.0
 11
47.03908446426098
 21
204.2275611965011
 31
0.0
  0
LINE
  5
AAF8
  8
0
 10
47.03908446426098
 20
204.2275611965011
 30
0.0
 11
47.03908446426098
 21
204.5615460465011
 31
0.0
  0
LINE
  5
AAF9
  8
0
 10
47.03908446426098
 20
204.5615460465011
 30
0.0
 11
46.70509961426094
 21
204.5615460465011
 31
0.0
  0
LINE
  5
AAFA
  8
0
 10
46.70509961426094
 20
204.5615460465011
 30
0.0
 11
46.70509961426094
 21
204.2275611965011
 31
0.0
  0
LINE
  5
AAFB
  8
0
 10
47.70592461426097
 20
204.2275611965011
 30
0.0
 11
48.03990851426096
 21
204.2275611965011
 31
0.0
  0
LINE
  5
AAFC
  8
0
 10
48.03990851426096
 20
204.2275611965011
 30
0.0
 11
48.03990851426096
 21
204.5615460465011
 31
0.0
  0
LINE
  5
AAFD
  8
0
 10
48.03990851426096
 20
204.5615460465011
 30
0.0
 11
47.70592461426097
 21
204.5615460465011
 31
0.0
  0
LINE
  5
AAFE
  8
0
 10
47.70592461426097
 20
204.5615460465011
 30
0.0
 11
47.70592461426097
 21
204.2275611965011
 31
0.0
  0
LINE
  5
AAFF
  8
0
 10
48.37348961426093
 20
204.2275611965011
 30
0.0
 11
48.70747446426097
 21
204.2275611965011
 31
0.0
  0
LINE
  5
AB00
  8
0
 10
48.70747446426097
 20
204.2275611965011
 30
0.0
 11
48.70747446426097
 21
204.5615460465011
 31
0.0
  0
LINE
  5
AB01
  8
0
 10
48.70747446426097
 20
204.5615460465011
 30
0.0
 11
48.37348961426093
 21
204.5615460465011
 31
0.0
  0
LINE
  5
AB02
  8
0
 10
48.37348961426093
 20
204.5615460465011
 30
0.0
 11
48.37348961426093
 21
204.2275611965011
 31
0.0
  0
LINE
  5
AB03
  8
0
 10
49.04152961426095
 20
204.2275611965011
 30
0.0
 11
49.37588496426096
 21
204.2275611965011
 31
0.0
  0
LINE
  5
AB04
  8
0
 10
49.37588496426096
 20
204.2275611965011
 30
0.0
 11
49.37588496426096
 21
204.5615460465011
 31
0.0
  0
LINE
  5
AB05
  8
0
 10
49.37588496426096
 20
204.5615460465011
 30
0.0
 11
49.04152961426095
 21
204.5615460465011
 31
0.0
  0
LINE
  5
AB06
  8
0
 10
49.04152961426095
 20
204.5615460465011
 30
0.0
 11
49.04152961426095
 21
204.2275611965011
 31
0.0
  0
LINE
  5
AB07
  8
0
 10
50.04273461426095
 20
204.2275611965011
 30
0.0
 11
51.04394911426095
 21
204.2275611965011
 31
0.0
  0
LINE
  5
AB08
  8
0
 10
51.04394911426095
 20
204.2275611965011
 30
0.0
 11
51.04394911426095
 21
204.5615460465011
 31
0.0
  0
LINE
  5
AB09
  8
0
 10
51.04394911426095
 20
204.5615460465011
 30
0.0
 11
50.04273461426095
 21
204.5615460465011
 31
0.0
  0
LINE
  5
AB0A
  8
0
 10
50.04273461426095
 20
204.5615460465011
 30
0.0
 11
50.04273461426095
 21
204.2275611965011
 31
0.0
  0
LINE
  5
AB0B
  8
0
 10
51.37748461426096
 20
204.2275611965011
 30
0.0
 11
52.37906961426094
 21
204.2275611965011
 31
0.0
  0
LINE
  5
AB0C
  8
0
 10
52.37906961426094
 20
204.2275611965011
 30
0.0
 11
52.37906961426094
 21
204.5615460465011
 31
0.0
  0
LINE
  5
AB0D
  8
0
 10
52.37906961426094
 20
204.5615460465011
 30
0.0
 11
51.37748461426096
 21
204.5615460465011
 31
0.0
  0
LINE
  5
AB0E
  8
0
 10
51.37748461426096
 20
204.5615460465011
 30
0.0
 11
51.37748461426096
 21
204.2275611965011
 31
0.0
  0
LINE
  5
AB0F
  8
0
 10
53.38065461426095
 20
204.2275611965011
 30
0.0
 11
53.71463946426096
 21
204.2275611965011
 31
0.0
  0
LINE
  5
AB10
  8
0
 10
53.71463946426096
 20
204.2275611965011
 30
0.0
 11
53.71463946426096
 21
204.5615460465011
 31
0.0
  0
LINE
  5
AB11
  8
0
 10
53.71463946426096
 20
204.5615460465011
 30
0.0
 11
53.38065461426095
 21
204.5615460465011
 31
0.0
  0
LINE
  5
AB12
  8
0
 10
53.38065461426095
 20
204.5615460465011
 30
0.0
 11
53.38065461426095
 21
204.2275611965011
 31
0.0
  0
LINE
  5
AB13
  8
0
 10
54.04831461426095
 20
204.2275611965011
 30
0.0
 11
55.04989961426097
 21
204.2275611965011
 31
0.0
  0
LINE
  5
AB14
  8
0
 10
55.04989961426097
 20
204.2275611965011
 30
0.0
 11
55.04989961426097
 21
204.5615460465011
 31
0.0
  0
LINE
  5
AB15
  8
0
 10
55.04989961426097
 20
204.5615460465011
 30
0.0
 11
54.04831461426095
 21
204.5615460465011
 31
0.0
  0
LINE
  5
AB16
  8
0
 10
54.04831461426095
 20
204.5615460465011
 30
0.0
 11
54.04831461426095
 21
204.2275611965011
 31
0.0
  0
LINE
  5
AB17
  8
0
 10
44.03436461426097
 20
203.8935411965011
 30
0.0
 11
46.37114611426099
 21
203.8935411965011
 31
0.0
  0
LINE
  5
AB18
  8
0
 10
46.37114611426099
 20
203.8935411965011
 30
0.0
 11
46.37114611426099
 21
204.2275250965011
 31
0.0
  0
LINE
  5
AB19
  8
0
 10
46.37114611426099
 20
204.2275250965011
 30
0.0
 11
44.03436461426097
 21
204.2275250965011
 31
0.0
  0
LINE
  5
AB1A
  8
0
 10
44.03436461426097
 20
204.2275250965011
 30
0.0
 11
44.03436461426097
 21
203.8935411965011
 31
0.0
  0
LINE
  5
AB1B
  8
0
 10
47.70592461426097
 20
203.8935411965011
 30
0.0
 11
48.70750961426097
 21
203.8935411965011
 31
0.0
  0
LINE
  5
AB1C
  8
0
 10
48.70750961426097
 20
203.8935411965011
 30
0.0
 11
48.70750961426097
 21
204.2275250965011
 31
0.0
  0
LINE
  5
AB1D
  8
0
 10
48.70750961426097
 20
204.2275250965011
 30
0.0
 11
47.70592461426097
 21
204.2275250965011
 31
0.0
  0
LINE
  5
AB1E
  8
0
 10
47.70592461426097
 20
204.2275250965011
 30
0.0
 11
47.70592461426097
 21
203.8935411965011
 31
0.0
  0
LINE
  5
AB1F
  8
0
 10
49.04152961426095
 20
203.8935411965011
 30
0.0
 11
49.70912786426095
 21
203.8935411965011
 31
0.0
  0
LINE
  5
AB20
  8
0
 10
49.70912786426095
 20
203.8935411965011
 30
0.0
 11
49.70912786426095
 21
204.2275250965011
 31
0.0
  0
LINE
  5
AB21
  8
0
 10
49.70912786426095
 20
204.2275250965011
 30
0.0
 11
49.04152961426095
 21
204.2275250965011
 31
0.0
  0
LINE
  5
AB22
  8
0
 10
49.04152961426095
 20
204.2275250965011
 30
0.0
 11
49.04152961426095
 21
203.8935411965011
 31
0.0
  0
LINE
  5
AB23
  8
0
 10
50.04273461426095
 20
203.8935411965011
 30
0.0
 11
50.37671946426096
 21
203.8935411965011
 31
0.0
  0
LINE
  5
AB24
  8
0
 10
50.37671946426096
 20
203.8935411965011
 30
0.0
 11
50.37671946426096
 21
204.2275250965011
 31
0.0
  0
LINE
  5
AB25
  8
0
 10
50.37671946426096
 20
204.2275250965011
 30
0.0
 11
50.04273461426095
 21
204.2275250965011
 31
0.0
  0
LINE
  5
AB26
  8
0
 10
50.04273461426095
 20
204.2275250965011
 30
0.0
 11
50.04273461426095
 21
203.8935411965011
 31
0.0
  0
LINE
  5
AB27
  8
0
 10
50.70991961426097
 20
203.8935411965011
 30
0.0
 11
51.37751786426097
 21
203.8935411965011
 31
0.0
  0
LINE
  5
AB28
  8
0
 10
51.37751786426097
 20
203.8935411965011
 30
0.0
 11
51.37751786426097
 21
204.2275250965011
 31
0.0
  0
LINE
  5
AB29
  8
0
 10
51.37751786426097
 20
204.2275250965011
 30
0.0
 11
50.70991961426097
 21
204.2275250965011
 31
0.0
  0
LINE
  5
AB2A
  8
0
 10
50.70991961426097
 20
204.2275250965011
 30
0.0
 11
50.70991961426097
 21
203.8935411965011
 31
0.0
  0
LINE
  5
AB2B
  8
0
 10
51.71150461426097
 20
203.8935411965011
 30
0.0
 11
52.37910191426096
 21
203.8935411965011
 31
0.0
  0
LINE
  5
AB2C
  8
0
 10
52.37910191426096
 20
203.8935411965011
 30
0.0
 11
52.37910191426096
 21
204.2275250965011
 31
0.0
  0
LINE
  5
AB2D
  8
0
 10
52.37910191426096
 20
204.2275250965011
 30
0.0
 11
51.71150461426097
 21
204.2275250965011
 31
0.0
  0
LINE
  5
AB2E
  8
0
 10
51.71150461426097
 20
204.2275250965011
 30
0.0
 11
51.71150461426097
 21
203.8935411965011
 31
0.0
  0
LINE
  5
AB2F
  8
0
 10
52.71308961426097
 20
203.8935411965011
 30
0.0
 11
53.04707351426096
 21
203.8935411965011
 31
0.0
  0
LINE
  5
AB30
  8
0
 10
53.04707351426096
 20
203.8935411965011
 30
0.0
 11
53.04707351426096
 21
204.2275250965011
 31
0.0
  0
LINE
  5
AB31
  8
0
 10
53.04707351426096
 20
204.2275250965011
 30
0.0
 11
52.71308961426097
 21
204.2275250965011
 31
0.0
  0
LINE
  5
AB32
  8
0
 10
52.71308961426097
 20
204.2275250965011
 30
0.0
 11
52.71308961426097
 21
203.8935411965011
 31
0.0
  0
LINE
  5
AB33
  8
0
 10
53.38065461426095
 20
203.8935411965011
 30
0.0
 11
53.71463946426096
 21
203.8935411965011
 31
0.0
  0
LINE
  5
AB34
  8
0
 10
53.71463946426096
 20
203.8935411965011
 30
0.0
 11
53.71463946426096
 21
204.2275250965011
 31
0.0
  0
LINE
  5
AB35
  8
0
 10
53.71463946426096
 20
204.2275250965011
 30
0.0
 11
53.38065461426095
 21
204.2275250965011
 31
0.0
  0
LINE
  5
AB36
  8
0
 10
53.38065461426095
 20
204.2275250965011
 30
0.0
 11
53.38065461426095
 21
203.8935411965011
 31
0.0
  0
LINE
  5
AB37
  8
0
 10
54.04831461426095
 20
203.8935411965011
 30
0.0
 11
54.71554046426097
 21
203.8935411965011
 31
0.0
  0
LINE
  5
AB38
  8
0
 10
54.71554046426097
 20
203.8935411965011
 30
0.0
 11
54.71554046426097
 21
204.2275250965011
 31
0.0
  0
LINE
  5
AB39
  8
0
 10
54.71554046426097
 20
204.2275250965011
 30
0.0
 11
54.04831461426095
 21
204.2275250965011
 31
0.0
  0
LINE
  5
AB3A
  8
0
 10
54.04831461426095
 20
204.2275250965011
 30
0.0
 11
54.04831461426095
 21
203.8935411965011
 31
0.0
  0
LINE
  5
AB3B
  8
0
 10
44.03436461426097
 20
203.5602811965011
 30
0.0
 11
44.36871996426098
 21
203.5602811965011
 31
0.0
  0
LINE
  5
AB3C
  8
0
 10
44.36871996426098
 20
203.5602811965011
 30
0.0
 11
44.36871996426098
 21
203.8942650965011
 31
0.0
  0
LINE
  5
AB3D
  8
0
 10
44.36871996426098
 20
203.8942650965011
 30
0.0
 11
44.03436461426097
 21
203.8942650965011
 31
0.0
  0
LINE
  5
AB3E
  8
0
 10
44.03436461426097
 20
203.8942650965011
 30
0.0
 11
44.03436461426097
 21
203.5602811965011
 31
0.0
  0
LINE
  5
AB3F
  8
0
 10
46.03743961426093
 20
203.5602811965011
 30
0.0
 11
46.37142351426095
 21
203.5602811965011
 31
0.0
  0
LINE
  5
AB40
  8
0
 10
46.37142351426095
 20
203.5602811965011
 30
0.0
 11
46.37142351426095
 21
203.8942650965011
 31
0.0
  0
LINE
  5
AB41
  8
0
 10
46.37142351426095
 20
203.8942650965011
 30
0.0
 11
46.03743961426093
 21
203.8942650965011
 31
0.0
  0
LINE
  5
AB42
  8
0
 10
46.03743961426093
 20
203.8942650965011
 30
0.0
 11
46.03743961426093
 21
203.5602811965011
 31
0.0
  0
LINE
  5
AB43
  8
0
 10
47.03873961426095
 20
203.5602811965011
 30
0.0
 11
48.03995411426095
 21
203.5602811965011
 31
0.0
  0
LINE
  5
AB44
  8
0
 10
48.03995411426095
 20
203.5602811965011
 30
0.0
 11
48.03995411426095
 21
203.8942650965011
 31
0.0
  0
LINE
  5
AB45
  8
0
 10
48.03995411426095
 20
203.8942650965011
 30
0.0
 11
47.03873961426095
 21
203.8942650965011
 31
0.0
  0
LINE
  5
AB46
  8
0
 10
47.03873961426095
 20
203.8942650965011
 30
0.0
 11
47.03873961426095
 21
203.5602811965011
 31
0.0
  0
LINE
  5
AB47
  8
0
 10
49.04152961426095
 20
203.5602811965011
 30
0.0
 11
49.37588496426096
 21
203.5602811965011
 31
0.0
  0
LINE
  5
AB48
  8
0
 10
49.37588496426096
 20
203.5602811965011
 30
0.0
 11
49.37588496426096
 21
203.8942650965011
 31
0.0
  0
LINE
  5
AB49
  8
0
 10
49.37588496426096
 20
203.8942650965011
 30
0.0
 11
49.04152961426095
 21
203.8942650965011
 31
0.0
  0
LINE
  5
AB4A
  8
0
 10
49.04152961426095
 20
203.8942650965011
 30
0.0
 11
49.04152961426095
 21
203.5602811965011
 31
0.0
  0
LINE
  5
AB4B
  8
0
 10
50.70991961426097
 20
203.5602811965011
 30
0.0
 11
51.04427496426095
 21
203.5602811965011
 31
0.0
  0
LINE
  5
AB4C
  8
0
 10
51.04427496426095
 20
203.5602811965011
 30
0.0
 11
51.04427496426095
 21
203.8942650965011
 31
0.0
  0
LINE
  5
AB4D
  8
0
 10
51.04427496426095
 20
203.8942650965011
 30
0.0
 11
50.70991961426097
 21
203.8942650965011
 31
0.0
  0
LINE
  5
AB4E
  8
0
 10
50.70991961426097
 20
203.8942650965011
 30
0.0
 11
50.70991961426097
 21
203.5602811965011
 31
0.0
  0
LINE
  5
AB4F
  8
0
 10
51.71150461426097
 20
203.5602811965011
 30
0.0
 11
52.37910191426096
 21
203.5602811965011
 31
0.0
  0
LINE
  5
AB50
  8
0
 10
52.37910191426096
 20
203.5602811965011
 30
0.0
 11
52.37910191426096
 21
203.8942650965011
 31
0.0
  0
LINE
  5
AB51
  8
0
 10
52.37910191426096
 20
203.8942650965011
 30
0.0
 11
51.71150461426097
 21
203.8942650965011
 31
0.0
  0
LINE
  5
AB52
  8
0
 10
51.71150461426097
 20
203.8942650965011
 30
0.0
 11
51.71150461426097
 21
203.5602811965011
 31
0.0
  0
LINE
  5
AB53
  8
0
 10
53.38065461426095
 20
203.5602811965011
 30
0.0
 11
54.38223961426095
 21
203.5602811965011
 31
0.0
  0
LINE
  5
AB54
  8
0
 10
54.38223961426095
 20
203.5602811965011
 30
0.0
 11
54.38223961426095
 21
203.8942650965011
 31
0.0
  0
LINE
  5
AB55
  8
0
 10
54.38223961426095
 20
203.8942650965011
 30
0.0
 11
53.38065461426095
 21
203.8942650965011
 31
0.0
  0
LINE
  5
AB56
  8
0
 10
53.38065461426095
 20
203.8942650965011
 30
0.0
 11
53.38065461426095
 21
203.5602811965011
 31
0.0
  0
LINE
  5
AB57
  8
0
 10
54.71549961426096
 20
203.5602811965011
 30
0.0
 11
55.04985591426096
 21
203.5602811965011
 31
0.0
  0
LINE
  5
AB58
  8
0
 10
55.04985591426096
 20
203.5602811965011
 30
0.0
 11
55.04985591426096
 21
203.8942650965011
 31
0.0
  0
LINE
  5
AB59
  8
0
 10
55.04985591426096
 20
203.8942650965011
 30
0.0
 11
54.71549961426096
 21
203.8942650965011
 31
0.0
  0
LINE
  5
AB5A
  8
0
 10
54.71549961426096
 20
203.8942650965011
 30
0.0
 11
54.71549961426096
 21
203.5602811965011
 31
0.0
  0
LINE
  5
AB5B
  8
0
 10
44.03436461426097
 20
203.2262611965011
 30
0.0
 11
44.36871996426098
 21
203.2262611965011
 31
0.0
  0
LINE
  5
AB5C
  8
0
 10
44.36871996426098
 20
203.2262611965011
 30
0.0
 11
44.36871996426098
 21
203.5602460465011
 31
0.0
  0
LINE
  5
AB5D
  8
0
 10
44.36871996426098
 20
203.5602460465011
 30
0.0
 11
44.03436461426097
 21
203.5602460465011
 31
0.0
  0
LINE
  5
AB5E
  8
0
 10
44.03436461426097
 20
203.5602460465011
 30
0.0
 11
44.03436461426097
 21
203.2262611965011
 31
0.0
  0
LINE
  5
AB5F
  8
0
 10
44.70192961426093
 20
203.2262611965011
 30
0.0
 11
45.70351461426097
 21
203.2262611965011
 31
0.0
  0
LINE
  5
AB60
  8
0
 10
45.70351461426097
 20
203.2262611965011
 30
0.0
 11
45.70351461426097
 21
203.5602460465011
 31
0.0
  0
LINE
  5
AB61
  8
0
 10
45.70351461426097
 20
203.5602460465011
 30
0.0
 11
44.70192961426093
 21
203.5602460465011
 31
0.0
  0
LINE
  5
AB62
  8
0
 10
44.70192961426093
 20
203.5602460465011
 30
0.0
 11
44.70192961426093
 21
203.2262611965011
 31
0.0
  0
LINE
  5
AB63
  8
0
 10
46.03743961426093
 20
203.2262611965011
 30
0.0
 11
46.37142351426095
 21
203.2262611965011
 31
0.0
  0
LINE
  5
AB64
  8
0
 10
46.37142351426095
 20
203.2262611965011
 30
0.0
 11
46.37142351426095
 21
203.5602460465011
 31
0.0
  0
LINE
  5
AB65
  8
0
 10
46.37142351426095
 20
203.5602460465011
 30
0.0
 11
46.03743961426093
 21
203.5602460465011
 31
0.0
  0
LINE
  5
AB66
  8
0
 10
46.03743961426093
 20
203.5602460465011
 30
0.0
 11
46.03743961426093
 21
203.2262611965011
 31
0.0
  0
LINE
  5
AB67
  8
0
 10
47.37266461426097
 20
203.2262611965011
 30
0.0
 11
48.03989046426094
 21
203.2262611965011
 31
0.0
  0
LINE
  5
AB68
  8
0
 10
48.03989046426094
 20
203.2262611965011
 30
0.0
 11
48.03989046426094
 21
203.5602460465011
 31
0.0
  0
LINE
  5
AB69
  8
0
 10
48.03989046426094
 20
203.5602460465011
 30
0.0
 11
47.37266461426097
 21
203.5602460465011
 31
0.0
  0
LINE
  5
AB6A
  8
0
 10
47.37266461426097
 20
203.5602460465011
 30
0.0
 11
47.37266461426097
 21
203.2262611965011
 31
0.0
  0
LINE
  5
AB6B
  8
0
 10
48.37348961426093
 20
203.2262611965011
 30
0.0
 11
49.04108786426096
 21
203.2262611965011
 31
0.0
  0
LINE
  5
AB6C
  8
0
 10
49.04108786426096
 20
203.2262611965011
 30
0.0
 11
49.04108786426096
 21
203.5602460465011
 31
0.0
  0
LINE
  5
AB6D
  8
0
 10
49.04108786426096
 20
203.5602460465011
 30
0.0
 11
48.37348961426093
 21
203.5602460465011
 31
0.0
  0
LINE
  5
AB6E
  8
0
 10
48.37348961426093
 20
203.5602460465011
 30
0.0
 11
48.37348961426093
 21
203.2262611965011
 31
0.0
  0
LINE
  5
AB6F
  8
0
 10
50.04273461426095
 20
203.2262611965011
 30
0.0
 11
50.70996141426096
 21
203.2262611965011
 31
0.0
  0
LINE
  5
AB70
  8
0
 10
50.70996141426096
 20
203.2262611965011
 30
0.0
 11
50.70996141426096
 21
203.5602460465011
 31
0.0
  0
LINE
  5
AB71
  8
0
 10
50.70996141426096
 20
203.5602460465011
 30
0.0
 11
50.04273461426095
 21
203.5602460465011
 31
0.0
  0
LINE
  5
AB72
  8
0
 10
50.04273461426095
 20
203.5602460465011
 30
0.0
 11
50.04273461426095
 21
203.2262611965011
 31
0.0
  0
LINE
  5
AB73
  8
0
 10
51.04431961426096
 20
203.2262611965011
 30
0.0
 11
51.37830446426094
 21
203.2262611965011
 31
0.0
  0
LINE
  5
AB74
  8
0
 10
51.37830446426094
 20
203.2262611965011
 30
0.0
 11
51.37830446426094
 21
203.5602460465011
 31
0.0
  0
LINE
  5
AB75
  8
0
 10
51.37830446426094
 20
203.5602460465011
 30
0.0
 11
51.04431961426096
 21
203.5602460465011
 31
0.0
  0
LINE
  5
AB76
  8
0
 10
51.04431961426096
 20
203.5602460465011
 30
0.0
 11
51.04431961426096
 21
203.2262611965011
 31
0.0
  0
LINE
  5
AB77
  8
0
 10
52.04590461426093
 20
203.2262611965011
 30
0.0
 11
54.04832411426095
 21
203.2262611965011
 31
0.0
  0
LINE
  5
AB78
  8
0
 10
54.04832411426095
 20
203.2262611965011
 30
0.0
 11
54.04832411426095
 21
203.5602460465011
 31
0.0
  0
LINE
  5
AB79
  8
0
 10
54.04832411426095
 20
203.5602460465011
 30
0.0
 11
52.04590461426093
 21
203.5602460465011
 31
0.0
  0
LINE
  5
AB7A
  8
0
 10
52.04590461426093
 20
203.5602460465011
 30
0.0
 11
52.04590461426093
 21
203.2262611965011
 31
0.0
  0
LINE
  5
AB7B
  8
0
 10
44.03436461426097
 20
202.8919561965011
 30
0.0
 11
44.36871996426098
 21
202.8919561965011
 31
0.0
  0
LINE
  5
AB7C
  8
0
 10
44.36871996426098
 20
202.8919561965011
 30
0.0
 11
44.36871996426098
 21
203.2263115465011
 31
0.0
  0
LINE
  5
AB7D
  8
0
 10
44.36871996426098
 20
203.2263115465011
 30
0.0
 11
44.03436461426097
 21
203.2263115465011
 31
0.0
  0
LINE
  5
AB7E
  8
0
 10
44.03436461426097
 20
203.2263115465011
 30
0.0
 11
44.03436461426097
 21
202.8919561965011
 31
0.0
  0
LINE
  5
AB7F
  8
0
 10
44.70192961426093
 20
202.8919561965011
 30
0.0
 11
45.70351461426097
 21
202.8919561965011
 31
0.0
  0
LINE
  5
AB80
  8
0
 10
45.70351461426097
 20
202.8919561965011
 30
0.0
 11
45.70351461426097
 21
203.2263115465011
 31
0.0
  0
LINE
  5
AB81
  8
0
 10
45.70351461426097
 20
203.2263115465011
 30
0.0
 11
44.70192961426093
 21
203.2263115465011
 31
0.0
  0
LINE
  5
AB82
  8
0
 10
44.70192961426093
 20
203.2263115465011
 30
0.0
 11
44.70192961426093
 21
202.8919561965011
 31
0.0
  0
LINE
  5
AB83
  8
0
 10
46.03743961426093
 20
202.8919561965011
 30
0.0
 11
46.37142351426095
 21
202.8919561965011
 31
0.0
  0
LINE
  5
AB84
  8
0
 10
46.37142351426095
 20
202.8919561965011
 30
0.0
 11
46.37142351426095
 21
203.2263115465011
 31
0.0
  0
LINE
  5
AB85
  8
0
 10
46.37142351426095
 20
203.2263115465011
 30
0.0
 11
46.03743961426093
 21
203.2263115465011
 31
0.0
  0
LINE
  5
AB86
  8
0
 10
46.03743961426093
 20
203.2263115465011
 30
0.0
 11
46.03743961426093
 21
202.8919561965011
 31
0.0
  0
LINE
  5
AB87
  8
0
 10
47.03873961426095
 20
202.8919561965011
 30
0.0
 11
48.37356561426097
 21
202.8919561965011
 31
0.0
  0
LINE
  5
AB88
  8
0
 10
48.37356561426097
 20
202.8919561965011
 30
0.0
 11
48.37356561426097
 21
203.2263115465011
 31
0.0
  0
LINE
  5
AB89
  8
0
 10
48.37356561426097
 20
203.2263115465011
 30
0.0
 11
47.03873961426095
 21
203.2263115465011
 31
0.0
  0
LINE
  5
AB8A
  8
0
 10
47.03873961426095
 20
203.2263115465011
 30
0.0
 11
47.03873961426095
 21
202.8919561965011
 31
0.0
  0
LINE
  5
AB8B
  8
0
 10
48.70750961426097
 20
202.8919561965011
 30
0.0
 11
49.04149351426096
 21
202.8919561965011
 31
0.0
  0
LINE
  5
AB8C
  8
0
 10
49.04149351426096
 20
202.8919561965011
 30
0.0
 11
49.04149351426096
 21
203.2263115465011
 31
0.0
  0
LINE
  5
AB8D
  8
0
 10
49.04149351426096
 20
203.2263115465011
 30
0.0
 11
48.70750961426097
 21
203.2263115465011
 31
0.0
  0
LINE
  5
AB8E
  8
0
 10
48.70750961426097
 20
203.2263115465011
 30
0.0
 11
48.70750961426097
 21
202.8919561965011
 31
0.0
  0
LINE
  5
AB8F
  8
0
 10
49.37507461426097
 20
202.8919561965011
 30
0.0
 11
49.70905946426095
 21
202.8919561965011
 31
0.0
  0
LINE
  5
AB90
  8
0
 10
49.70905946426095
 20
202.8919561965011
 30
0.0
 11
49.70905946426095
 21
203.2263115465011
 31
0.0
  0
LINE
  5
AB91
  8
0
 10
49.70905946426095
 20
203.2263115465011
 30
0.0
 11
49.37507461426097
 21
203.2263115465011
 31
0.0
  0
LINE
  5
AB92
  8
0
 10
49.37507461426097
 20
203.2263115465011
 30
0.0
 11
49.37507461426097
 21
202.8919561965011
 31
0.0
  0
LINE
  5
AB93
  8
0
 10
50.70991961426097
 20
202.8919561965011
 30
0.0
 11
51.04427496426095
 21
202.8919561965011
 31
0.0
  0
LINE
  5
AB94
  8
0
 10
51.04427496426095
 20
202.8919561965011
 30
0.0
 11
51.04427496426095
 21
203.2263115465011
 31
0.0
  0
LINE
  5
AB95
  8
0
 10
51.04427496426095
 20
203.2263115465011
 30
0.0
 11
50.70991961426097
 21
203.2263115465011
 31
0.0
  0
LINE
  5
AB96
  8
0
 10
50.70991961426097
 20
203.2263115465011
 30
0.0
 11
50.70991961426097
 21
202.8919561965011
 31
0.0
  0
LINE
  5
AB97
  8
0
 10
51.37748461426096
 20
202.8919561965011
 30
0.0
 11
52.04508191426098
 21
202.8919561965011
 31
0.0
  0
LINE
  5
AB98
  8
0
 10
52.04508191426098
 20
202.8919561965011
 30
0.0
 11
52.04508191426098
 21
203.2263115465011
 31
0.0
  0
LINE
  5
AB99
  8
0
 10
52.04508191426098
 20
203.2263115465011
 30
0.0
 11
51.37748461426096
 21
203.2263115465011
 31
0.0
  0
LINE
  5
AB9A
  8
0
 10
51.37748461426096
 20
203.2263115465011
 30
0.0
 11
51.37748461426096
 21
202.8919561965011
 31
0.0
  0
LINE
  5
AB9B
  8
0
 10
52.37906961426094
 20
202.8919561965011
 30
0.0
 11
52.71305446426096
 21
202.8919561965011
 31
0.0
  0
LINE
  5
AB9C
  8
0
 10
52.71305446426096
 20
202.8919561965011
 30
0.0
 11
52.71305446426096
 21
203.2263115465011
 31
0.0
  0
LINE
  5
AB9D
  8
0
 10
52.71305446426096
 20
203.2263115465011
 30
0.0
 11
52.37906961426094
 21
203.2263115465011
 31
0.0
  0
LINE
  5
AB9E
  8
0
 10
52.37906961426094
 20
203.2263115465011
 30
0.0
 11
52.37906961426094
 21
202.8919561965011
 31
0.0
  0
LINE
  5
AB9F
  8
0
 10
53.04672961426095
 20
202.8919561965011
 30
0.0
 11
53.71395641426096
 21
202.8919561965011
 31
0.0
  0
LINE
  5
ABA0
  8
0
 10
53.71395641426096
 20
202.8919561965011
 30
0.0
 11
53.71395641426096
 21
203.2263115465011
 31
0.0
  0
LINE
  5
ABA1
  8
0
 10
53.71395641426096
 20
203.2263115465011
 30
0.0
 11
53.04672961426095
 21
203.2263115465011
 31
0.0
  0
LINE
  5
ABA2
  8
0
 10
53.04672961426095
 20
203.2263115465011
 30
0.0
 11
53.04672961426095
 21
202.8919561965011
 31
0.0
  0
LINE
  5
ABA3
  8
0
 10
54.04831461426095
 20
202.8919561965011
 30
0.0
 11
54.38229851426095
 21
202.8919561965011
 31
0.0
  0
LINE
  5
ABA4
  8
0
 10
54.38229851426095
 20
202.8919561965011
 30
0.0
 11
54.38229851426095
 21
203.2263115465011
 31
0.0
  0
LINE
  5
ABA5
  8
0
 10
54.38229851426095
 20
203.2263115465011
 30
0.0
 11
54.04831461426095
 21
203.2263115465011
 31
0.0
  0
LINE
  5
ABA6
  8
0
 10
54.04831461426095
 20
203.2263115465011
 30
0.0
 11
54.04831461426095
 21
202.8919561965011
 31
0.0
  0
LINE
  5
ABA7
  8
0
 10
54.71549961426096
 20
202.8919561965011
 30
0.0
 11
55.04985591426096
 21
202.8919561965011
 31
0.0
  0
LINE
  5
ABA8
  8
0
 10
55.04985591426096
 20
202.8919561965011
 30
0.0
 11
55.04985591426096
 21
203.2263115465011
 31
0.0
  0
LINE
  5
ABA9
  8
0
 10
55.04985591426096
 20
203.2263115465011
 30
0.0
 11
54.71549961426096
 21
203.2263115465011
 31
0.0
  0
LINE
  5
ABAA
  8
0
 10
54.71549961426096
 20
203.2263115465011
 30
0.0
 11
54.71549961426096
 21
202.8919561965011
 31
0.0
  0
LINE
  5
ABAB
  8
0
 10
44.03436461426097
 20
202.5586961965011
 30
0.0
 11
44.36871996426098
 21
202.5586961965011
 31
0.0
  0
LINE
  5
ABAC
  8
0
 10
44.36871996426098
 20
202.5586961965011
 30
0.0
 11
44.36871996426098
 21
202.8926800965011
 31
0.0
  0
LINE
  5
ABAD
  8
0
 10
44.36871996426098
 20
202.8926800965011
 30
0.0
 11
44.03436461426097
 21
202.8926800965011
 31
0.0
  0
LINE
  5
ABAE
  8
0
 10
44.03436461426097
 20
202.8926800965011
 30
0.0
 11
44.03436461426097
 21
202.5586961965011
 31
0.0
  0
LINE
  5
ABAF
  8
0
 10
44.70192961426093
 20
202.5586961965011
 30
0.0
 11
45.70351461426097
 21
202.5586961965011
 31
0.0
  0
LINE
  5
ABB0
  8
0
 10
45.70351461426097
 20
202.5586961965011
 30
0.0
 11
45.70351461426097
 21
202.8926800965011
 31
0.0
  0
LINE
  5
ABB1
  8
0
 10
45.70351461426097
 20
202.8926800965011
 30
0.0
 11
44.70192961426093
 21
202.8926800965011
 31
0.0
  0
LINE
  5
ABB2
  8
0
 10
44.70192961426093
 20
202.8926800965011
 30
0.0
 11
44.70192961426093
 21
202.5586961965011
 31
0.0
  0
LINE
  5
ABB3
  8
0
 10
46.03743961426093
 20
202.5586961965011
 30
0.0
 11
46.37142351426095
 21
202.5586961965011
 31
0.0
  0
LINE
  5
ABB4
  8
0
 10
46.37142351426095
 20
202.5586961965011
 30
0.0
 11
46.37142351426095
 21
202.8926800965011
 31
0.0
  0
LINE
  5
ABB5
  8
0
 10
46.37142351426095
 20
202.8926800965011
 30
0.0
 11
46.03743961426093
 21
202.8926800965011
 31
0.0
  0
LINE
  5
ABB6
  8
0
 10
46.03743961426093
 20
202.8926800965011
 30
0.0
 11
46.03743961426093
 21
202.5586961965011
 31
0.0
  0
LINE
  5
ABB7
  8
0
 10
47.37266461426097
 20
202.5586961965011
 30
0.0
 11
48.70749061426096
 21
202.5586961965011
 31
0.0
  0
LINE
  5
ABB8
  8
0
 10
48.70749061426096
 20
202.5586961965011
 30
0.0
 11
48.70749061426096
 21
202.8926800965011
 31
0.0
  0
LINE
  5
ABB9
  8
0
 10
48.70749061426096
 20
202.8926800965011
 30
0.0
 11
47.37266461426097
 21
202.8926800965011
 31
0.0
  0
LINE
  5
ABBA
  8
0
 10
47.37266461426097
 20
202.8926800965011
 30
0.0
 11
47.37266461426097
 21
202.5586961965011
 31
0.0
  0
LINE
  5
ABBB
  8
0
 10
49.37507461426097
 20
202.5586961965011
 30
0.0
 11
49.70905946426095
 21
202.5586961965011
 31
0.0
  0
LINE
  5
ABBC
  8
0
 10
49.70905946426095
 20
202.5586961965011
 30
0.0
 11
49.70905946426095
 21
202.8926800965011
 31
0.0
  0
LINE
  5
ABBD
  8
0
 10
49.70905946426095
 20
202.8926800965011
 30
0.0
 11
49.37507461426097
 21
202.8926800965011
 31
0.0
  0
LINE
  5
ABBE
  8
0
 10
49.37507461426097
 20
202.8926800965011
 30
0.0
 11
49.37507461426097
 21
202.5586961965011
 31
0.0
  0
LINE
  5
ABBF
  8
0
 10
50.04273461426095
 20
202.5586961965011
 30
0.0
 11
50.37671946426096
 21
202.5586961965011
 31
0.0
  0
LINE
  5
ABC0
  8
0
 10
50.37671946426096
 20
202.5586961965011
 30
0.0
 11
50.37671946426096
 21
202.8926800965011
 31
0.0
  0
LINE
  5
ABC1
  8
0
 10
50.37671946426096
 20
202.8926800965011
 30
0.0
 11
50.04273461426095
 21
202.8926800965011
 31
0.0
  0
LINE
  5
ABC2
  8
0
 10
50.04273461426095
 20
202.8926800965011
 30
0.0
 11
50.04273461426095
 21
202.5586961965011
 31
0.0
  0
LINE
  5
ABC3
  8
0
 10
50.70991961426097
 20
202.5586961965011
 30
0.0
 11
51.04427496426095
 21
202.5586961965011
 31
0.0
  0
LINE
  5
ABC4
  8
0
 10
51.04427496426095
 20
202.5586961965011
 30
0.0
 11
51.04427496426095
 21
202.8926800965011
 31
0.0
  0
LINE
  5
ABC5
  8
0
 10
51.04427496426095
 20
202.8926800965011
 30
0.0
 11
50.70991961426097
 21
202.8926800965011
 31
0.0
  0
LINE
  5
ABC6
  8
0
 10
50.70991961426097
 20
202.8926800965011
 30
0.0
 11
50.70991961426097
 21
202.5586961965011
 31
0.0
  0
LINE
  5
ABC7
  8
0
 10
51.37748461426096
 20
202.5586961965011
 30
0.0
 11
51.71146851426096
 21
202.5586961965011
 31
0.0
  0
LINE
  5
ABC8
  8
0
 10
51.71146851426096
 20
202.5586961965011
 30
0.0
 11
51.71146851426096
 21
202.8926800965011
 31
0.0
  0
LINE
  5
ABC9
  8
0
 10
51.71146851426096
 20
202.8926800965011
 30
0.0
 11
51.37748461426096
 21
202.8926800965011
 31
0.0
  0
LINE
  5
ABCA
  8
0
 10
51.37748461426096
 20
202.8926800965011
 30
0.0
 11
51.37748461426096
 21
202.5586961965011
 31
0.0
  0
LINE
  5
ABCB
  8
0
 10
52.04590461426093
 20
202.5586961965011
 30
0.0
 11
52.37988946426097
 21
202.5586961965011
 31
0.0
  0
LINE
  5
ABCC
  8
0
 10
52.37988946426097
 20
202.5586961965011
 30
0.0
 11
52.37988946426097
 21
202.8926800965011
 31
0.0
  0
LINE
  5
ABCD
  8
0
 10
52.37988946426097
 20
202.8926800965011
 30
0.0
 11
52.04590461426093
 21
202.8926800965011
 31
0.0
  0
LINE
  5
ABCE
  8
0
 10
52.04590461426093
 20
202.8926800965011
 30
0.0
 11
52.04590461426093
 21
202.5586961965011
 31
0.0
  0
LINE
  5
ABCF
  8
0
 10
53.04672961426095
 20
202.5586961965011
 30
0.0
 11
53.71395641426096
 21
202.5586961965011
 31
0.0
  0
LINE
  5
ABD0
  8
0
 10
53.71395641426096
 20
202.5586961965011
 30
0.0
 11
53.71395641426096
 21
202.8926800965011
 31
0.0
  0
LINE
  5
ABD1
  8
0
 10
53.71395641426096
 20
202.8926800965011
 30
0.0
 11
53.04672961426095
 21
202.8926800965011
 31
0.0
  0
LINE
  5
ABD2
  8
0
 10
53.04672961426095
 20
202.8926800965011
 30
0.0
 11
53.04672961426095
 21
202.5586961965011
 31
0.0
  0
LINE
  5
ABD3
  8
0
 10
54.38157461426096
 20
202.5586961965011
 30
0.0
 11
55.04917191426097
 21
202.5586961965011
 31
0.0
  0
LINE
  5
ABD4
  8
0
 10
55.04917191426097
 20
202.5586961965011
 30
0.0
 11
55.04917191426097
 21
202.8926800965011
 31
0.0
  0
LINE
  5
ABD5
  8
0
 10
55.04917191426097
 20
202.8926800965011
 30
0.0
 11
54.38157461426096
 21
202.8926800965011
 31
0.0
  0
LINE
  5
ABD6
  8
0
 10
54.38157461426096
 20
202.8926800965011
 30
0.0
 11
54.38157461426096
 21
202.5586961965011
 31
0.0
  0
LINE
  5
ABD7
  8
0
 10
44.03436461426097
 20
202.2247711965011
 30
0.0
 11
44.36871996426098
 21
202.2247711965011
 31
0.0
  0
LINE
  5
ABD8
  8
0
 10
44.36871996426098
 20
202.2247711965011
 30
0.0
 11
44.36871996426098
 21
202.5587560465011
 31
0.0
  0
LINE
  5
ABD9
  8
0
 10
44.36871996426098
 20
202.5587560465011
 30
0.0
 11
44.03436461426097
 21
202.5587560465011
 31
0.0
  0
LINE
  5
ABDA
  8
0
 10
44.03436461426097
 20
202.5587560465011
 30
0.0
 11
44.03436461426097
 21
202.2247711965011
 31
0.0
  0
LINE
  5
ABDB
  8
0
 10
46.03743961426093
 20
202.2247711965011
 30
0.0
 11
46.37142351426095
 21
202.2247711965011
 31
0.0
  0
LINE
  5
ABDC
  8
0
 10
46.37142351426095
 20
202.2247711965011
 30
0.0
 11
46.37142351426095
 21
202.5587560465011
 31
0.0
  0
LINE
  5
ABDD
  8
0
 10
46.37142351426095
 20
202.5587560465011
 30
0.0
 11
46.03743961426093
 21
202.5587560465011
 31
0.0
  0
LINE
  5
ABDE
  8
0
 10
46.03743961426093
 20
202.5587560465011
 30
0.0
 11
46.03743961426093
 21
202.2247711965011
 31
0.0
  0
LINE
  5
ABDF
  8
0
 10
47.37266461426097
 20
202.2247711965011
 30
0.0
 11
48.03989046426094
 21
202.2247711965011
 31
0.0
  0
LINE
  5
ABE0
  8
0
 10
48.03989046426094
 20
202.2247711965011
 30
0.0
 11
48.03989046426094
 21
202.5587560465011
 31
0.0
  0
LINE
  5
ABE1
  8
0
 10
48.03989046426094
 20
202.5587560465011
 30
0.0
 11
47.37266461426097
 21
202.5587560465011
 31
0.0
  0
LINE
  5
ABE2
  8
0
 10
47.37266461426097
 20
202.5587560465011
 30
0.0
 11
47.37266461426097
 21
202.2247711965011
 31
0.0
  0
LINE
  5
ABE3
  8
0
 10
48.70750961426097
 20
202.2247711965011
 30
0.0
 11
49.70909461426098
 21
202.2247711965011
 31
0.0
  0
LINE
  5
ABE4
  8
0
 10
49.70909461426098
 20
202.2247711965011
 30
0.0
 11
49.70909461426098
 21
202.5587560465011
 31
0.0
  0
LINE
  5
ABE5
  8
0
 10
49.70909461426098
 20
202.5587560465011
 30
0.0
 11
48.70750961426097
 21
202.5587560465011
 31
0.0
  0
LINE
  5
ABE6
  8
0
 10
48.70750961426097
 20
202.5587560465011
 30
0.0
 11
48.70750961426097
 21
202.2247711965011
 31
0.0
  0
LINE
  5
ABE7
  8
0
 10
50.37665961426094
 20
202.2247711965011
 30
0.0
 11
51.04425691426096
 21
202.2247711965011
 31
0.0
  0
LINE
  5
ABE8
  8
0
 10
51.04425691426096
 20
202.2247711965011
 30
0.0
 11
51.04425691426096
 21
202.5587560465011
 31
0.0
  0
LINE
  5
ABE9
  8
0
 10
51.04425691426096
 20
202.5587560465011
 30
0.0
 11
50.37665961426094
 21
202.5587560465011
 31
0.0
  0
LINE
  5
ABEA
  8
0
 10
50.37665961426094
 20
202.5587560465011
 30
0.0
 11
50.37665961426094
 21
202.2247711965011
 31
0.0
  0
LINE
  5
ABEB
  8
0
 10
53.04672961426095
 20
202.2247711965011
 30
0.0
 11
54.38155561426095
 21
202.2247711965011
 31
0.0
  0
LINE
  5
ABEC
  8
0
 10
54.38155561426095
 20
202.2247711965011
 30
0.0
 11
54.38155561426095
 21
202.5587560465011
 31
0.0
  0
LINE
  5
ABED
  8
0
 10
54.38155561426095
 20
202.5587560465011
 30
0.0
 11
53.04672961426095
 21
202.5587560465011
 31
0.0
  0
LINE
  5
ABEE
  8
0
 10
53.04672961426095
 20
202.5587560465011
 30
0.0
 11
53.04672961426095
 21
202.2247711965011
 31
0.0
  0
LINE
  5
ABEF
  8
0
 10
44.03436461426097
 20
201.8911311965011
 30
0.0
 11
46.37114611426099
 21
201.8911311965011
 31
0.0
  0
LINE
  5
ABF0
  8
0
 10
46.37114611426099
 20
201.8911311965011
 30
0.0
 11
46.37114611426099
 21
202.2251160465011
 31
0.0
  0
LINE
  5
ABF1
  8
0
 10
46.37114611426099
 20
202.2251160465011
 30
0.0
 11
44.03436461426097
 21
202.2251160465011
 31
0.0
  0
LINE
  5
ABF2
  8
0
 10
44.03436461426097
 20
202.2251160465011
 30
0.0
 11
44.03436461426097
 21
201.8911311965011
 31
0.0
  0
LINE
  5
ABF3
  8
0
 10
46.70509961426094
 20
201.8911311965011
 30
0.0
 11
47.03908446426098
 21
201.8911311965011
 31
0.0
  0
LINE
  5
ABF4
  8
0
 10
47.03908446426098
 20
201.8911311965011
 30
0.0
 11
47.03908446426098
 21
202.2251160465011
 31
0.0
  0
LINE
  5
ABF5
  8
0
 10
47.03908446426098
 20
202.2251160465011
 30
0.0
 11
46.70509961426094
 21
202.2251160465011
 31
0.0
  0
LINE
  5
ABF6
  8
0
 10
46.70509961426094
 20
202.2251160465011
 30
0.0
 11
46.70509961426094
 21
201.8911311965011
 31
0.0
  0
LINE
  5
ABF7
  8
0
 10
47.70592461426097
 20
201.8911311965011
 30
0.0
 11
48.03990851426096
 21
201.8911311965011
 31
0.0
  0
LINE
  5
ABF8
  8
0
 10
48.03990851426096
 20
201.8911311965011
 30
0.0
 11
48.03990851426096
 21
202.2251160465011
 31
0.0
  0
LINE
  5
ABF9
  8
0
 10
48.03990851426096
 20
202.2251160465011
 30
0.0
 11
47.70592461426097
 21
202.2251160465011
 31
0.0
  0
LINE
  5
ABFA
  8
0
 10
47.70592461426097
 20
202.2251160465011
 30
0.0
 11
47.70592461426097
 21
201.8911311965011
 31
0.0
  0
LINE
  5
ABFB
  8
0
 10
48.70750961426097
 20
201.8911311965011
 30
0.0
 11
49.04149351426096
 21
201.8911311965011
 31
0.0
  0
LINE
  5
ABFC
  8
0
 10
49.04149351426096
 20
201.8911311965011
 30
0.0
 11
49.04149351426096
 21
202.2251160465011
 31
0.0
  0
LINE
  5
ABFD
  8
0
 10
49.04149351426096
 20
202.2251160465011
 30
0.0
 11
48.70750961426097
 21
202.2251160465011
 31
0.0
  0
LINE
  5
ABFE
  8
0
 10
48.70750961426097
 20
202.2251160465011
 30
0.0
 11
48.70750961426097
 21
201.8911311965011
 31
0.0
  0
LINE
  5
ABFF
  8
0
 10
49.70909461426098
 20
201.8911311965011
 30
0.0
 11
50.04307851426094
 21
201.8911311965011
 31
0.0
  0
LINE
  5
AC00
  8
0
 10
50.04307851426094
 20
201.8911311965011
 30
0.0
 11
50.04307851426094
 21
202.2251160465011
 31
0.0
  0
LINE
  5
AC01
  8
0
 10
50.04307851426094
 20
202.2251160465011
 30
0.0
 11
49.70909461426098
 21
202.2251160465011
 31
0.0
  0
LINE
  5
AC02
  8
0
 10
49.70909461426098
 20
202.2251160465011
 30
0.0
 11
49.70909461426098
 21
201.8911311965011
 31
0.0
  0
LINE
  5
AC03
  8
0
 10
50.37665961426094
 20
201.8911311965011
 30
0.0
 11
50.71064351426097
 21
201.8911311965011
 31
0.0
  0
LINE
  5
AC04
  8
0
 10
50.71064351426097
 20
201.8911311965011
 30
0.0
 11
50.71064351426097
 21
202.2251160465011
 31
0.0
  0
LINE
  5
AC05
  8
0
 10
50.71064351426097
 20
202.2251160465011
 30
0.0
 11
50.37665961426094
 21
202.2251160465011
 31
0.0
  0
LINE
  5
AC06
  8
0
 10
50.37665961426094
 20
202.2251160465011
 30
0.0
 11
50.37665961426094
 21
201.8911311965011
 31
0.0
  0
LINE
  5
AC07
  8
0
 10
51.37748461426096
 20
201.8911311965011
 30
0.0
 11
52.71231061426096
 21
201.8911311965011
 31
0.0
  0
LINE
  5
AC08
  8
0
 10
52.71231061426096
 20
201.8911311965011
 30
0.0
 11
52.71231061426096
 21
202.2251160465011
 31
0.0
  0
LINE
  5
AC09
  8
0
 10
52.71231061426096
 20
202.2251160465011
 30
0.0
 11
51.37748461426096
 21
202.2251160465011
 31
0.0
  0
LINE
  5
AC0A
  8
0
 10
51.37748461426096
 20
202.2251160465011
 30
0.0
 11
51.37748461426096
 21
201.8911311965011
 31
0.0
  0
LINE
  5
AC0B
  8
0
 10
53.04672961426095
 20
201.8911311965011
 30
0.0
 11
53.38071351426096
 21
201.8911311965011
 31
0.0
  0
LINE
  5
AC0C
  8
0
 10
53.38071351426096
 20
201.8911311965011
 30
0.0
 11
53.38071351426096
 21
202.2251160465011
 31
0.0
  0
LINE
  5
AC0D
  8
0
 10
53.38071351426096
 20
202.2251160465011
 30
0.0
 11
53.04672961426095
 21
202.2251160465011
 31
0.0
  0
LINE
  5
AC0E
  8
0
 10
53.04672961426095
 20
202.2251160465011
 30
0.0
 11
53.04672961426095
 21
201.8911311965011
 31
0.0
  0
LINE
  5
AC0F
  8
0
 10
53.71391461426096
 20
201.8911311965011
 30
0.0
 11
54.04826996426095
 21
201.8911311965011
 31
0.0
  0
LINE
  5
AC10
  8
0
 10
54.04826996426095
 20
201.8911311965011
 30
0.0
 11
54.04826996426095
 21
202.2251160465011
 31
0.0
  0
LINE
  5
AC11
  8
0
 10
54.04826996426095
 20
202.2251160465011
 30
0.0
 11
53.71391461426096
 21
202.2251160465011
 31
0.0
  0
LINE
  5
AC12
  8
0
 10
53.71391461426096
 20
202.2251160465011
 30
0.0
 11
53.71391461426096
 21
201.8911311965011
 31
0.0
  0
LINE
  5
AC13
  8
0
 10
54.38157461426096
 20
201.8911311965011
 30
0.0
 11
54.71555851426096
 21
201.8911311965011
 31
0.0
  0
LINE
  5
AC14
  8
0
 10
54.71555851426096
 20
201.8911311965011
 30
0.0
 11
54.71555851426096
 21
202.2251160465011
 31
0.0
  0
LINE
  5
AC15
  8
0
 10
54.71555851426096
 20
202.2251160465011
 30
0.0
 11
54.38157461426096
 21
202.2251160465011
 31
0.0
  0
LINE
  5
AC16
  8
0
 10
54.38157461426096
 20
202.2251160465011
 30
0.0
 11
54.38157461426096
 21
201.8911311965011
 31
0.0
  0
CIRCLE
  5
ADEC
  8
0
 10
65.0218542197958
 20
209.8911311965013
 30
0.0
 40
1.5
  0
CIRCLE
  5
ADED
  8
0
 10
97.0218542197958
 20
229.8911311965019
 30
0.0
 40
7.499999999999949
  0
CIRCLE
  5
ADEE
  8
0
 10
97.0218542197958
 20
229.8911311965019
 30
0.0
 40
8.20000000000001
  0
CIRCLE
  5
ADEF
  8
0
 10
97.0218542197958
 20
229.8911311965019
 30
0.0
 40
8.499999999999963
  0
LINE
  5
ADF0
  8
0
 10
69.7718542197958
 20
223.8911311965014
 30
0.0
 11
69.7718542197958
 21
235.8911311965019
 31
0.0
  0
LINE
  5
ADF1
  8
0
 10
70.07185421979575
 20
223.8911311965014
 30
0.0
 11
70.07185421979575
 21
229.8911311965014
 31
0.0
  0
ARC
  5
ADF2
  8
0
 10
71.7718542197958
 20
223.8911311965014
 30
0.0
 40
2.0
 50
180.0
 51
270.0
1001
GENIUS_GENOBJ-N-FIL_13
1002
{
1000
OWNER
1000
GEN
1002
}
1001
GENIUS_GENODEF_13
1002
{
1000
HIER
1070
     0
1002
}
1002
{
1000
MANEDIT
1070
     0
1002
}
1002
{
1000
NOSEL
1070
     0
1002
}
1002
{
1000
BEHIND
1070
     0
1002
}
1002
{
1000
OTHER
1070
     0
1002
}
1002
{
1000
REACTOR
1002
}
  0
ARC
  5
ADF3
  8
0
 10
71.7718542197958
 20
223.8911311965014
 30
0.0
 40
1.7
 50
180.0
 51
270.0
1001
GENIUS_GENOBJ-N-FIL_13
1002
{
1000
OWNER
1000
GEN
1002
}
1001
GENIUS_GENODEF_13
1002
{
1000
HIER
1070
     0
1002
}
1002
{
1000
MANEDIT
1070
     0
1002
}
1002
{
1000
NOSEL
1070
     0
1002
}
1002
{
1000
BEHIND
1070
     0
1002
}
1002
{
1000
OTHER
1070
     0
1002
}
1002
{
1000
REACTOR
1002
}
  0
LINE
  5
ADF4
  8
0
 10
87.77185421979489
 20
223.8911311965014
 30
0.0
 11
87.77185421979489
 21
235.891131196501
 31
0.0
  0
LINE
  5
ADF5
  8
0
 10
87.47185421979493
 20
223.8911311965014
 30
0.0
 11
87.47185421979493
 21
229.8911311965014
 31
0.0
  0
ARC
  5
ADF6
  8
0
 10
85.77185421979489
 20
235.891131196501
 30
0.0
 40
2.0
 50
0.0
 51
89.99999999999919
1001
GENIUS_GENODEF_13
1002
{
1000
HIER
1070
     0
1002
}
1002
{
1000
MANEDIT
1070
     0
1002
}
1002
{
1000
NOSEL
1070
     0
1002
}
1002
{
1000
BEHIND
1070
     0
1002
}
1002
{
1000
OTHER
1070
     0
1002
}
1002
{
1000
REACTOR
1002
}
1001
GENIUS_GENOBJ-N-FIL_13
1002
{
1000
OWNER
1000
GEN
1002
}
  0
INSERT
  5
ADF7
  8
0
  2
*X15
 10
0.0
 20
0.0
 30
0.0
  0
LINE
  5
ADF8
  8
0
 10
87.77185421979489
 20
229.8911311965014
 30
0.0
 11
69.7718542197958
 21
229.8911311965014
 31
0.0
  0
CIRCLE
  5
ADF9
  8
0
 10
78.97346775921092
 20
233.8911311965019
 30
0.0
 40
2.0
  0
LINE
  5
ADFA
  8
0
 10
85.77185421979489
 20
237.891131196501
 30
0.0
 11
71.7718542197958
 21
237.8911311965019
 31
0.0
  0
ARC
  5
ADFB
  8
0
 10
71.7718542197958
 20
235.8911311965019
 30
0.0
 40
2.0
 50
90.0
 51
180.0
1001
GENIUS_GENOBJ-N-FIL_13
1002
{
1000
OWNER
1000
GEN
1002
}
1001
GENIUS_GENODEF_13
1002
{
1000
HIER
1070
     0
1002
}
1002
{
1000
MANEDIT
1070
     0
1002
}
1002
{
1000
NOSEL
1070
     0
1002
}
1002
{
1000
BEHIND
1070
     0
1002
}
1002
{
1000
OTHER
1070
     0
1002
}
1002
{
1000
REACTOR
1002
}
  0
LINE
  5
ADFC
  8
0
 10
85.77185421979489
 20
221.8911311965014
 30
0.0
 11
71.7718542197958
 21
221.8911311965014
 31
0.0
  0
LINE
  5
ADFD
  8
0
 10
85.77185421979489
 20
222.1911311965014
 30
0.0
 11
71.7718542197958
 21
222.1911311965014
 31
0.0
  0
ARC
  5
ADFE
  8
0
 10
85.77185421979489
 20
223.8911311965014
 30
0.0
 40
2.0
 50
270.0
 51
0.0
1001
GENIUS_GENODEF_13
1002
{
1000
HIER
1070
     0
1002
}
1002
{
1000
MANEDIT
1070
     0
1002
}
1002
{
1000
NOSEL
1070
     0
1002
}
1002
{
1000
BEHIND
1070
     0
1002
}
1002
{
1000
OTHER
1070
     0
1002
}
1002
{
1000
REACTOR
1002
}
1001
GENIUS_GENOBJ-N-FIL_13
1002
{
1000
OWNER
1000
GEN
1002
}
  0
ARC
  5
ADFF
  8
0
 10
85.77185421979489
 20
223.8911311965014
 30
0.0
 40
1.7
 50
270.0
 51
0.0
1001
GENIUS_GENODEF_13
1002
{
1000
HIER
1070
     0
1002
}
1002
{
1000
MANEDIT
1070
     0
1002
}
1002
{
1000
NOSEL
1070
     0
1002
}
1002
{
1000
BEHIND
1070
     0
1002
}
1002
{
1000
OTHER
1070
     0
1002
}
1002
{
1000
REACTOR
1002
}
1001
GENIUS_GENOBJ-N-FIL_13
1002
{
1000
OWNER
1000
GEN
1002
}
  0
TEXT
  5
AE00
  8
0
 10
70.84772500937034
 20
232.9769691680542
 30
0.0
 40
1.9
  1
給水
  0
TEXT
  5
AE01
  8
0
 10
90.84300449808893
 20
227.9715269911834
 30
0.0
 40
4.0
  1
PUSH
 41
1.2
  0
CIRCLE
  5
AE03
  8
0
 10
84.02185421979625
 20
225.8911311965018
 30
0.0
 40
2.0
  0
CIRCLE
  5
AE04
  8
0
 10
84.02185421979625
 20
225.8911311965018
 30
0.0
 40
1.5
  0
CIRCLE
  5
AE05
  8
0
 10
84.02185421979625
 20
233.8911311965018
 30
0.0
 40
2.0
  0
CIRCLE
  5
AE06
  8
0
 10
84.02185421979625
 20
233.8911311965018
 30
0.0
 40
1.5
  0
LINE
  5
B636
  8
0
 10
52.48248862586294
 20
232.0632821438273
 30
0.0
 11
53.62611166586291
 21
232.0632821438273
 31
0.0
  0
LINE
  5
B637
  8
0
 10
53.62611166586291
 20
232.0632821438273
 30
0.0
 11
53.62611166586291
 21
226.108262303827
 31
0.0
  0
LINE
  5
B638
  8
0
 10
53.62611166586291
 20
226.108262303827
 30
0.0
 11
52.48248862586294
 21
226.108262303827
 31
0.0
  0
LINE
  5
B639
  8
0
 10
52.48248862586294
 20
226.108262303827
 30
0.0
 11
52.48248862586294
 21
232.0632821438273
 31
0.0
  0
LINE
  5
B63A
  8
0
 10
61.40706638586332
 20
230.425300063827
 30
0.0
 11
62.55049230586289
 21
230.425300063827
 31
0.0
  0
LINE
  5
B63B
  8
0
 10
62.55049230586289
 20
230.425300063827
 30
0.0
 11
62.55049230586289
 21
226.108262303827
 31
0.0
  0
LINE
  5
B63C
  8
0
 10
62.55049230586289
 20
226.108262303827
 30
0.0
 11
61.40706638586332
 21
226.108262303827
 31
0.0
  0
LINE
  5
B63D
  8
0
 10
61.40706638586332
 20
226.108262303827
 30
0.0
 11
61.40706638586332
 21
230.425300063827
 31
0.0
  0
LINE
  5
B63E
  8
0
 10
61.63496878696512
 20
230.9231329653236
 30
0.0
 11
61.54351486586299
 21
230.8550552638273
 31
0.0
  0
LINE
  5
B63F
  8
0
 10
61.54351486586299
 20
230.8550552638273
 30
0.0
 11
61.5682136880973
 21
230.9527495545296
 31
0.0
  0
LINE
  5
B640
  8
0
 10
61.37501536711076
 20
231.9529111672288
 30
0.0
 11
61.30712542586295
 21
232.0440517438271
 31
0.0
  0
LINE
  5
B641
  8
0
 10
61.30712542586295
 20
232.0440517438271
 30
0.0
 11
61.40487776193592
 21
232.0193757030521
 31
0.0
  0
LINE
  5
B642
  8
0
 10
62.40498661321269
 20
232.2126245672745
 30
0.0
 11
62.49605582586307
 21
232.2804423038275
 31
0.0
  0
LINE
  5
B643
  8
0
 10
62.49605582586307
 20
232.2804423038275
 30
0.0
 11
62.47139064346763
 21
232.1825620507258
 31
0.0
  0
LINE
  5
B644
  8
0
 10
62.66515689633749
 20
231.1824824093734
 30
0.0
 11
62.7327711858629
 21
231.0916407038273
 31
0.0
  0
LINE
  5
B645
  8
0
 10
62.7327711858629
 20
231.0916407038273
 30
0.0
 11
62.63501826528406
 21
231.1162908446392
 31
0.0
  0
LINE
  5
B646
  8
0
 10
62.20366752278002
 20
230.8393290571236
 30
0.0
 11
62.18723374586304
 21
230.7270168638276
 31
0.0
  0
LINE
  5
B647
  8
0
 10
62.18723374586304
 20
230.7270168638276
 30
0.0
 11
62.13558417898727
 21
230.8135832918221
 31
0.0
  0
LINE
  5
B648
  8
0
 10
61.29193494484068
 20
231.3841917392871
 30
0.0
 11
61.1792135858627
 21
231.4006587838273
 31
0.0
  0
LINE
  5
B649
  8
0
 10
61.1792135858627
 20
231.4006587838273
 30
0.0
 11
61.26559069105676
 21
231.4521984317732
 31
0.0
  0
LINE
  5
B64A
  8
0
 10
61.83618117350304
 20
232.2960494094274
 30
0.0
 11
61.85266286586281
 21
232.4084829438276
 31
0.0
  0
LINE
  5
B64B
  8
0
 10
61.85266286586281
 20
232.4084829438276
 30
0.0
 11
61.9044038470424
 21
232.3218441324822
 31
0.0
  0
LINE
  5
B64C
  8
0
 10
62.74846746517866
 20
231.7516307223538
 30
0.0
 11
62.86067966586322
 21
231.7351669438273
 31
0.0
  0
LINE
  5
B64D
  8
0
 10
62.86067966586322
 20
231.7351669438273
 30
0.0
 11
62.77398549399501
 21
231.683411042393
 31
0.0
  0
LINE
  5
B64E
  8
0
 10
61.91086559746006
 20
230.8244841939965
 30
0.0
 11
61.85266286586281
 21
230.7270168638276
 31
0.0
  0
LINE
  5
B64F
  8
0
 10
61.85266286586281
 20
230.7270168638276
 30
0.0
 11
61.83809536598662
 21
230.8264189656435
 31
0.0
  0
LINE
  5
B650
  8
0
 10
61.27699089330142
 20
231.6767476372312
 30
0.0
 11
61.17908366586286
 21
231.7351669438273
 31
0.0
  0
LINE
  5
B651
  8
0
 10
61.17908366586286
 20
231.7351669438273
 30
0.0
 11
61.27880932916011
 21
231.7497336344601
 31
0.0
  0
LINE
  5
B652
  8
0
 10
62.12890941088969
 20
232.3108977524186
 30
0.0
 11
62.18716990586333
 21
232.4084829438276
 31
0.0
  0
LINE
  5
B653
  8
0
 10
62.18716990586333
 20
232.4084829438276
 30
0.0
 11
62.2017681045381
 21
232.3088053064154
 31
0.0
  0
LINE
  5
B654
  8
0
 10
62.76303345536596
 20
231.4587396302628
 30
0.0
 11
62.86067966586322
 21
231.4003967038276
 31
0.0
  0
LINE
  5
B655
  8
0
 10
62.46846868544478
 20
230.9651898264316
 30
0.0
 11
62.49625182586303
 21
230.8550552638273
 31
0.0
  0
LINE
  5
B656
  8
0
 10
62.49625182586303
 20
230.8550552638273
 30
0.0
 11
62.41543261038893
 21
230.9152636671685
 31
0.0
  0
LINE
  5
B657
  8
0
 10
61.41748859580773
 20
231.1195124594912
 30
0.0
 11
61.30712542586295
 21
231.0916407038273
 31
0.0
  0
LINE
  5
B658
  8
0
 10
61.30712542586295
 20
231.0916407038273
 30
0.0
 11
61.36718277616907
 21
231.17229359546
 31
0.0
  0
LINE
  5
B659
  8
0
 10
61.57130628911725
 20
232.1704392167791
 30
0.0
 11
61.54351486586299
 21
232.2804423038275
 31
0.0
  0
LINE
  5
B65A
  8
0
 10
61.54351486586299
 20
232.2804423038275
 30
0.0
 11
61.62453812389637
 21
232.2201831804202
 31
0.0
  0
LINE
  5
B65B
  8
0
 10
62.62278123319217
 20
232.0163243812973
 30
0.0
 11
62.7327711858629
 21
232.0440517438271
 31
0.0
  0
LINE
  5
B65C
  8
0
 10
62.7327711858629
 20
232.0440517438271
 30
0.0
 11
62.67248085207572
 21
231.9631226239023
 31
0.0
  0
LINE
  5
B65D
  8
0
 10
61.70211838952716
 20
230.8870372895778
 30
0.0
 11
61.61842158586293
 21
230.8103975038272
 31
0.0
  0
LINE
  5
B65E
  8
0
 10
61.61842158586293
 20
230.8103975038272
 30
0.0
 11
61.63496878696512
 21
230.9231329653236
 31
0.0
  0
LINE
  5
B65F
  8
0
 10
61.33936505362132
 20
231.8856345604578
 30
0.0
 11
61.26266030586291
 21
231.9694037438273
 31
0.0
  0
LINE
  5
B660
  8
0
 10
61.26266030586291
 20
231.9694037438273
 30
0.0
 11
61.37501536711076
 21
231.9529111672288
 31
0.0
  0
LINE
  5
B661
  8
0
 10
62.33787390368613
 20
232.2484597791064
 30
0.0
 11
62.42147390586294
 21
232.3250362238274
 31
0.0
  0
LINE
  5
B662
  8
0
 10
62.42147390586294
 20
232.3250362238274
 30
0.0
 11
62.40498661321269
 21
232.2126245672745
 31
0.0
  0
LINE
  5
B663
  8
0
 10
62.70051329615714
 20
231.2499238227707
 30
0.0
 11
62.7773651058628
 21
231.1659627838268
 31
0.0
  0
LINE
  5
B664
  8
0
 10
62.27642476203343
 20
230.8618878864433
 30
0.0
 11
62.27139166586309
 21
230.7482039038274
 31
0.0
  0
LINE
  5
B665
  8
0
 10
62.27139166586309
 20
230.7482039038274
 30
0.0
 11
62.20366752278002
 21
230.8393290571236
 31
0.0
  0
LINE
  5
B666
  8
0
 10
61.31395740649575
 20
231.3112442297931
 30
0.0
 11
61.20052718586291
 21
231.3161592638272
 31
0.0
  0
LINE
  5
B667
  8
0
 10
61.20052718586291
 20
231.3161592638272
 30
0.0
 11
61.29193494484068
 21
231.3841917392871
 31
0.0
  0
LINE
  5
B668
  8
0
 10
61.76338059485758
 20
232.2738023383314
 30
0.0
 11
61.76837166586253
 21
232.3871536638273
 31
0.0
  0
LINE
  5
B669
  8
0
 10
61.76837166586253
 20
232.3871536638273
 30
0.0
 11
61.83618117350304
 21
232.2960494094274
 31
0.0
  0
LINE
  5
B66A
  8
0
 10
62.72604679436151
 20
231.8243826489585
 30
0.0
 11
62.83949486586286
 21
231.8193763838273
 31
0.0
  0
LINE
  5
B66B
  8
0
 10
62.83949486586286
 20
231.8193763838273
 30
0.0
 11
62.74846746517866
 21
231.7516307223538
 31
0.0
  0
LINE
  5
B66C
  8
0
 10
61.98671403715204
 20
230.8175319015615
 30
0.0
 11
61.93852206586277
 21
230.7144336638272
 31
0.0
  0
LINE
  5
B66D
  8
0
 10
61.93852206586277
 20
230.7144336638272
 30
0.0
 11
61.91086559746006
 21
230.8244841939965
 31
0.0
  0
LINE
  5
B66E
  8
0
 10
61.26944896353595
 20
231.6010065168036
 30
0.0
 11
61.16663262586323
 21
231.648915743827
 31
0.0
  0
LINE
  5
B66F
  8
0
 10
61.16663262586323
 20
231.648915743827
 30
0.0
 11
61.27699089330142
 21
231.6767476372312
 31
0.0
  0
LINE
  5
B670
  8
0
 10
62.05303862998241
 20
232.3182445184918
 30
0.0
 11
62.10104862586329
 21
232.4211299838272
 31
0.0
  0
LINE
  5
B671
  8
0
 10
62.10104862586329
 20
232.4211299838272
 30
0.0
 11
62.12890941088969
 21
232.3108977524186
 31
0.0
  0
LINE
  5
B672
  8
0
 10
62.77050343468315
 20
231.5345241490083
 30
0.0
 11
62.87333006586275
 21
231.4865179838277
 31
0.0
  0
LINE
  5
B673
  8
0
 10
62.87333006586275
 20
231.4865179838277
 30
0.0
 11
62.76303345536596
 21
231.4587396302628
 31
0.0
  0
LINE
  5
B674
  8
0
 10
62.52713737992187
 20
231.0136051925116
 30
0.0
 11
62.56587662586296
 21
230.906950463827
 31
0.0
  0
LINE
  5
B675
  8
0
 10
61.46569393266824
 20
231.0605831347517
 30
0.0
 11
61.3590833458629
 21
231.021766143827
 31
0.0
  0
LINE
  5
B676
  8
0
 10
61.3590833458629
 20
231.021766143827
 30
0.0
 11
61.41748859580773
 21
231.1195124594912
 31
0.0
  0
LINE
  5
B677
  8
0
 10
61.51287639916015
 20
232.1216532014684
 30
0.0
 11
61.47406702586292
 21
232.2284955838274
 31
0.0
  0
LINE
  5
B678
  8
0
 10
61.47406702586292
 20
232.2284955838274
 30
0.0
 11
61.57130628911725
 21
232.1704392167791
 31
0.0
  0
LINE
  5
B679
  8
0
 10
62.57385025856999
 20
232.0746431391441
 30
0.0
 11
62.68092638586265
 21
232.1134906238273
 31
0.0
  0
LINE
  5
B67A
  8
0
 10
62.68092638586265
 20
232.1134906238273
 30
0.0
 11
62.62278123319217
 21
232.0163243812973
 31
0.0
  0
LINE
  5
B67B
  8
0
 10
61.77269285557483
 20
230.8585814833711
 30
0.0
 11
61.69704558586315
 21
230.7737600638272
 31
0.0
  0
LINE
  5
B67C
  8
0
 10
61.69704558586315
 20
230.7737600638272
 30
0.0
 11
61.70211838952716
 21
230.8870372895778
 31
0.0
  0
LINE
  5
B67D
  8
0
 10
61.31083442220185
 20
231.8150839633069
 30
0.0
 11
61.22602286586286
 21
231.8906509438272
 31
0.0
  0
LINE
  5
B67E
  8
0
 10
61.22602286586286
 20
231.8906509438272
 30
0.0
 11
61.33936505362132
 21
231.8856345604578
 31
0.0
  0
LINE
  5
B67F
  8
0
 10
62.26719119571723
 20
232.2767066454282
 30
0.0
 11
62.34291710586282
 21
232.3616647038272
 31
0.0
  0
LINE
  5
B680
  8
0
 10
62.34291710586282
 20
232.3616647038272
 30
0.0
 11
62.33787390368613
 21
232.2484597791064
 31
0.0
  0
LINE
  5
B681
  8
0
 10
62.72922890143079
 20
231.3204972019554
 30
0.0
 11
62.8141291058632
 21
231.2448365438273
 31
0.0
  0
LINE
  5
B682
  8
0
 10
62.34663625231539
 20
230.8913207168495
 30
0.0
 11
62.35315166586267
 21
230.7779992638272
 31
0.0
  0
LINE
  5
B683
  8
0
 10
62.35315166586267
 20
230.7779992638272
 30
0.0
 11
62.27642476203343
 21
230.8618878864433
 31
0.0
  0
LINE
  5
B684
  8
0
 10
61.34366997018057
 20
231.2411539547049
 30
0.0
 11
61.23019486586324
 21
231.2345549438275
 31
0.0
  0
LINE
  5
B685
  8
0
 10
61.23019486586324
 20
231.2345549438275
 30
0.0
 11
61.31395740649575
 21
231.3112442297931
 31
0.0
  0
LINE
  5
B686
  8
0
 10
61.69332493816316
 20
232.2441053081658
 30
0.0
 11
61.68680766586291
 21
232.3574445438273
 31
0.0
  0
LINE
  5
B687
  8
0
 10
61.68680766586291
 20
232.3574445438273
 30
0.0
 11
61.76338059485758
 21
232.2738023383314
 31
0.0
  0
LINE
  5
B688
  8
0
 10
62.69673689419412
 20
231.8945250455769
 30
0.0
 11
62.80982718586299
 21
231.9010277438271
 31
0.0
  0
LINE
  5
B689
  8
0
 10
62.80982718586299
 20
231.9010277438271
 30
0.0
 11
62.72604679436151
 21
231.8243826489585
 31
0.0
  0
LINE
  5
B68A
  8
0
 10
62.06287509659839
 20
230.8177158690493
 30
0.0
 11
62.02555390586301
 21
230.7104565438273
 31
0.0
  0
LINE
  5
B68B
  8
0
 10
62.02555390586301
 20
230.7104565438273
 30
0.0
 11
61.98671403715204
 21
230.8175319015615
 31
0.0
  0
LINE
  5
B68C
  8
0
 10
61.27008379373862
 20
231.5249196232659
 30
0.0
 11
61.162719345863
 21
231.5622725438276
 31
0.0
  0
LINE
  5
B68D
  8
0
 10
61.162719345863
 20
231.5622725438276
 30
0.0
 11
61.26944896353595
 21
231.6010065168036
 31
0.0
  0
LINE
  5
B68E
  8
0
 10
61.97702170336331
 20
232.3177970614348
 30
0.0
 11
62.0142755058632
 21
232.424847263827
 31
0.0
  0
LINE
  5
B68F
  8
0
 10
62.0142755058632
 20
232.424847263827
 30
0.0
 11
62.05303862998241
 21
232.3182445184918
 31
0.0
  0
LINE
  5
B690
  8
0
 10
62.76976610635253
 20
231.6106180081657
 30
0.0
 11
62.87711006586275
 21
231.573161183827
 31
0.0
  0
LINE
  5
B691
  8
0
 10
62.58068887770375
 20
231.0677957815784
 30
0.0
 11
62.63009294586297
 21
230.9654928638271
 31
0.0
  0
LINE
  5
B692
  8
0
 10
62.63009294586297
 20
230.9654928638271
 30
0.0
 11
62.52713737992187
 21
231.0136051925116
 31
0.0
  0
LINE
  5
B693
  8
0
 10
61.5198691266273
 20
231.0071588025855
 30
0.0
 11
61.41762686586296
 21
230.9577402238271
 31
0.0
  0
LINE
  5
B694
  8
0
 10
61.41762686586296
 20
230.9577402238271
 30
0.0
 11
61.46569393266824
 21
231.0605831347517
 31
0.0
  0
LINE
  5
B695
  8
0
 10
61.45915015370426
 20
232.0676961646583
 30
0.0
 11
61.40986974586301
 21
232.1696810238269
 31
0.0
  0
LINE
  5
B696
  8
0
 10
61.40986974586301
 20
232.1696810238269
 30
0.0
 11
61.51287639916015
 21
232.1216532014684
 31
0.0
  0
LINE
  5
B697
  8
0
 10
62.52013967837544
 20
232.1287762849849
 30
0.0
 11
62.62220590586273
 21
232.1780888638274
 31
0.0
  0
LINE
  5
B698
  8
0
 10
62.62220590586273
 20
232.1780888638274
 30
0.0
 11
62.57385025856999
 21
232.0746431391441
 31
0.0
  0
LINE
  5
B699
  8
0
 10
61.83809536598662
 20
230.8264189656435
 30
0.0
 11
61.77918750586329
 21
230.745074623827
 31
0.0
  0
LINE
  5
B69A
  8
0
 10
61.77918750586329
 20
230.745074623827
 30
0.0
 11
61.77269285557483
 21
230.8585814833711
 31
0.0
  0
LINE
  5
B69B
  8
0
 10
61.2788093291592
 20
231.7497336344601
 30
0.0
 11
61.19739790586252
 21
231.8086378238274
 31
0.0
  0
LINE
  5
B69C
  8
0
 10
61.19739790586252
 20
231.8086378238274
 30
0.0
 11
61.31083442220185
 21
231.8150839633069
 31
0.0
  0
LINE
  5
B69D
  8
0
 10
62.2017681045381
 20
232.3088053064154
 30
0.0
 11
62.26070238586314
 21
232.3903053438268
 31
0.0
  0
LINE
  5
B69E
  8
0
 10
62.26070238586314
 20
232.3903053438268
 30
0.0
 11
62.26719119571723
 21
232.2767066454282
 31
0.0
  0
LINE
  5
B69F
  8
0
 10
62.76133951964673
 20
231.3859154715389
 30
0.0
 11
62.84282014586276
 21
231.3269381438273
 31
0.0
  0
LINE
  5
B6A0
  8
0
 10
62.84282014586276
 20
231.3269381438273
 30
0.0
 11
62.72922890143079
 21
231.3204972019554
 31
0.0
  0
LINE
  5
B6A1
  8
0
 10
62.41543261038893
 20
230.9152636671685
 30
0.0
 11
62.43138366586297
 21
230.8156794238272
 31
0.0
  0
LINE
  5
B6A2
  8
0
 10
62.43138366586297
 20
230.8156794238272
 30
0.0
 11
62.34663625231539
 21
230.8913207168495
 31
0.0
  0
LINE
  5
B6A3
  8
0
 10
61.36718277616907
 20
231.17229359546
 30
0.0
 11
61.26807214586276
 21
231.1563789438275
 31
0.0
  0
LINE
  5
B6A4
  8
0
 10
61.26807214586276
 20
231.1563789438275
 30
0.0
 11
61.34366997018057
 21
231.2411539547049
 31
0.0
  0
LINE
  5
B6A5
  8
0
 10
61.62453812389637
 20
232.2201831804202
 30
0.0
 11
61.60864174586274
 21
232.3196243838271
 31
0.0
  0
LINE
  5
B6A6
  8
0
 10
61.60864174586274
 20
232.3196243838271
 30
0.0
 11
61.69332493816316
 21
232.2441053081658
 31
0.0
  0
LINE
  5
B6A7
  8
0
 10
62.67248085207572
 20
231.9631226239023
 30
0.0
 11
62.77221310586262
 21
231.9790547838271
 31
0.0
  0
LINE
  5
B6A8
  8
0
 10
62.77221310586262
 20
231.9790547838271
 30
0.0
 11
62.69673689419412
 21
231.8945250455769
 31
0.0
  0
LINE
  5
B6A9
  8
0
 10
62.13558417898727
 20
230.8135832918221
 30
0.0
 11
62.1121971058628
 21
230.715413663827
 31
0.0
  0
LINE
  5
B6AA
  8
0
 10
61.26559069105676
 20
231.4521984317732
 30
0.0
 11
61.16760926586309
 21
231.4754994238271
 31
0.0
  0
LINE
  5
B6AB
  8
0
 10
61.16760926586309
 20
231.4754994238271
 30
0.0
 11
61.27008379373862
 21
231.5249196232659
 31
0.0
  0
LINE
  5
B6AC
  8
0
 10
61.9044038470424
 20
232.3218441324822
 30
0.0
 11
61.92776558586272
 21
232.4198274238276
 31
0.0
  0
LINE
  5
B6AD
  8
0
 10
61.92776558586272
 20
232.4198274238276
 30
0.0
 11
61.97702170336331
 21
232.3177970614348
 31
0.0
  0
LINE
  5
B6AE
  8
0
 10
62.77398549399501
 20
231.683411042393
 30
0.0
 11
62.87215742586292
 21
231.6599970238273
 31
0.0
  0
LINE
  5
B6AF
  8
0
 10
62.87215742586292
 20
231.6599970238273
 30
0.0
 11
62.76976610635253
 21
231.6106180081657
 31
0.0
  0
LINE
  5
B6B0
  8
0
 10
62.63501826528406
 20
231.1162908446392
 30
0.0
 11
62.68785470586315
 21
231.0303610238276
 31
0.0
  0
LINE
  5
B6B1
  8
0
 10
61.5682136880973
 20
230.9527495545296
 30
0.0
 11
61.48242782586337
 21
230.899973983827
 31
0.0
  0
LINE
  5
B6B2
  8
0
 10
61.48242782586337
 20
230.899973983827
 30
0.0
 11
61.5198691266273
 21
231.0071588025855
 31
0.0
  0
LINE
  5
B6B3
  8
0
 10
61.40487776193592
 20
232.0193757030521
 30
0.0
 11
61.35223678586269
 21
232.1049427838272
 31
0.0
  0
LINE
  5
B6B4
  8
0
 10
61.35223678586269
 20
232.1049427838272
 30
0.0
 11
61.45915015370426
 21
232.0676961646583
 31
0.0
  0
LINE
  5
B6B5
  8
0
 10
62.47139064346763
 20
232.1825620507258
 30
0.0
 11
62.55740158586283
 21
232.2354597438272
 31
0.0
  0
LINE
  5
B6B6
  8
0
 10
56.76073630586276
 20
228.1705911038272
 30
0.0
 11
56.76073630586276
 21
227.9443029438272
 31
0.0
  0
LINE
  5
B6B7
  8
0
 10
54.19115838586319
 20
229.2818741438274
 30
0.0
 11
55.29990014586244
 21
229.2818741438274
 31
0.0
  0
LINE
  5
B6B8
  8
0
 10
56.99192670586305
 20
226.108262303827
 30
0.0
 11
58.1225107058626
 21
226.108262303827
 31
0.0
  0
LINE
  5
B6B9
  8
0
 10
59.59508334586278
 20
229.8122871038273
 30
0.0
 11
59.59508334586278
 21
230.425300063827
 31
0.0
  0
LINE
  5
B6BA
  8
0
 10
59.59508334586278
 20
230.425300063827
 30
0.0
 11
58.53530014586292
 21
230.425300063827
 31
0.0
  0
LINE
  5
B6BB
  8
0
 10
58.53530014586292
 20
230.425300063827
 30
0.0
 11
58.53530014586292
 21
226.108262303827
 31
0.0
  0
LINE
  5
B6BC
  8
0
 10
58.53530014586292
 20
226.108262303827
 30
0.0
 11
59.67865998586282
 21
226.108262303827
 31
0.0
  0
LINE
  5
B6BD
  8
0
 10
59.67865998586282
 20
226.108262303827
 30
0.0
 11
59.67865998586282
 21
227.4397082238271
 31
0.0
  0
LINE
  5
B6BE
  8
0
 10
60.97959374586296
 20
229.3071704638275
 30
0.0
 11
60.97959374586296
 21
230.4555501438269
 31
0.0
  0
LINE
  5
B6BF
  8
0
 10
65.617445425863
 20
229.3719087038268
 30
0.0
 11
66.77749550586302
 21
229.3719087038268
 31
0.0
  0
LINE
  5
B6C0
  8
0
 10
64.09589854586281
 20
227.3287487038275
 30
0.0
 11
62.89725438586308
 21
227.3287487038275
 31
0.0
  0
LINE
  5
B6C1
  8
0
 10
46.37126798586311
 20
233.6954648638272
 30
0.0
 11
46.89835566586268
 21
233.6954648638272
 31
0.0
  0
LINE
  5
B6C2
  8
0
 10
46.93636174586297
 20
229.3110803838269
 30
0.0
 11
46.43450430586333
 21
229.3110803838269
 31
0.0
  0
LINE
  5
B6C3
  8
0
 10
46.17164478586298
 20
229.602495423827
 30
0.0
 11
46.17164478586298
 21
233.2240523838269
 31
0.0
  0
LINE
  5
B6C4
  8
0
 10
46.22243118586309
 20
228.8267599038269
 30
0.0
 11
46.75786286586296
 21
228.8267599038269
 31
0.0
  0
LINE
  5
B6C5
  8
0
 10
47.20398126586312
 20
234.1801773438271
 30
0.0
 11
43.53313982586266
 21
234.1801773438271
 31
0.0
  0
LINE
  5
B6C6
  8
0
 10
43.53313982586266
 20
234.1801773438271
 30
0.0
 11
43.53313982586266
 21
233.7337968638273
 31
0.0
  0
LINE
  5
B6C7
  8
0
 10
43.53313982586266
 20
233.7337968638273
 30
0.0
 11
43.84776238586298
 21
233.7337968638273
 31
0.0
  0
LINE
  5
B6C8
  8
0
 10
44.6165886258627
 20
232.8588371838274
 30
0.0
 11
44.6165886258627
 21
227.2732683838273
 31
0.0
  0
LINE
  5
B6C9
  8
0
 10
43.58418494586292
 20
226.3541739838271
 30
0.0
 11
43.58418494586292
 21
225.9081843838273
 31
0.0
  0
LINE
  5
B6CA
  8
0
 10
43.58418494586292
 20
225.9081843838273
 30
0.0
 11
47.52916430586262
 21
225.9081843838273
 31
0.0
  0
LINE
  5
B6CB
  8
0
 10
47.52916430586262
 20
225.9081843838273
 30
0.0
 11
47.52916430586262
 21
226.3543027838274
 31
0.0
  0
LINE
  5
B6CC
  8
0
 10
46.17164478586298
 20
227.3208583038274
 30
0.0
 11
46.17164478586298
 21
228.6230979838271
 31
0.0
  0
LINE
  5
B6CD
  8
0
  6
CONTINUOUS
 10
62.06287509659839
 20
230.8177158690493
 30
0.0
 11
62.1121971058628
 21
230.715413663827
 31
0.0
  0
LINE
  5
B6CE
  8
0
  6
CONTINUOUS
 10
62.46846868544478
 20
230.9651898264316
 30
0.0
 11
62.56587662586296
 21
230.906950463827
 31
0.0
  0
LINE
  5
B6CF
  8
0
  6
CONTINUOUS
 10
62.58068887770375
 20
231.0677957815784
 30
0.0
 11
62.68785470586315
 21
231.0303610238276
 31
0.0
  0
LINE
  5
B6D0
  8
0
  6
CONTINUOUS
 10
62.66515689633749
 20
231.1824824093734
 30
0.0
 11
62.7773651058628
 21
231.1659627838268
 31
0.0
  0
LINE
  5
B6D1
  8
0
  6
CONTINUOUS
 10
62.70051329615714
 20
231.2499238227707
 30
0.0
 11
62.8141291058632
 21
231.2448365438273
 31
0.0
  0
LINE
  5
B6D2
  8
0
  6
CONTINUOUS
 10
62.76133951964673
 20
231.3859154715389
 30
0.0
 11
62.86067966586322
 21
231.4003967038276
 31
0.0
  0
LINE
  5
B6D3
  8
0
  6
CONTINUOUS
 10
62.77050343468315
 20
231.5345241490083
 30
0.0
 11
62.87711006586275
 21
231.573161183827
 31
0.0
  0
LINE
  5
B6D4
  8
0
  6
CONTINUOUS
 10
62.55740158586283
 20
232.2354597438272
 30
0.0
 11
62.52013967837544
 21
232.1287762849849
 31
0.0
  0
LINE
  5
B6D5
  8
0
 10
56.10329605697413
 20
238.2779621616052
 30
0.0
 11
58.3875154489742
 21
238.7501684976047
 31
0.0
  0
LINE
  5
B6D6
  8
0
 10
58.3875154489742
 20
238.7501684976047
 30
0.0
 11
56.1033753529741
 21
239.2221436656052
 31
0.0
  0
LINE
  5
B6D7
  8
0
 10
56.1033753529741
 20
239.2221436656052
 30
0.0
 11
57.38872856897476
 21
241.0060684656061
 31
0.0
  0
LINE
  5
B6D8
  8
0
 10
57.38872856897476
 20
241.0060684656061
 30
0.0
 11
55.60464786497411
 21
239.7207945456049
 31
0.0
  0
LINE
  5
B6D9
  8
0
 10
55.60464786497411
 20
239.7207945456049
 30
0.0
 11
55.32589334944893
 21
241.0698810849014
 31
0.0
  0
LINE
  5
B6DA
  8
0
 10
54.914214865817
 20
240.9476323659543
 30
0.0
 11
54.66077816897356
 21
239.7209504496047
 31
0.0
  0
LINE
  5
B6DB
  8
0
 10
54.66077816897356
 20
239.7209504496047
 30
0.0
 11
53.81629629412689
 21
240.3291987428435
 31
0.0
  0
LINE
  5
B6DC
  8
0
 10
53.54113845335448
 20
240.0836802981882
 30
0.0
 11
54.16189074497376
 21
239.2221436656052
 31
0.0
  0
LINE
  5
B6DD
  8
0
 10
54.16189074497376
 20
239.2221436656052
 30
0.0
 11
53.10072571144835
 21
239.0027209954093
 31
0.0
  0
LINE
  5
B6DE
  8
0
 10
53.12144878161595
 20
238.4931165226996
 30
0.0
 11
54.16212594497435
 21
238.2782726256052
 31
0.0
  0
LINE
  5
B6DF
  8
0
 10
54.16212594497435
 20
238.2782726256052
 30
0.0
 11
53.54906556529019
 21
237.4273159481915
 31
0.0
  0
LINE
  5
B6E0
  8
0
 10
53.7887129060309
 20
237.1510234012354
 30
0.0
 11
54.66077816897356
 21
237.7792306416046
 31
0.0
  0
LINE
  5
B6E1
  8
0
 10
54.66077816897356
 20
237.7792306416046
 30
0.0
 11
54.96670061267693
 21
236.2986079060207
 31
0.0
  0
LINE
  5
B6E2
  8
0
 10
55.27137153113878
 20
236.1665635349279
 30
0.0
 11
55.60464786497411
 21
237.7794658416048
 31
0.0
  0
LINE
  5
B6E3
  8
0
 10
55.60464786497411
 20
237.7794658416048
 30
0.0
 11
57.38888447297356
 21
236.4940373616052
 31
0.0
  0
LINE
  5
B6E4
  8
0
 10
57.38888447297356
 20
236.4940373616052
 30
0.0
 11
56.10329605697413
 21
238.2779621616052
 31
0.0
  0
LINE
  5
B6E5
  8
0
 10
59.86151827919591
 20
224.9475044303205
 30
0.0
 11
59.86151827919591
 21
225.4104066060496
 31
0.0
  0
LINE
  5
B6E6
  8
0
 10
59.08388545320801
 20
224.7931965445029
 30
0.0
 11
59.08388545320801
 21
224.9475044303205
 31
0.0
  0
LINE
  5
B6E7
  8
0
 10
59.86151827919591
 20
224.9475044303205
 30
0.0
 11
59.08388545320801
 21
224.9475044303205
 31
0.0
  0
LINE
  5
B6E8
  8
0
 10
59.85781716845028
 20
224.7931965445029
 30
0.0
 11
59.08388545320801
 21
224.7931965445029
 31
0.0
  0
LINE
  5
B6E9
  8
0
 10
60.25008257454007
 20
225.4104066060496
 30
0.0
 11
59.86151827919591
 21
225.4104066060496
 31
0.0
  0
LINE
  5
B6EA
  8
0
 10
60.25008257454007
 20
225.4104066060496
 30
0.0
 11
60.25008257454007
 21
224.9401343924007
 31
0.0
  0
LINE
  5
B6EB
  8
0
 10
60.99780100472296
 20
224.9401343924007
 30
0.0
 11
60.25008257454007
 21
224.9401343924007
 31
0.0
  0
LINE
  5
B6EC
  8
0
 10
60.99780100472296
 20
224.7907505930536
 30
0.0
 11
60.99780100472296
 21
224.9401343924007
 31
0.0
  0
LINE
  5
B6ED
  8
0
 10
60.24498147842493
 20
224.7907505930536
 30
0.0
 11
60.99780100472296
 21
224.7907505930536
 31
0.0
  0
ARC
  5
B6EE
  8
0
 10
58.01468082348535
 20
225.6007295748092
 30
0.0
 40
1.78373366193507
 50
310.0456923729903
 51
327.1738262384467
  0
ARC
  5
B6EF
  8
0
 10
57.75651142653302
 20
224.9441319561817
 30
0.0
 40
1.92069235163314
 50
325.4885178757467
 51
349.9185299046333
  0
LINE
  5
B6F0
  8
0
 10
59.5135862060956
 20
224.633781576879
 30
0.0
 11
59.64754798759665
 21
224.6079179851128
 31
0.0
  0
LINE
  5
B6F1
  8
0
 10
58.95980294100306
 20
224.0921760086755
 30
0.0
 11
59.33918624748409
 21
223.8559226377371
 31
0.0
  0
ARC
  5
B6F2
  8
0
 10
57.72874848155377
 20
226.0499995803044
 30
0.0
 40
2.312697174244312
 50
302.1611570594345
 51
308.3070197817706
  0
LINE
  5
B6F3
  8
0
 10
59.85781716845028
 20
224.7931965445029
 30
0.0
 11
59.85781716845028
 21
223.9044439740343
 31
0.0
  0
LINE
  5
B6F4
  8
0
 10
59.52107318923888
 20
223.9118322636138
 30
0.0
 11
59.52107318923888
 21
223.7651288767144
 31
0.0
  0
LINE
  5
B6F5
  8
0
 10
59.52107318923888
 20
223.9118322636138
 30
0.0
 11
59.75987764208773
 21
223.8334969155136
 31
0.0
  0
ARC
  5
B6F6
  8
0
 10
59.78315050178341
 20
223.9044439740343
 30
0.0
 40
0.0746666666666667
 50
251.8388875732299
 51
0.0
  0
LINE
  5
B6F7
  8
0
 10
60.24498147842493
 20
223.8773303484074
 30
0.0
 11
60.24498147842493
 21
224.7907505930536
 31
0.0
  0
LINE
  5
B6F8
  8
0
 10
59.86788381850553
 20
223.6237967735912
 30
0.0
 11
59.52107318923888
 21
223.7651288767144
 31
0.0
  0
ARC
  5
B6F9
  8
0
 10
59.97120370064701
 20
223.8773303484074
 30
0.0
 40
0.2737777777777778
 50
247.8281449539039
 51
0.0
  0
LINE
  5
B6FA
  8
0
 10
60.55426491322575
 20
224.6443675254137
 30
0.0
 11
60.66637266576615
 21
224.5391071649771
 31
0.0
  0
LINE
  5
B6FB
  8
0
 10
60.43140210232147
 20
224.602849909854
 30
0.0
 11
60.55426491322575
 21
224.6443675254137
 31
0.0
  0
LINE
  5
B6FC
  8
0
 10
61.06811719748291
 20
224.0461882921997
 30
0.0
 11
60.63667643340338
 21
223.8598182998277
 31
0.0
  0
ARC
  5
B6FD
  8
0
 10
58.04296965193268
 20
223.5431363994022
 30
0.0
 40
2.61296810051403
 50
6.961145816582685
 51
23.92618042379387
  0
ARC
  5
B6FE
  8
0
 10
58.99391191701986
 20
222.7841855396393
 30
0.0
 40
2.4279576794027
 50
31.31746538013244
 51
50.00949102187557
  0
LINE
  5
B6FF
  8
0
 10
62.84510265503056
 20
225.2716698668725
 30
0.0
 11
62.84510265503056
 21
225.1173619810544
 31
0.0
  0
LINE
  5
B700
  8
0
 10
62.84510265503056
 20
225.2716698668725
 30
0.0
 11
61.3534365064306
 21
225.2716698668725
 31
0.0
  0
LINE
  5
B701
  8
0
 10
61.3534365064306
 20
225.1173619810544
 30
0.0
 11
61.3534365064306
 21
225.2716698668725
 31
0.0
  0
LINE
  5
B702
  8
0
 10
62.84510265503056
 20
225.1173619810544
 30
0.0
 11
61.3534365064306
 21
225.1173619810544
 31
0.0
  0
LINE
  5
B703
  8
0
 10
62.98552879762835
 20
224.7953687014994
 30
0.0
 11
61.19599072237176
 21
224.7953687014994
 31
0.0
  0
LINE
  5
B704
  8
0
 10
61.19599072237176
 20
224.6342433664501
 30
0.0
 11
61.19599072237176
 21
224.7953687014994
 31
0.0
  0
LINE
  5
B705
  8
0
 10
62.49629534341599
 20
224.6342433664501
 30
0.0
 11
61.19599072237176
 21
224.6342433664501
 31
0.0
  0
LINE
  5
B706
  8
0
 10
62.98552879762835
 20
224.656413485685
 30
0.0
 11
62.98552879762835
 21
224.7953687014994
 31
0.0
  0
LINE
  5
B707
  8
0
 10
61.35513421873836
 20
223.735703886363
 30
0.0
 11
61.40345140973565
 21
223.610944441925
 31
0.0
  0
ARC
  5
B708
  8
0
 10
60.88488582798752
 20
225.7243526570716
 30
0.0
 40
2.043491493068839
 50
283.3041404476273
 51
312.187984758957
  0
ARC
  5
B709
  8
0
 10
61.22959638678819
 20
225.0690563710611
 30
0.0
 40
1.33924926570833
 50
320.1134675612495
 51
341.0544644537724
  0
ARC
  5
B70A
  8
0
 10
61.78014599888408
 20
224.9681538124566
 30
0.0
 40
1.245042056656759
 50
284.1440925346391
 51
345.4996819276624
  0
ARC
  5
B70B
  8
0
 10
61.36880301941298
 20
225.3897655223379
 30
0.0
 40
1.77915849408482
 50
271.1158826182763
 51
293.7159784209443
  0
LINE
  5
B70C
  8
0
 10
63.64128907601204
 20
224.2933852800003
 30
0.0
 11
63.64128907601204
 21
225.3337190908366
 31
0.0
  0
LINE
  5
B70D
  8
0
 10
63.64128907601204
 20
225.3337190908366
 30
0.0
 11
63.23249225000697
 21
225.3337190908366
 31
0.0
  0
LINE
  5
B70E
  8
0
 10
63.23249225000697
 20
224.2933852800003
 30
0.0
 11
63.23249225000697
 21
225.3337190908366
 31
0.0
  0
LINE
  5
B70F
  8
0
 10
63.64128907601204
 20
224.2933852800003
 30
0.0
 11
63.23249225000697
 21
224.2933852800003
 31
0.0
  0
LINE
  5
B710
  8
0
 10
64.57891542210015
 20
224.5884785152827
 30
0.0
 11
64.57891542210015
 21
225.3337190908366
 31
0.0
  0
LINE
  5
B711
  8
0
 10
64.18049232999917
 20
224.6430890814469
 30
0.0
 11
64.18049232999917
 21
225.3337190908366
 31
0.0
  0
LINE
  5
B712
  8
0
 10
64.18049232999917
 20
225.3337190908366
 30
0.0
 11
64.57891542210015
 21
225.3337190908366
 31
0.0
  0
LINE
  5
B713
  8
0
 10
63.34758476582826
 20
223.6730427101517
 30
0.0
 11
63.43138228113546
 21
223.5654764510433
 31
0.0
  0
ARC
  5
B714
  8
0
 10
63.23525447689732
 20
224.6120939356903
 30
0.0
 40
0.9457458950466363
 50
276.8213681552839
 51
1.878103949386534
  0
ARC
  5
B715
  8
0
 10
63.37425878307974
 20
224.901621480814
 30
0.0
 40
1.337365557583815
 50
272.4480452339944
 51
323.9127955890404
  0
ARC
  5
B716
  8
0
 10
63.53128917327237
 20
224.6085205797769
 30
0.0
 40
1.047817942956835
 50
331.8321656005633
 51
358.9040121443402
  0
LINE
  5
B717
  8
0
 10
66.21641455334426
 20
225.0632346033837
 30
0.0
 11
66.21641455334426
 21
225.182666901606
 31
0.0
  0
LINE
  5
B718
  8
0
 10
64.86816001396389
 20
225.0438606394397
 30
0.0
 11
64.86816001396389
 21
225.182666901606
 31
0.0
  0
LINE
  5
B719
  8
0
 10
66.21641455334426
 20
225.182666901606
 30
0.0
 11
64.86816001396389
 21
225.182666901606
 31
0.0
  0
LINE
  5
B71A
  8
0
 10
65.73954520660251
 20
225.0438606394397
 30
0.0
 11
64.86816001396389
 21
225.0438606394397
 31
0.0
  0
LINE
  5
B71B
  8
0
 10
64.48337255989097
 20
223.7254337597011
 30
0.0
 11
64.5603907762779
 21
223.6054666281713
 31
0.0
  0
ARC
  5
B71C
  8
0
 10
63.87739650773707
 20
225.5604389133729
 30
0.0
 40
1.932472739726369
 50
288.2748377643807
 51
344.4954648401276
  0
ARC
  5
B71D
  8
0
 10
63.89067723167861
 20
226.1655424473567
 30
0.0
 40
2.646224561861322
 50
284.6600032593546
 51
312.5396667739578
  0
LINE
  5
B71E
  8
0
 10
66.3169091595905
 20
223.5841539459476
 30
0.0
 11
66.62239672301845
 21
223.9279826654898
 31
0.0
  0
ARC
  5
B71F
  8
0
 10
64.28855499869357
 20
222.1753021773372
 30
0.0
 40
2.469632342666266
 50
34.78302390875149
 51
55.71309290050228
  0
ARC
  5
B720
  8
0
 10
64.46247836110794
 20
225.6001371992158
 30
0.0
 40
1.834272761572525
 50
316.4306178633717
 51
342.9799715932805
  0
ARC
  5
B721
  8
0
 10
64.2136251443089
 20
220.0715938546133
 30
0.0
 40
4.546857725842939
 50
58.0103401497656
 51
69.6947510335346
  0
ARC
  5
BC2C
  8
0
 10
55.12969990597986
 20
238.7350798204349
 30
0.0
 40
5.33214218313847
 50
74.3144994222587
 51
104.1724498576073
  0
ARC
  5
BC2D
  8
0
 10
55.13718661771971
 20
238.7456091500734
 30
0.0
 40
5.323775476131433
 50
104.2783165563116
 51
166.1870765708273
  0
ARC
  5
BC2E
  8
0
 10
55.14132542271213
 20
238.7525348134657
 30
0.0
 40
5.326146654840227
 50
166.270054507626
 51
215.0482339935348
  0
ARC
  5
BC2F
  8
0
 10
55.12939363856626
 20
238.7439035517585
 30
0.0
 40
5.311421839969246
 50
215.0459241187441
 51
273.2408824576858
  0
ARC
  5
BC30
  8
0
 10
55.13142969921327
 20
238.7515025726223
 30
0.0
 40
5.318894171081752
 50
273.2143571100679
 51
346.1779060677009
  0
ARC
  5
BC31
  8
0
 10
55.14153558641412
 20
238.744021377155
 30
0.0
 40
5.307295827239366
 50
346.2302669880835
 51
43.78488871851541
  0
ARC
  5
BC32
  8
0
 10
57.20429139332643
 20
238.3225568265488
 30
0.0
 40
4.459640505811445
 50
66.63259795322786
 51
109.905871685035
  0
ARC
  5
BC33
  8
0
 10
56.98613905050968
 20
238.8427886716472
 30
0.0
 40
3.896315762598357
 50
109.4942419685547
 51
167.6530237580676
  0
ARC
  5
BC34
  8
0
 10
56.24743930547835
 20
237.3224397735771
 30
0.0
 40
3.866330758866939
 50
121.49327701854
 51
142.5031668973391
  0
ARC
  5
BC35
  8
0
 10
56.19575331210685
 20
237.3858909977927
 30
0.0
 40
3.78524088928143
 50
91.77940320266809
 51
121.3278955587065
  0
ARC
  5
BC36
  8
0
 10
56.18347996427008
 20
237.2682257579982
 30
0.0
 40
3.90250076108918
 50
65.20023754136542
 51
91.54565188015103
  0
ARC
  5
BC37
  8
0
 10
56.00974892364604
 20
236.9088370884248
 30
0.0
 40
4.301623157105358
 50
30.14973546883459
 51
65.10747394303505
  0
ARC
  5
BC38
  8
0
 10
55.79351213466799
 20
236.7694583569997
 30
0.0
 40
4.558626665475829
 50
8.9769926527231
 51
30.2994981683211
  0
ARC
  5
BC39
  8
0
 10
56.90716443276634
 20
240.2892956147679
 30
0.0
 40
4.401593171265135
 50
288.3388974970104
 51
320.3520397443188
  0
ARC
  5
BC3A
  8
0
 10
56.85628984151214
 20
240.3478049741874
 30
0.0
 40
4.473237795108389
 50
252.8403059470311
 51
288.7216405446108
  0
ARC
  5
BC3B
  8
0
 10
56.70805242053173
 20
239.9192597990276
 30
0.0
 40
4.020062191481092
 50
209.1938724537274
 51
253.0569803949627
  0
ARC
  5
BC3C
  8
0
 10
56.5200016769472
 20
239.7659902643271
 30
0.0
 40
3.781373116886767
 50
175.5970978715927
 51
208.5563260925432
  0
ARC
  5
BC3D
  8
0
 10
56.74426638029108
 20
239.7234406115733
 30
0.0
 40
4.008321764107
 50
141.0080554268092
 51
175.2367758980932
  0
ARC
  5
BC3E
  8
0
 10
57.08904580217869
 20
239.4514675890805
 30
0.0
 40
4.447428119007347
 50
96.68547469604019
 51
141.0795845301957
  0
ARC
  5
BC3F
  8
0
 10
56.88953587444301
 20
238.9015694042784
 30
0.0
 40
3.790160167539093
 50
178.4707117364453
 51
186.1865889351898
  0
ARC
  5
BC40
  8
0
 10
43.85595094319622
 20
231.631284887528
 30
0.0
 40
2.102527922038834
 50
84.95619996680523
 51
90.22314612645808
  0
ARC
  5
BC41
  8
0
 10
43.98801723806986
 20
232.8785592189739
 30
0.0
 40
0.848754935304436
 50
65.19337763183492
 51
86.43460068621052
  0
ARC
  5
BC42
  8
0
 10
44.14724098906575
 20
233.2638790663028
 30
0.0
 40
0.432524910680116
 50
13.9863879207907
 51
62.92338893732329
  0
ARC
  5
BC43
  8
0
 10
43.47678561752578
 20
233.0598723668749
 30
0.0
 40
1.132979464242894
 50
3.904131892888894
 51
15.80295944671862
  0
ARC
  5
BC44
  8
0
 10
41.41716923166916
 20
232.889366073199
 30
0.0
 40
3.199565044350259
 50
359.4532997353149
 51
4.439158366316591
  0
ARC
  5
BC45
  8
0
 10
43.59847483387517
 20
228.3160023472766
 30
0.0
 40
1.961880406277173
 50
269.5826669607686
 51
281.2467372863051
  0
ARC
  5
BC46
  8
0
 10
43.82567930760283
 20
227.2422108579688
 30
0.0
 40
0.8645009778283242
 50
280.3576091429006
 51
308.9726038906425
  0
ARC
  5
BC47
  8
0
 10
43.89730303114889
 20
227.0954505660898
 30
0.0
 40
0.7063050293075379
 50
311.9446536813435
 51
353.5803040312001
  0
ARC
  5
BC48
  8
0
 10
42.9587451687904
 20
227.2566787949455
 30
0.0
 40
1.657926458748007
 50
351.6696629683137
 51
0.573324156878082
  0
ARC
  5
BC49
  8
0
 10
48.24032752353254
 20
232.2628576857055
 30
0.0
 40
5.95119938757511
 50
257.5813101393113
 51
263.1368024967188
  0
ARC
  5
BC4A
  8
0
 10
47.25062495363466
 20
227.8189302792091
 30
0.0
 40
1.398452974297173
 50
235.2289453505774
 51
258.0263291625699
  0
ARC
  5
BC4B
  8
0
 10
46.9057168967027
 20
227.2440322492549
 30
0.0
 40
0.7308682337771808
 50
181.3642075179843
 51
231.7348554842791
  0
ARC
  5
BC4C
  8
0
 10
47.45041294978111
 20
227.3199754012543
 30
0.0
 40
1.278768468710234
 50
179.9604411616191
 51
184.1860155147163
  0
ARC
  5
BC4D
  8
0
 10
34.72874686614048
 20
228.4535393689575
 30
0.0
 40
11.44415409390602
 50
0.848935483152986
 51
1.690006264274332
  0
ARC
  5
BC4E
  8
0
 10
46.20341898642403
 20
228.7937713565486
 30
0.0
 40
0.0356002396173115
 50
132.0995794755948
 51
184.3854082312399
  0
ARC
  5
BC4F
  8
0
 10
46.21173116861195
 20
228.753421277728
 30
0.0
 40
0.0741150757083008
 50
81.69918243476886
 51
115.7331729843349
  0
ARC
  5
BC50
  8
0
 10
46.41830379966473
 20
229.5833978368011
 30
0.0
 40
0.2727989215437704
 50
229.3422064805685
 51
273.4045849244121
  0
ARC
  5
BC51
  8
0
 10
46.4446419934882
 20
229.5524805093685
 30
0.0
 40
0.2695085644996453
 50
184.8442539947764
 51
220.7801867736532
  0
ARC
  5
BC52
  8
0
 10
46.73607673664749
 20
229.600496504117
 30
0.0
 40
0.5644354903320787
 50
179.7970894737595
 51
187.2033550483903
  0
ARC
  5
BC53
  8
0
 10
46.74422358903517
 20
234.4519776050313
 30
0.0
 40
5.625234236528772
 50
270.1389228840428
 51
282.5749638804128
  0
ARC
  5
BC54
  8
0
 10
47.20356654935591
 20
232.7862904771655
 30
0.0
 40
3.900438044695806
 50
281.31631568977
 51
306.6736079669237
  0
ARC
  5
BC55
  8
0
 10
47.56753062562423
 20
232.0841834602456
 30
0.0
 40
3.122533740917625
 50
309.0122993056876
 51
333.1868714432046
  0
ARC
  5
BC56
  8
0
 10
48.28213972216597
 20
231.6418351324531
 30
0.0
 40
2.286370135056757
 50
335.0025208531055
 51
3.132350940942409
  0
ARC
  5
BC57
  8
0
 10
48.17398252552324
 20
231.5562941132464
 30
0.0
 40
2.400356917899017
 50
5.030415615660186
 51
45.88015556804298
  0
ARC
  5
BC58
  8
0
 10
47.52388806480614
 20
230.6135323700591
 30
0.0
 40
3.534812041936091
 50
48.95520224166617
 51
77.68716474380062
  0
ARC
  5
BC59
  8
0
 10
47.24607666458525
 20
229.4284070110884
 30
0.0
 40
4.751956788280896
 50
77.46176455392263
 51
90.50756358638267
  0
ARC
  5
BC5A
  8
0
 10
46.36913696718813
 20
233.5626245507945
 30
0.0
 40
0.1328574047888303
 50
89.08094236461791
 51
124.4007292599872
  0
ARC
  5
BC5B
  8
0
 10
46.42147720001894
 20
233.5016264546917
 30
0.0
 40
0.2129371461418388
 50
126.7487054586298
 51
162.0338218173687
  0
ARC
  5
BC5C
  8
0
 10
46.92921173094186
 20
233.3135062240933
 30
0.0
 40
0.7542713589800576
 50
160.3370642577245
 51
177.7002884087945
  0
ARC
  5
BC5D
  8
0
 10
47.86589495024697
 20
233.2287408268534
 30
0.0
 40
1.69425665145904
 50
176.1068976128699
 51
180.1585523306186
  0
ARC
  5
BC5E
  8
0
 10
46.87355625937938
 20
231.5294998432018
 30
0.0
 40
2.219308321722258
 50
271.6216628224752
 51
290.5180238120261
  0
ARC
  5
BC5F
  8
0
 10
47.05354021376371
 20
230.9596545097592
 30
0.0
 40
1.622827402472289
 50
291.6184361004769
 51
329.2928533987836
  0
ARC
  5
BC60
  8
0
 10
46.12443193157912
 20
231.471298453394
 30
0.0
 40
2.683157532333741
 50
330.0305147082963
 51
359.7069691972517
  0
ARC
  5
BC61
  8
0
 10
45.99651026709608
 20
231.5819233149684
 30
0.0
 40
2.813793035039953
 50
357.4671544818835
 51
18.09389103936943
  0
ARC
  5
BC62
  8
0
 10
46.84875183722241
 20
231.8783527101413
 30
0.0
 40
1.911708557628758
 50
17.58181129013311
 51
44.10613559949745
  0
ARC
  5
BC63
  8
0
 10
47.10837313588118
 20
232.0888191202675
 30
0.0
 40
1.579081423259486
 50
45.17904980442386
 51
71.36379322642686
  0
ARC
  5
BC64
  8
0
 10
46.93168959800568
 20
231.5424046965159
 30
0.0
 40
2.153318191790253
 50
71.55515292962627
 51
90.8869891698155
  0
ARC
  5
BC65
  8
0
 10
49.9591830386118
 20
228.6333831050919
 30
0.0
 40
0.9504697930117868
 50
45.647846390803
 51
90.95907175324457
  0
ARC
  5
BC66
  8
0
 10
49.69056774029588
 20
228.4027586657776
 30
0.0
 40
1.303524477208397
 50
356.2866180422669
 51
44.29157541670843
  0
ARC
  5
BC67
  8
0
 10
49.24044093582577
 20
228.2344252973487
 30
0.0
 40
1.752924040513615
 50
332.828265351269
 51
2.743720271344923
  0
ARC
  5
BC68
  8
0
 10
49.93246513630554
 20
227.9488129831534
 30
0.0
 40
1.008745565207887
 50
281.1029522262593
 51
329.3086861457629
  0
ARC
  5
BC69
  8
0
 10
49.94502824873051
 20
228.0210936814212
 30
0.0
 40
1.077573765673208
 50
254.3735857114835
 51
279.7072195183885
  0
ARC
  5
BC6A
  8
0
 10
49.95864974614196
 20
227.9612157145245
 30
0.0
 40
1.023995873514749
 50
198.078198350464
 51
252.7369026576824
  0
ARC
  5
BC6B
  8
0
 10
51.00470348984878
 20
228.2674973497244
 30
0.0
 40
2.113718303506307
 50
164.694227618975
 51
197.1716014617761
  0
ARC
  5
BC6C
  8
0
 10
50.00064419968692
 20
228.5323178536183
 30
0.0
 40
1.07541041250608
 50
123.308410446615
 51
164.1819940011189
  0
ARC
  5
BC6D
  8
0
 10
49.92974802728298
 20
228.6234774148732
 30
0.0
 40
0.9603375863241239
 50
89.19299068101529
 51
122.7601092117221
  0
ARC
  5
BC6E
  8
0
 10
50.2459906954802
 20
228.2713783449503
 30
0.0
 40
2.529168051565525
 50
164.9665044400625
 51
190.6145490228779
  0
ARC
  5
BC6F
  8
0
 10
49.87942604013475
 20
228.0951945268257
 30
0.0
 40
2.13903317801624
 50
187.7835408718214
 51
220.8538282758054
  0
ARC
  5
BC70
  8
0
 10
49.86290216227806
 20
228.2577177708531
 30
0.0
 40
2.23684800464541
 50
224.28151327257
 51
262.3352180838965
  0
ARC
  5
BC71
  8
0
 10
49.94409646646407
 20
228.4258819827339
 30
0.0
 40
2.415036709056927
 50
260.9581187463501
 51
295.9617934482591
  0
ARC
  5
BC72
  8
0
 10
49.9688079399422
 20
228.1923702331346
 30
0.0
 40
2.195729658493223
 50
298.0499757225371
 51
338.9010076102918
  0
ARC
  5
BC73
  8
0
 10
49.57925143681641
 20
228.277805991847
 30
0.0
 40
2.590632549888452
 50
340.2397223934027
 51
12.59603457387198
  0
ARC
  5
BC74
  8
0
 10
50.05389002020486
 20
228.3963450149704
 30
0.0
 40
2.101602444292964
 50
12.26400142418714
 51
42.00204460106978
  0
ARC
  5
BC75
  8
0
 10
50.05339891556193
 20
228.4238308633612
 30
0.0
 40
2.083678402800012
 50
41.43135548057312
 51
84.31090183999093
  0
ARC
  5
BC76
  8
0
 10
55.94238181536825
 20
228.9527674935645
 30
0.0
 40
0.7218683279506627
 50
130.1010359850333
 51
152.8765297157261
  0
ARC
  5
BC77
  8
0
 10
55.8844178632875
 20
228.9390516586485
 30
0.0
 40
0.6970539232955045
 50
93.62160758699905
 51
125.7261982466873
  0
ARC
  5
BC78
  8
0
 10
55.99549832982727
 20
227.9945756970254
 30
0.0
 40
1.647456117640462
 50
86.1442592668658
 51
95.40251107253543
  0
ARC
  5
BC79
  8
0
 10
56.04423072777642
 20
228.1663704308272
 30
0.0
 40
1.473239699002557
 50
75.78444603343868
 51
87.58609443775944
  0
ARC
  5
BC7A
  8
0
 10
56.30891414014377
 20
229.1636004307631
 30
0.0
 40
0.4417023764257507
 50
38.65642909797035
 51
77.30076056537986
  0
ARC
  5
BC7B
  8
0
 10
56.13722232574776
 20
229.0930925349543
 30
0.0
 40
0.622013293909289
 50
359.8735965182385
 51
33.84363804094075
  0
ARC
  5
BC7C
  8
0
 10
53.17911162171268
 20
228.972826383827
 30
0.0
 40
3.582096140528945
 50
359.0859929973961
 51
1.902062204167362
  0
ARC
  5
BC7D
  8
0
 10
55.82177066838156
 20
231.242609069365
 30
0.0
 40
2.509234634269819
 50
284.9657500733399
 51
291.97550982172
  0
ARC
  5
BC7E
  8
0
 10
54.142447367881
 20
237.3904465830582
 30
0.0
 40
8.882278806531481
 50
280.2043110183695
 51
285.1898042810342
  0
ARC
  5
BC7F
  8
0
 10
56.60755296042831
 20
223.4910499932062
 30
0.0
 40
5.234101951295329
 50
99.80708673503382
 51
108.9029002183751
  0
ARC
  5
BC80
  8
0
 10
55.30234205799539
 20
227.2414464779236
 30
0.0
 40
1.263280702218469
 50
108.0038789458561
 51
139.5346921255566
  0
ARC
  5
BC81
  8
0
 10
55.24244114933185
 20
227.3252832676048
 30
0.0
 40
1.163565746446632
 50
140.7612947780745
 51
168.9659435881562
  0
ARC
  5
BC82
  8
0
 10
55.47680874729635
 20
227.283582328956
 30
0.0
 40
1.401587473098195
 50
169.1264415873883
 51
196.8129880402177
  0
ARC
  5
BC83
  8
0
 10
55.27682858649354
 20
227.250063265508
 30
0.0
 40
1.200736629503124
 50
198.0421705376476
 51
235.7348582477589
  0
ARC
  5
BC84
  8
0
 10
55.43368823144223
 20
227.5481094840415
 30
0.0
 40
1.535844315416191
 50
237.1590292494219
 51
270.7198132743666
  0
ARC
  5
BC85
  8
0
 10
55.51362461435957
 20
227.8221217695776
 30
0.0
 40
1.810751131158588
 50
268.0808101764746
 51
292.8635926074776
  0
ARC
  5
BC86
  8
0
 10
55.38281534476369
 20
228.0491278892247
 30
0.0
 40
2.070998767971581
 50
293.7580989581123
 51
314.7899657835182
  0
ARC
  5
BC87
  8
0
 10
60.36199823900714
 20
227.2175708423146
 30
0.0
 40
2.499173832420186
 50
192.2727471956715
 51
206.3510707099188
  0
ARC
  5
BC88
  8
0
 10
62.32762421979194
 20
227.3923899454441
 30
0.0
 40
4.463878389973498
 50
178.3054146575074
 51
189.1007693226515
  0
ARC
  5
BC89
  8
0
 10
-120.8404844030924
 20
230.445254597878
 30
0.0
 40
178.7300508439498
 50
359.0636135939208
 51
359.5331222948618
  0
ARC
  5
BC8A
  8
0
 10
54.80451900535529
 20
228.9884367540449
 30
0.0
 40
3.07911375910394
 50
0.0082366020401114
 51
13.70501902078777
  0
ARC
  5
BC8B
  8
0
 10
56.9438773089755
 20
229.4575678923923
 30
0.0
 40
0.8909843556742496
 50
16.99219239725991
 51
58.15468777164648
  0
ARC
  5
BC8C
  8
0
 10
56.47607874519232
 20
228.7979989545929
 30
0.0
 40
1.698813368729804
 50
56.4891308086457
 51
88.52476597508146
  0
ARC
  5
BC8D
  8
0
 10
56.11315990030184
 20
226.2210000215303
 30
0.0
 40
4.294545824498953
 50
84.56646884241289
 51
99.63736677787178
  0
ARC
  5
BC8E
  8
0
 10
55.63967103831868
 20
229.0002985101605
 30
0.0
 40
1.475204576717583
 50
99.5783577095598
 51
133.4108128523488
  0
ARC
  5
BC8F
  8
0
 10
55.89335362938199
 20
228.859929800825
 30
0.0
 40
1.753711970549818
 50
136.2812462218209
 51
166.0780026216429
  0
ARC
  5
BC90
  8
0
 10
54.77120567503246
 20
234.6295015262281
 30
0.0
 40
6.758384124597473
 50
280.6962555586757
 51
287.1203411217375
  0
ARC
  5
BC91
  8
0
 10
56.73843762669711
 20
224.5367716289724
 30
0.0
 40
3.524614443440088
 50
101.6686696910117
 51
109.1101391117779
  0
ARC
  5
BC92
  8
0
 10
55.74779465477809
 20
227.3431126394717
 30
0.0
 40
0.5488788980844314
 50
107.304431562489
 51
142.6785974978676
  0
ARC
  5
BC93
  8
0
 10
55.66061097857173
 20
227.4055046979703
 30
0.0
 40
0.4417308257590526
 50
142.2581992011801
 51
180.7216068092584
  0
ARC
  5
BC94
  8
0
 10
55.76475022949677
 20
227.3946857158853
 30
0.0
 40
0.5458603467606972
 50
179.4483220443287
 51
220.6412737198976
  0
ARC
  5
BC95
  8
0
 10
55.8185263025356
 20
227.4229265788654
 30
0.0
 40
0.6052123636331186
 50
219.3540008203597
 51
262.0493699394866
  0
ARC
  5
BC96
  8
0
 10
55.85794359011476
 20
227.7219469840317
 30
0.0
 40
0.9068136346841665
 50
262.1960849641753
 51
288.4736708280107
  0
ARC
  5
BC97
  8
0
 10
55.8101777103565
 20
227.8652761500902
 30
0.0
 40
1.057892482791887
 50
288.467600933972
 51
313.9760865401699
  0
ARC
  5
BC98
  8
0
 10
56.06843038996941
 20
227.5823888905165
 30
0.0
 40
0.6750814753682137
 50
314.8739683616068
 51
353.3371743964237
  0
ARC
  5
BC99
  8
0
 10
53.30431644524985
 20
227.8946725762817
 30
0.0
 40
3.456776160850171
 50
353.5117984853132
 51
0.8226475095749395
  0
ARC
  5
BC9A
  8
0
 10
63.91483866152271
 20
228.5730996615067
 30
0.0
 40
7.34861436909221
 50
195.7421928264704
 51
199.597791318071
  0
ARC
  5
BC9B
  8
0
 10
76.68630568933956
 20
227.4760616633343
 30
0.0
 40
17.00768455573995
 50
177.5431527159517
 51
180.1224681839423
  0
ARC
  5
BC9C
  8
0
 10
63.6730828670064
 20
228.0814558945959
 30
0.0
 40
3.98074969577439
 50
168.3575610519279
 51
178.2196605600729
  0
ARC
  5
BC9D
  8
0
 10
60.76394151998306
 20
228.6605465262963
 30
0.0
 40
1.014793522696064
 50
138.3863021467757
 51
167.2340218536034
  0
ARC
  5
BC9E
  8
0
 10
60.40833988084407
 20
228.8937659287955
 30
0.0
 40
0.5972547683434593
 50
96.77586538956558
 51
132.447773558299
  0
ARC
  5
BC9F
  8
0
 10
60.43913322438044
 20
228.7418661396819
 30
0.0
 40
0.7518332906437697
 50
71.72267914677991
 51
97.74042030460295
  0
ARC
  5
BCA0
  8
0
 10
60.26568151654624
 20
228.2300670705386
 30
0.0
 40
1.29221607752043
 50
56.46328333653608
 51
71.53679490684749
  0
ARC
  5
BCA1
  8
0
 10
62.19934640474966
 20
228.2080392921933
 30
0.0
 40
3.058724754046294
 50
139.5470247594359
 51
148.3665835328131
  0
ARC
  5
BCA2
  8
0
 10
60.54755694506738
 20
229.6400044729864
 30
0.0
 40
0.8729050829687197
 50
109.5979517564685
 51
140.7231812093455
  0
ARC
  5
BCA3
  8
0
 10
60.57794456837311
 20
229.5124911551358
 30
0.0
 40
1.003323721815536
 50
86.36469047660621
 51
108.7902753767986
  0
ARC
  5
BCA4
  8
0
 10
60.57697903834138
 20
229.137312970319
 30
0.0
 40
1.377997254265745
 50
78.84643697971599
 51
87.31376656527219
  0
ARC
  5
BCA5
  8
0
 10
60.56326070758863
 20
229.0675835983815
 30
0.0
 40
1.449063259500479
 50
73.30291166206497
 51
78.8475905402678
  0
ARC
  5
BCA6
  8
0
 10
65.16424078999538
 20
228.9259223272143
 30
0.0
 40
1.673766598535952
 50
15.45353000298215
 51
35.65921843237705
  0
ARC
  5
BCA7
  8
0
 10
65.44936005453505
 20
229.1156301126642
 30
0.0
 40
1.331569712949468
 50
36.17886961743995
 51
65.18032133965768
  0
ARC
  5
BCA8
  8
0
 10
65.06607726880193
 20
228.0470222306439
 30
0.0
 40
2.464419661937123
 50
67.52176510600205
 51
89.95176516883794
  0
ARC
  5
BCA9
  8
0
 10
64.88650670218661
 20
226.7854996546902
 30
0.0
 40
3.730366476747655
 50
87.208954205559
 51
101.0994306540248
  0
ARC
  5
BCAA
  8
0
 10
64.44850002461851
 20
228.9845512412556
 30
0.0
 40
1.488141506149253
 50
100.8503522773502
 51
133.1120733601343
  0
ARC
  5
BCAB
  8
0
 10
64.26145058645383
 20
229.1943255988526
 30
0.0
 40
1.207186880999289
 50
133.4355814373259
 51
160.54030576771
  0
ARC
  5
BCAC
  8
0
 10
64.35912688187794
 20
229.1871476853556
 30
0.0
 40
1.30192991328094
 50
161.6745785399147
 51
192.4880693726293
  0
ARC
  5
BCAD
  8
0
 10
64.12543264019513
 20
229.1332120041264
 30
0.0
 40
1.06210390647494
 50
192.3733574320921
 51
226.495337067095
  0
ARC
  5
BCAE
  8
0
 10
64.28676181155323
 20
229.2884785556245
 30
0.0
 40
1.285822665205259
 50
226.0440591685035
 51
249.5155775654867
  0
ARC
  5
BCAF
  8
0
 10
66.23357256674352
 20
234.1892346868182
 30
0.0
 40
6.558883186265355
 50
248.5661847695235
 51
256.3648823317471
  0
ARC
  5
BCB0
  8
0
 10
74.98599152132704
 20
269.2980404205108
 30
0.0
 40
42.74209767946007
 50
256.0575388595495
 51
257.0500330678841
  0
ARC
  5
BCB1
  8
0
 10
65.26553827088802
 20
226.9182210678958
 30
0.0
 40
0.738586693301286
 50
53.94494987543574
 51
78.91973275289719
  0
ARC
  5
BCB2
  8
0
 10
65.47533115078471
 20
227.3050309253895
 30
0.0
 40
0.3079156393342173
 50
351.7054337157874
 51
43.07738885190663
  0
ARC
  5
BCB3
  8
0
 10
65.42300859196774
 20
227.287682673897
 30
0.0
 40
0.3580422081846633
 50
305.5545895016557
 51
355.6635972446031
  0
ARC
  5
BCB4
  8
0
 10
65.10151715499835
 20
227.8083900790272
 30
0.0
 40
0.9694871848616392
 50
270.6346537603566
 51
303.1173831021151
  0
ARC
  5
BCB5
  8
0
 10
64.97388417075427
 20
228.3682923972975
 30
0.0
 40
1.535577099296554
 50
255.0528385911238
 51
275.1699625266891
  0
ARC
  5
BCB6
  8
0
 10
64.77464884734893
 20
227.5786283010754
 30
0.0
 40
0.72133028502093
 50
220.3482025964629
 51
254.1645624218334
  0
ARC
  5
BCB7
  8
0
 10
64.85127272302898
 20
227.6306576228852
 30
0.0
 40
0.8134735047535518
 50
201.7856653156537
 51
219.6469566048348
  0
ARC
  5
BCB8
  8
0
 10
64.52557718037721
 20
227.7410989497919
 30
0.0
 40
1.679722551042641
 50
194.210622631723
 51
218.9435761559328
  0
ARC
  5
BCB9
  8
0
 10
64.53590557340144
 20
227.7783788600906
 30
0.0
 40
1.711336039747307
 50
219.6970036238809
 51
248.5406571485441
  0
ARC
  5
BCBA
  8
0
 10
64.83652424908126
 20
228.6338608720101
 30
0.0
 40
2.617702860846573
 50
249.2671616286075
 51
267.747025064058
  0
ARC
  5
BCBB
  8
0
 10
64.96980524931095
 20
229.1618126156991
 30
0.0
 40
3.152491240768179
 50
265.7033250605309
 51
289.3905439589275
  0
ARC
  5
BCBC
  8
0
 10
65.4442608186105
 20
227.6043221191672
 30
0.0
 40
1.527408099999837
 50
292.0004687572242
 51
331.7243378576277
  0
ARC
  5
BCBD
  8
0
 10
65.63359606502183
 20
227.4613604349688
 30
0.0
 40
1.293448633509429
 50
333.3286501185843
 51
10.01278361973784
  0
ARC
  5
BCBE
  8
0
 10
65.93044862297943
 20
227.548968103068
 30
0.0
 40
0.9864943557164728
 50
7.999299177210378
 51
56.09544702440729
  0
ARC
  5
BCBF
  8
0
 10
64.91324187650038
 20
225.8489950281564
 30
0.0
 40
2.966650730685512
 50
58.10472620690843
 51
77.57165611660318
  0
ARC
  5
BCC0
  8
0
 10
71.14393855182615
 20
253.1738833621814
 30
0.0
 40
25.05969444260865
 50
254.9920383624129
 51
257.1055378385226
  0
ARC
  5
BCC1
  8
0
 10
65.0711606724314
 20
230.7082746023462
 30
0.0
 40
1.788471967299355
 50
241.9968666432906
 51
256.5329008491028
  0
ARC
  5
BCC2
  8
0
 10
64.3746332053046
 20
229.3424942509669
 30
0.0
 40
0.2569089219111538
 50
181.4229295114256
 51
236.1252737546306
  0
ARC
  5
BCC3
  8
0
 10
64.38985384296484
 20
229.3369878649001
 30
0.0
 40
0.272051738584831
 50
114.9382961617164
 51
180.1839102890763
  0
ARC
  5
BCC4
  8
0
 10
64.79184112136704
 20
228.4278835804867
 30
0.0
 40
1.266027764923893
 50
87.40586972974698
 51
114.0870118917362
  0
ARC
  5
BCC5
  8
0
 10
64.89234937772662
 20
228.1086638111708
 30
0.0
 40
1.584539315298479
 50
81.26152734193053
 51
91.56252783870202
  0
ARC
  5
BCC6
  8
0
 10
65.02584615015508
 20
228.9144508534067
 30
0.0
 40
0.767883455285971
 50
58.63150134670305
 51
81.97250411125933
  0
ARC
  5
BCC7
  8
0
 10
65.08577912851328
 20
229.0491403324123
 30
0.0
 40
0.6219714409278794
 50
31.26144626097709
 51
56.88664282448827
  0
ARC
  5
BCC8
  8
0
 10
60.73256347258456
 20
225.2464501485865
 30
0.0
 40
0.1450093835969383
 50
152.3324835633369
 51
201.6883497501597
  0
ARC
  5
BCC9
  8
0
 10
60.78284343914765
 20
225.2134659262812
 30
0.0
 40
0.2049400430791757
 50
94.26849177823954
 51
150.6923636878295
  0
ARC
  5
BCCA
  8
0
 10
60.79528348183358
 20
225.1758560225092
 30
0.0
 40
0.2435610534233947
 50
65.67526895000451
 51
96.52886377924207
  0
ARC
  5
BCCB
  8
0
 10
60.826190171197
 20
225.2323530057749
 30
0.0
 40
0.1794155440342952
 50
15.00501194484213
 51
67.2375225199484
  0
ARC
  5
BCCC
  8
0
 10
60.85879321929535
 20
225.2461981802956
 30
0.0
 40
0.1444238304842776
 50
334.547571826115
 51
13.047988576613
  0
ARC
  5
BCCD
  8
0
 10
60.81704327658257
 20
225.2690695173961
 30
0.0
 40
0.1919699607925253
 50
283.3392084596498
 51
333.7390166514095
  0
ARC
  5
BCCE
  8
0
 10
60.79549184813089
 20
225.3182104827764
 30
0.0
 40
0.2449468824808138
 50
249.2475068279205
 51
285.5929160340207
  0
ARC
  5
BCCF
  8
0
 10
60.772162564263
 20
225.2681375931449
 30
0.0
 40
0.1899001165681578
 50
203.353445485098
 51
250.4765665943434
  0
ARC
  5
BCD0
  8
0
 10
60.73344968350898
 20
225.2463884674625
 30
0.0
 40
0.220563220518459
 50
149.5924277991477
 51
208.5026443066654
  0
ARC
  5
BCD1
  8
0
 10
60.78312824085877
 20
225.2113946762807
 30
0.0
 40
0.2811654578303905
 50
99.15226556107332
 51
148.5662219609103
  0
ARC
  5
BCD2
  8
0
 10
60.79524403138075
 20
225.1742795770644
 30
0.0
 40
0.3197925578412533
 50
69.2643536209876
 51
100.2377265552896
  0
ARC
  5
BCD3
  8
0
 10
60.81446887903128
 20
225.2179421143156
 30
0.0
 40
0.2721632922277281
 50
34.33047436698183
 51
69.79498100629164
  0
ARC
  5
BCD4
  8
0
 10
60.85673916602616
 20
225.2465093084327
 30
0.0
 40
0.2211457863352724
 50
330.8904082426641
 51
34.39478799471744
  0
ARC
  5
BCD5
  8
0
 10
60.81253772096926
 20
225.2747255858998
 30
0.0
 40
0.2735090128067355
 50
281.5278040705526
 51
330.2307053142214
  0
ARC
  5
BCD6
  8
0
 10
60.79550983832681
 20
225.3182154004255
 30
0.0
 40
0.3196244185618837
 50
249.2057013607624
 51
282.9608191978165
  0
ARC
  5
BCD7
  8
0
 10
60.77495872787276
 20
225.2723060120081
 30
0.0
 40
0.2694253491506349
 50
209.1338557825235
 51
249.8253936421853
  0
LINE
  5
BD65
  8
D002
 10
78.82346775921083
 20
222.7911311965019
 30
0.0
 11
78.82346775921083
 21
223.3375778059086
 31
0.0
1001
GENIUS_GENODEF_13
1002
{
1000
HIER
1070
     0
1002
}
1002
{
1000
MANEDIT
1070
     0
1002
}
1002
{
1000
NOSEL
1070
     0
1002
}
1002
{
1000
BEHIND
1070
     0
1002
}
1002
{
1000
OTHER
1070
     0
1002
}
1002
{
1000
REACTOR
1002
}
1001
GENIUS_GENOBJ-N-CEN_13
1002
{
1000
OWNER
1000
GEN
1002
}
1001
GENIUS_GENCEN_19
1002
{
1040
3.0
1002
}
  0
LINE
  5
BD66
  8
D002
 10
79.12346775921101
 20
222.7911311965019
 30
0.0
 11
79.12346775921101
 21
223.3375778059086
 31
0.0
1001
GENIUS_GENODEF_13
1002
{
1000
HIER
1070
     0
1002
}
1002
{
1000
MANEDIT
1070
     0
1002
}
1002
{
1000
NOSEL
1070
     0
1002
}
1002
{
1000
BEHIND
1070
     0
1002
}
1002
{
1000
OTHER
1070
     0
1002
}
1002
{
1000
REACTOR
1002
}
1001
GENIUS_GENOBJ-N-CEN_13
1002
{
1000
OWNER
1000
GEN
1002
}
1001
GENIUS_GENCEN_19
1002
{
1040
3.0
1002
}
  0
LINE
  5
BD67
  8
D002
 10
79.12346775921101
 20
226.891131196502
 30
0.0
 11
79.76929456415787
 21
227.536958001449
 31
0.0
  0
LINE
  5
BD68
  8
D002
 10
79.12346775921101
 20
227.391131196502
 30
0.0
 11
79.51929456415787
 21
227.786958001449
 31
0.0
  0
ARC
  5
BD69
  8
D002
 10
78.97346775921092
 20
228.9911311965019
 30
0.0
 40
0.1499999999999773
 50
0.0
 51
180.0
  0
ARC
  5
BD6A
  8
D002
 10
79.64429456415787
 20
227.661958001449
 30
0.0
 40
0.1767766952966168
 50
315.0000000000293
 51
135.0000000000033
  0
LINE
  5
BD6B
  8
D002
 10
78.82346775921083
 20
226.891131196502
 30
0.0
 11
78.17764095426396
 21
227.536958001449
 31
0.0
  0
LINE
  5
BD6C
  8
D002
 10
78.82346775921083
 20
227.391131196502
 30
0.0
 11
78.42764095426396
 21
227.786958001449
 31
0.0
  0
ARC
  5
BD6D
  8
D002
 10
78.30264095426396
 20
227.661958001449
 30
0.0
 40
0.1767766952966168
 50
44.99999999999675
 51
224.9999999999707
  0
LINE
  5
BD6E
  8
D002
 10
79.12346775921101
 20
228.0911311965019
 30
0.0
 11
79.5222536564324
 21
228.4899170937233
 31
0.0
  0
LINE
  5
BD6F
  8
D002
 10
79.12346775921101
 20
228.4446845870952
 30
0.0
 11
79.34547696113573
 21
228.6666937890199
 31
0.0
  0
ARC
  5
BD70
  8
D002
 10
79.43386530878384
 20
228.5783054413718
 30
0.0
 40
0.1249999999999206
 50
314.999999999894
 51
134.9999999999309
  0
LINE
  5
BD71
  8
D002
 10
80.80372364753676
 20
224.6612273859344
 30
0.0
 11
80.94968941659063
 21
224.116475719659
 31
0.0
  0
LINE
  5
BD72
  8
D002
 10
81.10990986538464
 20
224.4844506906377
 30
0.0
 11
81.1911708731629
 21
224.1811804809347
 31
0.0
  0
ARC
  5
BD73
  8
D002
 10
81.53082769444991
 20
224.9462600478375
 30
0.0
 40
0.1249999999999206
 50
285.0000000000046
 51
105.0000000000046
  0
LINE
  5
BD74
  8
D002
 10
79.12346775921101
 20
224.891131196502
 30
0.0
 11
79.12346775921101
 21
225.2836143611127
 31
0.0
1001
GENIUS_GENODEF_13
1002
{
1000
HIER
1070
     0
1002
}
1002
{
1000
MANEDIT
1070
     0
1002
}
1002
{
1000
NOSEL
1070
     0
1002
}
1002
{
1000
BEHIND
1070
     0
1002
}
1002
{
1000
OTHER
1070
     0
1002
}
1002
{
1000
REACTOR
1002
}
1001
GENIUS_GENOBJ-N-CEN_13
1002
{
1000
OWNER
1000
GEN
1002
}
1001
GENIUS_GENCEN_19
1002
{
1040
3.0
1002
}
  0
LINE
  5
BD75
  8
D002
 10
81.2599098653845
 20
224.7442583117731
 30
0.0
 11
81.56318007508771
 21
224.8255193195514
 31
0.0
  0
ARC
  5
BD76
  8
D002
 10
81.070430144877
 20
224.1488281002968
 30
0.0
 40
0.1249999999999206
 50
194.9999999999509
 51
15.00000000000457
  0
LINE
  5
BD77
  8
D002
 10
80.95372364753662
 20
224.9210350070697
 30
0.0
 11
81.49847531381211
 21
225.0670007761237
 31
0.0
  0
LINE
  5
BD78
  8
D002
 10
79.12346775921101
 20
223.691131196502
 30
0.0
 11
79.12346775921101
 21
224.391131196502
 31
0.0
1001
GENIUS_GENODEF_13
1002
{
1000
HIER
1070
     0
1002
}
1002
{
1000
MANEDIT
1070
     0
1002
}
1002
{
1000
NOSEL
1070
     0
1002
}
1002
{
1000
BEHIND
1070
     0
1002
}
1002
{
1000
OTHER
1070
     0
1002
}
1002
{
1000
REACTOR
1002
}
1001
GENIUS_GENOBJ-N-CEN_13
1002
{
1000
OWNER
1000
GEN
1002
}
1001
GENIUS_GENCEN_19
1002
{
1040
3.0
1002
}
  0
LINE
  5
BD79
  8
D002
 10
78.82346775921083
 20
223.691131196502
 30
0.0
 11
78.82346775921083
 21
224.391131196502
 31
0.0
1001
GENIUS_GENODEF_13
1002
{
1000
HIER
1070
     0
1002
}
1002
{
1000
MANEDIT
1070
     0
1002
}
1002
{
1000
NOSEL
1070
     0
1002
}
1002
{
1000
BEHIND
1070
     0
1002
}
1002
{
1000
OTHER
1070
     0
1002
}
1002
{
1000
REACTOR
1002
}
1001
GENIUS_GENOBJ-N-CEN_13
1002
{
1000
OWNER
1000
GEN
1002
}
1001
GENIUS_GENCEN_19
1002
{
1040
3.0
1002
}
  0
LINE
  5
BD7A
  8
D002
 10
78.82346775921083
 20
228.4446845870952
 30
0.0
 11
78.82346775921083
 21
228.9911311965019
 31
0.0
1001
GENIUS_GENODEF_13
1002
{
1000
HIER
1070
     0
1002
}
1002
{
1000
MANEDIT
1070
     0
1002
}
1002
{
1000
NOSEL
1070
     0
1002
}
1002
{
1000
BEHIND
1070
     0
1002
}
1002
{
1000
OTHER
1070
     0
1002
}
1002
{
1000
REACTOR
1002
}
1001
GENIUS_GENOBJ-N-CEN_13
1002
{
1000
OWNER
1000
GEN
1002
}
1001
GENIUS_GENCEN_19
1002
{
1040
3.0
1002
}
  0
LINE
  5
BD7B
  8
D002
 10
79.12346775921101
 20
228.4446845870952
 30
0.0
 11
79.12346775921101
 21
228.9911311965019
 31
0.0
1001
GENIUS_GENODEF_13
1002
{
1000
HIER
1070
     0
1002
}
1002
{
1000
MANEDIT
1070
     0
1002
}
1002
{
1000
NOSEL
1070
     0
1002
}
1002
{
1000
BEHIND
1070
     0
1002
}
1002
{
1000
OTHER
1070
     0
1002
}
1002
{
1000
REACTOR
1002
}
1001
GENIUS_GENOBJ-N-CEN_13
1002
{
1000
OWNER
1000
GEN
1002
}
1001
GENIUS_GENCEN_19
1002
{
1040
3.0
1002
}
  0
ARC
  5
BD7C
  8
D002
 10
78.513070209638
 20
228.5783054413718
 30
0.0
 40
0.1249999999999206
 50
45.00000000006909
 51
224.9999999999585
  0
LINE
  5
BD7D
  8
D002
 10
78.82346775921083
 20
228.4446845870952
 30
0.0
 11
78.60145855728611
 21
228.6666937890199
 31
0.0
  0
LINE
  5
BD7E
  8
D002
 10
78.82346775921083
 20
228.0911311965019
 30
0.0
 11
78.42468186198944
 21
228.4899170937233
 31
0.0
  0
LINE
  5
BD7F
  8
D002
 10
79.12346775921101
 20
227.391131196502
 30
0.0
 11
79.12346775921101
 21
228.0911311965019
 31
0.0
1001
GENIUS_GENODEF_13
1002
{
1000
HIER
1070
     0
1002
}
1002
{
1000
MANEDIT
1070
     0
1002
}
1002
{
1000
NOSEL
1070
     0
1002
}
1002
{
1000
BEHIND
1070
     0
1002
}
1002
{
1000
OTHER
1070
     0
1002
}
1002
{
1000
REACTOR
1002
}
1001
GENIUS_GENOBJ-N-CEN_13
1002
{
1000
OWNER
1000
GEN
1002
}
1001
GENIUS_GENCEN_19
1002
{
1040
3.0
1002
}
  0
LINE
  5
BD80
  8
D002
 10
78.82346775921083
 20
227.391131196502
 30
0.0
 11
78.82346775921083
 21
228.0911311965019
 31
0.0
1001
GENIUS_GENODEF_13
1002
{
1000
HIER
1070
     0
1002
}
1002
{
1000
MANEDIT
1070
     0
1002
}
1002
{
1000
NOSEL
1070
     0
1002
}
1002
{
1000
BEHIND
1070
     0
1002
}
1002
{
1000
OTHER
1070
     0
1002
}
1002
{
1000
REACTOR
1002
}
1001
GENIUS_GENOBJ-N-CEN_13
1002
{
1000
OWNER
1000
GEN
1002
}
1001
GENIUS_GENCEN_19
1002
{
1040
3.0
1002
}
  0
LINE
  5
BD81
  8
D002
 10
79.12346775921101
 20
223.3375778059086
 30
0.0
 11
79.34547696113573
 21
223.1155686039839
 31
0.0
  0
LINE
  5
BD82
  8
D002
 10
78.82346775921083
 20
224.391131196502
 30
0.0
 11
78.42764095426396
 21
223.9953043915549
 31
0.0
  0
ARC
  5
BD83
  8
D002
 10
78.97346775921092
 20
222.7911311965019
 30
0.0
 40
0.1499999999999773
 50
180.0
 51
0.0
  0
ARC
  5
BD84
  8
D002
 10
79.64429456415787
 20
224.1203043915549
 30
0.0
 40
0.1767766952966168
 50
224.9999999999968
 51
44.99999999999675
  0
ARC
  5
BD85
  8
D002
 10
78.30264095426396
 20
224.1203043915549
 30
0.0
 40
0.1767766952966168
 50
135.0000000000033
 51
315.0000000000032
  0
LINE
  5
BD86
  8
D002
 10
79.12346775921101
 20
224.391131196502
 30
0.0
 11
79.51929456415787
 21
223.9953043915549
 31
0.0
  0
LINE
  5
BD87
  8
D002
 10
78.82346775921083
 20
224.891131196502
 30
0.0
 11
78.17764095426396
 21
224.2453043915549
 31
0.0
  0
ARC
  5
BD88
  8
D002
 10
79.43386530878384
 20
223.2039569516321
 30
0.0
 40
0.1249999999999206
 50
225.0000000000691
 51
44.99999999995854
  0
LINE
  5
BD89
  8
D002
 10
78.82346775921083
 20
223.691131196502
 30
0.0
 11
78.42468186198944
 21
223.2923452992806
 31
0.0
  0
LINE
  5
BD8A
  8
D002
 10
79.12346775921101
 20
223.691131196502
 30
0.0
 11
79.5222536564324
 21
223.2923452992806
 31
0.0
  0
LINE
  5
BD8B
  8
D002
 10
79.12346775921101
 20
224.891131196502
 30
0.0
 11
79.76929456415787
 21
224.2453043915549
 31
0.0
  0
ARC
  5
BD8C
  8
D002
 10
78.513070209638
 20
223.2039569516321
 30
0.0
 40
0.1249999999999206
 50
134.9999999998941
 51
314.999999999894
  0
LINE
  5
BD8D
  8
D002
 10
78.82346775921083
 20
223.3375778059086
 30
0.0
 11
78.60145855728611
 21
223.1155686039839
 31
0.0
  0
LINE
  5
BD8E
  8
D002
 10
80.19750586488767
 20
226.7710350070696
 30
0.0
 11
80.3423885309971
 21
227.311744478126
 31
0.0
  0
ARC
  5
BD8F
  8
D002
 10
80.17163535552409
 20
227.3574976535992
 30
0.0
 40
0.1767766952966168
 50
344.9999999999747
 51
164.9999999999747
  0
LINE
  5
BD90
  8
D002
 10
76.8370256530372
 20
224.4844506906377
 30
0.0
 11
76.36378900747918
 21
224.2112273859343
 31
0.0
1001
GENIUS_GENODEF_13
1002
{
1000
HIER
1070
     0
1002
}
1002
{
1000
MANEDIT
1070
     0
1002
}
1002
{
1000
NOSEL
1070
     0
1002
}
1002
{
1000
BEHIND
1070
     0
1002
}
1002
{
1000
OTHER
1070
     0
1002
}
1002
{
1000
REACTOR
1002
}
1001
GENIUS_GENOBJ-N-CEN_13
1002
{
1000
OWNER
1000
GEN
1002
}
1001
GENIUS_GENCEN_19
1002
{
1040
3.0
1002
}
  0
LINE
  5
BD91
  8
D002
 10
79.91449316299527
 20
226.2612273859343
 30
0.0
 11
80.79670898499803
 21
226.0248383688787
 31
0.0
  0
LINE
  5
BD92
  8
D002
 10
80.95372364753662
 20
226.8612273859343
 30
0.0
 11
81.49847531381211
 21
226.7152616168803
 31
0.0
  0
LINE
  5
BD93
  8
D002
 10
81.2599098653845
 20
227.038004081231
 30
0.0
 11
81.56318007508771
 21
226.9567430734526
 31
0.0
  0
ARC
  5
BD94
  8
D002
 10
81.53082769444991
 20
226.8360023451666
 30
0.0
 40
0.1249999999999206
 50
254.9999999999954
 51
74.99999999999544
  0
LINE
  5
BD95
  8
D002
 10
80.80372364753676
 20
227.1210350070697
 30
0.0
 11
80.94968941659063
 21
227.665786673345
 31
0.0
  0
LINE
  5
BD96
  8
D002
 10
77.5994296535343
 20
225.2710350070696
 30
0.0
 11
76.99321187088522
 21
224.9210350070696
 31
0.0
1001
GENIUS_GENODEF_13
1002
{
1000
HIER
1070
     0
1002
}
1002
{
1000
MANEDIT
1070
     0
1002
}
1002
{
1000
NOSEL
1070
     0
1002
}
1002
{
1000
BEHIND
1070
     0
1002
}
1002
{
1000
OTHER
1070
     0
1002
}
1002
{
1000
REACTOR
1002
}
1001
GENIUS_GENOBJ-N-CEN_13
1002
{
1000
OWNER
1000
GEN
1002
}
1001
GENIUS_GENCEN_19
1002
{
1040
3.0
1002
}
  0
ARC
  5
BD97
  8
D002
 10
77.77530016289775
 20
224.4247647394048
 30
0.0
 40
0.1767766952966168
 50
164.9999999999747
 51
345.0000000000139
  0
LINE
  5
BD98
  8
D002
 10
77.5994296535343
 20
225.2710350070696
 30
0.0
 11
77.05872018247778
 21
225.4159176731791
 31
0.0
  0
ARC
  5
BD99
  8
D002
 10
81.6581465109427
 20
227.441131196502
 30
0.0
 40
0.1499999999999773
 50
300.0000000000254
 51
120.0000000000254
  0
LINE
  5
BD9A
  8
D002
 10
79.91449316299527
 20
226.2612273859343
 30
0.0
 11
79.57459277188464
 21
226.0649858036288
 31
0.0
1001
GENIUS_GENODEF_13
1002
{
1000
HIER
1070
     0
1002
}
1002
{
1000
MANEDIT
1070
     0
1002
}
1002
{
1000
NOSEL
1070
     0
1002
}
1002
{
1000
BEHIND
1070
     0
1002
}
1002
{
1000
OTHER
1070
     0
1002
}
1002
{
1000
REACTOR
1002
}
1001
GENIUS_GENOBJ-N-CEN_13
1002
{
1000
OWNER
1000
GEN
1002
}
1001
GENIUS_GENCEN_19
1002
{
1040
3.0
1002
}
  0
LINE
  5
BD9B
  8
D002
 10
79.76449316299541
 20
226.5210350070696
 30
0.0
 11
79.42459277188478
 21
226.3247934247642
 31
0.0
1001
GENIUS_GENODEF_13
1002
{
1000
HIER
1070
     0
1002
}
1002
{
1000
MANEDIT
1070
     0
1002
}
1002
{
1000
NOSEL
1070
     0
1002
}
1002
{
1000
BEHIND
1070
     0
1002
}
1002
{
1000
OTHER
1070
     0
1002
}
1002
{
1000
REACTOR
1002
}
1001
GENIUS_GENOBJ-N-CEN_13
1002
{
1000
OWNER
1000
GEN
1002
}
1001
GENIUS_GENCEN_19
1002
{
1040
3.0
1002
}
  0
LINE
  5
BD9C
  8
D002
 10
77.74942965353416
 20
225.0112273859343
 30
0.0
 11
77.60454698742474
 21
224.4705179148779
 31
0.0
  0
LINE
  5
BD9D
  8
D002
 10
78.18244235542643
 20
225.2612273859343
 30
0.0
 11
77.94605333837099
 21
224.3790115639318
 31
0.0
  0
LINE
  5
BD9E
  8
D002
 10
81.73314651094275
 20
227.3112273859344
 30
0.0
 11
81.2599098653845
 21
227.038004081231
 31
0.0
1001
GENIUS_GENODEF_13
1002
{
1000
HIER
1070
     0
1002
}
1002
{
1000
MANEDIT
1070
     0
1002
}
1002
{
1000
NOSEL
1070
     0
1002
}
1002
{
1000
BEHIND
1070
     0
1002
}
1002
{
1000
OTHER
1070
     0
1002
}
1002
{
1000
REACTOR
1002
}
1001
GENIUS_GENOBJ-N-CEN_13
1002
{
1000
OWNER
1000
GEN
1002
}
1001
GENIUS_GENCEN_19
1002
{
1040
3.0
1002
}
  0
ARC
  5
BD9F
  8
D002
 10
76.28878900747914
 20
224.3411311965019
 30
0.0
 40
0.1499999999999773
 50
120.0000000000254
 51
300.0000000000254
  0
ARC
  5
BDA0
  8
D002
 10
77.1044733579508
 20
225.5866708486521
 30
0.0
 40
0.1767766952966168
 50
75.0000000000127
 51
255.0000000000127
  0
LINE
  5
BDA1
  8
D002
 10
81.58314651094265
 20
227.5710350070697
 30
0.0
 11
81.10990986538464
 21
227.2978117023663
 31
0.0
1001
GENIUS_GENODEF_13
1002
{
1000
HIER
1070
     0
1002
}
1002
{
1000
MANEDIT
1070
     0
1002
}
1002
{
1000
NOSEL
1070
     0
1002
}
1002
{
1000
BEHIND
1070
     0
1002
}
1002
{
1000
OTHER
1070
     0
1002
}
1002
{
1000
REACTOR
1002
}
1001
GENIUS_GENOBJ-N-CEN_13
1002
{
1000
OWNER
1000
GEN
1002
}
1001
GENIUS_GENCEN_19
1002
{
1040
3.0
1002
}
  0
LINE
  5
BDA2
  8
D002
 10
80.80372364753676
 20
227.1210350070697
 30
0.0
 11
80.19750586488767
 21
226.7710350070696
 31
0.0
1001
GENIUS_GENODEF_13
1002
{
1000
HIER
1070
     0
1002
}
1002
{
1000
MANEDIT
1070
     0
1002
}
1002
{
1000
NOSEL
1070
     0
1002
}
1002
{
1000
BEHIND
1070
     0
1002
}
1002
{
1000
OTHER
1070
     0
1002
}
1002
{
1000
REACTOR
1002
}
1001
GENIUS_GENOBJ-N-CEN_13
1002
{
1000
OWNER
1000
GEN
1002
}
1001
GENIUS_GENCEN_19
1002
{
1040
3.0
1002
}
  0
LINE
  5
BDA3
  8
D002
 10
76.68702565303734
 20
224.7442583117731
 30
0.0
 11
76.2137890074791
 21
224.4710350070697
 31
0.0
1001
GENIUS_GENODEF_13
1002
{
1000
HIER
1070
     0
1002
}
1002
{
1000
MANEDIT
1070
     0
1002
}
1002
{
1000
NOSEL
1070
     0
1002
}
1002
{
1000
BEHIND
1070
     0
1002
}
1002
{
1000
OTHER
1070
     0
1002
}
1002
{
1000
REACTOR
1002
}
1001
GENIUS_GENOBJ-N-CEN_13
1002
{
1000
OWNER
1000
GEN
1002
}
1001
GENIUS_GENCEN_19
1002
{
1040
3.0
1002
}
  0
LINE
  5
BDA4
  8
D002
 10
80.95372364753662
 20
226.8612273859343
 30
0.0
 11
80.34750586488754
 21
226.5112273859343
 31
0.0
1001
GENIUS_GENODEF_13
1002
{
1000
HIER
1070
     0
1002
}
1002
{
1000
MANEDIT
1070
     0
1002
}
1002
{
1000
NOSEL
1070
     0
1002
}
1002
{
1000
BEHIND
1070
     0
1002
}
1002
{
1000
OTHER
1070
     0
1002
}
1002
{
1000
REACTOR
1002
}
1001
GENIUS_GENOBJ-N-CEN_13
1002
{
1000
OWNER
1000
GEN
1002
}
1001
GENIUS_GENCEN_19
1002
{
1040
3.0
1002
}
  0
LINE
  5
BDA5
  8
D002
 10
77.14321187088508
 20
224.6612273859343
 30
0.0
 11
76.99724610183121
 21
224.1164757196589
 31
0.0
  0
LINE
  5
BDA6
  8
D002
 10
76.8370256530372
 20
224.4844506906377
 30
0.0
 11
76.75576464525894
 21
224.1811804809346
 31
0.0
  0
ARC
  5
BDA7
  8
D002
 10
76.87650537354484
 20
224.1488281002967
 30
0.0
 40
0.1249999999999206
 50
164.9999999999954
 51
345.0000000001045
  0
LINE
  5
BDA8
  8
D002
 10
76.99321187088522
 20
224.9210350070696
 30
0.0
 11
76.44846020460973
 21
225.0670007761236
 31
0.0
  0
LINE
  5
BDA9
  8
D002
 10
76.68702565303734
 20
224.7442583117731
 30
0.0
 11
76.38375544333412
 21
224.8255193195513
 31
0.0
  0
LINE
  5
BDAA
  8
D002
 10
77.74942965353416
 20
225.0112273859343
 30
0.0
 11
77.14321187088508
 21
224.6612273859343
 31
0.0
1001
GENIUS_GENODEF_13
1002
{
1000
HIER
1070
     0
1002
}
1002
{
1000
MANEDIT
1070
     0
1002
}
1002
{
1000
NOSEL
1070
     0
1002
}
1002
{
1000
BEHIND
1070
     0
1002
}
1002
{
1000
OTHER
1070
     0
1002
}
1002
{
1000
REACTOR
1002
}
1001
GENIUS_GENOBJ-N-CEN_13
1002
{
1000
OWNER
1000
GEN
1002
}
1001
GENIUS_GENCEN_19
1002
{
1040
3.0
1002
}
  0
LINE
  5
BDAB
  8
D002
 10
78.03244235542657
 20
225.5210350070696
 30
0.0
 11
77.1502265334238
 21
225.7574240241252
 31
0.0
  0
ARC
  5
BDAC
  8
D002
 10
76.41610782397193
 20
224.9462600478373
 30
0.0
 40
0.1249999999999206
 50
74.99999999999544
 51
254.9999999999954
  0
LINE
  5
BDAD
  8
D002
 10
80.34750586488754
 20
226.5112273859343
 30
0.0
 11
80.88821533594405
 21
226.3663447198249
 31
0.0
  0
ARC
  5
BDAE
  8
D002
 10
80.84246216047104
 20
226.1955915443519
 30
0.0
 40
0.1767766952966168
 50
255.0000000000127
 51
75.0000000000127
  0
LINE
  5
BDAF
  8
D002
 10
79.76449316299541
 20
226.5210350070696
 30
0.0
 11
80.00088218005108
 21
227.4032508290722
 31
0.0
  0
LINE
  5
BDB0
  8
D002
 10
78.82346775921083
 20
224.891131196502
 30
0.0
 11
78.82346775921083
 21
225.2836143611127
 31
0.0
1001
GENIUS_GENODEF_13
1002
{
1000
HIER
1070
     0
1002
}
1002
{
1000
MANEDIT
1070
     0
1002
}
1002
{
1000
NOSEL
1070
     0
1002
}
1002
{
1000
BEHIND
1070
     0
1002
}
1002
{
1000
OTHER
1070
     0
1002
}
1002
{
1000
REACTOR
1002
}
1001
GENIUS_GENOBJ-N-CEN_13
1002
{
1000
OWNER
1000
GEN
1002
}
1001
GENIUS_GENCEN_19
1002
{
1040
3.0
1002
}
  0
LINE
  5
BDB1
  8
D002
 10
81.10990986538464
 20
227.2978117023663
 30
0.0
 11
81.1911708731629
 21
227.6010819120693
 31
0.0
  0
ARC
  5
BDB2
  8
D002
 10
81.070430144877
 20
227.6334342927072
 30
0.0
 40
0.1249999999999206
 50
344.9999999999954
 51
165.0000000001046
  0
LINE
  5
BDB3
  8
D002
 10
76.8370256530372
 20
227.2978117023663
 30
0.0
 11
76.75576464525894
 21
227.6010819120694
 31
0.0
  0
LINE
  5
BDB4
  8
D002
 10
76.99321187088522
 20
226.8612273859343
 30
0.0
 11
76.44846020460973
 21
226.7152616168803
 31
0.0
  0
LINE
  5
BDB5
  8
D002
 10
76.68702565303734
 20
227.038004081231
 30
0.0
 11
76.38375544333412
 21
226.9567430734527
 31
0.0
  0
LINE
  5
BDB6
  8
D002
 10
80.80372364753676
 20
224.6612273859344
 30
0.0
 11
80.19750586488767
 21
225.0112273859344
 31
0.0
1001
GENIUS_GENODEF_13
1002
{
1000
HIER
1070
     0
1002
}
1002
{
1000
MANEDIT
1070
     0
1002
}
1002
{
1000
NOSEL
1070
     0
1002
}
1002
{
1000
BEHIND
1070
     0
1002
}
1002
{
1000
OTHER
1070
     0
1002
}
1002
{
1000
REACTOR
1002
}
1001
GENIUS_GENOBJ-N-CEN_13
1002
{
1000
OWNER
1000
GEN
1002
}
1001
GENIUS_GENCEN_19
1002
{
1040
3.0
1002
}
  0
LINE
  5
BDB7
  8
D002
 10
80.95372364753662
 20
224.9210350070697
 30
0.0
 11
80.34750586488754
 21
225.2710350070697
 31
0.0
1001
GENIUS_GENODEF_13
1002
{
1000
HIER
1070
     0
1002
}
1002
{
1000
MANEDIT
1070
     0
1002
}
1002
{
1000
NOSEL
1070
     0
1002
}
1002
{
1000
BEHIND
1070
     0
1002
}
1002
{
1000
OTHER
1070
     0
1002
}
1002
{
1000
REACTOR
1002
}
1001
GENIUS_GENOBJ-N-CEN_13
1002
{
1000
OWNER
1000
GEN
1002
}
1001
GENIUS_GENCEN_19
1002
{
1040
3.0
1002
}
  0
ARC
  5
BDB8
  8
D002
 10
76.87650537354484
 20
227.6334342927072
 30
0.0
 40
0.1249999999999206
 50
14.99999999995087
 51
194.9999999999509
  0
ARC
  5
BDB9
  8
D002
 10
76.41610782397193
 20
226.8360023451666
 30
0.0
 40
0.1249999999999206
 50
105.0000000000046
 51
285.0000000000046
  0
LINE
  5
BDBA
  8
D002
 10
79.76449316299541
 20
225.2612273859344
 30
0.0
 11
79.42459277188478
 21
225.4574689682397
 31
0.0
1001
GENIUS_GENODEF_13
1002
{
1000
HIER
1070
     0
1002
}
1002
{
1000
MANEDIT
1070
     0
1002
}
1002
{
1000
NOSEL
1070
     0
1002
}
1002
{
1000
BEHIND
1070
     0
1002
}
1002
{
1000
OTHER
1070
     0
1002
}
1002
{
1000
REACTOR
1002
}
1001
GENIUS_GENOBJ-N-CEN_13
1002
{
1000
OWNER
1000
GEN
1002
}
1001
GENIUS_GENCEN_19
1002
{
1040
3.0
1002
}
  0
LINE
  5
BDBB
  8
D002
 10
76.8370256530372
 20
227.2978117023663
 30
0.0
 11
76.36378900747918
 21
227.5710350070697
 31
0.0
1001
GENIUS_GENODEF_13
1002
{
1000
HIER
1070
     0
1002
}
1002
{
1000
MANEDIT
1070
     0
1002
}
1002
{
1000
NOSEL
1070
     0
1002
}
1002
{
1000
BEHIND
1070
     0
1002
}
1002
{
1000
OTHER
1070
     0
1002
}
1002
{
1000
REACTOR
1002
}
1001
GENIUS_GENOBJ-N-CEN_13
1002
{
1000
OWNER
1000
GEN
1002
}
1001
GENIUS_GENCEN_19
1002
{
1040
3.0
1002
}
  0
LINE
  5
BDBC
  8
D002
 10
77.74942965353416
 20
226.7710350070697
 30
0.0
 11
77.60454698742474
 21
227.3117444781261
 31
0.0
  0
LINE
  5
BDBD
  8
D002
 10
79.91449316299527
 20
225.5210350070697
 30
0.0
 11
80.79670898499803
 21
225.7574240241252
 31
0.0
  0
ARC
  5
BDBE
  8
D002
 10
77.77530016289775
 20
227.3574976535992
 30
0.0
 40
0.1767766952966168
 50
15.00000000002528
 51
194.9999999999861
  0
LINE
  5
BDBF
  8
D002
 10
81.58314651094265
 20
224.2112273859343
 30
0.0
 11
81.10990986538464
 21
224.4844506906377
 31
0.0
1001
GENIUS_GENODEF_13
1002
{
1000
HIER
1070
     0
1002
}
1002
{
1000
MANEDIT
1070
     0
1002
}
1002
{
1000
NOSEL
1070
     0
1002
}
1002
{
1000
BEHIND
1070
     0
1002
}
1002
{
1000
OTHER
1070
     0
1002
}
1002
{
1000
REACTOR
1002
}
1001
GENIUS_GENOBJ-N-CEN_13
1002
{
1000
OWNER
1000
GEN
1002
}
1001
GENIUS_GENCEN_19
1002
{
1040
3.0
1002
}
  0
LINE
  5
BDC0
  8
D002
 10
78.03244235542657
 20
226.2612273859344
 30
0.0
 11
77.1502265334238
 21
226.0248383688788
 31
0.0
  0
LINE
  5
BDC1
  8
D002
 10
79.91449316299527
 20
225.5210350070697
 30
0.0
 11
79.57459277188464
 21
225.7172765893751
 31
0.0
1001
GENIUS_GENODEF_13
1002
{
1000
HIER
1070
     0
1002
}
1002
{
1000
MANEDIT
1070
     0
1002
}
1002
{
1000
NOSEL
1070
     0
1002
}
1002
{
1000
BEHIND
1070
     0
1002
}
1002
{
1000
OTHER
1070
     0
1002
}
1002
{
1000
REACTOR
1002
}
1001
GENIUS_GENOBJ-N-CEN_13
1002
{
1000
OWNER
1000
GEN
1002
}
1001
GENIUS_GENCEN_19
1002
{
1040
3.0
1002
}
  0
LINE
  5
BDC2
  8
D002
 10
81.73314651094275
 20
224.4710350070697
 30
0.0
 11
81.2599098653845
 21
224.7442583117731
 31
0.0
1001
GENIUS_GENODEF_13
1002
{
1000
HIER
1070
     0
1002
}
1002
{
1000
MANEDIT
1070
     0
1002
}
1002
{
1000
NOSEL
1070
     0
1002
}
1002
{
1000
BEHIND
1070
     0
1002
}
1002
{
1000
OTHER
1070
     0
1002
}
1002
{
1000
REACTOR
1002
}
1001
GENIUS_GENOBJ-N-CEN_13
1002
{
1000
OWNER
1000
GEN
1002
}
1001
GENIUS_GENCEN_19
1002
{
1040
3.0
1002
}
  0
LINE
  5
BDC3
  8
D002
 10
77.14321187088508
 20
227.1210350070697
 30
0.0
 11
76.99724610183121
 21
227.665786673345
 31
0.0
  0
ARC
  5
BDC4
  8
D002
 10
77.1044733579508
 20
226.1955915443519
 30
0.0
 40
0.1767766952966168
 50
104.9999999999873
 51
284.9999999999873
  0
ARC
  5
BDC5
  8
D002
 10
76.28878900747914
 20
227.4411311965021
 30
0.0
 40
0.1499999999999773
 50
59.99999999997465
 51
239.9999999999746
  0
LINE
  5
BDC6
  8
D002
 10
80.34750586488754
 20
225.2710350070697
 30
0.0
 11
80.88821533594405
 21
225.4159176731791
 31
0.0
  0
LINE
  5
BDC7
  8
D002
 10
77.74942965353416
 20
226.7710350070697
 30
0.0
 11
77.14321187088508
 21
227.1210350070697
 31
0.0
1001
GENIUS_GENODEF_13
1002
{
1000
HIER
1070
     0
1002
}
1002
{
1000
MANEDIT
1070
     0
1002
}
1002
{
1000
NOSEL
1070
     0
1002
}
1002
{
1000
BEHIND
1070
     0
1002
}
1002
{
1000
OTHER
1070
     0
1002
}
1002
{
1000
REACTOR
1002
}
1001
GENIUS_GENOBJ-N-CEN_13
1002
{
1000
OWNER
1000
GEN
1002
}
1001
GENIUS_GENCEN_19
1002
{
1040
3.0
1002
}
  0
ARC
  5
BDC8
  8
D002
 10
81.6581465109427
 20
224.3411311965021
 30
0.0
 40
0.1499999999999773
 50
239.9999999999746
 51
59.99999999997465
  0
ARC
  5
BDC9
  8
D002
 10
80.84246216047104
 20
225.5866708486522
 30
0.0
 40
0.1767766952966168
 50
284.9999999999873
 51
104.9999999999873
  0
LINE
  5
BDCA
  8
D002
 10
79.76449316299541
 20
225.2612273859344
 30
0.0
 11
80.00088218005108
 21
224.3790115639318
 31
0.0
  0
LINE
  5
BDCB
  8
D002
 10
76.68702565303734
 20
227.038004081231
 30
0.0
 11
76.2137890074791
 21
227.3112273859344
 31
0.0
1001
GENIUS_GENODEF_13
1002
{
1000
HIER
1070
     0
1002
}
1002
{
1000
MANEDIT
1070
     0
1002
}
1002
{
1000
NOSEL
1070
     0
1002
}
1002
{
1000
BEHIND
1070
     0
1002
}
1002
{
1000
OTHER
1070
     0
1002
}
1002
{
1000
REACTOR
1002
}
1001
GENIUS_GENOBJ-N-CEN_13
1002
{
1000
OWNER
1000
GEN
1002
}
1001
GENIUS_GENCEN_19
1002
{
1040
3.0
1002
}
  0
LINE
  5
BDCC
  8
D002
 10
80.19750586488767
 20
225.0112273859344
 30
0.0
 11
80.3423885309971
 21
224.4705179148779
 31
0.0
  0
LINE
  5
BDCD
  8
D002
 10
77.5994296535343
 20
226.5112273859344
 30
0.0
 11
77.05872018247778
 21
226.366344719825
 31
0.0
  0
LINE
  5
BDCE
  8
D002
 10
78.18244235542643
 20
226.5210350070697
 30
0.0
 11
77.94605333837099
 21
227.4032508290723
 31
0.0
  0
ARC
  5
BDCF
  8
D002
 10
80.17163535552409
 20
224.4247647394049
 30
0.0
 40
0.1767766952966168
 50
195.0000000000253
 51
14.99999999998613
  0
LINE
  5
BDD0
  8
D002
 10
77.5994296535343
 20
226.5112273859344
 30
0.0
 11
76.99321187088522
 21
226.8612273859343
 31
0.0
1001
GENIUS_GENODEF_13
1002
{
1000
HIER
1070
     0
1002
}
1002
{
1000
MANEDIT
1070
     0
1002
}
1002
{
1000
NOSEL
1070
     0
1002
}
1002
{
1000
BEHIND
1070
     0
1002
}
1002
{
1000
OTHER
1070
     0
1002
}
1002
{
1000
REACTOR
1002
}
1001
GENIUS_GENOBJ-N-CEN_13
1002
{
1000
OWNER
1000
GEN
1002
}
1001
GENIUS_GENCEN_19
1002
{
1040
3.0
1002
}
  0
LINE
  5
BDD6
  8
D002
 10
78.3723427465372
 20
226.064985803629
 30
0.0
 11
78.03244235542657
 21
226.2612273859344
 31
0.0
1001
GENIUS_GENODEF_13
1002
{
1000
HIER
1070
     0
1002
}
1002
{
1000
MANEDIT
1070
     0
1002
}
1002
{
1000
NOSEL
1070
     0
1002
}
1002
{
1000
BEHIND
1070
     0
1002
}
1002
{
1000
OTHER
1070
     0
1002
}
1002
{
1000
REACTOR
1002
}
1001
GENIUS_GENOBJ-N-CEN_13
1002
{
1000
OWNER
1000
GEN
1002
}
1001
GENIUS_GENCEN_19
1002
{
1040
3.0
1002
}
  0
LINE
  5
BDD7
  8
D002
 10
78.52234274653706
 20
225.4574689682396
 30
0.0
 11
78.18244235542643
 21
225.2612273859343
 31
0.0
1001
GENIUS_GENODEF_13
1002
{
1000
HIER
1070
     0
1002
}
1002
{
1000
MANEDIT
1070
     0
1002
}
1002
{
1000
NOSEL
1070
     0
1002
}
1002
{
1000
BEHIND
1070
     0
1002
}
1002
{
1000
OTHER
1070
     0
1002
}
1002
{
1000
REACTOR
1002
}
1001
GENIUS_GENOBJ-N-CEN_13
1002
{
1000
OWNER
1000
GEN
1002
}
1001
GENIUS_GENCEN_19
1002
{
1040
3.0
1002
}
  0
LINE
  5
BDD8
  8
D002
 10
79.12346775921101
 20
226.4986480318912
 30
0.0
 11
79.12346775921101
 21
226.891131196502
 31
0.0
1001
GENIUS_GENODEF_13
1002
{
1000
HIER
1070
     0
1002
}
1002
{
1000
MANEDIT
1070
     0
1002
}
1002
{
1000
NOSEL
1070
     0
1002
}
1002
{
1000
BEHIND
1070
     0
1002
}
1002
{
1000
OTHER
1070
     0
1002
}
1002
{
1000
REACTOR
1002
}
1001
GENIUS_GENOBJ-N-CEN_13
1002
{
1000
OWNER
1000
GEN
1002
}
1001
GENIUS_GENCEN_19
1002
{
1040
3.0
1002
}
  0
LINE
  5
BDD9
  8
D002
 10
78.3723427465372
 20
225.717276589375
 30
0.0
 11
78.03244235542657
 21
225.5210350070696
 31
0.0
1001
GENIUS_GENODEF_13
1002
{
1000
HIER
1070
     0
1002
}
1002
{
1000
MANEDIT
1070
     0
1002
}
1002
{
1000
NOSEL
1070
     0
1002
}
1002
{
1000
BEHIND
1070
     0
1002
}
1002
{
1000
OTHER
1070
     0
1002
}
1002
{
1000
REACTOR
1002
}
1001
GENIUS_GENOBJ-N-CEN_13
1002
{
1000
OWNER
1000
GEN
1002
}
1001
GENIUS_GENCEN_19
1002
{
1040
3.0
1002
}
  0
LINE
  5
BDDA
  8
D002
 10
78.52234274653729
 20
226.3247934247643
 30
0.0
 11
78.18244235542643
 21
226.5210350070697
 31
0.0
1001
GENIUS_GENODEF_13
1002
{
1000
HIER
1070
     0
1002
}
1002
{
1000
MANEDIT
1070
     0
1002
}
1002
{
1000
NOSEL
1070
     0
1002
}
1002
{
1000
BEHIND
1070
     0
1002
}
1002
{
1000
OTHER
1070
     0
1002
}
1002
{
1000
REACTOR
1002
}
1001
GENIUS_GENOBJ-N-CEN_13
1002
{
1000
OWNER
1000
GEN
1002
}
1001
GENIUS_GENCEN_19
1002
{
1040
3.0
1002
}
  0
LINE
  5
BDDB
  8
D002
 10
78.82346775921083
 20
226.4986480318912
 30
0.0
 11
78.82346775921083
 21
226.891131196502
 31
0.0
1001
GENIUS_GENODEF_13
1002
{
1000
HIER
1070
     0
1002
}
1002
{
1000
MANEDIT
1070
     0
1002
}
1002
{
1000
NOSEL
1070
     0
1002
}
1002
{
1000
BEHIND
1070
     0
1002
}
1002
{
1000
OTHER
1070
     0
1002
}
1002
{
1000
REACTOR
1002
}
1001
GENIUS_GENOBJ-N-CEN_13
1002
{
1000
OWNER
1000
GEN
1002
}
1001
GENIUS_GENCEN_19
1002
{
1040
3.0
1002
}
  0
POINT
  5
BDDC
  8
D002
 10
78.97346775921092
 20
225.891131196502
 30
0.0
  0
LINE
  5
BDE0
  8
D002
 10
78.82346775921083
 20
202.7911311965015
 30
0.0
 11
78.82346775921083
 21
203.3375778059083
 31
0.0
1001
GENIUS_GENODEF_13
1002
{
1000
HIER
1070
     0
1002
}
1002
{
1000
MANEDIT
1070
     0
1002
}
1002
{
1000
NOSEL
1070
     0
1002
}
1002
{
1000
BEHIND
1070
     0
1002
}
1002
{
1000
OTHER
1070
     0
1002
}
1002
{
1000
REACTOR
1002
}
1001
GENIUS_GENOBJ-N-CEN_13
1002
{
1000
OWNER
1000
GEN
1002
}
1001
GENIUS_GENCEN_19
1002
{
1040
3.0
1002
}
  0
LINE
  5
BDE1
  8
D002
 10
79.12346775921101
 20
202.7911311965015
 30
0.0
 11
79.12346775921101
 21
203.3375778059083
 31
0.0
1001
GENIUS_GENODEF_13
1002
{
1000
HIER
1070
     0
1002
}
1002
{
1000
MANEDIT
1070
     0
1002
}
1002
{
1000
NOSEL
1070
     0
1002
}
1002
{
1000
BEHIND
1070
     0
1002
}
1002
{
1000
OTHER
1070
     0
1002
}
1002
{
1000
REACTOR
1002
}
1001
GENIUS_GENOBJ-N-CEN_13
1002
{
1000
OWNER
1000
GEN
1002
}
1001
GENIUS_GENCEN_19
1002
{
1040
3.0
1002
}
  0
LINE
  5
BDE2
  8
D002
 10
79.12346775921101
 20
206.8911311965017
 30
0.0
 11
79.76929456415787
 21
207.5369580014487
 31
0.0
  0
LINE
  5
BDE3
  8
D002
 10
79.12346775921101
 20
207.3911311965017
 30
0.0
 11
79.51929456415787
 21
207.7869580014487
 31
0.0
  0
ARC
  5
BDE4
  8
D002
 10
78.97346775921092
 20
208.9911311965016
 30
0.0
 40
0.1499999999999773
 50
0.0
 51
180.0
  0
ARC
  5
BDE5
  8
D002
 10
79.64429456415787
 20
207.6619580014487
 30
0.0
 40
0.1767766952966168
 50
315.0000000000293
 51
135.0000000000033
  0
LINE
  5
BDE6
  8
D002
 10
78.82346775921083
 20
206.8911311965017
 30
0.0
 11
78.17764095426396
 21
207.5369580014487
 31
0.0
  0
LINE
  5
BDE7
  8
D002
 10
78.82346775921083
 20
207.3911311965017
 30
0.0
 11
78.42764095426396
 21
207.7869580014487
 31
0.0
  0
ARC
  5
BDE8
  8
D002
 10
78.30264095426396
 20
207.6619580014487
 30
0.0
 40
0.1767766952966168
 50
44.99999999999675
 51
224.9999999999707
  0
LINE
  5
BDE9
  8
D002
 10
79.12346775921101
 20
208.0911311965016
 30
0.0
 11
79.5222536564324
 21
208.489917093723
 31
0.0
  0
LINE
  5
BDEA
  8
D002
 10
79.12346775921101
 20
208.4446845870948
 30
0.0
 11
79.34547696113573
 21
208.6666937890195
 31
0.0
  0
ARC
  5
BDEB
  8
D002
 10
79.43386530878384
 20
208.5783054413714
 30
0.0
 40
0.1249999999999206
 50
314.999999999894
 51
134.9999999999309
  0
LINE
  5
BDEC
  8
D002
 10
80.80372364753676
 20
204.661227385934
 30
0.0
 11
80.94968941659063
 21
204.1164757196587
 31
0.0
  0
LINE
  5
BDED
  8
D002
 10
81.10990986538464
 20
204.4844506906374
 30
0.0
 11
81.1911708731629
 21
204.1811804809344
 31
0.0
  0
ARC
  5
BDEE
  8
D002
 10
81.53082769444991
 20
204.9462600478371
 30
0.0
 40
0.1249999999999206
 50
285.0000000000046
 51
105.0000000000046
  0
LINE
  5
BDEF
  8
D002
 10
79.12346775921101
 20
204.8911311965017
 30
0.0
 11
79.12346775921101
 21
205.2836143611123
 31
0.0
1001
GENIUS_GENODEF_13
1002
{
1000
HIER
1070
     0
1002
}
1002
{
1000
MANEDIT
1070
     0
1002
}
1002
{
1000
NOSEL
1070
     0
1002
}
1002
{
1000
BEHIND
1070
     0
1002
}
1002
{
1000
OTHER
1070
     0
1002
}
1002
{
1000
REACTOR
1002
}
1001
GENIUS_GENOBJ-N-CEN_13
1002
{
1000
OWNER
1000
GEN
1002
}
1001
GENIUS_GENCEN_19
1002
{
1040
3.0
1002
}
  0
LINE
  5
BDF0
  8
D002
 10
81.2599098653845
 20
204.7442583117727
 30
0.0
 11
81.56318007508771
 21
204.8255193195511
 31
0.0
  0
ARC
  5
BDF1
  8
D002
 10
81.070430144877
 20
204.1488281002965
 30
0.0
 40
0.1249999999999206
 50
194.9999999999509
 51
15.00000000000457
  0
LINE
  5
BDF2
  8
D002
 10
80.95372364753662
 20
204.9210350070694
 30
0.0
 11
81.49847531381211
 21
205.0670007761234
 31
0.0
  0
LINE
  5
BDF3
  8
D002
 10
79.12346775921101
 20
203.6911311965016
 30
0.0
 11
79.12346775921101
 21
204.3911311965017
 31
0.0
1001
GENIUS_GENODEF_13
1002
{
1000
HIER
1070
     0
1002
}
1002
{
1000
MANEDIT
1070
     0
1002
}
1002
{
1000
NOSEL
1070
     0
1002
}
1002
{
1000
BEHIND
1070
     0
1002
}
1002
{
1000
OTHER
1070
     0
1002
}
1002
{
1000
REACTOR
1002
}
1001
GENIUS_GENOBJ-N-CEN_13
1002
{
1000
OWNER
1000
GEN
1002
}
1001
GENIUS_GENCEN_19
1002
{
1040
3.0
1002
}
  0
LINE
  5
BDF4
  8
D002
 10
78.82346775921083
 20
203.6911311965016
 30
0.0
 11
78.82346775921083
 21
204.3911311965017
 31
0.0
1001
GENIUS_GENODEF_13
1002
{
1000
HIER
1070
     0
1002
}
1002
{
1000
MANEDIT
1070
     0
1002
}
1002
{
1000
NOSEL
1070
     0
1002
}
1002
{
1000
BEHIND
1070
     0
1002
}
1002
{
1000
OTHER
1070
     0
1002
}
1002
{
1000
REACTOR
1002
}
1001
GENIUS_GENOBJ-N-CEN_13
1002
{
1000
OWNER
1000
GEN
1002
}
1001
GENIUS_GENCEN_19
1002
{
1040
3.0
1002
}
  0
LINE
  5
BDF5
  8
D002
 10
78.82346775921083
 20
208.4446845870948
 30
0.0
 11
78.82346775921083
 21
208.9911311965016
 31
0.0
1001
GENIUS_GENODEF_13
1002
{
1000
HIER
1070
     0
1002
}
1002
{
1000
MANEDIT
1070
     0
1002
}
1002
{
1000
NOSEL
1070
     0
1002
}
1002
{
1000
BEHIND
1070
     0
1002
}
1002
{
1000
OTHER
1070
     0
1002
}
1002
{
1000
REACTOR
1002
}
1001
GENIUS_GENOBJ-N-CEN_13
1002
{
1000
OWNER
1000
GEN
1002
}
1001
GENIUS_GENCEN_19
1002
{
1040
3.0
1002
}
  0
LINE
  5
BDF6
  8
D002
 10
79.12346775921101
 20
208.4446845870948
 30
0.0
 11
79.12346775921101
 21
208.9911311965016
 31
0.0
1001
GENIUS_GENODEF_13
1002
{
1000
HIER
1070
     0
1002
}
1002
{
1000
MANEDIT
1070
     0
1002
}
1002
{
1000
NOSEL
1070
     0
1002
}
1002
{
1000
BEHIND
1070
     0
1002
}
1002
{
1000
OTHER
1070
     0
1002
}
1002
{
1000
REACTOR
1002
}
1001
GENIUS_GENOBJ-N-CEN_13
1002
{
1000
OWNER
1000
GEN
1002
}
1001
GENIUS_GENCEN_19
1002
{
1040
3.0
1002
}
  0
ARC
  5
BDF7
  8
D002
 10
78.513070209638
 20
208.5783054413714
 30
0.0
 40
0.1249999999999206
 50
45.00000000006909
 51
224.9999999999585
  0
LINE
  5
BDF8
  8
D002
 10
78.82346775921083
 20
208.4446845870948
 30
0.0
 11
78.60145855728611
 21
208.6666937890195
 31
0.0
  0
LINE
  5
BDF9
  8
D002
 10
78.82346775921083
 20
208.0911311965016
 30
0.0
 11
78.42468186198944
 21
208.489917093723
 31
0.0
  0
LINE
  5
BDFA
  8
D002
 10
79.12346775921101
 20
207.3911311965017
 30
0.0
 11
79.12346775921101
 21
208.0911311965016
 31
0.0
1001
GENIUS_GENODEF_13
1002
{
1000
HIER
1070
     0
1002
}
1002
{
1000
MANEDIT
1070
     0
1002
}
1002
{
1000
NOSEL
1070
     0
1002
}
1002
{
1000
BEHIND
1070
     0
1002
}
1002
{
1000
OTHER
1070
     0
1002
}
1002
{
1000
REACTOR
1002
}
1001
GENIUS_GENOBJ-N-CEN_13
1002
{
1000
OWNER
1000
GEN
1002
}
1001
GENIUS_GENCEN_19
1002
{
1040
3.0
1002
}
  0
LINE
  5
BDFB
  8
D002
 10
78.82346775921083
 20
207.3911311965017
 30
0.0
 11
78.82346775921083
 21
208.0911311965016
 31
0.0
1001
GENIUS_GENODEF_13
1002
{
1000
HIER
1070
     0
1002
}
1002
{
1000
MANEDIT
1070
     0
1002
}
1002
{
1000
NOSEL
1070
     0
1002
}
1002
{
1000
BEHIND
1070
     0
1002
}
1002
{
1000
OTHER
1070
     0
1002
}
1002
{
1000
REACTOR
1002
}
1001
GENIUS_GENOBJ-N-CEN_13
1002
{
1000
OWNER
1000
GEN
1002
}
1001
GENIUS_GENCEN_19
1002
{
1040
3.0
1002
}
  0
LINE
  5
BDFC
  8
D002
 10
79.12346775921101
 20
203.3375778059083
 30
0.0
 11
79.34547696113573
 21
203.1155686039836
 31
0.0
  0
LINE
  5
BDFD
  8
D002
 10
78.82346775921083
 20
204.3911311965017
 30
0.0
 11
78.42764095426396
 21
203.9953043915546
 31
0.0
  0
ARC
  5
BDFE
  8
D002
 10
78.97346775921092
 20
202.7911311965015
 30
0.0
 40
0.1499999999999773
 50
180.0
 51
0.0
  0
ARC
  5
BDFF
  8
D002
 10
79.64429456415787
 20
204.1203043915546
 30
0.0
 40
0.1767766952966168
 50
224.9999999999968
 51
44.99999999999675
  0
ARC
  5
BE00
  8
D002
 10
78.30264095426396
 20
204.1203043915546
 30
0.0
 40
0.1767766952966168
 50
135.0000000000033
 51
315.0000000000032
  0
LINE
  5
BE01
  8
D002
 10
79.12346775921101
 20
204.3911311965017
 30
0.0
 11
79.51929456415787
 21
203.9953043915546
 31
0.0
  0
LINE
  5
BE02
  8
D002
 10
78.82346775921083
 20
204.8911311965017
 30
0.0
 11
78.17764095426396
 21
204.2453043915546
 31
0.0
  0
ARC
  5
BE03
  8
D002
 10
79.43386530878384
 20
203.2039569516318
 30
0.0
 40
0.1249999999999206
 50
225.0000000000691
 51
44.99999999995854
  0
LINE
  5
BE04
  8
D002
 10
78.82346775921083
 20
203.6911311965016
 30
0.0
 11
78.42468186198944
 21
203.2923452992802
 31
0.0
  0
LINE
  5
BE05
  8
D002
 10
79.12346775921101
 20
203.6911311965016
 30
0.0
 11
79.5222536564324
 21
203.2923452992802
 31
0.0
  0
LINE
  5
BE06
  8
D002
 10
79.12346775921101
 20
204.8911311965017
 30
0.0
 11
79.76929456415787
 21
204.2453043915546
 31
0.0
  0
ARC
  5
BE07
  8
D002
 10
78.513070209638
 20
203.2039569516318
 30
0.0
 40
0.1249999999999206
 50
134.9999999998941
 51
314.999999999894
  0
LINE
  5
BE08
  8
D002
 10
78.82346775921083
 20
203.3375778059083
 30
0.0
 11
78.60145855728611
 21
203.1155686039836
 31
0.0
  0
LINE
  5
BE09
  8
D002
 10
80.19750586488767
 20
206.7710350070693
 30
0.0
 11
80.3423885309971
 21
207.3117444781257
 31
0.0
  0
ARC
  5
BE0A
  8
D002
 10
80.17163535552409
 20
207.3574976535988
 30
0.0
 40
0.1767766952966168
 50
344.9999999999747
 51
164.9999999999747
  0
LINE
  5
BE0B
  8
D002
 10
76.8370256530372
 20
204.4844506906374
 30
0.0
 11
76.36378900747918
 21
204.211227385934
 31
0.0
1001
GENIUS_GENODEF_13
1002
{
1000
HIER
1070
     0
1002
}
1002
{
1000
MANEDIT
1070
     0
1002
}
1002
{
1000
NOSEL
1070
     0
1002
}
1002
{
1000
BEHIND
1070
     0
1002
}
1002
{
1000
OTHER
1070
     0
1002
}
1002
{
1000
REACTOR
1002
}
1001
GENIUS_GENOBJ-N-CEN_13
1002
{
1000
OWNER
1000
GEN
1002
}
1001
GENIUS_GENCEN_19
1002
{
1040
3.0
1002
}
  0
LINE
  5
BE0C
  8
D002
 10
79.91449316299527
 20
206.2612273859339
 30
0.0
 11
80.79670898499803
 21
206.0248383688784
 31
0.0
  0
LINE
  5
BE0D
  8
D002
 10
80.95372364753662
 20
206.861227385934
 30
0.0
 11
81.49847531381211
 21
206.71526161688
 31
0.0
  0
LINE
  5
BE0E
  8
D002
 10
81.2599098653845
 20
207.0380040812306
 30
0.0
 11
81.56318007508771
 21
206.9567430734523
 31
0.0
  0
ARC
  5
BE0F
  8
D002
 10
81.53082769444991
 20
206.8360023451662
 30
0.0
 40
0.1249999999999206
 50
254.9999999999954
 51
74.99999999999544
  0
LINE
  5
BE10
  8
D002
 10
80.80372364753676
 20
207.1210350070693
 30
0.0
 11
80.94968941659063
 21
207.6657866733447
 31
0.0
  0
LINE
  5
BE11
  8
D002
 10
77.5994296535343
 20
205.2710350070693
 30
0.0
 11
76.99321187088522
 21
204.9210350070693
 31
0.0
1001
GENIUS_GENODEF_13
1002
{
1000
HIER
1070
     0
1002
}
1002
{
1000
MANEDIT
1070
     0
1002
}
1002
{
1000
NOSEL
1070
     0
1002
}
1002
{
1000
BEHIND
1070
     0
1002
}
1002
{
1000
OTHER
1070
     0
1002
}
1002
{
1000
REACTOR
1002
}
1001
GENIUS_GENOBJ-N-CEN_13
1002
{
1000
OWNER
1000
GEN
1002
}
1001
GENIUS_GENCEN_19
1002
{
1040
3.0
1002
}
  0
ARC
  5
BE12
  8
D002
 10
77.77530016289775
 20
204.4247647394044
 30
0.0
 40
0.1767766952966168
 50
164.9999999999747
 51
345.0000000000139
  0
LINE
  5
BE13
  8
D002
 10
77.5994296535343
 20
205.2710350070693
 30
0.0
 11
77.05872018247778
 21
205.4159176731787
 31
0.0
  0
ARC
  5
BE14
  8
D002
 10
81.6581465109427
 20
207.4411311965016
 30
0.0
 40
0.1499999999999773
 50
300.0000000000254
 51
120.0000000000254
  0
LINE
  5
BE15
  8
D002
 10
79.91449316299527
 20
206.2612273859339
 30
0.0
 11
79.57459277188464
 21
206.0649858036285
 31
0.0
1001
GENIUS_GENODEF_13
1002
{
1000
HIER
1070
     0
1002
}
1002
{
1000
MANEDIT
1070
     0
1002
}
1002
{
1000
NOSEL
1070
     0
1002
}
1002
{
1000
BEHIND
1070
     0
1002
}
1002
{
1000
OTHER
1070
     0
1002
}
1002
{
1000
REACTOR
1002
}
1001
GENIUS_GENOBJ-N-CEN_13
1002
{
1000
OWNER
1000
GEN
1002
}
1001
GENIUS_GENCEN_19
1002
{
1040
3.0
1002
}
  0
LINE
  5
BE16
  8
D002
 10
79.76449316299541
 20
206.5210350070693
 30
0.0
 11
79.42459277188478
 21
206.3247934247638
 31
0.0
1001
GENIUS_GENODEF_13
1002
{
1000
HIER
1070
     0
1002
}
1002
{
1000
MANEDIT
1070
     0
1002
}
1002
{
1000
NOSEL
1070
     0
1002
}
1002
{
1000
BEHIND
1070
     0
1002
}
1002
{
1000
OTHER
1070
     0
1002
}
1002
{
1000
REACTOR
1002
}
1001
GENIUS_GENOBJ-N-CEN_13
1002
{
1000
OWNER
1000
GEN
1002
}
1001
GENIUS_GENCEN_19
1002
{
1040
3.0
1002
}
  0
LINE
  5
BE17
  8
D002
 10
77.74942965353416
 20
205.0112273859339
 30
0.0
 11
77.60454698742474
 21
204.4705179148775
 31
0.0
  0
LINE
  5
BE18
  8
D002
 10
78.18244235542643
 20
205.2612273859339
 30
0.0
 11
77.94605333837099
 21
204.3790115639314
 31
0.0
  0
LINE
  5
BE19
  8
D002
 10
81.73314651094275
 20
207.311227385934
 30
0.0
 11
81.2599098653845
 21
207.0380040812306
 31
0.0
1001
GENIUS_GENODEF_13
1002
{
1000
HIER
1070
     0
1002
}
1002
{
1000
MANEDIT
1070
     0
1002
}
1002
{
1000
NOSEL
1070
     0
1002
}
1002
{
1000
BEHIND
1070
     0
1002
}
1002
{
1000
OTHER
1070
     0
1002
}
1002
{
1000
REACTOR
1002
}
1001
GENIUS_GENOBJ-N-CEN_13
1002
{
1000
OWNER
1000
GEN
1002
}
1001
GENIUS_GENCEN_19
1002
{
1040
3.0
1002
}
  0
ARC
  5
BE1A
  8
D002
 10
76.28878900747914
 20
204.3411311965016
 30
0.0
 40
0.1499999999999773
 50
120.0000000000254
 51
300.0000000000254
  0
ARC
  5
BE1B
  8
D002
 10
77.1044733579508
 20
205.5866708486517
 30
0.0
 40
0.1767766952966168
 50
75.0000000000127
 51
255.0000000000127
  0
LINE
  5
BE1C
  8
D002
 10
81.58314651094265
 20
207.5710350070694
 30
0.0
 11
81.10990986538464
 21
207.297811702366
 31
0.0
1001
GENIUS_GENODEF_13
1002
{
1000
HIER
1070
     0
1002
}
1002
{
1000
MANEDIT
1070
     0
1002
}
1002
{
1000
NOSEL
1070
     0
1002
}
1002
{
1000
BEHIND
1070
     0
1002
}
1002
{
1000
OTHER
1070
     0
1002
}
1002
{
1000
REACTOR
1002
}
1001
GENIUS_GENOBJ-N-CEN_13
1002
{
1000
OWNER
1000
GEN
1002
}
1001
GENIUS_GENCEN_19
1002
{
1040
3.0
1002
}
  0
LINE
  5
BE1D
  8
D002
 10
80.80372364753676
 20
207.1210350070693
 30
0.0
 11
80.19750586488767
 21
206.7710350070693
 31
0.0
1001
GENIUS_GENODEF_13
1002
{
1000
HIER
1070
     0
1002
}
1002
{
1000
MANEDIT
1070
     0
1002
}
1002
{
1000
NOSEL
1070
     0
1002
}
1002
{
1000
BEHIND
1070
     0
1002
}
1002
{
1000
OTHER
1070
     0
1002
}
1002
{
1000
REACTOR
1002
}
1001
GENIUS_GENOBJ-N-CEN_13
1002
{
1000
OWNER
1000
GEN
1002
}
1001
GENIUS_GENCEN_19
1002
{
1040
3.0
1002
}
  0
LINE
  5
BE1E
  8
D002
 10
76.68702565303734
 20
204.7442583117727
 30
0.0
 11
76.2137890074791
 21
204.4710350070693
 31
0.0
1001
GENIUS_GENODEF_13
1002
{
1000
HIER
1070
     0
1002
}
1002
{
1000
MANEDIT
1070
     0
1002
}
1002
{
1000
NOSEL
1070
     0
1002
}
1002
{
1000
BEHIND
1070
     0
1002
}
1002
{
1000
OTHER
1070
     0
1002
}
1002
{
1000
REACTOR
1002
}
1001
GENIUS_GENOBJ-N-CEN_13
1002
{
1000
OWNER
1000
GEN
1002
}
1001
GENIUS_GENCEN_19
1002
{
1040
3.0
1002
}
  0
LINE
  5
BE1F
  8
D002
 10
80.95372364753662
 20
206.861227385934
 30
0.0
 11
80.34750586488754
 21
206.5112273859339
 31
0.0
1001
GENIUS_GENODEF_13
1002
{
1000
HIER
1070
     0
1002
}
1002
{
1000
MANEDIT
1070
     0
1002
}
1002
{
1000
NOSEL
1070
     0
1002
}
1002
{
1000
BEHIND
1070
     0
1002
}
1002
{
1000
OTHER
1070
     0
1002
}
1002
{
1000
REACTOR
1002
}
1001
GENIUS_GENOBJ-N-CEN_13
1002
{
1000
OWNER
1000
GEN
1002
}
1001
GENIUS_GENCEN_19
1002
{
1040
3.0
1002
}
  0
LINE
  5
BE20
  8
D002
 10
77.14321187088508
 20
204.6612273859339
 30
0.0
 11
76.99724610183121
 21
204.1164757196586
 31
0.0
  0
LINE
  5
BE21
  8
D002
 10
76.8370256530372
 20
204.4844506906374
 30
0.0
 11
76.75576464525894
 21
204.1811804809343
 31
0.0
  0
ARC
  5
BE22
  8
D002
 10
76.87650537354484
 20
204.1488281002964
 30
0.0
 40
0.1249999999999206
 50
164.9999999999954
 51
345.0000000001045
  0
LINE
  5
BE23
  8
D002
 10
76.99321187088522
 20
204.9210350070693
 30
0.0
 11
76.44846020460973
 21
205.0670007761233
 31
0.0
  0
LINE
  5
BE24
  8
D002
 10
76.68702565303734
 20
204.7442583117727
 30
0.0
 11
76.38375544333412
 21
204.825519319551
 31
0.0
  0
LINE
  5
BE25
  8
D002
 10
77.74942965353416
 20
205.0112273859339
 30
0.0
 11
77.14321187088508
 21
204.6612273859339
 31
0.0
1001
GENIUS_GENODEF_13
1002
{
1000
HIER
1070
     0
1002
}
1002
{
1000
MANEDIT
1070
     0
1002
}
1002
{
1000
NOSEL
1070
     0
1002
}
1002
{
1000
BEHIND
1070
     0
1002
}
1002
{
1000
OTHER
1070
     0
1002
}
1002
{
1000
REACTOR
1002
}
1001
GENIUS_GENOBJ-N-CEN_13
1002
{
1000
OWNER
1000
GEN
1002
}
1001
GENIUS_GENCEN_19
1002
{
1040
3.0
1002
}
  0
LINE
  5
BE26
  8
D002
 10
78.03244235542657
 20
205.5210350070693
 30
0.0
 11
77.1502265334238
 21
205.7574240241248
 31
0.0
  0
ARC
  5
BE27
  8
D002
 10
76.41610782397193
 20
204.946260047837
 30
0.0
 40
0.1249999999999206
 50
74.99999999999544
 51
254.9999999999954
  0
LINE
  5
BE28
  8
D002
 10
80.34750586488754
 20
206.5112273859339
 30
0.0
 11
80.88821533594405
 21
206.3663447198245
 31
0.0
  0
ARC
  5
BE29
  8
D002
 10
80.84246216047104
 20
206.1955915443515
 30
0.0
 40
0.1767766952966168
 50
255.0000000000127
 51
75.0000000000127
  0
LINE
  5
BE2A
  8
D002
 10
79.76449316299541
 20
206.5210350070693
 30
0.0
 11
80.00088218005108
 21
207.4032508290718
 31
0.0
  0
LINE
  5
BE2B
  8
D002
 10
78.82346775921083
 20
204.8911311965017
 30
0.0
 11
78.82346775921083
 21
205.2836143611123
 31
0.0
1001
GENIUS_GENODEF_13
1002
{
1000
HIER
1070
     0
1002
}
1002
{
1000
MANEDIT
1070
     0
1002
}
1002
{
1000
NOSEL
1070
     0
1002
}
1002
{
1000
BEHIND
1070
     0
1002
}
1002
{
1000
OTHER
1070
     0
1002
}
1002
{
1000
REACTOR
1002
}
1001
GENIUS_GENOBJ-N-CEN_13
1002
{
1000
OWNER
1000
GEN
1002
}
1001
GENIUS_GENCEN_19
1002
{
1040
3.0
1002
}
  0
LINE
  5
BE2C
  8
D002
 10
81.10990986538464
 20
207.297811702366
 30
0.0
 11
81.1911708731629
 21
207.601081912069
 31
0.0
  0
ARC
  5
BE2D
  8
D002
 10
81.070430144877
 20
207.6334342927069
 30
0.0
 40
0.1249999999999206
 50
344.9999999999954
 51
165.0000000001046
  0
LINE
  5
BE2E
  8
D002
 10
76.8370256530372
 20
207.297811702366
 30
0.0
 11
76.75576464525894
 21
207.6010819120691
 31
0.0
  0
LINE
  5
BE2F
  8
D002
 10
76.99321187088522
 20
206.861227385934
 30
0.0
 11
76.44846020460973
 21
206.71526161688
 31
0.0
  0
LINE
  5
BE30
  8
D002
 10
76.68702565303734
 20
207.0380040812306
 30
0.0
 11
76.38375544333412
 21
206.9567430734524
 31
0.0
  0
LINE
  5
BE31
  8
D002
 10
80.80372364753676
 20
204.661227385934
 30
0.0
 11
80.19750586488767
 21
205.0112273859341
 31
0.0
1001
GENIUS_GENODEF_13
1002
{
1000
HIER
1070
     0
1002
}
1002
{
1000
MANEDIT
1070
     0
1002
}
1002
{
1000
NOSEL
1070
     0
1002
}
1002
{
1000
BEHIND
1070
     0
1002
}
1002
{
1000
OTHER
1070
     0
1002
}
1002
{
1000
REACTOR
1002
}
1001
GENIUS_GENOBJ-N-CEN_13
1002
{
1000
OWNER
1000
GEN
1002
}
1001
GENIUS_GENCEN_19
1002
{
1040
3.0
1002
}
  0
LINE
  5
BE32
  8
D002
 10
80.95372364753662
 20
204.9210350070694
 30
0.0
 11
80.34750586488754
 21
205.2710350070694
 31
0.0
1001
GENIUS_GENODEF_13
1002
{
1000
HIER
1070
     0
1002
}
1002
{
1000
MANEDIT
1070
     0
1002
}
1002
{
1000
NOSEL
1070
     0
1002
}
1002
{
1000
BEHIND
1070
     0
1002
}
1002
{
1000
OTHER
1070
     0
1002
}
1002
{
1000
REACTOR
1002
}
1001
GENIUS_GENOBJ-N-CEN_13
1002
{
1000
OWNER
1000
GEN
1002
}
1001
GENIUS_GENCEN_19
1002
{
1040
3.0
1002
}
  0
ARC
  5
BE33
  8
D002
 10
76.87650537354484
 20
207.6334342927069
 30
0.0
 40
0.1249999999999206
 50
14.99999999995087
 51
194.9999999999509
  0
ARC
  5
BE34
  8
D002
 10
76.41610782397193
 20
206.8360023451662
 30
0.0
 40
0.1249999999999206
 50
105.0000000000046
 51
285.0000000000046
  0
LINE
  5
BE35
  8
D002
 10
79.76449316299541
 20
205.2612273859341
 30
0.0
 11
79.42459277188478
 21
205.4574689682394
 31
0.0
1001
GENIUS_GENODEF_13
1002
{
1000
HIER
1070
     0
1002
}
1002
{
1000
MANEDIT
1070
     0
1002
}
1002
{
1000
NOSEL
1070
     0
1002
}
1002
{
1000
BEHIND
1070
     0
1002
}
1002
{
1000
OTHER
1070
     0
1002
}
1002
{
1000
REACTOR
1002
}
1001
GENIUS_GENOBJ-N-CEN_13
1002
{
1000
OWNER
1000
GEN
1002
}
1001
GENIUS_GENCEN_19
1002
{
1040
3.0
1002
}
  0
LINE
  5
BE36
  8
D002
 10
76.8370256530372
 20
207.297811702366
 30
0.0
 11
76.36378900747918
 21
207.5710350070694
 31
0.0
1001
GENIUS_GENODEF_13
1002
{
1000
HIER
1070
     0
1002
}
1002
{
1000
MANEDIT
1070
     0
1002
}
1002
{
1000
NOSEL
1070
     0
1002
}
1002
{
1000
BEHIND
1070
     0
1002
}
1002
{
1000
OTHER
1070
     0
1002
}
1002
{
1000
REACTOR
1002
}
1001
GENIUS_GENOBJ-N-CEN_13
1002
{
1000
OWNER
1000
GEN
1002
}
1001
GENIUS_GENCEN_19
1002
{
1040
3.0
1002
}
  0
LINE
  5
BE37
  8
D002
 10
77.74942965353416
 20
206.7710350070694
 30
0.0
 11
77.60454698742474
 21
207.3117444781258
 31
0.0
  0
LINE
  5
BE38
  8
D002
 10
79.91449316299527
 20
205.5210350070694
 30
0.0
 11
80.79670898499803
 21
205.7574240241248
 31
0.0
  0
ARC
  5
BE39
  8
D002
 10
77.77530016289775
 20
207.3574976535988
 30
0.0
 40
0.1767766952966168
 50
15.00000000002528
 51
194.9999999999861
  0
LINE
  5
BE3A
  8
D002
 10
81.58314651094265
 20
204.211227385934
 30
0.0
 11
81.10990986538464
 21
204.4844506906374
 31
0.0
1001
GENIUS_GENODEF_13
1002
{
1000
HIER
1070
     0
1002
}
1002
{
1000
MANEDIT
1070
     0
1002
}
1002
{
1000
NOSEL
1070
     0
1002
}
1002
{
1000
BEHIND
1070
     0
1002
}
1002
{
1000
OTHER
1070
     0
1002
}
1002
{
1000
REACTOR
1002
}
1001
GENIUS_GENOBJ-N-CEN_13
1002
{
1000
OWNER
1000
GEN
1002
}
1001
GENIUS_GENCEN_19
1002
{
1040
3.0
1002
}
  0
LINE
  5
BE3B
  8
D002
 10
78.03244235542657
 20
206.2612273859341
 30
0.0
 11
77.1502265334238
 21
206.0248383688785
 31
0.0
  0
LINE
  5
BE3C
  8
D002
 10
79.91449316299527
 20
205.5210350070694
 30
0.0
 11
79.57459277188464
 21
205.7172765893747
 31
0.0
1001
GENIUS_GENODEF_13
1002
{
1000
HIER
1070
     0
1002
}
1002
{
1000
MANEDIT
1070
     0
1002
}
1002
{
1000
NOSEL
1070
     0
1002
}
1002
{
1000
BEHIND
1070
     0
1002
}
1002
{
1000
OTHER
1070
     0
1002
}
1002
{
1000
REACTOR
1002
}
1001
GENIUS_GENOBJ-N-CEN_13
1002
{
1000
OWNER
1000
GEN
1002
}
1001
GENIUS_GENCEN_19
1002
{
1040
3.0
1002
}
  0
LINE
  5
BE3D
  8
D002
 10
81.73314651094275
 20
204.4710350070693
 30
0.0
 11
81.2599098653845
 21
204.7442583117727
 31
0.0
1001
GENIUS_GENODEF_13
1002
{
1000
HIER
1070
     0
1002
}
1002
{
1000
MANEDIT
1070
     0
1002
}
1002
{
1000
NOSEL
1070
     0
1002
}
1002
{
1000
BEHIND
1070
     0
1002
}
1002
{
1000
OTHER
1070
     0
1002
}
1002
{
1000
REACTOR
1002
}
1001
GENIUS_GENOBJ-N-CEN_13
1002
{
1000
OWNER
1000
GEN
1002
}
1001
GENIUS_GENCEN_19
1002
{
1040
3.0
1002
}
  0
LINE
  5
BE3E
  8
D002
 10
77.14321187088508
 20
207.1210350070693
 30
0.0
 11
76.99724610183121
 21
207.6657866733447
 31
0.0
  0
ARC
  5
BE3F
  8
D002
 10
77.1044733579508
 20
206.1955915443515
 30
0.0
 40
0.1767766952966168
 50
104.9999999999873
 51
284.9999999999873
  0
ARC
  5
BE40
  8
D002
 10
76.28878900747914
 20
207.4411311965017
 30
0.0
 40
0.1499999999999773
 50
59.99999999997465
 51
239.9999999999746
  0
LINE
  5
BE41
  8
D002
 10
80.34750586488754
 20
205.2710350070694
 30
0.0
 11
80.88821533594405
 21
205.4159176731787
 31
0.0
  0
LINE
  5
BE42
  8
D002
 10
77.74942965353416
 20
206.7710350070694
 30
0.0
 11
77.14321187088508
 21
207.1210350070693
 31
0.0
1001
GENIUS_GENODEF_13
1002
{
1000
HIER
1070
     0
1002
}
1002
{
1000
MANEDIT
1070
     0
1002
}
1002
{
1000
NOSEL
1070
     0
1002
}
1002
{
1000
BEHIND
1070
     0
1002
}
1002
{
1000
OTHER
1070
     0
1002
}
1002
{
1000
REACTOR
1002
}
1001
GENIUS_GENOBJ-N-CEN_13
1002
{
1000
OWNER
1000
GEN
1002
}
1001
GENIUS_GENCEN_19
1002
{
1040
3.0
1002
}
  0
ARC
  5
BE43
  8
D002
 10
81.6581465109427
 20
204.3411311965017
 30
0.0
 40
0.1499999999999773
 50
239.9999999999746
 51
59.99999999997465
  0
ARC
  5
BE44
  8
D002
 10
80.84246216047104
 20
205.5866708486518
 30
0.0
 40
0.1767766952966168
 50
284.9999999999873
 51
104.9999999999873
  0
LINE
  5
BE45
  8
D002
 10
79.76449316299541
 20
205.2612273859341
 30
0.0
 11
80.00088218005108
 21
204.3790115639314
 31
0.0
  0
LINE
  5
BE46
  8
D002
 10
76.68702565303734
 20
207.0380040812306
 30
0.0
 11
76.2137890074791
 21
207.311227385934
 31
0.0
1001
GENIUS_GENODEF_13
1002
{
1000
HIER
1070
     0
1002
}
1002
{
1000
MANEDIT
1070
     0
1002
}
1002
{
1000
NOSEL
1070
     0
1002
}
1002
{
1000
BEHIND
1070
     0
1002
}
1002
{
1000
OTHER
1070
     0
1002
}
1002
{
1000
REACTOR
1002
}
1001
GENIUS_GENOBJ-N-CEN_13
1002
{
1000
OWNER
1000
GEN
1002
}
1001
GENIUS_GENCEN_19
1002
{
1040
3.0
1002
}
  0
LINE
  5
BE47
  8
D002
 10
80.19750586488767
 20
205.0112273859341
 30
0.0
 11
80.3423885309971
 21
204.4705179148775
 31
0.0
  0
LINE
  5
BE48
  8
D002
 10
77.5994296535343
 20
206.5112273859341
 30
0.0
 11
77.05872018247778
 21
206.3663447198246
 31
0.0
  0
LINE
  5
BE49
  8
D002
 10
78.18244235542643
 20
206.5210350070694
 30
0.0
 11
77.94605333837099
 21
207.4032508290719
 31
0.0
  0
ARC
  5
BE4A
  8
D002
 10
80.17163535552409
 20
204.4247647394045
 30
0.0
 40
0.1767766952966168
 50
195.0000000000253
 51
14.99999999998613
  0
LINE
  5
BE4B
  8
D002
 10
77.5994296535343
 20
206.5112273859341
 30
0.0
 11
76.99321187088522
 21
206.861227385934
 31
0.0
1001
GENIUS_GENODEF_13
1002
{
1000
HIER
1070
     0
1002
}
1002
{
1000
MANEDIT
1070
     0
1002
}
1002
{
1000
NOSEL
1070
     0
1002
}
1002
{
1000
BEHIND
1070
     0
1002
}
1002
{
1000
OTHER
1070
     0
1002
}
1002
{
1000
REACTOR
1002
}
1001
GENIUS_GENOBJ-N-CEN_13
1002
{
1000
OWNER
1000
GEN
1002
}
1001
GENIUS_GENCEN_19
1002
{
1040
3.0
1002
}
  0
LINE
  5
BE51
  8
D002
 10
78.3723427465372
 20
206.0649858036286
 30
0.0
 11
78.03244235542657
 21
206.2612273859341
 31
0.0
1001
GENIUS_GENODEF_13
1002
{
1000
HIER
1070
     0
1002
}
1002
{
1000
MANEDIT
1070
     0
1002
}
1002
{
1000
NOSEL
1070
     0
1002
}
1002
{
1000
BEHIND
1070
     0
1002
}
1002
{
1000
OTHER
1070
     0
1002
}
1002
{
1000
REACTOR
1002
}
1001
GENIUS_GENOBJ-N-CEN_13
1002
{
1000
OWNER
1000
GEN
1002
}
1001
GENIUS_GENCEN_19
1002
{
1040
3.0
1002
}
  0
LINE
  5
BE52
  8
D002
 10
78.52234274653706
 20
205.4574689682393
 30
0.0
 11
78.18244235542643
 21
205.2612273859339
 31
0.0
1001
GENIUS_GENODEF_13
1002
{
1000
HIER
1070
     0
1002
}
1002
{
1000
MANEDIT
1070
     0
1002
}
1002
{
1000
NOSEL
1070
     0
1002
}
1002
{
1000
BEHIND
1070
     0
1002
}
1002
{
1000
OTHER
1070
     0
1002
}
1002
{
1000
REACTOR
1002
}
1001
GENIUS_GENOBJ-N-CEN_13
1002
{
1000
OWNER
1000
GEN
1002
}
1001
GENIUS_GENCEN_19
1002
{
1040
3.0
1002
}
  0
LINE
  5
BE53
  8
D002
 10
79.12346775921101
 20
206.4986480318909
 30
0.0
 11
79.12346775921101
 21
206.8911311965017
 31
0.0
1001
GENIUS_GENODEF_13
1002
{
1000
HIER
1070
     0
1002
}
1002
{
1000
MANEDIT
1070
     0
1002
}
1002
{
1000
NOSEL
1070
     0
1002
}
1002
{
1000
BEHIND
1070
     0
1002
}
1002
{
1000
OTHER
1070
     0
1002
}
1002
{
1000
REACTOR
1002
}
1001
GENIUS_GENOBJ-N-CEN_13
1002
{
1000
OWNER
1000
GEN
1002
}
1001
GENIUS_GENCEN_19
1002
{
1040
3.0
1002
}
  0
LINE
  5
BE54
  8
D002
 10
78.3723427465372
 20
205.7172765893746
 30
0.0
 11
78.03244235542657
 21
205.5210350070693
 31
0.0
1001
GENIUS_GENODEF_13
1002
{
1000
HIER
1070
     0
1002
}
1002
{
1000
MANEDIT
1070
     0
1002
}
1002
{
1000
NOSEL
1070
     0
1002
}
1002
{
1000
BEHIND
1070
     0
1002
}
1002
{
1000
OTHER
1070
     0
1002
}
1002
{
1000
REACTOR
1002
}
1001
GENIUS_GENOBJ-N-CEN_13
1002
{
1000
OWNER
1000
GEN
1002
}
1001
GENIUS_GENCEN_19
1002
{
1040
3.0
1002
}
  0
LINE
  5
BE55
  8
D002
 10
78.52234274653729
 20
206.324793424764
 30
0.0
 11
78.18244235542643
 21
206.5210350070694
 31
0.0
1001
GENIUS_GENODEF_13
1002
{
1000
HIER
1070
     0
1002
}
1002
{
1000
MANEDIT
1070
     0
1002
}
1002
{
1000
NOSEL
1070
     0
1002
}
1002
{
1000
BEHIND
1070
     0
1002
}
1002
{
1000
OTHER
1070
     0
1002
}
1002
{
1000
REACTOR
1002
}
1001
GENIUS_GENOBJ-N-CEN_13
1002
{
1000
OWNER
1000
GEN
1002
}
1001
GENIUS_GENCEN_19
1002
{
1040
3.0
1002
}
  0
LINE
  5
BE56
  8
D002
 10
78.82346775921083
 20
206.4986480318909
 30
0.0
 11
78.82346775921083
 21
206.8911311965017
 31
0.0
1001
GENIUS_GENODEF_13
1002
{
1000
HIER
1070
     0
1002
}
1002
{
1000
MANEDIT
1070
     0
1002
}
1002
{
1000
NOSEL
1070
     0
1002
}
1002
{
1000
BEHIND
1070
     0
1002
}
1002
{
1000
OTHER
1070
     0
1002
}
1002
{
1000
REACTOR
1002
}
1001
GENIUS_GENOBJ-N-CEN_13
1002
{
1000
OWNER
1000
GEN
1002
}
1001
GENIUS_GENCEN_19
1002
{
1040
3.0
1002
}
  0
POINT
  5
BE57
  8
D002
 10
78.97346775921092
 20
205.8911311965017
 30
0.0
  0
LINE
  5
BE59
  8
D002
 10
78.3723427465372
 20
206.0649858036286
 30
0.0
 11
78.3723427465372
 21
205.7172765893746
 31
0.0
  0
LINE
  5
BE5A
  8
D002
 10
79.57459277188464
 20
205.7172765893747
 30
0.0
 11
79.57459277188464
 21
206.0649858036285
 31
0.0
  0
LINE
  5
BE5B
  8
D002
 10
79.12346775921101
 20
205.2836143611123
 30
0.0
 11
79.42459277188478
 21
205.4574689682394
 31
0.0
  0
LINE
  5
BE5C
  8
D002
 10
78.52234274653706
 20
205.4574689682393
 30
0.0
 11
78.82346775921083
 21
205.2836143611123
 31
0.0
  0
LINE
  5
BE5D
  8
D002
 10
79.42459277188478
 20
206.3247934247638
 30
0.0
 11
79.12346775921101
 21
206.4986480318909
 31
0.0
  0
LINE
  5
BE5E
  8
D002
 10
78.82346775921083
 20
206.4986480318909
 30
0.0
 11
78.52234274653729
 21
206.324793424764
 31
0.0
  0
LINE
  5
BE5F
  8
D002
 10
78.97346775921092
 20
206.2009976453019
 30
0.0
 11
78.70511554276932
 21
206.0460644209018
 31
0.0
  0
LINE
  5
BE60
  8
D002
 10
78.70511554276932
 20
206.0460644209018
 30
0.0
 11
78.70511554276932
 21
205.7361979721015
 31
0.0
  0
LINE
  5
BE61
  8
D002
 10
78.70511554276932
 20
205.7361979721015
 30
0.0
 11
78.97346775921092
 21
205.5812647477013
 31
0.0
  0
LINE
  5
BE62
  8
D002
 10
78.97346775921092
 20
205.5812647477013
 30
0.0
 11
79.24181997565252
 21
205.7361979721015
 31
0.0
  0
LINE
  5
BE63
  8
D002
 10
79.24181997565252
 20
205.7361979721015
 30
0.0
 11
79.24181997565252
 21
206.0460644209018
 31
0.0
  0
LINE
  5
BE64
  8
D002
 10
79.24181997565252
 20
206.0460644209018
 30
0.0
 11
78.97346775921092
 21
206.2009976453019
 31
0.0
  0
LINE
  5
BE65
  8
D002
 10
78.3723427465372
 20
226.064985803629
 30
0.0
 11
78.3723427465372
 21
225.717276589375
 31
0.0
  0
LINE
  5
BE66
  8
D002
 10
79.57459277188464
 20
225.7172765893751
 30
0.0
 11
79.57459277188464
 21
226.0649858036288
 31
0.0
  0
LINE
  5
BE67
  8
D002
 10
79.12346775921101
 20
225.2836143611127
 30
0.0
 11
79.42459277188478
 21
225.4574689682397
 31
0.0
  0
LINE
  5
BE68
  8
D002
 10
78.52234274653706
 20
225.4574689682396
 30
0.0
 11
78.82346775921083
 21
225.2836143611127
 31
0.0
  0
LINE
  5
BE69
  8
D002
 10
79.42459277188478
 20
226.3247934247642
 30
0.0
 11
79.12346775921101
 21
226.4986480318912
 31
0.0
  0
LINE
  5
BE6A
  8
D002
 10
78.82346775921083
 20
226.4986480318912
 30
0.0
 11
78.52234274653729
 21
226.3247934247643
 31
0.0
  0
LINE
  5
BE6B
  8
D002
 10
78.97346775921092
 20
226.2009976453022
 30
0.0
 11
78.70511554276932
 21
226.0460644209021
 31
0.0
  0
LINE
  5
BE6C
  8
D002
 10
78.70511554276932
 20
226.0460644209021
 30
0.0
 11
78.70511554276932
 21
225.7361979721018
 31
0.0
  0
LINE
  5
BE6D
  8
D002
 10
78.70511554276932
 20
225.7361979721018
 30
0.0
 11
78.97346775921092
 21
225.5812647477017
 31
0.0
  0
LINE
  5
BE6E
  8
D002
 10
78.97346775921092
 20
225.5812647477017
 30
0.0
 11
79.24181997565252
 21
225.7361979721018
 31
0.0
  0
LINE
  5
BE6F
  8
D002
 10
79.24181997565252
 20
225.7361979721018
 30
0.0
 11
79.24181997565252
 21
226.0460644209021
 31
0.0
  0
LINE
  5
BE70
  8
D002
 10
79.24181997565252
 20
226.0460644209021
 30
0.0
 11
78.97346775921092
 21
226.2009976453022
 31
0.0
  0
LINE
  5
BE71
  8
0
 10
44.29548862670683
 20
200.3153655242981
 30
0.0
 11
43.16965560112405
 21
198.3653655243092
 31
0.0
  0
ARC
  5
BE72
  8
0
 10
43.212956871307
 20
198.3403655242978
 30
0.0
 40
0.0500000000002611
 50
149.9999999851142
 51
269.9999999998677
  0
LINE
  5
BE73
  8
0
 10
43.21295687130689
 20
198.2903655242975
 30
0.0
 11
45.4646229211464
 21
198.2903655242975
 31
0.0
  0
ARC
  5
BE74
  8
0
 10
45.46462292114634
 20
198.3403655242975
 30
0.0
 40
0.0500000000000013
 50
270.0000000000688
 51
29.99999998531542
  0
LINE
  5
BE75
  8
0
 10
45.50792419134197
 20
198.3653655242864
 30
0.0
 11
44.38209116708524
 21
200.3153655242981
 31
0.0
  0
ARC
  5
BE76
  8
0
 10
44.33878989689603
 20
200.2903655242981
 30
0.0
 40
0.0499999999999793
 50
30.00000000000012
 51
149.9999999999999
  0
LINE
  5
BE77
  8
0
 10
44.25218735582231
 20
200.4403655242981
 30
0.0
 11
43.03975179052415
 21
198.3403655242977
 31
0.0
  0
ARC
  5
BE78
  8
0
 10
43.12635433090247
 20
198.2903655242979
 30
0.0
 40
0.0999999999998077
 50
150.0000000000498
 51
270.0000000000499
  0
LINE
  5
BE79
  8
0
 10
43.12635433090256
 20
198.1903655242981
 30
0.0
 11
45.55122546149889
 21
198.1903655242981
 31
0.0
  0
ARC
  5
BE7A
  8
0
 10
45.55122546149897
 20
198.2903655242979
 30
0.0
 40
0.0999999999998075
 50
269.9999999999499
 51
29.9999999999503
  0
LINE
  5
BE7B
  8
0
 10
45.6378280018773
 20
198.3403655242977
 30
0.0
 11
44.42539243657913
 21
200.4403655242981
 31
0.0
  0
ARC
  5
BE7C
  8
0
 10
44.33878989620072
 20
200.3903655242981
 30
0.0
 40
0.0999999999999585
 50
29.99999999999998
 51
150.0
  0
VIEWPORT
  5
22
 67
     1
  8
0
 10
5.269134197284911
 20
5.545311567251436
 30
0.0
 40
11.13808705479925
 41
12.32365374410561
 68
     1
 69
     1
1001
GENIUS_GENSCREG_15
1000
PF
1040
1.0
1000
DF
1040
1.0
1000
MIN
1011
-0.2999093301147138
1021
-0.6165153048013714
1031
0.0
1021
-0.6165153048013714
1031
0.0
1000
MAX
1011
10.83817772468454
1021
11.70713843930424
1031
0.0
1021
11.70713843930424
1031
0.0
1000
FLAGS
1070
     4
1001
GENIUS_GENODEF_13
1002
{
1000
HIER
1070
     0
1002
}
1002
{
1000
MANEDIT
1070
     0
1002
}
1002
{
1000
NOSEL
1070
     0
1002
}
1002
{
1000
BEHIND
1070
     0
1002
}
1002
{
1000
OTHER
1070
     0
1002
}
1002
{
1000
REACTOR
1002
}
1001
GENIUS_GENOBJ-N-SDF_13
1002
{
1000
OWNER
1000
GEN
1002
}
1001
ACAD
1000
MVIEW
1002
{
1070
    16
1010
0.0
1020
0.0
1030
0.0
1020
0.0
1030
0.0
1010
0.0
1020
0.0
1030
1.0
1020
0.0
1030
1.0
1040
0.0
1040
12.32365374410561
1040
5.269134197284911
1040
5.545311567251436
1040
50.0
1040
0.0
1040
0.0
1070
     0
1070
   100
1070
     0
1070
     1
1070
     0
1070
     0
1070
     0
1070
     0
1040
0.0
1040
0.0
1040
0.0
1040
1.0
1040
1.0
1040
10.0
1040
10.0
1070
     0
1002
{
1002
}
1002
}
  0
ENDSEC
  0
EOF
