  0
SECTION
  2
HEADER
  9
$ACADVER
  1
AC1009
  9
$DWGCODEPAGE
  3
ansi_932
  9
$INSBASE
 10
0.0
 20
0.0
 30
0.0
  9
$EXTMIN
 10
0.0000064909936555
 20
0.000000316319074
 30
0.0
  9
$EXTMAX
 10
235.1103362873291
 20
294.6851315128205
 30
0.0
  9
$LIMMIN
 10
0.0
 20
0.0
  9
$LIMMAX
 10
420.0
 20
420.0
  9
$ORTHOMODE
 70
     0
  9
$REGENMODE
 70
     1
  9
$FILLMODE
 70
     1
  9
$QTEXTMODE
 70
     0
  9
$MIRRTEXT
 70
     0
  9
$DRAGMODE
 70
     2
  9
$LTSCALE
 40
10.0
  9
$OSMODE
 70
   549
  9
$ATTMODE
 70
     1
  9
$TEXTSIZE
 40
1.0
  9
$TRACEWID
 40
1.0
  9
$TEXTSTYLE
  7
STANDARD
  9
$CLAYER
  8
0
  9
$CELTYPE
  6
BYLAYER
  9
$CECOLOR
 62
   256
  9
$DIMSCALE
 40
1.0
  9
$DIMASZ
 40
2.5
  9
$DIMEXO
 40
1.0
  9
$DIMDLI
 40
7.0
  9
$DIMRND
 40
0.0
  9
$DIMDLE
 40
0.0
  9
$DIMEXE
 40
1.0
  9
$DIMTP
 40
0.1
  9
$DIMTM
 40
0.1
  9
$DIMTXT
 40
3.0
  9
$DIMCEN
 40
0.0
  9
$DIMTSZ
 40
0.0
  9
$DIMTOL
 70
     0
  9
$DIMLIM
 70
     0
  9
$DIMTIH
 70
     0
  9
$DIMTOH
 70
     0
  9
$DIMSE1
 70
     0
  9
$DIMSE2
 70
     0
  9
$DIMTAD
 70
     3
  9
$DIMZIN
 70
     8
  9
$DIMBLK
  1
OPEN
  9
$DIMASO
 70
     1
  9
$DIMSHO
 70
     1
  9
$DIMPOST
  1

  9
$DIMAPOST
  1
"
  9
$DIMALT
 70
     0
  9
$DIMALTD
 70
     2
  9
$DIMALTF
 40
0.0393701
  9
$DIMLFAC
 40
1.0
  9
$DIMTOFL
 70
     1
  9
$DIMTVP
 40
0.0
  9
$DIMTIX
 70
     0
  9
$DIMSOXD
 70
     0
  9
$DIMSAH
 70
     0
  9
$DIMBLK1
  1

  9
$DIMBLK2
  1

  9
$DIMSTYLE
  2
AM_JIS
  9
$DIMCLRD
 70
   256
  9
$DIMCLRE
 70
   256
  9
$DIMCLRT
 70
     2
  9
$DIMTFAC
 40
0.71
  9
$DIMGAP
 40
1.0
  9
$LUNITS
 70
     2
  9
$LUPREC
 70
     2
  9
$SKETCHINC
 40
1.0
  9
$FILLETRAD
 40
2.5
  9
$AUNITS
 70
     0
  9
$AUPREC
 70
     0
  9
$MENU
  1
.
  9
$ELEVATION
 40
0.0
  9
$PELEVATION
 40
0.0
  9
$THICKNESS
 40
0.0
  9
$LIMCHECK
 70
     0
  9
$CHAMFERA
 40
2.5
  9
$CHAMFERB
 40
2.5
  9
$SKPOLY
 70
     1
  9
$TDCREATE
 40
2457177.647050278
  9
$TDUPDATE
 40
2460346.648517037
  9
$TDINDWG
 40
0.0098086343
  9
$TDUSRTIMER
 40
0.0098084491
  9
$USRTIMER
 70
     1
  9
$ANGBASE
 50
0.0
  9
$ANGDIR
 70
     0
  9
$PDMODE
 70
     0
  9
$PDSIZE
 40
0.0
  9
$PLINEWID
 40
0.0
  9
$COORDS
 70
     0
  9
$SPLFRAME
 70
     0
  9
$SPLINETYPE
 70
     6
  9
$SPLINESEGS
 70
     8
  9
$ATTDIA
 70
     1
  9
$ATTREQ
 70
     1
  9
$HANDLING
 70
     1
  9
$HANDSEED
  5
9BAD
  9
$SURFTAB1
 70
     6
  9
$SURFTAB2
 70
     6
  9
$SURFTYPE
 70
     6
  9
$SURFU
 70
     6
  9
$SURFV
 70
     6
  9
$UCSNAME
  2

  9
$UCSORG
 10
0.0
 20
0.0
 30
0.0
  9
$UCSXDIR
 10
1.0
 20
0.0
 30
0.0
  9
$UCSYDIR
 10
0.0
 20
1.0
 30
0.0
  9
$PUCSNAME
  2

  9
$PUCSORG
 10
0.0
 20
0.0
 30
0.0
  9
$PUCSXDIR
 10
1.0
 20
0.0
 30
0.0
  9
$PUCSYDIR
 10
0.0
 20
1.0
 30
0.0
  9
$USERI1
 70
     0
  9
$USERI2
 70
     0
  9
$USERI3
 70
     0
  9
$USERI4
 70
     0
  9
$USERI5
 70
     0
  9
$USERR1
 40
0.0
  9
$USERR2
 40
0.0
  9
$USERR3
 40
0.0
  9
$USERR4
 40
0.0
  9
$USERR5
 40
0.0
  9
$WORLDVIEW
 70
     1
  9
$SHADEDGE
 70
     3
  9
$SHADEDIF
 70
    70
  9
$TILEMODE
 70
     1
  9
$MAXACTVP
 70
    48
  9
$PLIMCHECK
 70
     0
  9
$PEXTMIN
 10
1.000000000000000E+20
 20
1.000000000000000E+20
 30
1.000000000000000E+20
  9
$PEXTMAX
 10
-1.000000000000000E+20
 20
-1.000000000000000E+20
 30
-1.000000000000000E+20
  9
$PLIMMIN
 10
-0.2500002402958907
 20
-0.2499999962453767
  9
$PLIMMAX
 10
10.74999951940822
 20
8.249999763458732
  9
$UNITMODE
 70
     0
  9
$VISRETAIN
 70
     1
  9
$PLINEGEN
 70
     0
  9
$PSLTSCALE
 70
     1
  0
ENDSEC
  0
SECTION
  2
TABLES
  0
TABLE
  2
VPORT
 70
     1
  0
VPORT
  2
*ACTIVE
 70
     0
 10
0.0
 20
0.0
 11
1.0
 21
1.0
 12
210.0
 22
210.0
 13
0.0
 23
0.0
 14
2.5
 24
2.5
 15
10.0
 25
10.0
 16
0.0
 26
0.0
 36
1.0
 17
0.0
 27
0.0
 37
0.0
 40
423.2589718719689
 41
2.05293551491819
 42
50.0
 43
0.0
 44
0.0
 50
0.0
 51
0.0
 71
     0
 72
   100
 73
     1
 74
     3
 75
     0
 76
     0
 77
     0
 78
     0
  0
ENDTAB
  0
TABLE
  2
LTYPE
 70
    22
  0
LTYPE
  2
CONTINUOUS
 70
     0
  3
Solid line
 72
    65
 73
     0
 40
0.0
  0
LTYPE
  2
HIDDEN
 70
     0
  3
__ __ __ __ __ __ __ __ __ __ __ __ __ __ __ __
 72
    65
 73
     2
 40
0.375
 49
0.25
 49
-0.125
  0
LTYPE
  2
PHANTOM2
 70
     0
  3
___ _ _ ___ _ _ ___ _ _ ___ _ _ ___ _ _ ___ _ _
 72
    65
 73
     6
 40
1.25
 49
0.625
 49
-0.125
 49
0.125
 49
-0.125
 49
0.125
 49
-0.125
  0
LTYPE
  2
CENTER
 70
     0
  3
____ _ ____ _ ____ _ ____ _ ____ _ ____ _ ____ 
 72
    65
 73
     4
 40
2.0
 49
1.25
 49
-0.25
 49
0.25
 49
-0.25
  0
LTYPE
  2
ACJISTGB
 70
     0
  3
__ . . __ . .
 72
    65
 73
     6
 40
9.0
 49
4.0
 49
-1.0
 49
1.0
 49
-1.0
 49
1.0
 49
-1.0
  0
LTYPE
  2
ACJISTGL
 70
     0
  3
_ _ _ _ _
 72
    65
 73
     2
 40
3.0
 49
2.0
 49
-1.0
  0
LTYPE
  2
ACISOWELD
 70
     0
  3
_ _ _ _ _
 72
    65
 73
     2
 40
2.0
 49
2.0
 49
-1.0
  0
LTYPE
  2
ACISOTGB
 70
     0
  3
__ . . __ . .
 72
    65
 73
     6
 40
9.0
 49
4.0
 49
-1.0
 49
1.0
 49
-1.0
 49
1.0
 49
-1.0
  0
LTYPE
  2
ACISOTGL
 70
     0
  3
_ _ _ _ _
 72
    65
 73
     2
 40
3.0
 49
2.0
 49
-1.0
  0
LTYPE
  2
AM_ISO02W050
 70
     0
  3
__ __ __ __ __ __ __ __ __ __ __ __ __ __ __
 72
    65
 73
     2
 40
7.5
 49
6.0
 49
-1.5
  0
LTYPE
  2
AM_ISO08W050
 70
     0
  3
____ . ____ . ____ . ____ . ____ . ____ . ____
 72
    65
 73
     4
 40
18.0
 49
12.0
 49
-1.5
 49
3.0
 49
-1.5
  0
LTYPE
  2
AM_ISO09W050
 70
     0
  3
_____ . . _____ . . _____ . . ____ .. ____
 72
    65
 73
     6
 40
22.5
 49
12.0
 49
-1.5
 49
3.0
 49
-1.5
 49
3.0
 49
-1.5
  0
LTYPE
  2
AM_ISO02W050X2
 70
     0
  3
 _ _ _ _ _ _ _ _ _ _ _ _
 72
    65
 73
     2
 40
3.75
 49
3.0
 49
-0.75
  0
LTYPE
  2
AM_ISO08W050X2
 70
     0
  3
__ . __ . __ . __ . __ . __
 72
    65
 73
     4
 40
9.0
 49
6.0
 49
-0.75
 49
1.5
 49
-0.75
  0
LTYPE
  2
AMZIGZAG
 70
     0
  3
/\/-/\/-/\/-/\/-/\/-/\/
 72
    65
 73
     2
 40
11.0001
 49
0.0001
 49
-11.0
  0
LTYPE
  2
AMCONSTR
 70
     0
  3
_______________________
 72
    65
 73
     2
 40
9999.0
 49
9999.0
 49
0.0
  0
LTYPE
  2
CENTER2
 70
     0
  3
Center (.5x) ___ _ ___ _ ___ _ ___ _ ___ _ ___
 72
    65
 73
     4
 40
1.125
 49
0.75
 49
-0.125
 49
0.125
 49
-0.125
  0
LTYPE
  2
HIDDEN2
 70
     0
  3
Hidden (.5x) _ _ _ _ _ _ _ _ _ _ _ _ _ _ _ _ _
 72
    65
 73
     2
 40
0.1875
 49
0.125
 49
-0.0625
  0
LTYPE
  2
ACJISWELD
 70
     0
  3
_ _ _ _ _
 72
    65
 73
     2
 40
2.0
 49
2.0
 49
-1.0
  0
LTYPE
  2
AMZIGZAG2
 70
     0
  3
/\/-/\/-/\/-/\/-/\/-/\/
 72
    65
 73
     2
 40
0.4401
 49
0.0001
 49
-0.44
  0
LTYPE
  2
ACANSTGB
 70
     0
  3
__ . . __ . .
 72
    65
 73
     6
 40
0.35433070866
 49
0.15748031496
 49
-0.03937007874
 49
0.03937007874
 49
-0.03937007874
 49
0.03937007874
 49
-0.03937007874
  0
LTYPE
  2
ACANSTGL
 70
     0
  3
_ _ _ _ _
 72
    65
 73
     2
 40
0.11811023622
 49
0.07874015748
 49
-0.03937007874
  0
ENDTAB
  0
TABLE
  2
LAYER
 70
     8
  0
LAYER
  2
0
 70
     0
 62
     7
  6
CONTINUOUS
  0
LAYER
  2
7
 70
     0
 62
     4
  6
CENTER2
  0
LAYER
  2
10
 70
     0
 62
     2
  6
CONTINUOUS
  0
LAYER
  2
DEFPOINTS
 70
     0
 62
     7
  6
CONTINUOUS
  0
LAYER
  2
AM_0
 70
     0
 62
     7
  6
CONTINUOUS
  0
LAYER
  2
D002
 70
     0
 62
   152
  6
CONTINUOUS
  0
LAYER
  2
3A
 70
     0
 62
     6
  6
HIDDEN2
  0
ENDTAB
  0
TABLE
  2
STYLE
 70
     8
  0
STYLE
  2
STANDARD
 70
     0
 40
0.0
 41
1.0
 50
0.0
 71
     0
 42
1.0
  3
ISOCP.SHX
  4
EXTFONT.SHX
  0
STYLE
  2
ACJISTS
 70
     0
 40
1.0
 41
1.0
 50
0.0
 71
     0
 42
3.5
  3
isocp.shx
  4
extfont.shx
  0
STYLE
  2
ACJISGDT
 70
     0
 40
0.0
 41
1.0
 50
0.0
 71
     0
 42
3.5
  3
amgdt.shx
  4
extfont.shx
  0
STYLE
  2
ACISOTS
 70
     0
 40
1.0
 41
1.0
 50
0.0
 71
     0
 42
1.0
  3
isocp.shx
  4
extfont.shx
  0
STYLE
  2
ACISOGDT
 70
     0
 40
0.0
 41
1.0
 50
0.0
 71
     0
 42
3.5
  3
amgdt.shx
  4
extfont.shx
  0
STYLE
  2

 70
     1
 40
0.0
 41
1.0
 50
0.0
 71
     0
 42
3.5
  3
ltypeshp.shx
  4

  0
STYLE
  2

 70
     1
 40
0.0
 41
1.0
 50
0.0
 71
     0
 42
4.0
  3
genltshp.shx
  4

  0
STYLE
  2
ACANSGDT
 70
     0
 40
0.0
 41
1.0
 50
0.0
 71
     0
 42
4.0
  3
amgdt.shx
  4

  0
ENDTAB
  0
TABLE
  2
VIEW
 70
     3
  0
VIEW
  2
AMDTVIEW1
 70
     0
 40
329.0721649484536
 10
210.0
 20
164.5360824742268
 41
420.0
 11
0.0
 21
0.0
 31
1.0
 12
0.0
 22
0.0
 32
0.0
 42
50.0
 43
0.0
 44
0.0
 50
0.0
 71
     0
  0
VIEW
  2
AMDTVIEW2
 70
     0
 40
329.0721649484536
 10
210.0
 20
164.5360824742268
 41
420.0
 11
0.0
 21
0.0
 31
1.0
 12
0.0
 22
0.0
 32
0.0
 42
50.0
 43
0.0
 44
0.0
 50
0.0
 71
     0
  0
VIEW
  2
AMDTVIEW3
 70
     0
 40
329.0721649484536
 10
210.0
 20
164.5360824742268
 41
420.0
 11
0.0
 21
0.0
 31
1.0
 12
0.0
 22
0.0
 32
0.0
 42
50.0
 43
0.0
 44
0.0
 50
0.0
 71
     0
  0
ENDTAB
  0
TABLE
  2
UCS
 70
     0
  0
ENDTAB
  0
TABLE
  2
APPID
 70
    65
  0
APPID
  2
ACAD
 70
     0
  0
APPID
  2
AD_DRAW
 70
     0
  0
APPID
  2
DESIGNERASSEMBLIES
 70
     0
  0
APPID
  2
MCAD_NO_VIS
 70
     0
  0
APPID
  2
ASURF_PCURVE_APPNAME
 70
     0
  0
APPID
  2
ACAD_TEMP_GRAPHIC
 70
     0
  0
APPID
  2
ACATTRIBSERVICES
 70
     0
  0
APPID
  2
ACADM_DIM_EDIT
 70
     0
  0
APPID
  2
GENIUS_GENDIM_13
 70
     0
  0
APPID
  2
GENIUS_GENDTOL_13
 70
     0
  0
APPID
  2
GENIUS_GE3DTOL_13
 70
     0
  0
APPID
  2
AMG_3D2D_5_0
 70
     0
  0
APPID
  2
AMDT_DM_ADJ
 70
     0
  0
APPID
  2
ACAD_PSEXT
 70
     0
  0
APPID
  2
ACAD_DSTYLE_DIMTEXT_FILL
 70
     0
  0
APPID
  2
ACAECLAYERSTANDARD
 70
     0
  0
APPID
  2
GENIUS_GENREC_14
 70
     0
  0
APPID
  2
GENIUS_GENODEF_13
 70
     0
  0
APPID
  2
GENIUS_GENOBJ-N-REC_13
 70
     0
  0
APPID
  2
DCO15
 70
     0
  0
APPID
  2
ACAD_DSTYLE_DIMJAG
 70
     0
  0
APPID
  2
ACAD_DSTYLE_DIMTALN
 70
     0
  0
APPID
  2
ACAD_MLEADERVER
 70
     0
  0
APPID
  2
GENIUS_GENSCREG_15
 70
     0
  0
APPID
  2
GENIUS_GENOBJ-N-SDF_13
 70
     0
  0
APPID
  2
ACAD_NAV_VCDISPLAY
 70
     0
  0
APPID
  2
ACAD_EXEMPT_FROM_CAD_STAND
 70
     0
  0
APPID
  2
ACCMTRANSPARENCY
 70
     0
  0
APPID
  2
GENIUS_GENOBJ-N-CEN_13
 70
     0
  0
APPID
  2
GENIUS_GENOBJ-N-FIL_13
 70
     0
  0
APPID
  2
GENIUS_GENCEN_19
 70
     0
  0
APPID
  2
ACAD_DSTYLE_DIMBREAK
 70
     0
  0
APPID
  2
PLOTTRANSPARENCY
 70
     0
  0
APPID
  2
GENIUS_GENOLIS_13
 70
     0
  0
APPID
  2
GENIUS_GENOENT_13
 70
     0
  0
APPID
  2
GENIUS_GENOBJ-N-CRS_13
 70
     0
  0
APPID
  2
GENIUS_GENOREF_13
 70
     0
  0
APPID
  2
HC_SUPERPART
 70
     0
  0
APPID
  2
HC_SP4BLOCK
 70
     0
  0
APPID
  2
HC_XDATA_SPRING
 70
     0
  0
APPID
  2
HCCAD_FRAME
 70
     0
  0
APPID
  2
GENIUS_GENOBJ-N-TIT_13
 70
     0
  0
APPID
  2
GENIUS_GENOBJ-N-ZOO_13
 70
     0
  0
APPID
  2
GENIUS_GENTITLE_13
 70
     0
  0
APPID
  2
GENIUS_GENSYMENT_13
 70
     0
  0
APPID
  2
GENIUS_GENSCSYM_13
 70
     0
  0
APPID
  2
GENIUS_GENOBJ-N-REV_13
 70
     0
  0
APPID
  2
GENIUS_GENOBJ-N-RSSYM_13
 70
     0
  0
APPID
  2
GENIUS_GENREV_15
 70
     0
  0
APPID
  2
HRA
 70
     0
  0
APPID
  2
HTIT
 70
     0
  0
APPID
  2
GENIUS_GENZOO_17
 70
     0
  0
APPID
  2
GENIUS_GENCRS_20
 70
     0
  0
APPID
  2
GENIUS_GENOBJ-N-CRC_13
 70
     0
  0
APPID
  2
GENIUS_GENCRC_14
 70
     0
  0
APPID
  2
GENIUS_GENFIL_13
 70
     0
  0
APPID
  2
GENIUS_GENOBJ-N-CHA_13
 70
     0
  0
APPID
  2
GENIUS_GENHATCH_13
 70
     0
  0
APPID
  2
GENIUS_GENOBJ-N-HTC_13
 70
     0
  0
APPID
  2
GENIUS_GENOBJ-N-DIM_13
 70
     0
  0
APPID
  2
GENIUS_GENOBJ-N-DIMLI_13
 70
     0
  0
APPID
  2
GENIUS_GENOBJ-N-FITL_13
 70
     0
  0
APPID
  2
GENIUS_GENFITL_13
 70
     0
  0
APPID
  2
GENLAYCOLOR
 70
     0
  0
APPID
  2
ACADANNOTATIVE
 70
     0
  0
ENDTAB
  0
TABLE
  2
DIMSTYLE
 70
    23
  0
DIMSTYLE
  2
STANDARD
 70
     0
  3

  4

  5

  6

  7

 40
1.0
 41
2.5
 42
0.625
 43
3.75
 44
1.25
 45
0.0
 46
0.0
 47
0.0
 48
0.0
140
2.5
141
2.5
142
0.0
143
0.0394
144
1.0
145
0.0
146
1.0
147
0.625
 71
     0
 72
     0
 73
     0
 74
     0
 75
     0
 76
     0
 77
     1
 78
     8
170
     0
171
     4
172
     1
173
     0
174
     0
175
     0
176
     0
177
     0
178
     0
  0
DIMSTYLE
  2
AM_JIS
 70
     0
  3

  4
"
  5
OPEN
  6

  7

 40
1.0
 41
2.5
 42
1.0
 43
7.0
 44
1.0
 45
0.0
 46
0.0
 47
0.1
 48
0.1
140
3.0
141
0.0
142
0.0
143
0.0393701
144
1.0
145
0.0
146
0.71
147
1.0
 71
     0
 72
     0
 73
     0
 74
     0
 75
     0
 76
     0
 77
     3
 78
     8
170
     0
171
     2
172
     1
173
     0
174
     0
175
     0
176
   256
177
   256
178
     2
  0
DIMSTYLE
  2
AM_JIS$3
 70
     0
  3

  4
"
  5
OPEN
  6

  7

 40
1.0
 41
2.5
 42
1.0
 43
10.0
 44
1.0
 45
0.0
 46
0.0
 47
0.1
 48
0.1
140
3.0
141
0.0
142
0.0
143
0.0393701
144
1.0
145
0.0
146
0.71
147
1.0
 71
     0
 72
     0
 73
     0
 74
     0
 75
     0
 76
     0
 77
     3
 78
     8
170
     0
171
     2
172
     1
173
     0
174
     0
175
     0
176
   256
177
   256
178
     2
  0
DIMSTYLE
  2
AM_JIS$4
 70
     0
  3

  4
"
  5

  6
OPEN30
  7
OPEN
 40
1.0
 41
2.5
 42
1.0
 43
10.0
 44
1.0
 45
0.0
 46
0.0
 47
0.1
 48
0.1
140
3.0
141
0.0
142
0.0
143
0.0393701
144
1.0
145
0.0
146
0.71
147
1.0
 71
     0
 72
     0
 73
     0
 74
     0
 75
     0
 76
     0
 77
     3
 78
     8
170
     0
171
     2
172
     1
173
     1
174
     0
175
     0
176
   256
177
   256
178
     2
  0
DIMSTYLE
  2
AM_JIS$6
 70
     0
  3

  4
"
  5
OPEN30
  6
OPEN30
  7
OPEN30
 40
1.0
 41
2.5
 42
1.0
 43
10.0
 44
1.0
 45
0.0
 46
0.0
 47
0.1
 48
0.1
140
3.5
141
0.0
142
0.0
143
0.0393701
144
1.0
145
0.0
146
0.71
147
1.5
 71
     0
 72
     0
 73
     0
 74
     0
 75
     0
 76
     0
 77
     0
 78
     8
170
     0
171
     2
172
     1
173
     0
174
     0
175
     0
176
   256
177
   256
178
     2
  0
DIMSTYLE
  2
AM_JIS$7
 70
     0
  3

  4
"
  5
OPEN30
  6

  7

 40
1.0
 41
2.5
 42
1.0
 43
10.0
 44
1.0
 45
0.0
 46
0.0
 47
0.1
 48
0.1
140
3.0
141
0.0
142
0.0
143
0.0393701
144
1.0
145
0.0
146
0.71
147
1.0
 71
     0
 72
     0
 73
     0
 74
     0
 75
     0
 76
     0
 77
     3
 78
     8
170
     0
171
     2
172
     1
173
     0
174
     0
175
     0
176
   256
177
   256
178
     2
  0
DIMSTYLE
  2
AM_JIS$SF
 70
     0
  3

  4
"
  5
OPEN
  6

  7

 40
1.0
 41
2.5
 42
1.0
 43
7.0
 44
1.0
 45
0.0
 46
0.0
 47
0.1
 48
0.1
140
3.5
141
0.0
142
0.0
143
0.0393701
144
1.0
145
0.0
146
0.71
147
1.5
 71
     0
 72
     0
 73
     0
 74
     0
 75
     1
 76
     1
 77
     3
 78
     8
170
     0
171
     2
172
     1
173
     0
174
     0
175
     0
176
   256
177
   256
178
     2
  0
DIMSTYLE
  2
AM_JIS$SH
 70
     0
  3

  4
"
  5

  6
GENAXEH
  7
OPEN
 40
1.0
 41
2.5
 42
1.0
 43
7.0
 44
1.0
 45
0.0
 46
0.0
 47
0.1
 48
0.1
140
3.5
141
0.0
142
0.0
143
0.0393701
144
2.0
145
0.0
146
0.71
147
1.5
 71
     0
 72
     0
 73
     0
 74
     0
 75
     1
 76
     1
 77
     3
 78
     8
170
     0
171
     2
172
     1
173
     1
174
     0
175
     0
176
   256
177
   256
178
     2
  0
DIMSTYLE
  2
AM_ISO
 70
     0
  3

  4
"
  5

  6

  7

 40
1.0
 41
2.5
 42
1.0
 43
10.0
 44
1.0
 45
0.0
 46
0.0
 47
0.1
 48
0.1
140
3.5
141
0.0
142
0.0
143
0.0393701
144
1.0
145
0.0
146
0.71
147
1.5
 71
     0
 72
     0
 73
     0
 74
     0
 75
     0
 76
     0
 77
     1
 78
     8
170
     0
171
     2
172
     1
173
     0
174
     0
175
     0
176
   256
177
   256
178
     2
  0
DIMSTYLE
  2
AM_ISO$3
 70
     0
  3

  4
"
  5

  6

  7

 40
1.0
 41
2.5
 42
1.0
 43
10.0
 44
1.0
 45
0.0
 46
0.0
 47
0.1
 48
0.1
140
3.5
141
0.0
142
0.0
143
0.0393701
144
1.0
145
0.0
146
0.71
147
1.5
 71
     0
 72
     0
 73
     0
 74
     1
 75
     0
 76
     0
 77
     1
 78
     8
170
     0
171
     2
172
     0
173
     0
174
     0
175
     0
176
   256
177
   256
178
     2
  0
DIMSTYLE
  2
AM_ISO$4
 70
     0
  3

  4
"
  5

  6

  7

 40
1.0
 41
2.5
 42
1.0
 43
10.0
 44
1.0
 45
0.0
 46
0.0
 47
0.1
 48
0.1
140
3.5
141
0.0
142
0.0
143
0.0393701
144
1.0
145
0.0
146
0.71
147
1.5
 71
     0
 72
     0
 73
     0
 74
     1
 75
     0
 76
     0
 77
     1
 78
     8
170
     0
171
     2
172
     0
173
     0
174
     0
175
     0
176
   256
177
   256
178
     2
  0
DIMSTYLE
  2
AM_ISO$6
 70
     0
  3

  4
"
  5

  6

  7

 40
1.0
 41
2.5
 42
1.0
 43
10.0
 44
1.0
 45
0.0
 46
0.0
 47
0.1
 48
0.1
140
3.5
141
0.0
142
0.0
143
0.0393701
144
1.0
145
0.0
146
0.71
147
1.5
 71
     0
 72
     0
 73
     0
 74
     0
 75
     0
 76
     0
 77
     0
 78
     8
170
     0
171
     2
172
     1
173
     0
174
     0
175
     0
176
   256
177
   256
178
     2
  0
DIMSTYLE
  2
AM_ISO$7
 70
     0
  3

  4
"
  5

  6

  7

 40
1.0
 41
2.5
 42
1.0
 43
10.0
 44
1.0
 45
0.0
 46
0.0
 47
0.1
 48
0.1
140
5.0
141
0.0
142
0.0
143
0.0393701
144
1.0
145
0.0
146
0.71
147
1.5
 71
     0
 72
     0
 73
     0
 74
     0
 75
     0
 76
     0
 77
     1
 78
     8
170
     0
171
     2
172
     1
173
     0
174
     0
175
     0
176
   256
177
   256
178
     2
  0
DIMSTYLE
  2
AM_ISO$SF
 70
     0
  3

  4
"
  5

  6

  7

 40
1.0
 41
2.5
 42
1.0
 43
10.0
 44
1.0
 45
0.0
 46
0.0
 47
0.1
 48
0.1
140
3.5
141
0.0
142
0.0
143
0.0393701
144
1.0
145
0.0
146
0.71
147
1.5
 71
     0
 72
     0
 73
     0
 74
     0
 75
     1
 76
     1
 77
     1
 78
     8
170
     0
171
     2
172
     1
173
     0
174
     0
175
     0
176
   256
177
   256
178
     2
  0
DIMSTYLE
  2
AM_ISO$SH
 70
     0
  3

  4
"
  5

  6
GENAXEH
  7

 40
1.0
 41
2.5
 42
1.0
 43
10.0
 44
1.0
 45
0.0
 46
0.0
 47
0.1
 48
0.1
140
3.5
141
0.0
142
0.0
143
0.0393701
144
2.0
145
0.0
146
0.71
147
1.5
 71
     0
 72
     0
 73
     0
 74
     0
 75
     1
 76
     1
 77
     1
 78
     8
170
     0
171
     2
172
     1
173
     1
174
     0
175
     0
176
   256
177
   256
178
     2
  0
DIMSTYLE
  2
AM_JIS$2
 70
     0
  3

  4
"
  5
OPEN
  6

  7

 40
1.0
 41
2.5
 42
1.0
 43
7.0
 44
1.0
 45
0.0
 46
0.0
 47
0.1
 48
0.1
140
3.0
141
0.0
142
0.0
143
0.0393701
144
1.0
145
0.0
146
0.71
147
1.0
 71
     0
 72
     0
 73
     0
 74
     0
 75
     0
 76
     0
 77
     3
 78
     8
170
     0
171
     2
172
     1
173
     0
174
     0
175
     0
176
   256
177
   256
178
     2
  0
DIMSTYLE
  2
AM_JIS$0
 70
     0
  3

  4
"
  5
OPEN
  6

  7

 40
1.0
 41
2.5
 42
1.0
 43
7.0
 44
1.0
 45
0.0
 46
0.0
 47
0.1
 48
0.1
140
3.0
141
0.0
142
0.0
143
0.0393701
144
1.0
145
0.0
146
0.71
147
1.0
 71
     0
 72
     0
 73
     0
 74
     0
 75
     0
 76
     0
 77
     3
 78
     8
170
     0
171
     2
172
     1
173
     0
174
     0
175
     0
176
   256
177
   256
178
     2
  0
DIMSTYLE
  2
AM_ANSI
 70
     0
  3

  4
mm
  5

  6

  7

 40
1.0
 41
0.12
 42
0.05
 43
0.5
 44
0.1
 45
0.0
 46
0.0
 47
0.1
 48
0.1
140
0.12
141
0.0
142
0.0
143
25.4
144
1.0
145
0.0
146
0.71
147
0.06
 71
     0
 72
     0
 73
     1
 74
     1
 75
     0
 76
     0
 77
     0
 78
     7
170
     0
171
     2
172
     0
173
     0
174
     0
175
     0
176
   256
177
   256
178
     2
  0
DIMSTYLE
  2
AM_ANSI$3
 70
     0
  3

  4
mm
  5

  6

  7

 40
1.0
 41
0.12
 42
0.05
 43
0.5
 44
0.1
 45
0.0
 46
0.0
 47
0.1
 48
0.1
140
0.12
141
0.0
142
0.0
143
25.4
144
1.0
145
0.0
146
0.71
147
0.06
 71
     0
 72
     0
 73
     1
 74
     1
 75
     0
 76
     0
 77
     0
 78
     7
170
     0
171
     2
172
     0
173
     0
174
     0
175
     0
176
   256
177
   256
178
     2
  0
DIMSTYLE
  2
AM_ANSI$4
 70
     0
  3

  4
mm
  5

  6

  7

 40
1.0
 41
0.12
 42
0.05
 43
0.5
 44
0.1
 45
0.0
 46
0.0
 47
0.1
 48
0.1
140
0.12
141
0.0
142
0.0
143
25.4
144
1.0
145
0.0
146
0.71
147
0.06
 71
     0
 72
     0
 73
     1
 74
     1
 75
     0
 76
     0
 77
     0
 78
     7
170
     0
171
     2
172
     0
173
     0
174
     0
175
     0
176
   256
177
   256
178
     2
  0
DIMSTYLE
  2
AM_ANSI$7
 70
     0
  3

  4
mm
  5

  6

  7

 40
1.0
 41
0.12
 42
0.05
 43
0.5
 44
0.1
 45
0.0
 46
0.0
 47
0.1
 48
0.1
140
0.12
141
0.0
142
0.0
143
25.4
144
1.0
145
0.0
146
0.71
147
0.06
 71
     0
 72
     0
 73
     1
 74
     1
 75
     0
 76
     0
 77
     0
 78
     7
170
     0
171
     2
172
     0
173
     0
174
     0
175
     0
176
   256
177
   256
178
     2
  0
DIMSTYLE
  2
AM_ANSI$SF
 70
     0
  3

  4
mm
  5

  6

  7

 40
1.0
 41
0.12
 42
0.05
 43
0.5
 44
0.1
 45
0.0
 46
0.0
 47
0.1
 48
0.1
140
0.12
141
0.0
142
0.0
143
25.4
144
1.0
145
0.0
146
0.71
147
0.06
 71
     0
 72
     0
 73
     1
 74
     1
 75
     1
 76
     1
 77
     0
 78
     7
170
     0
171
     2
172
     0
173
     0
174
     0
175
     0
176
   256
177
   256
178
     2
  0
DIMSTYLE
  2
AM_ANSI$SH
 70
     0
  3

  4
mm
  5

  6
GENAXEH
  7

 40
1.0
 41
0.12
 42
0.05
 43
0.5
 44
0.1
 45
0.0
 46
0.0
 47
0.1
 48
0.1
140
0.12
141
0.0
142
0.0
143
25.4
144
1.0
145
0.0
146
0.71
147
0.06
 71
     0
 72
     0
 73
     1
 74
     1
 75
     1
 76
     1
 77
     0
 78
     7
170
     0
171
     2
172
     0
173
     1
174
     0
175
     0
176
   256
177
   256
178
     2
  0
ENDTAB
  0
ENDSEC
  0
SECTION
  2
BLOCKS
  0
BLOCK
  8
0
  2
$MODEL_SPACE
 70
     0
 10
0.0
 20
0.0
 30
0.0
  3
$MODEL_SPACE
  1

  0
ENDBLK
  5
1C
  8
0
  0
BLOCK
 67
     1
  8
0
  2
$PAPER_SPACE
 70
     0
 10
0.0
 20
0.0
 30
0.0
  3
$PAPER_SPACE
  1

  0
ENDBLK
  5
19
 67
     1
  8
0
  0
BLOCK
  8
0
  2
_OPEN30
 70
     0
 10
0.0
 20
0.0
 30
0.0
  3
_OPEN30
  1

  0
LINE
  5
2EF
  8
0
  6
BYBLOCK
 62
     0
 10
-1.0
 20
0.26794919
 30
0.0
 11
0.0
 21
0.0
 31
0.0
  0
LINE
  5
2F0
  8
0
  6
BYBLOCK
 62
     0
 10
0.0
 20
0.0
 30
0.0
 11
-1.0
 21
-0.26794919
 31
0.0
  0
LINE
  5
2F1
  8
0
  6
BYBLOCK
 62
     0
 10
0.0
 20
0.0
 30
0.0
 11
-1.0
 21
0.0
 31
0.0
  0
ENDBLK
  5
2F3
  8
0
  0
BLOCK
  8
0
  2
GENAXEH
 70
     0
 10
0.0
 20
0.0
 30
0.0
  3
GENAXEH
  1

  0
LINE
  5
2F5
  8
0
 10
-1.0
 20
0.0
 30
0.0
 11
1.0
 21
0.0
 31
0.0
  0
ENDBLK
  5
2F7
  8
0
  0
BLOCK
  8
0
  2
_OPEN
 70
     0
 10
0.0
 20
0.0
 30
0.0
  3
_OPEN
  1

  0
LINE
  5
597
  8
0
  6
BYBLOCK
 62
     0
 10
-1.0
 20
0.1666666666666667
 30
0.0
 11
0.0
 21
0.0
 31
0.0
  0
LINE
  5
598
  8
0
  6
BYBLOCK
 62
     0
 10
-1.0
 20
-0.1666666666666667
 30
0.0
 11
0.0
 21
0.0
 31
0.0
  0
LINE
  5
599
  8
0
  6
BYBLOCK
 62
     0
 10
0.0
 20
0.0
 30
0.0
 11
-1.0
 21
0.0
 31
0.0
  0
ENDBLK
  5
59B
  8
0
  0
BLOCK
  8
0
  2
_TAGCIRCLE
 70
     2
 10
0.0
 20
0.0
 30
0.0
  3
_TAGCIRCLE
  1

  0
CIRCLE
  5
1151
  8
0
  6
BYBLOCK
 62
     0
 10
0.0
 20
0.0
 30
0.0
 40
4.0
  0
ATTDEF
  5
1152
  8
0
 62
     0
 10
-7.1
 20
-1.5
 30
0.0
 40
3.0
  1
タグ番号
 72
     1
 11
0.0
 21
-1.5
 31
0.0
  3
タグ番号を入力
  2
タグ番号
 70
     0
  0
ENDBLK
  5
1154
  8
0
  0
BLOCK
  8
0
  2
_ACMFILLED15
 70
     0
 10
0.0
 20
0.0
 30
0.0
  3
_ACMFILLED15
  1
Acad:XRef
  0
TRACE
  5
7958
  8
AM_0
 62
     0
 10
-1.0
 20
0.1316524975873958
 30
0.0
 11
-1.0
 21
-0.1316524975873958
 31
0.0
 12
0.0
 22
0.0
 32
0.0
 13
0.0
 23
0.0
 33
0.0
  0
ENDBLK
  5
7956
  8
0
  0
BLOCK
  8
0
  2
_ACMOPEN30
 70
     0
 10
0.0
 20
0.0
 30
0.0
  3
_ACMOPEN30
  1
Acad:XRef
  0
LINE
  5
7962
  8
AM_0
 62
     0
 10
-1.0
 20
0.0
 30
0.0
 11
0.0
 21
0.0
 31
0.0
  0
LINE
  5
7963
  8
AM_0
 62
     0
 10
-1.0
 20
-0.2679491924311227
 30
0.0
 11
0.0
 21
0.0
 31
0.0
  0
LINE
  5
7964
  8
AM_0
 62
     0
 10
-1.0
 20
0.2679491924311227
 30
0.0
 11
0.0
 21
0.0
 31
0.0
  0
ENDBLK
  5
7961
  8
0
  0
BLOCK
  8
0
  2
_ACMFILLEDHALF
 70
     0
 10
0.0
 20
0.0
 30
0.0
  3
_ACMFILLEDHALF
  1

  0
TRACE
  5
796D
  8
0
 62
     0
 10
-0.8
 20
0.0
 30
0.0
 11
-1.0
 21
0.166666666
 31
0.0
 12
0.0
 22
0.0
 32
0.0
 13
0.0
 23
0.0
 33
0.0
  0
LINE
  5
796E
  8
0
 62
     0
 10
-1.0
 20
0.0
 30
0.0
 11
-0.8
 21
0.0
 31
0.0
  0
ENDBLK
  5
796F
  8
0
  0
BLOCK
  8
0
  2
_ACMOPEN15
 70
     0
 10
0.0
 20
0.0
 30
0.0
  3
_ACMOPEN15
  1
Acad:XRef
  0
LINE
  5
797C
  8
AM_0
 62
     0
 10
-1.0
 20
0.0
 30
0.0
 11
0.0
 21
0.0
 31
0.0
  0
LINE
  5
797D
  8
AM_0
 62
     0
 10
-1.0
 20
-0.1316524975873958
 30
0.0
 11
0.0
 21
0.0
 31
0.0
  0
LINE
  5
797E
  8
AM_0
 62
     0
 10
-1.0
 20
0.1316524975873958
 30
0.0
 11
0.0
 21
0.0
 31
0.0
  0
ENDBLK
  5
797B
  8
0
  0
BLOCK
  8
0
  2
*X14
 70
     1
 10
0.0
 20
0.0
 30
0.0
  3
*X14
  1
Acad:XRef
  0
TEXT
  5
9BA9
  8
0
 10
69.35713162404987
 20
206.6384413458445
 30
0.0
 40
1.9
  1
凍結
  0
TEXT
  5
9BAA
  8
0
 10
69.34303143852112
 20
203.31432260744
 30
0.0
 40
1.9
  1
予防
  0
ENDBLK
  5
9BAC
  8
0
  0
ENDSEC
  0
SECTION
  2
ENTITIES
  0
TEXT
  5
17B8
  8
10
 10
-1.499993509006345
 20
0.000000316319074
 30
0.0
 40
10.0
  1
2024.02.01 ER2000SQ 2台連動
 11
-1.499993509006345
 21
0.000000316319074
 31
0.0
 73
     1
  0
LINE
  5
467E
  8
0
 10
25.52186071078972
 20
289.8911315128205
 30
0.0
 11
125.5218607107897
 21
289.8911315128203
 31
0.0
  0
LINE
  5
467F
  8
0
 10
25.52186071078972
 20
169.8911315128204
 30
0.0
 11
125.5218607107897
 21
169.8911315128204
 31
0.0
  0
ARC
  5
4681
  8
0
 10
25.52186071078972
 20
281.8911315128205
 30
0.0
 40
8.0
 50
90.0
 51
180.0
  0
LINE
  5
4682
  8
0
 10
21.2792200236704
 20
286.1337721999396
 30
0.0
 11
29.52186071078972
 21
277.8911315128205
 31
0.0
  0
LINE
  5
4683
  8
0
 10
31.52186071078972
 20
181.8911315128203
 30
0.0
 11
119.5218607107897
 21
181.8911315128205
 31
0.0
  0
LINE
  5
4684
  8
0
 10
31.52186071078972
 20
277.8911315128205
 30
0.0
 11
119.5218607107897
 21
277.8911315128204
 31
0.0
  0
LINE
  5
4687
  8
0
 10
29.52186071078972
 20
275.8911315128205
 30
0.0
 11
29.52186071078972
 21
183.8911315128204
 31
0.0
  0
LINE
  5
4689
  8
0
 10
17.52186071078972
 20
281.8911315128205
 30
0.0
 11
17.52186071078972
 21
177.8911315128204
 31
0.0
  0
LINE
  5
468A
  8
0
 10
21.27922002367063
 20
173.648490825701
 30
0.0
 11
29.52186071078972
 21
181.8911315128204
 31
0.0
  0
ARC
  5
468B
  8
0
 10
25.52186071078972
 20
177.8911315128204
 30
0.0
 40
8.0
 50
180.0
 51
270.0
  0
ARC
  5
468F
  8
0
 10
125.5218607107897
 20
281.8911315128203
 30
0.0
 40
8.0
 50
0.0
 51
90.0
  0
LINE
  5
4690
  8
0
 10
129.764501397909
 20
286.1337721999396
 30
0.0
 11
121.5218607107897
 21
277.8911315128203
 31
0.0
  0
LINE
  5
4692
  8
0
 10
121.5218607107897
 20
275.8911315128204
 30
0.0
 11
121.5218607107897
 21
183.8911315128205
 31
0.0
  0
LINE
  5
4693
  8
0
 10
133.5218607107897
 20
281.8911315128203
 30
0.0
 11
133.5218607107897
 21
177.8911315128204
 31
0.0
  0
LINE
  5
4694
  8
0
 10
121.5218607107897
 20
181.8911315128205
 30
0.0
 11
129.764501397909
 21
173.6484908257009
 31
0.0
  0
ARC
  5
4695
  8
0
 10
125.5218607107897
 20
177.8911315128204
 30
0.0
 40
8.0
 50
270.0
 51
0.0
  0
LINE
  5
758C
  8
0
 10
189.5661038972001
 20
280.47591693705
 30
0.0
 11
190.8619899514807
 21
287.8252519569874
 31
0.0
  0
LINE
  5
758D
  8
0
 10
194.6103364875663
 20
169.8911315128203
 30
0.0
 11
194.6103364875664
 21
289.8911315128203
 31
0.0
  0
LINE
  5
7590
  8
0
 10
189.1103364875664
 20
184.5157914185978
 30
0.0
 11
189.1103364875664
 21
275.2664716070421
 31
0.0
  0
LINE
  5
7595
  8
0
 10
189.5661038972001
 20
179.30634608859
 30
0.0
 11
190.8619899514807
 21
171.9570110686531
 31
0.0
  0
ARC
  5
7596
  8
0
 10
193.3240093340112
 20
172.3911315128204
 30
0.0
 40
2.5
 50
190.0000000000002
 51
270.0
  0
LINE
  5
7597
  8
0
 10
194.6103364875664
 20
169.8911315128204
 30
0.0
 11
193.3240093340112
 21
169.8911315128204
 31
0.0
  0
ARC
  5
7598
  8
0
 10
219.1103364875665
 20
184.5157914185978
 30
0.0
 40
30.0
 50
180.0
 51
190.0000000000002
  0
ARC
  5
7599
  8
0
 10
219.1103364875665
 20
275.2664716070421
 30
0.0
 40
30.0
 50
169.9999999999998
 51
180.0
  0
ARC
  5
759A
  8
0
 10
193.3240093340112
 20
287.39113151282
 30
0.0
 40
2.5
 50
90.0
 51
169.9999999999998
  0
LINE
  5
759B
  8
0
 10
194.6103364875598
 20
289.8911315128203
 30
0.0
 11
193.3240093340046
 21
289.8911315128203
 31
0.0
  0
ARC
  5
759C
  8
0
 10
186.4103366337812
 20
259.6911315128203
 30
0.0
 40
1.0
 50
90.0
 51
180.0
  0
LINE
  5
759D
  8
0
 10
186.4103366337812
 20
260.6911315128203
 30
0.0
 11
189.1103366337811
 21
260.6911315128203
 31
0.0
  0
LINE
  5
759E
  8
0
 10
186.4103366337812
 20
253.6911315128203
 30
0.0
 11
189.1103366337811
 21
253.6911315128203
 31
0.0
  0
LINE
  5
759F
  8
0
 10
185.4103366337812
 20
259.6911315128203
 30
0.0
 11
185.4103366337812
 21
254.6911315128203
 31
0.0
  0
ARC
  5
75A0
  8
0
 10
186.4103366337812
 20
254.6911315128203
 30
0.0
 40
1.0
 50
180.0
 51
270.0
  0
LINE
  5
75BF
  8
0
 10
125.5218614558476
 20
144.5475006768111
 30
0.0
 11
25.52185996573144
 21
144.5475006768111
 31
0.0
  0
LINE
  5
75C0
  8
0
 10
125.5218614558476
 20
140.5475008360673
 30
0.0
 11
25.52185996573144
 21
140.5475008360673
 31
0.0
  0
LINE
  5
75C1
  8
0
 10
17.52186237971955
 20
140.5475008360673
 30
0.0
 11
17.52186237971955
 21
144.5475006768111
 31
0.0
  0
LINE
  5
75C2
  8
0
 10
25.52185996573144
 20
144.5475006768111
 30
0.0
 11
17.52186237971955
 21
144.5475006768111
 31
0.0
  0
LINE
  5
75C3
  8
0
 10
25.52185996573144
 20
140.5475008360673
 30
0.0
 11
17.52186237971955
 21
140.5475008360673
 31
0.0
  0
LINE
  5
75C4
  8
0
 10
133.5218590418594
 20
140.5475008360673
 30
0.0
 11
133.5218590418594
 21
144.5475006768111
 31
0.0
  0
LINE
  5
75C5
  8
0
 10
133.5218590418594
 20
144.5475006768111
 30
0.0
 11
125.5218614558476
 21
144.5475006768111
 31
0.0
  0
LINE
  5
75C6
  8
0
 10
133.5218590418594
 20
140.5475008360673
 30
0.0
 11
125.5218614558476
 21
140.5475008360673
 31
0.0
  0
LINE
  5
75C7
  8
0
 10
18.62186237375909
 20
144.5475006768111
 30
0.0
 11
18.62186237375909
 21
145.0475006768082
 31
0.0
  0
LINE
  5
75C8
  8
0
 10
132.4218590478199
 20
144.5475006768111
 30
0.0
 11
132.4218590478199
 21
145.0475006768082
 31
0.0
  0
LINE
  5
75C9
  8
0
 10
118.5218621711033
 20
138.0475008919466
 30
0.0
 11
32.5218592504757
 21
138.0475008919466
 31
0.0
  0
LINE
  5
75CA
  8
0
 10
120.5218624989288
 20
140.5475008360673
 30
0.0
 11
120.5218624989288
 21
138.0475008919466
 31
0.0
  0
LINE
  5
75CB
  8
0
 10
120.5218624989288
 20
138.0475008919466
 30
0.0
 11
118.5218621711033
 21
138.0475008919466
 31
0.0
  0
LINE
  5
75CC
  8
0
 10
30.52185892265015
 20
138.0475008919466
 30
0.0
 11
30.52185892265015
 21
140.5475008360673
 31
0.0
  0
LINE
  5
75CD
  8
0
 10
32.5218592504757
 20
138.0475008919466
 30
0.0
 11
30.52185892265015
 21
138.0475008919466
 31
0.0
  0
LINE
  5
75CE
  8
0
 10
39.0218612472313
 20
150.5475006125498
 30
0.0
 11
112.0218601743477
 21
150.5475006125498
 31
0.0
  0
LINE
  5
75CF
  8
0
 10
118.5218621711037
 20
118.5475004896152
 30
0.0
 11
50.02186118762711
 21
118.5475004896152
 31
0.0
  0
LINE
  5
75D0
  8
0
 10
50.02186118762711
 20
118.5475004896152
 30
0.0
 11
40.15028893153885
 21
118.5475004896152
 31
0.0
  0
LINE
  5
75D1
  8
0
 10
38.73607560198525
 20
119.1332874878872
 30
0.0
 11
33.52186127703408
 21
124.3474999501932
 31
0.0
  0
LINE
  5
75D2
  8
0
 10
33.52186127703408
 20
124.3474999501932
 30
0.0
 11
33.1076462487481
 21
124.7617149784792
 31
0.0
  0
ARC
  5
75D3
  8
0
 10
118.52186071079
 20
120.5475006982315
 30
0.0
 40
2.000000000000028
 50
270.0
 51
0.0
  0
ARC
  5
75D4
  8
0
 10
40.15028783553589
 20
120.5475006982315
 30
0.0
 40
2.0
 50
224.9999999999911
 51
270.0
  0
LINE
  5
75D5
  8
0
 10
118.5218621711037
 20
137.5475008099902
 30
0.0
 11
32.52185925047615
 21
137.5475008099902
 31
0.0
  0
LINE
  5
75D6
  8
0
 10
120.5218624989293
 20
137.5475008099902
 30
0.0
 11
118.5218621711037
 21
137.5475008099902
 31
0.0
  0
LINE
  5
75D7
  8
0
 10
120.5218624989293
 20
137.5475008099902
 30
0.0
 11
120.5218624989293
 21
120.5475008174408
 31
0.0
  0
ARC
  5
75D8
  8
0
 10
34.52186071078995
 20
126.1759278229777
 30
0.0
 40
2.0
 50
180.0
 51
224.9999999999911
  0
LINE
  5
75D9
  8
0
 10
32.52185925047615
 20
126.1759283080328
 30
0.0
 11
32.52185925047615
 21
135.0475008658696
 31
0.0
  0
LINE
  5
75DA
  8
0
 10
30.52185892265061
 20
135.0475008658696
 30
0.0
 11
30.52185892265061
 21
137.5475008099902
 31
0.0
  0
LINE
  5
75DB
  8
0
 10
32.52185925047615
 20
137.5475008099902
 30
0.0
 11
30.52185892265061
 21
137.5475008099902
 31
0.0
  0
LINE
  5
75DC
  8
0
 10
32.52185925047615
 20
135.0475008658696
 30
0.0
 11
30.52185892265061
 21
135.0475008658696
 31
0.0
  0
LINE
  5
75DD
  8
0
 10
31.62185891669014
 20
137.5475008099902
 30
0.0
 11
31.62185891669014
 21
138.0475008919466
 31
0.0
  0
LINE
  5
75DE
  8
0
 10
119.4218625048898
 20
137.5475008099902
 30
0.0
 11
119.4218625048898
 21
138.0475008919466
 31
0.0
  0
ARC
  5
75DF
  8
0
 10
114.7218607107898
 20
118.3475006982314
 30
0.0
 40
0.2000000000000171
 50
90.0
 51
180.0
  0
LINE
  5
75E0
  8
0
 10
48.52186001043538
 20
118.5475004896152
 30
0.0
 11
48.52186001043538
 21
118.3475008293617
 31
0.0
  0
LINE
  5
75E1
  8
0
 10
50.02186118762711
 20
118.3475008293617
 30
0.0
 11
50.02186118762711
 21
118.5475004896152
 31
0.0
  0
LINE
  5
75E2
  8
0
 10
49.82186152737358
 20
109.6934503003586
 30
0.0
 11
48.40028702419022
 21
109.6934503003586
 31
0.0
  0
LINE
  5
75E3
  8
0
 10
50.02186118762711
 20
110.5792535528171
 30
0.0
 11
48.59898655812958
 21
110.5792535528171
 31
0.0
  0
LINE
  5
75E4
  8
0
 10
112.5218611876271
 20
109.5475008770454
 30
0.0
 11
50.02186118762711
 21
109.5475008770454
 31
0.0
  0
LINE
  5
75E5
  8
0
 10
50.02186118762711
 20
110.5792535528171
 30
0.0
 11
50.02186118762711
 21
111.547501204871
 31
0.0
  0
LINE
  5
75E6
  8
0
 10
50.02186118762711
 20
109.5475008770454
 30
0.0
 11
50.02186118762711
 21
109.6246106609333
 31
0.0
  0
LINE
  5
75E7
  8
0
 10
47.73607335190991
 20
110.1332878753174
 30
0.0
 11
38.91496776740769
 21
118.9543953224647
 31
0.0
  0
LINE
  5
75E8
  8
0
 10
48.52186001043538
 20
111.9695225789774
 30
0.0
 11
48.52186001043538
 21
110.9190745338428
 31
0.0
  0
ARC
  5
75E9
  8
0
 10
112.52186071079
 20
111.5475006982315
 30
0.0
 40
2.0
 50
270.0
 51
0.0
  0
LINE
  5
75EA
  8
0
 10
48.52186001043538
 20
111.9695225789774
 30
0.0
 11
48.52186001043538
 21
118.3475008293617
 31
0.0
  0
LINE
  5
75EB
  8
0
 10
114.5218615154527
 20
118.3475008293617
 30
0.0
 11
114.5218615154527
 21
111.547501204871
 31
0.0
  0
LINE
  5
75EC
  8
0
 10
50.02186118762711
 20
118.3475008293617
 30
0.0
 11
50.02186118762711
 21
111.547501204871
 31
0.0
  0
ARC
  5
75ED
  8
0
 10
49.15028783553589
 20
111.5475006982315
 30
0.0
 40
1.114196214777944
 50
235.6658476036726
 51
240.3436094009312
  0
ARC
  5
75EE
  8
0
 10
49.15028783553589
 20
111.5475006982315
 30
0.0
 40
2.000000000000035
 50
224.9999999999911
 51
247.9756871629578
  0
ARC
  5
75EF
  8
0
 10
48.72186071078977
 20
111.2475006982315
 30
0.0
 40
0.2000000000000171
 50
180.0
 51
270.0
  0
LINE
  5
75F0
  8
0
 10
48.72186153333405
 20
111.047500191592
 30
0.0
 11
49.82186152737358
 21
111.047500191592
 31
0.0
  0
ARC
  5
75F1
  8
0
 10
49.82186071079013
 20
111.2475006982315
 30
0.0
 40
0.1999999999999886
 50
270.0
 51
0.0
  0
ARC
  5
75F2
  8
0
 10
49.15028783553589
 20
111.5475006982315
 30
0.0
 40
2.000000000000035
 50
247.9756871629578
 51
270.0
  0
LINE
  5
75F3
  8
0
 10
49.15028854410866
 20
109.5475008770454
 30
0.0
 11
50.02186118762711
 21
109.5475008770454
 31
0.0
  0
LINE
  5
75F4
  8
0
 10
48.52186001043538
 20
112.1759278758991
 30
0.0
 11
49.09170835416535
 21
111.6060795321691
 31
0.0
  0
LINE
  5
75F5
  8
0
 10
49.23312968712071
 20
111.547501204871
 30
0.0
 11
50.02186118762711
 21
111.547501204871
 31
0.0
  0
ARC
  5
75F6
  8
0
 10
49.23313054801019
 20
111.7475006982315
 30
0.0
 40
0.1999999999999895
 50
224.9999999999911
 51
270.0
  0
LINE
  5
75F7
  8
0
 10
32.52186071078995
 20
126.1759278229777
 30
0.0
 11
32.52185925047615
 21
125.3475016195261
 31
0.0
  0
LINE
  5
75F8
  8
0
 10
32.52185925047615
 20
125.3475016195261
 30
0.0
 11
33.10760591473445
 21
124.7616746499944
 31
0.0
  0
LINE
  5
75F9
  8
0
 10
52.96669090893397
 20
153.747133347914
 30
0.0
 11
51.9666909089342
 21
153.747133347914
 31
0.0
  0
LINE
  5
75FA
  8
0
 10
53.9666909089342
 20
154.247133347914
 30
0.0
 11
52.9666909089342
 21
154.247133347914
 31
0.0
  0
LINE
  5
75FB
  8
0
 10
51.9666909089342
 20
154.247133347914
 30
0.0
 11
50.9666909089342
 21
154.247133347914
 31
0.0
  0
LINE
  5
75FC
  8
0
 10
51.9666909089342
 20
154.247133347914
 30
0.0
 11
51.9666909089342
 21
153.747133347914
 31
0.0
  0
LINE
  5
75FD
  8
0
 10
54.9666909089342
 20
154.247133347914
 30
0.0
 11
54.9666909089342
 21
153.747133347914
 31
0.0
  0
LINE
  5
75FE
  8
0
 10
52.9666909089342
 20
154.247133347914
 30
0.0
 11
52.96669090893397
 21
153.747133347914
 31
0.0
  0
LINE
  5
75FF
  8
0
 10
53.9666909089342
 20
154.247133347914
 30
0.0
 11
53.9666909089342
 21
153.747133347914
 31
0.0
  0
LINE
  5
7600
  8
0
 10
54.9666909089342
 20
153.747133347914
 30
0.0
 11
53.9666909089342
 21
153.747133347914
 31
0.0
  0
LINE
  5
7601
  8
0
 10
56.9666909089342
 20
150.5475006125498
 30
0.0
 11
56.96669090893397
 21
153.247133347914
 31
0.0
  0
ARC
  5
7602
  8
0
 10
55.96669090893397
 20
153.247133347914
 30
0.0
 40
1.0
 50
0.0
 51
90.0
  0
LINE
  5
7603
  8
0
 10
55.96669090893397
 20
154.247133347914
 30
0.0
 11
54.9666909089342
 21
154.247133347914
 31
0.0
  0
LINE
  5
7604
  8
0
 10
49.9666909089342
 20
150.5475006125498
 30
0.0
 11
49.9666909089342
 21
153.247133347914
 31
0.0
  0
ARC
  5
7605
  8
0
 10
50.9666909089342
 20
153.247133347914
 30
0.0
 40
1.0
 50
90.0
 51
180.0
  0
ARC
  5
7606
  8
0
 10
40.32185308139447
 20
117.5475119877229
 30
0.0
 40
0.3000000119209
 50
179.9980552173233
 51
314.9996865396482
  0
LINE
  5
7607
  8
0
 10
40.02186147372868
 20
117.5475119877229
 30
0.0
 11
33.5218652884264
 21
124.047508173026
 31
0.0
  0
LINE
  5
7608
  8
0
 10
35.50176946323063
 20
119.239177637138
 30
0.0
 11
36.91598073642444
 21
120.6533927250279
 31
0.0
  0
LINE
  5
7609
  8
0
 10
36.91598073642444
 20
117.8249663639439
 30
0.0
 11
38.33019582431461
 21
119.239177637138
 31
0.0
  0
LINE
  5
760A
  8
0
 10
36.63312856357243
 20
117.8249739933389
 30
0.0
 11
35.50176564853336
 21
118.9563369083779
 31
0.0
  0
ARC
  5
760B
  8
0
 10
35.64318792026256
 20
119.0977629948039
 30
0.0
 40
0.2000000029802
 50
135.0000039841164
 51
224.9999996583493
  0
ARC
  5
760C
  8
0
 10
36.77455846469547
 20
117.9663962650669
 30
0.0
 40
0.2000000029802
 50
224.9999996583493
 51
314.9999987478129
  0
LINE
  5
760D
  8
0
 10
33.52185765903141
 20
124.047500543632
 30
0.0
 11
33.52185765903141
 21
124.3475035681959
 31
0.0
  0
LINE
  5
760E
  8
0
 10
133.5218607107893
 20
145.0475006768082
 30
0.0
 11
17.52186071078904
 21
145.0475006768082
 31
0.0
  0
ARC
  5
760F
  8
0
 10
118.8972008050118
 20
120.5475006768082
 30
0.0
 40
30.0
 50
80.00000000000146
 51
90.0
  0
LINE
  5
7610
  8
0
 10
118.8972008050118
 20
150.5475006768082
 30
0.0
 11
32.14652061656716
 21
150.5475006768082
 31
0.0
  0
ARC
  5
7611
  8
0
 10
131.0218607107893
 20
146.3338278303634
 30
0.0
 40
2.5
 50
0.0
 51
80.00000000000146
  0
LINE
  5
7612
  8
0
 10
133.5218607107893
 20
145.0475006768082
 30
0.0
 11
133.5218607107893
 21
146.3338278303634
 31
0.0
  0
LINE
  5
7613
  8
0
 10
124.1066461350197
 20
150.0917332671744
 30
0.0
 11
131.4559811549566
 21
148.7958472128939
 31
0.0
  0
ARC
  5
7614
  8
0
 10
32.14652061656716
 20
120.5475006768082
 30
0.0
 40
30.0
 50
90.0
 51
99.99999999999855
  0
ARC
  5
7615
  8
0
 10
20.02186071078927
 20
146.3338278303633
 30
0.0
 40
2.5
 50
99.99999999999855
 51
180.0
  0
LINE
  5
7616
  8
0
 10
26.93707528655932
 20
150.0917332671744
 30
0.0
 11
19.58774026662195
 21
148.7958472128938
 31
0.0
  0
LINE
  5
7617
  8
0
 10
17.52186071078904
 20
145.0475006768148
 30
0.0
 11
17.52186071078904
 21
146.33382783037
 31
0.0
  0
LINE
  5
7618
  8
0
 10
202.1103363543843
 20
263.0161306560044
 30
0.0
 11
202.1103363543843
 21
197.0161310136322
 31
0.0
  0
LINE
  5
7619
  8
0
 10
202.1103363543843
 20
265.01613098383
 30
0.0
 11
202.1103363543843
 21
263.0161306560044
 31
0.0
  0
LINE
  5
761A
  8
0
 10
202.1103363543843
 20
265.01613098383
 30
0.0
 11
204.610336298505
 21
265.01613098383
 31
0.0
  0
LINE
  5
761B
  8
0
 10
204.610336298505
 20
195.0161306858067
 30
0.0
 11
202.1103363543843
 21
195.0161306858067
 31
0.0
  0
LINE
  5
761C
  8
0
 10
202.1103363543843
 20
197.0161310136322
 30
0.0
 11
202.1103363543843
 21
195.0161306858067
 31
0.0
  0
LINE
  5
761D
  8
0
 10
202.1103363543843
 20
263.9161309897904
 30
0.0
 11
201.6103363543843
 21
263.9161309897904
 31
0.0
  0
LINE
  5
761E
  8
0
 10
202.1103363543843
 20
196.1161306798462
 30
0.0
 11
201.6103363543843
 21
196.1161306798462
 31
0.0
  0
LINE
  5
761F
  8
0
 10
204.610336298505
 20
265.01613098383
 30
0.0
 11
213.4819088563418
 21
265.01613098383
 31
0.0
  0
LINE
  5
7620
  8
0
 10
213.4819088563418
 20
195.0161306858067
 30
0.0
 11
204.610336298505
 21
195.0161306858067
 31
0.0
  0
LINE
  5
7621
  8
0
 10
213.4819088563418
 20
265.01613098383
 30
0.0
 11
219.1103363469338
 21
265.01613098383
 31
0.0
  0
LINE
  5
7622
  8
0
 10
219.1103363469338
 20
195.0161306858067
 30
0.0
 11
213.4819088563418
 21
195.0161306858067
 31
0.0
  0
LINE
  5
7623
  8
0
 10
228.1103359595036
 20
201.7661313265566
 30
0.0
 11
221.3103363350128
 21
201.7661313265566
 31
0.0
  0
ARC
  5
7624
  8
0
 10
219.1103364661431
 20
197.0161308348183
 30
0.0
 40
2.0
 50
270.0
 51
0.0
  0
LINE
  5
7625
  8
0
 10
221.1103366747593
 20
230.0161308348183
 30
0.0
 11
221.1103366747593
 21
197.0161310136322
 31
0.0
  0
ARC
  5
7626
  8
0
 10
219.1103364661431
 20
263.0161308348183
 30
0.0
 40
2.0
 50
0.0
 51
90.0
  0
LINE
  5
7627
  8
0
 10
221.1103366747593
 20
262.0161323547368
 30
0.0
 11
221.1103366747593
 21
230.0161308348183
 31
0.0
  0
LINE
  5
7628
  8
0
 10
221.3103363350128
 20
258.26613034308
 30
0.0
 11
228.1103362873291
 21
258.26613034308
 31
0.0
  0
ARC
  5
7629
  8
0
 10
221.3103364661429
 20
201.5661308348183
 30
0.0
 40
0.1999999999999957
 50
90.0
 51
180.0
  0
ARC
  5
762A
  8
0
 10
221.3103364661429
 20
258.4661308348183
 30
0.0
 40
0.2000000000000171
 50
180.0
 51
270.0
  0
LINE
  5
762B
  8
0
 10
230.1103362873291
 20
256.2661303430801
 30
0.0
 11
230.1103362873291
 21
203.7661316543822
 31
0.0
  0
ARC
  5
762C
  8
0
 10
228.1103364661431
 20
203.7661308348183
 30
0.0
 40
2.0
 50
270.0
 51
0.0
  0
LINE
  5
762D
  8
0
 10
221.1103366747593
 20
263.0161306560044
 30
0.0
 11
221.1103366747593
 21
262.0161323547368
 31
0.0
  0
LINE
  5
762F
  8
0
 10
199.1103364102637
 20
290.0161294937138
 30
0.0
 11
195.1103365695199
 21
290.0161294937138
 31
0.0
  0
LINE
  5
7630
  8
0
 10
195.1103365695199
 20
290.0161294937138
 30
0.0
 11
195.1103365695199
 21
282.0161319077019
 31
0.0
  0
LINE
  5
7631
  8
0
 10
199.1103364102637
 20
290.0161294937138
 30
0.0
 11
199.1103364102637
 21
282.0161319077019
 31
0.0
  0
LINE
  5
7632
  8
0
 10
195.1103365695199
 20
282.0161319077019
 30
0.0
 11
195.1103365695199
 21
178.0161297619347
 31
0.0
  0
LINE
  5
7633
  8
0
 10
199.1103364102637
 20
282.0161319077019
 30
0.0
 11
199.1103364102637
 21
178.0161297619347
 31
0.0
  0
LINE
  5
7634
  8
0
 10
199.1103364102637
 20
170.0161321759228
 30
0.0
 11
195.1103365695199
 21
170.0161321759228
 31
0.0
  0
LINE
  5
7635
  8
0
 10
195.1103365695199
 20
178.0161297619347
 30
0.0
 11
195.1103365695199
 21
170.0161321759228
 31
0.0
  0
LINE
  5
7636
  8
0
 10
199.1103364102637
 20
178.0161297619347
 30
0.0
 11
199.1103364102637
 21
170.0161321759228
 31
0.0
  0
LINE
  5
7637
  8
0
 10
195.1103365695199
 20
171.1161321699624
 30
0.0
 11
194.6103364875662
 21
171.1161321699623
 31
0.0
  0
LINE
  5
7638
  8
0
 10
195.1103365695199
 20
288.9161294996743
 30
0.0
 11
194.6103364875664
 21
288.9161294996743
 31
0.0
  0
LINE
  5
7639
  8
0
 10
201.6103363543843
 20
263.0161306560044
 30
0.0
 11
201.6103363543843
 21
197.0161310136322
 31
0.0
  0
LINE
  5
763A
  8
0
 10
201.6103363543843
 20
195.0161306858067
 30
0.0
 11
199.1103364102637
 21
195.0161306858067
 31
0.0
  0
LINE
  5
763B
  8
0
 10
201.6103363543843
 20
197.0161310136322
 30
0.0
 11
201.6103363543843
 21
195.0161306858067
 31
0.0
  0
LINE
  5
763C
  8
0
 10
199.1103364102637
 20
265.01613098383
 30
0.0
 11
201.6103363543843
 21
265.01613098383
 31
0.0
  0
LINE
  5
763D
  8
0
 10
201.6103363543843
 20
265.01613098383
 30
0.0
 11
201.6103363543843
 21
263.0161306560044
 31
0.0
  0
LINE
  5
763E
  8
0
 10
201.6103363543843
 20
263.0161306560044
 30
0.0
 11
201.6103363543843
 21
197.0161310136322
 31
0.0
  0
LINE
  5
77DB
  8
7
 10
12.7278607107894
 20
229.8911315128204
 30
0.0
 11
138.3158607107894
 21
229.8911315128201
 31
0.0
1001
GENIUS_GENOBJ-N-CEN_13
1002
{
1000
OWNER
1000
GEN
1002
}
1001
GENIUS_GENODEF_13
1002
{
1000
HIER
1070
     0
1002
}
1002
{
1000
MANEDIT
1070
     0
1002
}
1002
{
1000
NOSEL
1070
     0
1002
}
1002
{
1000
BEHIND
1070
     0
1002
}
1002
{
1000
OTHER
1070
     0
1002
}
1002
{
1000
REACTOR
1002
}
1001
GENIUS_GENCEN_19
1002
{
1040
2.794
1002
}
  0
LINE
  5
77DC
  8
7
 10
75.5218607107895
 20
294.6851315128205
 30
0.0
 11
75.5218607107895
 21
165.0971315128203
 31
0.0
1001
GENIUS_GENOBJ-N-CEN_13
1002
{
1000
OWNER
1000
GEN
1002
}
1001
GENIUS_GENODEF_13
1002
{
1000
HIER
1070
     0
1002
}
1002
{
1000
MANEDIT
1070
     0
1002
}
1002
{
1000
NOSEL
1070
     0
1002
}
1002
{
1000
BEHIND
1070
     0
1002
}
1002
{
1000
OTHER
1070
     0
1002
}
1002
{
1000
REACTOR
1002
}
1001
GENIUS_GENCEN_19
1002
{
1040
2.794
1002
}
  0
LINE
  5
77F5
  8
7
 10
235.1103362873291
 20
230.0161308348183
 30
0.0
 11
184.1103364875664
 21
230.0161308348183
 31
0.0
1001
GENIUS_GENOBJ-N-CEN_13
1002
{
1000
OWNER
1000
GEN
1002
}
1001
GENIUS_GENODEF_13
1002
{
1000
HIER
1070
     0
1002
}
1002
{
1000
MANEDIT
1070
     0
1002
}
1002
{
1000
NOSEL
1070
     0
1002
}
1002
{
1000
BEHIND
1070
     0
1002
}
1002
{
1000
OTHER
1070
     0
1002
}
1002
{
1000
REACTOR
1002
}
1001
GENIUS_GENCEN_19
1002
{
1040
2.794
1002
}
  0
LINE
  5
77F6
  8
7
 10
75.5218607107895
 20
104.5475008770454
 30
0.0
 11
75.5218607107895
 21
155.5475006768082
 31
0.0
1001
GENIUS_GENOBJ-N-CEN_13
1002
{
1000
OWNER
1000
GEN
1002
}
1001
GENIUS_GENODEF_13
1002
{
1000
HIER
1070
     0
1002
}
1002
{
1000
MANEDIT
1070
     0
1002
}
1002
{
1000
NOSEL
1070
     0
1002
}
1002
{
1000
BEHIND
1070
     0
1002
}
1002
{
1000
OTHER
1070
     0
1002
}
1002
{
1000
REACTOR
1002
}
1001
GENIUS_GENCEN_19
1002
{
1040
2.794
1002
}
  0
LINE
  5
77F7
  8
0
 10
48.59898646148974
 20
110.5792548616795
 30
0.0
 11
48.40028702419022
 21
109.6934503003586
 31
0.0
  0
LINE
  5
77F8
  8
0
 10
50.02186118762711
 20
109.5475008770454
 30
0.0
 11
50.02186118762711
 21
109.6246106609333
 31
0.0
  0
ARC
  5
77F9
  8
0
 10
49.99818192784448
 20
109.6234209730335
 30
0.0
 40
0.0237091269589662
 50
2.876222857360645
 51
43.43589811605437
  0
ARC
  5
77FA
  8
0
 10
49.93342100675534
 20
109.5593556017736
 30
0.0
 40
0.1147998884239122
 50
44.43153582575037
 51
70.88950362693386
  0
ARC
  5
77FB
  8
0
 10
49.82917264239165
 20
109.2891243030092
 30
0.0
 40
0.4043928833089286
 50
69.4680133221413
 51
91.03603616465674
  0
LINE
  5
77FC
  8
0
 10
48.59898655812958
 20
110.5792535528171
 30
0.0
 11
48.52186071078995
 21
110.6274395296621
 31
0.0
  0
LINE
  5
77FD
  8
0
 10
48.52186071078995
 20
110.6274395296621
 30
0.0
 11
48.52186071078995
 21
110.9190735734853
 31
0.0
  0
LINE
  5
77FE
  8
0
 10
38.91496776740769
 20
118.9543953224647
 30
0.0
 11
38.73607560198525
 21
119.1332874878872
 31
0.0
  0
ARC
  5
77FF
  8
0
 10
228.1103362873291
 20
256.2661303430801
 30
0.0
 40
2.0
 50
0.0
 51
90.0
  0
LINE
  5
831D
  8
0
 10
38.2718607107895
 20
264.9911315128203
 30
0.0
 11
112.7718607107895
 21
264.9911315128203
 31
0.0
  0
LINE
  5
831E
  8
0
 10
38.2718607107895
 20
194.7911315128202
 30
0.0
 11
112.7718607107895
 21
194.7911315128202
 31
0.0
  0
LINE
  5
8320
  8
0
 10
38.2718607107895
 20
264.9911315128203
 30
0.0
 11
38.2718607107895
 21
194.7911315128202
 31
0.0
  0
LINE
  5
8324
  8
0
 10
112.7718607107895
 20
264.9911315128203
 30
0.0
 11
112.7718607107895
 21
194.7911315128202
 31
0.0
  0
LINE
  5
832B
  8
0
 10
112.0218601743477
 20
195.3911323770876
 30
0.0
 11
112.0218601743477
 21
264.3911306485529
 31
0.0
  0
LINE
  5
832C
  8
0
 10
39.0218612472313
 20
195.3911323770876
 30
0.0
 11
112.0218601743477
 21
195.3911323770876
 31
0.0
  0
LINE
  5
832D
  8
0
 10
39.0218612472313
 20
264.3911306485529
 30
0.0
 11
39.0218612472313
 21
195.3911323770876
 31
0.0
  0
LINE
  5
832E
  8
0
 10
112.0218601743477
 20
264.3911306485529
 30
0.0
 11
39.0218612472313
 21
264.3911306485529
 31
0.0
  0
LINE
  5
832F
  8
0
 10
40.52186056177788
 20
196.8911316916342
 30
0.0
 11
110.5218608598011
 21
196.8911316916342
 31
0.0
  0
LINE
  5
8330
  8
0
 10
110.5218608598011
 20
196.8911316916342
 30
0.0
 11
110.5218608598011
 21
262.8911313340063
 31
0.0
  0
LINE
  5
8331
  8
0
 10
110.5218608598011
 20
262.8911313340063
 30
0.0
 11
65.52186093430691
 21
262.8911313340063
 31
0.0
  0
LINE
  5
8332
  8
0
 10
40.52186056177788
 20
250.8911312296982
 30
0.0
 11
65.52186093430691
 21
250.8911312296982
 31
0.0
  0
LINE
  5
8333
  8
0
 10
40.52186056177788
 20
250.8911312296982
 30
0.0
 11
40.52186056177788
 21
196.8911316916342
 31
0.0
  0
LINE
  5
8334
  8
0
 10
47.32186018626862
 20
253.191131047904
 30
0.0
 11
57.3218599627512
 21
253.191131047904
 31
0.0
  0
LINE
  5
8335
  8
0
 10
57.3218599627512
 20
253.191131047904
 30
0.0
 11
57.3218599627512
 21
261.1911323592062
 31
0.0
  0
LINE
  5
8336
  8
0
 10
57.3218599627512
 20
261.1911323592062
 30
0.0
 11
47.32186018626862
 21
261.1911323592062
 31
0.0
  0
LINE
  5
8337
  8
0
 10
47.32186018626862
 20
261.1911323592062
 30
0.0
 11
47.32186018626862
 21
253.191131047904
 31
0.0
  0
LINE
  5
8338
  8
0
 10
65.52186093430691
 20
250.8911312296982
 30
0.0
 11
65.52186093430691
 21
262.8911313340063
 31
0.0
  0
LINE
  5
8339
  8
0
 10
112.5218611876267
 20
194.8911313638086
 30
0.0
 11
112.5218611876267
 21
264.8911316618319
 31
0.0
  0
LINE
  5
833A
  8
0
 10
38.52186023395234
 20
194.8911313638086
 30
0.0
 11
112.5218611876267
 21
194.8911313638086
 31
0.0
  0
LINE
  5
833B
  8
0
 10
38.52186023395234
 20
264.8911316618319
 30
0.0
 11
38.52186023395234
 21
194.8911313638086
 31
0.0
  0
LINE
  5
833C
  8
0
 10
112.5218611876267
 20
264.8911316618319
 30
0.0
 11
38.52186023395234
 21
264.8911316618319
 31
0.0
  0
ARC
  5
833D
  8
0
 10
48.72186007450989
 20
259.691131047904
 30
0.0
 40
1.0
 50
90.0
 51
180.0
  0
ARC
  5
833E
  8
0
 10
53.72186007450989
 20
259.691131047904
 30
0.0
 40
1.0
 50
0.0
 51
90.0
  0
LINE
  5
833F
  8
0
 10
48.72186007450989
 20
260.691131047904
 30
0.0
 11
53.72186007450989
 21
260.691131047904
 31
0.0
  0
LINE
  5
8340
  8
0
 10
53.72186007450989
 20
253.6911310479041
 30
0.0
 11
48.72186007450989
 21
253.691131047904
 31
0.0
  0
ARC
  5
8341
  8
0
 10
48.72186007450989
 20
254.691131047904
 30
0.0
 40
1.0
 50
180.0
 51
270.0000000000016
  0
ARC
  5
8342
  8
0
 10
53.72186007450989
 20
254.6911310479041
 30
0.0
 40
1.0
 50
270.0
 51
0.0
  0
LINE
  5
8343
  8
0
 10
52.72186007450989
 20
253.6911310479041
 30
0.0
 11
52.72186007450989
 21
260.691131047904
 31
0.0
  0
LINE
  5
8344
  8
0
 10
51.72186007450989
 20
253.691131047904
 30
0.0
 11
51.72186007450989
 21
260.691131047904
 31
0.0
  0
LINE
  5
8345
  8
0
 10
50.72186007450989
 20
253.6911310479039
 30
0.0
 11
50.72186007450989
 21
260.691131047904
 31
0.0
  0
LINE
  5
8346
  8
0
 10
49.72186007450989
 20
253.6911310479039
 30
0.0
 11
49.72186007450989
 21
260.691131047904
 31
0.0
  0
LINE
  5
8347
  8
0
 10
47.72186007450989
 20
254.691131047904
 30
0.0
 11
47.72186007450989
 21
259.691131047904
 31
0.0
  0
LINE
  5
8348
  8
0
 10
54.72186007450989
 20
259.691131047904
 30
0.0
 11
54.72186007450989
 21
254.6911310479041
 31
0.0
  0
LINE
  5
8349
  8
0
 10
65.77186093430691
 20
262.6411315128204
 30
0.0
 11
110.2718607107895
 21
262.6411315128203
 31
0.0
  0
LINE
  5
834A
  8
0
 10
110.2718607107895
 20
262.6411315128203
 30
0.0
 11
110.2718607107895
 21
197.1411315128202
 31
0.0
  0
LINE
  5
834B
  8
0
 10
40.7718607107895
 20
197.1411315128204
 30
0.0
 11
40.7718607107895
 21
250.6411312296982
 31
0.0
  0
LINE
  5
834C
  8
0
 10
110.2718607107895
 20
197.1411315128202
 30
0.0
 11
40.7718607107895
 21
197.1411315128204
 31
0.0
  0
LINE
  5
834D
  8
0
  6
CONTINUOUS
 10
65.77186093430691
 20
250.6411312296982
 30
0.0
 11
65.77186093430691
 21
262.6411315128204
 31
0.0
  0
LINE
  5
834E
  8
0
  6
CONTINUOUS
 10
40.7718607107895
 20
250.6411312296982
 30
0.0
 11
65.77186093430691
 21
250.6411312296982
 31
0.0
  0
LINE
  5
84C4
  8
0
 10
55.82186007450991
 20
248.2411315128205
 30
0.0
 11
55.82186007450991
 21
246.2411315128205
 31
0.0
  0
LINE
  5
84C5
  8
0
 10
48.82186007450991
 20
248.2411315128205
 30
0.0
 11
48.82186007450991
 21
246.2411315128205
 31
0.0
  0
ARC
  5
84C6
  8
0
 10
49.82186007450991
 20
248.2411315128205
 30
0.0
 40
1.0
 50
90.0
 51
180.0
  0
ARC
  5
84C7
  8
0
 10
49.82186007450991
 20
246.2411315128205
 30
0.0
 40
1.0
 50
180.0
 51
270.0
  0
ARC
  5
84C8
  8
0
 10
54.82186007450991
 20
246.2411315128205
 30
0.0
 40
1.0
 50
270.0
 51
0.0
  0
ARC
  5
84C9
  8
0
 10
54.82186007450991
 20
248.2411315128205
 30
0.0
 40
1.0
 50
0.0
 51
90.0
  0
LINE
  5
84CA
  8
0
 10
49.82186007450991
 20
249.2411315128205
 30
0.0
 11
54.82186007450991
 21
249.2411315128205
 31
0.0
  0
LINE
  5
84CB
  8
0
 10
49.82186007450991
 20
245.2411315128205
 30
0.0
 11
54.82186007450991
 21
245.2411315128205
 31
0.0
  0
TEXT
  5
84CC
  8
0
 10
42.16044691739705
 20
246.2788556934018
 30
0.0
 40
2.0
  1
OFF
 41
1.5
  0
TEXT
  5
84CD
  8
0
 10
57.20729606708876
 20
246.2788556934018
 30
0.0
 40
2.0
  1
ON
 41
1.5
  0
TEXT
  5
84CE
  8
0
 10
49.75043150308134
 20
246.2980269982874
 30
0.0
 40
2.0
  1
電源
  0
LINE
  5
84D0
  8
0
 10
42.2718607107895
 20
217.1012396201255
 30
0.0
 11
42.2718607107895
 21
219.6387396201261
 31
0.0
  0
LINE
  5
84D1
  8
0
 10
44.37436071078946
 20
217.1012396201255
 30
0.0
 11
44.37436071078946
 21
219.6387396201261
 31
0.0
  0
LINE
  5
84D2
  8
0
 10
44.59186071078966
 20
217.1012396201255
 30
0.0
 11
44.59186071078966
 21
219.6387396201261
 31
0.0
  0
LINE
  5
84D3
  8
0
 10
42.2718607107895
 20
217.1012396201255
 30
0.0
 11
43.06936071078962
 21
217.1012396201255
 31
0.0
  0
LINE
  5
84D4
  8
0
 10
42.2718607107895
 20
219.6387396201261
 30
0.0
 11
43.06936071078962
 21
219.6387396201261
 31
0.0
  0
LINE
  5
84D5
  8
0
 10
43.06936071078962
 20
219.6387396201261
 30
0.0
 11
43.06936071078962
 21
218.768739620126
 31
0.0
  0
LINE
  5
84D6
  8
0
 10
43.57686071078933
 20
219.6387396201261
 30
0.0
 11
43.57686071078933
 21
218.768739620126
 31
0.0
  0
LINE
  5
84D7
  8
0
 10
43.06936071078962
 20
217.1012396201255
 30
0.0
 11
43.06936071078962
 21
217.9712396201254
 31
0.0
  0
LINE
  5
84D8
  8
0
 10
43.57686071078933
 20
217.1012396201255
 30
0.0
 11
43.57686071078933
 21
217.9712396201254
 31
0.0
  0
LINE
  5
84D9
  8
0
 10
43.57686071078933
 20
219.6387396201261
 30
0.0
 11
44.37436071078946
 21
219.6387396201261
 31
0.0
  0
LINE
  5
84DA
  8
0
 10
43.57686071078933
 20
217.1012396201255
 30
0.0
 11
44.37436071078946
 21
217.1012396201255
 31
0.0
  0
LINE
  5
84DB
  8
0
 10
43.06936071078962
 20
218.768739620126
 30
0.0
 11
43.57686071078933
 21
218.768739620126
 31
0.0
  0
LINE
  5
84DC
  8
0
 10
43.06936071078962
 20
217.9712396201254
 30
0.0
 11
43.57686071078933
 21
217.9712396201254
 31
0.0
  0
LINE
  5
84DD
  8
0
 10
45.38936071078933
 20
217.1012396201255
 30
0.0
 11
45.38936071078933
 21
219.6387396201261
 31
0.0
  0
LINE
  5
84DE
  8
0
 10
45.60686071078953
 20
217.1012396201255
 30
0.0
 11
45.60686071078953
 21
219.6387396201261
 31
0.0
  0
LINE
  5
84DF
  8
0
 10
44.59186071078966
 20
219.6387396201261
 30
0.0
 11
45.38936071078933
 21
219.6387396201261
 31
0.0
  0
LINE
  5
84E0
  8
0
 10
44.59186071078966
 20
217.1012396201255
 30
0.0
 11
45.38936071078933
 21
217.1012396201255
 31
0.0
  0
LINE
  5
84E1
  8
0
 10
47.7093607107895
 20
217.1012396201255
 30
0.0
 11
47.7093607107895
 21
217.6812396201254
 31
0.0
  0
LINE
  5
84E2
  8
0
 10
47.7093607107895
 20
219.0587396201261
 30
0.0
 11
47.7093607107895
 21
219.6387396201261
 31
0.0
  0
LINE
  5
84E3
  8
0
 10
45.60686071078953
 20
217.1012396201255
 30
0.0
 11
46.40436071078966
 21
217.1012396201255
 31
0.0
  0
LINE
  5
84E4
  8
0
 10
45.60686071078953
 20
219.6387396201261
 30
0.0
 11
46.40436071078966
 21
219.6387396201261
 31
0.0
  0
LINE
  5
84E5
  8
0
 10
46.40436071078966
 20
219.6387396201261
 30
0.0
 11
46.40436071078966
 21
218.768739620126
 31
0.0
  0
LINE
  5
84E6
  8
0
 10
46.91186071078937
 20
219.6387396201261
 30
0.0
 11
46.91186071078937
 21
219.0587396201261
 31
0.0
  0
LINE
  5
84E7
  8
0
 10
46.40436071078966
 20
217.1012396201255
 30
0.0
 11
46.40436071078966
 21
217.9712396201254
 31
0.0
  0
LINE
  5
84E8
  8
0
 10
46.91186071078937
 20
217.1012396201255
 30
0.0
 11
46.91186071078937
 21
217.6812396201254
 31
0.0
  0
ARC
  5
84E9
  8
0
 10
46.62186071078941
 20
217.6812396201254
 30
0.0
 40
0.29
 50
0.0
 51
90.0
  0
ARC
  5
84EA
  8
0
 10
46.62186071078941
 20
217.6812396201254
 30
0.0
 40
1.0875
 50
0.0
 51
39.29648023919504
  0
LINE
  5
84EB
  8
0
 10
46.91186071078937
 20
219.6387396201261
 30
0.0
 11
47.7093607107895
 21
219.6387396201261
 31
0.0
  0
LINE
  5
84EC
  8
0
 10
46.91186071078937
 20
217.1012396201255
 30
0.0
 11
47.7093607107895
 21
217.1012396201255
 31
0.0
  0
LINE
  5
84ED
  8
0
 10
46.40436071078966
 20
218.768739620126
 30
0.0
 11
46.62186071078941
 21
218.768739620126
 31
0.0
  0
ARC
  5
84EE
  8
0
 10
46.62186071078941
 20
219.0587396201261
 30
0.0
 40
0.29
 50
270.0
 51
0.0
  0
ARC
  5
84EF
  8
0
 10
46.62186071078941
 20
219.0587396201261
 30
0.0
 40
1.0875
 50
320.703519760823
 51
0.0
  0
LINE
  5
84F0
  8
0
 10
46.40436071078966
 20
217.9712396201254
 30
0.0
 11
46.62186071078941
 21
217.9712396201254
 31
0.0
  0
LINE
  5
84F1
  8
0
 10
47.9268607107897
 20
217.1012396201255
 30
0.0
 11
47.9268607107897
 21
218.5874896201254
 31
0.0
  0
LINE
  5
84F2
  8
0
 10
50.02936071078966
 20
217.1012396201255
 30
0.0
 11
50.02936071078966
 21
218.5874896201254
 31
0.0
  0
LINE
  5
84F3
  8
0
 10
47.9268607107897
 20
217.1012396201255
 30
0.0
 11
48.72436071078937
 21
217.1012396201255
 31
0.0
  0
LINE
  5
84F4
  8
0
 10
48.72436071078937
 20
217.1012396201255
 30
0.0
 11
48.72436071078937
 21
217.6087396201252
 31
0.0
  0
LINE
  5
84F5
  8
0
 10
49.23186071078953
 20
217.1012396201255
 30
0.0
 11
49.23186071078953
 21
217.6087396201252
 31
0.0
  0
LINE
  5
84F6
  8
0
 10
49.23186071078953
 20
217.1012396201255
 30
0.0
 11
50.02936071078966
 21
217.1012396201255
 31
0.0
  0
LINE
  5
84F7
  8
0
 10
48.72436071078937
 20
217.6087396201252
 30
0.0
 11
49.23186071078953
 21
217.6087396201252
 31
0.0
  0
LINE
  5
84F8
  8
0
 10
48.72436071078937
 20
218.3337396201256
 30
0.0
 11
49.23186071078953
 21
218.3337396201256
 31
0.0
  0
ARC
  5
84F9
  8
0
 10
48.97811071078968
 20
218.5874896201254
 30
0.0
 40
1.05125
 50
0.0
 51
180.0
  0
ARC
  5
84FA
  8
0
 10
48.97811071078968
 20
218.5874896201254
 30
0.0
 40
0.25375
 50
0.0
 51
180.0
  0
LINE
  5
84FB
  8
0
 10
48.72436071078937
 20
218.3337396201256
 30
0.0
 11
48.72436071078937
 21
218.5874896201254
 31
0.0
  0
LINE
  5
84FC
  8
0
 10
49.23186071078953
 20
218.5874896201254
 30
0.0
 11
49.23186071078953
 21
218.3337396201256
 31
0.0
  0
LINE
  5
84FD
  8
0
 10
50.24686071078941
 20
217.1012396201255
 30
0.0
 11
50.24686071078941
 21
219.6387396201261
 31
0.0
  0
LINE
  5
84FE
  8
0
 10
52.34936071078937
 20
217.1012396201255
 30
0.0
 11
52.34936071078937
 21
217.6812396201254
 31
0.0
  0
LINE
  5
84FF
  8
0
 10
50.24686071078941
 20
217.1012396201255
 30
0.0
 11
51.04436071078953
 21
217.1012396201255
 31
0.0
  0
LINE
  5
8500
  8
0
 10
51.18936071078951
 20
217.8987396201256
 30
0.0
 11
51.3343607107895
 21
217.8987396201256
 31
0.0
  0
LINE
  5
8501
  8
0
 10
51.18936071078951
 20
218.478739620126
 30
0.0
 11
51.3343607107895
 21
218.478739620126
 31
0.0
  0
LINE
  5
8502
  8
0
 10
51.04436071078953
 20
217.1012396201255
 30
0.0
 11
51.04436071078953
 21
218.9137396201257
 31
0.0
  0
LINE
  5
8503
  8
0
 10
51.5518607107897
 20
217.1012396201255
 30
0.0
 11
51.5518607107897
 21
217.6812396201254
 31
0.0
  0
ARC
  5
8504
  8
0
 10
51.3343607107895
 20
217.6812396201254
 30
0.0
 40
0.2175
 50
0.0
 51
90.0
  0
ARC
  5
8505
  8
0
 10
51.3343607107895
 20
217.6812396201254
 30
0.0
 40
1.015
 50
0.0
 51
30.66296328368444
  0
LINE
  5
8506
  8
0
 10
50.24686071078941
 20
219.6387396201261
 30
0.0
 11
51.40686071078926
 21
219.6387396201261
 31
0.0
  0
LINE
  5
8507
  8
0
 10
51.04436071078953
 20
218.9137396201257
 30
0.0
 11
51.3343607107895
 21
218.9137396201257
 31
0.0
  0
LINE
  5
8508
  8
0
 10
51.5518607107897
 20
217.1012396201255
 30
0.0
 11
52.34936071078937
 21
217.1012396201255
 31
0.0
  0
ARC
  5
8509
  8
0
 10
51.3343607107895
 20
218.6962396201257
 30
0.0
 40
0.2175
 50
270.0
 51
90.0
  0
ARC
  5
850A
  8
0
 10
51.40686071078926
 20
218.6962396201257
 30
0.0
 40
0.9425
 50
328.1493895340829
 51
90.0
  0
LINE
  5
850B
  8
0
 10
51.18936071078951
 20
218.478739620126
 30
0.0
 11
51.18936071078951
 21
217.8987396201256
 31
0.0
  0
LINE
  5
850C
  8
0
 10
52.56686071078957
 20
217.1012396201255
 30
0.0
 11
52.56686071078957
 21
219.6387396201261
 31
0.0
  0
LINE
  5
850D
  8
0
 10
53.3643607107897
 20
217.1012396201255
 30
0.0
 11
53.3643607107897
 21
219.6387396201261
 31
0.0
  0
LINE
  5
850E
  8
0
 10
56.26436071078933
 20
217.1374896201256
 30
0.0
 11
56.26436071078933
 21
218.5874896201254
 31
0.0
  0
LINE
  5
850F
  8
0
 10
52.56686071078957
 20
219.6387396201261
 30
0.0
 11
53.3643607107897
 21
219.6387396201261
 31
0.0
  0
LINE
  5
8510
  8
0
 10
52.56686071078957
 20
217.1012396201255
 30
0.0
 11
53.3643607107897
 21
217.1012396201255
 31
0.0
  0
ARC
  5
8511
  8
0
 10
55.53936071078942
 20
218.3699896201257
 30
0.0
 40
1.305
 50
84.27518954777628
 51
281.4211862750073
  0
ARC
  5
8512
  8
0
 10
55.53936071078942
 20
218.3699896201257
 30
0.0
 40
0.5075000000000001
 50
84.27518954777645
 51
270.0
  0
CIRCLE
  5
8513
  8
0
 10
57.78686071078937
 20
218.3699896201257
 30
0.0
 40
1.305
  0
CIRCLE
  5
8514
  8
0
 10
57.78686071078937
 20
218.3699896201257
 30
0.0
 40
0.5075000000000001
  0
LINE
  5
8515
  8
0
 10
55.53936071078942
 20
217.862489620126
 30
0.0
 11
55.53936071078942
 21
218.5874896201254
 31
0.0
  0
LINE
  5
8516
  8
0
 10
55.53936071078942
 20
218.5874896201254
 30
0.0
 11
56.26436071078933
 21
218.5874896201254
 31
0.0
  0
LINE
  5
8517
  8
0
 10
55.79777655237376
 20
217.0908312042844
 30
0.0
 11
56.26436071078933
 21
217.1374896201256
 31
0.0
  0
LINE
  5
8518
  8
0
 10
55.66953527438045
 20
219.6684808919461
 30
0.0
 11
56.26436071078933
 21
219.6387396201261
 31
0.0
  0
LINE
  5
8519
  8
0
 10
56.26436071078933
 20
219.6387396201261
 30
0.0
 11
56.26436071078933
 21
218.8412396201255
 31
0.0
  0
LINE
  5
851A
  8
0
 10
56.26436071078933
 20
218.8412396201255
 30
0.0
 11
55.58998415218593
 21
218.8749584480564
 31
0.0
  0
LINE
  5
851B
  8
0
 10
59.30936071078941
 20
217.1012396201255
 30
0.0
 11
59.30936071078941
 21
219.6387396201261
 31
0.0
  0
LINE
  5
851C
  8
0
 10
61.41186071078937
 20
217.1012396201255
 30
0.0
 11
61.41186071078937
 21
217.6812396201254
 31
0.0
  0
LINE
  5
851D
  8
0
 10
61.41186071078937
 20
219.0587396201261
 30
0.0
 11
61.41186071078937
 21
219.6387396201261
 31
0.0
  0
LINE
  5
851E
  8
0
 10
59.30936071078941
 20
217.1012396201255
 30
0.0
 11
60.10686071078953
 21
217.1012396201255
 31
0.0
  0
LINE
  5
851F
  8
0
 10
59.30936071078941
 20
219.6387396201261
 30
0.0
 11
60.10686071078953
 21
219.6387396201261
 31
0.0
  0
LINE
  5
8520
  8
0
 10
60.10686071078953
 20
219.6387396201261
 30
0.0
 11
60.10686071078953
 21
218.768739620126
 31
0.0
  0
LINE
  5
8521
  8
0
 10
60.6143607107897
 20
219.6387396201261
 30
0.0
 11
60.6143607107897
 21
219.0587396201261
 31
0.0
  0
LINE
  5
8522
  8
0
 10
60.10686071078953
 20
217.1012396201255
 30
0.0
 11
60.10686071078953
 21
217.9712396201254
 31
0.0
  0
LINE
  5
8523
  8
0
 10
60.6143607107897
 20
217.1012396201255
 30
0.0
 11
60.6143607107897
 21
217.6812396201254
 31
0.0
  0
ARC
  5
8524
  8
0
 10
60.32436071078928
 20
217.6812396201254
 30
0.0
 40
0.29
 50
0.0
 51
90.0
  0
ARC
  5
8525
  8
0
 10
60.32436071078928
 20
217.6812396201254
 30
0.0
 40
1.0875
 50
0.0
 51
39.29648023919504
  0
LINE
  5
8526
  8
0
 10
60.6143607107897
 20
219.6387396201261
 30
0.0
 11
61.41186071078937
 21
219.6387396201261
 31
0.0
  0
LINE
  5
8527
  8
0
 10
60.6143607107897
 20
217.1012396201255
 30
0.0
 11
61.41186071078937
 21
217.1012396201255
 31
0.0
  0
LINE
  5
8528
  8
0
 10
60.10686071078953
 20
218.768739620126
 30
0.0
 11
60.32436071078928
 21
218.768739620126
 31
0.0
  0
ARC
  5
8529
  8
0
 10
60.32436071078928
 20
219.0587396201261
 30
0.0
 40
0.29
 50
270.0
 51
0.0
  0
ARC
  5
852A
  8
0
 10
60.32436071078928
 20
219.0587396201261
 30
0.0
 40
1.0875
 50
320.703519760823
 51
0.0
  0
LINE
  5
852B
  8
0
 10
60.10686071078953
 20
217.9712396201254
 30
0.0
 11
60.32436071078928
 21
217.9712396201254
 31
0.0
  0
LINE
  5
852C
  8
0
 10
61.62936071078957
 20
217.1012396201255
 30
0.0
 11
61.62936071078957
 21
219.6387396201261
 31
0.0
  0
LINE
  5
852D
  8
0
 10
62.4268607107897
 20
217.1012396201255
 30
0.0
 11
62.4268607107897
 21
219.6387396201261
 31
0.0
  0
LINE
  5
852E
  8
0
 10
61.62936071078957
 20
219.6387396201261
 30
0.0
 11
62.4268607107897
 21
219.6387396201261
 31
0.0
  0
LINE
  5
852F
  8
0
 10
61.62936071078957
 20
217.1012396201255
 30
0.0
 11
62.4268607107897
 21
217.1012396201255
 31
0.0
  0
LINE
  5
8530
  8
0
 10
62.64436071078944
 20
217.1012396201255
 30
0.0
 11
62.64436071078944
 21
218.5874896201254
 31
0.0
  0
LINE
  5
8531
  8
0
 10
64.7468607107894
 20
217.1012396201255
 30
0.0
 11
64.7468607107894
 21
218.5874896201254
 31
0.0
  0
LINE
  5
8532
  8
0
 10
62.64436071078944
 20
217.1012396201255
 30
0.0
 11
63.44186071078957
 21
217.1012396201255
 31
0.0
  0
LINE
  5
8533
  8
0
 10
63.44186071078957
 20
217.1012396201255
 30
0.0
 11
63.44186071078957
 21
218.5874896201254
 31
0.0
  0
LINE
  5
8534
  8
0
 10
63.94936071078928
 20
217.1012396201255
 30
0.0
 11
63.94936071078928
 21
218.5874896201254
 31
0.0
  0
LINE
  5
8535
  8
0
 10
63.94936071078928
 20
217.1012396201255
 30
0.0
 11
64.7468607107894
 21
217.1012396201255
 31
0.0
  0
ARC
  5
8536
  8
0
 10
63.69561071078942
 20
218.5874896201254
 30
0.0
 40
1.05125
 50
0.0
 51
180.0
  0
ARC
  5
8537
  8
0
 10
63.69561071078942
 20
218.5874896201254
 30
0.0
 40
0.25375
 50
0.0
 51
180.0
  0
LINE
  5
8538
  8
0
 10
56.5218607107895
 20
212.8911315128204
 30
0.0
 11
64.5218607107895
 21
212.8911315128204
 31
0.0
  0
ARC
  5
8539
  8
0
 10
64.5218607107895
 20
210.8911315128204
 30
0.0
 40
2.0
 50
0.0
 51
90.0
  0
ARC
  5
853A
  8
0
 10
56.5218607107895
 20
210.8911315128204
 30
0.0
 40
2.0
 50
90.0
 51
180.0
  0
ARC
  5
853B
  8
0
 10
64.5218607107895
 20
203.8911315128199
 30
0.0
 40
2.0
 50
270.0
 51
0.0
  0
LINE
  5
853C
  8
0
 10
66.5218607107895
 20
203.8911315128199
 30
0.0
 11
66.5218607107895
 21
210.8911315128204
 31
0.0
  0
LINE
  5
853D
  8
0
 10
56.5218607107895
 20
201.8911315128199
 30
0.0
 11
64.5218607107895
 21
201.8911315128199
 31
0.0
  0
ARC
  5
853E
  8
0
 10
56.5218607107895
 20
203.8911315128199
 30
0.0
 40
2.0
 50
180.0
 51
270.0
  0
LINE
  5
853F
  8
0
 10
54.5218607107895
 20
203.8911315128199
 30
0.0
 11
54.5218607107895
 21
210.8911315128204
 31
0.0
  0
CIRCLE
  5
8540
  8
0
 10
95.5218607107895
 20
209.8911315128204
 30
0.0
 40
7.499999999999949
  0
CIRCLE
  5
8541
  8
0
 10
95.5218607107895
 20
209.8911315128204
 30
0.0
 40
8.20000000000001
  0
CIRCLE
  5
8542
  8
0
 10
95.5218607107895
 20
209.8911315128204
 30
0.0
 40
8.499999999999963
  0
LINE
  5
8543
  8
0
 10
68.2718607107895
 20
203.8911315128199
 30
0.0
 11
68.2718607107895
 21
215.8911315128204
 31
0.0
  0
LINE
  5
8544
  8
0
 10
68.57186071078945
 20
203.8911315128199
 30
0.0
 11
68.57186071078945
 21
209.8911315128199
 31
0.0
  0
ARC
  5
8545
  8
0
 10
70.2718607107895
 20
203.8911315128199
 30
0.0
 40
2.0
 50
180.0
 51
270.0
1001
GENIUS_GENOBJ-N-FIL_13
1002
{
1000
OWNER
1000
GEN
1002
}
1001
GENIUS_GENODEF_13
1002
{
1000
HIER
1070
     0
1002
}
1002
{
1000
MANEDIT
1070
     0
1002
}
1002
{
1000
NOSEL
1070
     0
1002
}
1002
{
1000
BEHIND
1070
     0
1002
}
1002
{
1000
OTHER
1070
     0
1002
}
1002
{
1000
REACTOR
1002
}
  0
ARC
  5
8546
  8
0
 10
70.2718607107895
 20
203.8911315128199
 30
0.0
 40
1.7
 50
180.0
 51
270.0
1001
GENIUS_GENOBJ-N-FIL_13
1002
{
1000
OWNER
1000
GEN
1002
}
1001
GENIUS_GENODEF_13
1002
{
1000
HIER
1070
     0
1002
}
1002
{
1000
MANEDIT
1070
     0
1002
}
1002
{
1000
NOSEL
1070
     0
1002
}
1002
{
1000
BEHIND
1070
     0
1002
}
1002
{
1000
OTHER
1070
     0
1002
}
1002
{
1000
REACTOR
1002
}
  0
LINE
  5
8547
  8
0
 10
86.27186071078859
 20
203.8911315128199
 30
0.0
 11
86.27186071078859
 21
215.8911315128194
 31
0.0
  0
LINE
  5
8548
  8
0
 10
85.97186071078863
 20
203.8911315128199
 30
0.0
 11
85.97186071078863
 21
209.8911315128199
 31
0.0
  0
ARC
  5
8549
  8
0
 10
84.27186071078859
 20
215.8911315128194
 30
0.0
 40
2.0
 50
0.0
 51
90.0
1001
GENIUS_GENODEF_13
1002
{
1000
HIER
1070
     0
1002
}
1002
{
1000
MANEDIT
1070
     0
1002
}
1002
{
1000
NOSEL
1070
     0
1002
}
1002
{
1000
BEHIND
1070
     0
1002
}
1002
{
1000
OTHER
1070
     0
1002
}
1002
{
1000
REACTOR
1002
}
1001
GENIUS_GENOBJ-N-FIL_13
1002
{
1000
OWNER
1000
GEN
1002
}
  0
INSERT
  5
854A
  8
0
  2
*X14
 10
0.0
 20
0.0
 30
0.0
  0
LINE
  5
854B
  8
0
 10
86.27186071078859
 20
209.8911315128199
 30
0.0
 11
68.2718607107895
 21
209.8911315128199
 31
0.0
  0
CIRCLE
  5
854C
  8
0
 10
77.47347425020462
 20
213.8911315128204
 30
0.0
 40
2.0
  0
LINE
  5
854D
  8
0
 10
84.27186071078859
 20
217.8911315128194
 30
0.0
 11
70.2718607107895
 21
217.8911315128204
 31
0.0
  0
ARC
  5
854E
  8
0
 10
70.2718607107895
 20
215.8911315128204
 30
0.0
 40
2.0
 50
90.0
 51
180.0
1001
GENIUS_GENOBJ-N-FIL_13
1002
{
1000
OWNER
1000
GEN
1002
}
1001
GENIUS_GENODEF_13
1002
{
1000
HIER
1070
     0
1002
}
1002
{
1000
MANEDIT
1070
     0
1002
}
1002
{
1000
NOSEL
1070
     0
1002
}
1002
{
1000
BEHIND
1070
     0
1002
}
1002
{
1000
OTHER
1070
     0
1002
}
1002
{
1000
REACTOR
1002
}
  0
LINE
  5
854F
  8
0
 10
84.27186071078859
 20
201.8911315128199
 30
0.0
 11
70.2718607107895
 21
201.8911315128199
 31
0.0
  0
LINE
  5
8550
  8
0
 10
84.27186071078859
 20
202.1911315128199
 30
0.0
 11
70.2718607107895
 21
202.1911315128199
 31
0.0
  0
ARC
  5
8551
  8
0
 10
84.27186071078859
 20
203.8911315128199
 30
0.0
 40
2.0
 50
270.0
 51
0.0
1001
GENIUS_GENODEF_13
1002
{
1000
HIER
1070
     0
1002
}
1002
{
1000
MANEDIT
1070
     0
1002
}
1002
{
1000
NOSEL
1070
     0
1002
}
1002
{
1000
BEHIND
1070
     0
1002
}
1002
{
1000
OTHER
1070
     0
1002
}
1002
{
1000
REACTOR
1002
}
1001
GENIUS_GENOBJ-N-FIL_13
1002
{
1000
OWNER
1000
GEN
1002
}
  0
ARC
  5
8552
  8
0
 10
84.27186071078859
 20
203.8911315128199
 30
0.0
 40
1.7
 50
270.0
 51
0.0
1001
GENIUS_GENODEF_13
1002
{
1000
HIER
1070
     0
1002
}
1002
{
1000
MANEDIT
1070
     0
1002
}
1002
{
1000
NOSEL
1070
     0
1002
}
1002
{
1000
BEHIND
1070
     0
1002
}
1002
{
1000
OTHER
1070
     0
1002
}
1002
{
1000
REACTOR
1002
}
1001
GENIUS_GENOBJ-N-FIL_13
1002
{
1000
OWNER
1000
GEN
1002
}
  0
TEXT
  5
8553
  8
0
 10
69.34773150036403
 20
212.9769694843726
 30
0.0
 40
1.9
  1
給水
  0
TEXT
  5
8554
  8
0
 10
89.34301098908263
 20
207.9715273075019
 30
0.0
 40
4.0
  1
PUSH
 41
1.2
  0
TEXT
  5
8555
  8
0
 10
42.1505249037394
 20
220.3458340155884
 30
0.0
 40
1.8
  1
電動水抜操作盤
  0
TEXT
  5
8556
  8
0
 10
42.07371599835907
 20
214.4935149061263
 30
0.0
 40
1.8
  1
ER2000-SQ
  0
TEXT
  5
8558
  8
0
 10
44.47302753709973
 20
198.5567142991764
 30
0.0
 40
1.3
  1
冬期以外(凍結の心配がない期間)や長期間使用しないときは電源をOFFにしてください
  0
CIRCLE
  5
855B
  8
0
 10
42.83879638719441
 20
198.5903658406165
 30
0.0
 40
0.1
  0
LINE
  5
855C
  8
0
 10
42.7387963871945
 20
199.5903658406165
 30
0.0
 11
42.7892388650705
 21
198.833728672476
 31
0.0
  0
LINE
  5
855D
  8
0
 10
42.93879638719477
 20
199.5903658406165
 30
0.0
 11
42.88835390931831
 21
198.8337286724742
 31
0.0
  0
ARC
  5
855E
  8
0
 10
42.83879638719441
 20
199.5903658406165
 30
0.0
 40
0.1
 50
0.0
 51
180.0
  0
ARC
  5
855F
  8
0
 10
42.83879638719441
 20
198.8403658406165
 30
0.0
 40
0.05
 50
187.6281496672678
 51
352.3718503306272
  0
TEXT
  5
8563
  8
0
 10
55.65609498313655
 20
203.1068509065065
 30
0.0
 40
1.9
  1
点検
  0
CIRCLE
  5
8564
  8
0
 10
82.52186071078995
 20
205.8911315128202
 30
0.0
 40
2.0
  0
CIRCLE
  5
8565
  8
0
 10
82.52186071078995
 20
205.8911315128202
 30
0.0
 40
1.5
  0
CIRCLE
  5
8566
  8
0
 10
82.52186071078995
 20
213.8911315128202
 30
0.0
 40
2.0
  0
CIRCLE
  5
8567
  8
0
 10
82.52186071078995
 20
213.8911315128202
 30
0.0
 40
1.5
  0
ARC
  5
8568
  8
0
 10
64.27349690451766
 20
204.4584472782429
 30
0.0
 40
0.9999999999999992
 50
233.0491207032591
 51
57.3262839971238
  0
LINE
  5
8569
  8
0
 10
63.67236678704708
 20
203.6592961149017
 30
0.0
 11
58.96523257543248
 21
207.2000531973846
 31
0.0
  0
LINE
  5
856A
  8
0
 10
59.85525242607727
 20
208.4800376268534
 30
0.0
 11
64.8133511315798
 21
205.3002058027163
 31
0.0
  0
ARC
  5
856B
  8
0
 10
57.40560133188021
 20
209.2339455195274
 30
0.0
 40
1.99079584716086
 50
1.683229077249547
 51
160.7903378653517
  0
ARC
  5
856C
  8
0
 10
60.39510665313983
 20
209.3217961513266
 30
0.0
 40
0.9999999999999992
 50
181.6832290772424
 51
237.3262839971238
1001
GENIUS_GENODEF_13
1002
{
1000
HIER
1070
     0
1002
}
1002
{
1000
MANEDIT
1070
     0
1002
}
1002
{
1000
NOSEL
1070
     0
1002
}
1002
{
1000
BEHIND
1070
     0
1002
}
1002
{
1000
OTHER
1070
     0
1002
}
1002
{
1000
REACTOR
1002
}
1001
GENIUS_GENOBJ-N-FIL_13
1002
{
1000
OWNER
1000
GEN
1002
}
  0
ARC
  5
856D
  8
0
 10
57.40560133188021
 20
209.2339455195274
 30
0.0
 40
1.99079584716086
 50
219.5850668351127
 51
288.6921756231428
  0
ARC
  5
856E
  8
0
 10
58.36410245796228
 20
206.4009020340432
 30
0.0
 40
0.9999999999999992
 50
53.0491207032568
 51
108.6921756231398
1001
GENIUS_GENOBJ-N-FIL_13
1002
{
1000
OWNER
1000
GEN
1002
}
1001
GENIUS_GENODEF_13
1002
{
1000
HIER
1070
     0
1002
}
1002
{
1000
MANEDIT
1070
     0
1002
}
1002
{
1000
NOSEL
1070
     0
1002
}
1002
{
1000
BEHIND
1070
     0
1002
}
1002
{
1000
OTHER
1070
     0
1002
}
1002
{
1000
REACTOR
1002
}
  0
LINE
  5
856F
  8
0
 10
57.96654585710488
 20
209.3347510790038
 30
0.0
 11
57.58409148041184
 21
208.273158158964
 31
0.0
  0
LINE
  5
8570
  8
0
 10
57.58409148041184
 20
208.273158158964
 30
0.0
 11
55.87133608188196
 21
207.9653643247588
 31
0.0
  0
LINE
  5
8571
  8
0
 10
57.96654585710476
 20
209.3347510790045
 30
0.0
 11
57.23840660821801
 21
210.1967627450289
 31
0.0
  0
LINE
  5
8572
  8
0
 10
57.23840660821801
 20
210.1967627450289
 30
0.0
 11
55.52565120968791
 21
209.8889689108233
 31
0.0
  0
CIRCLE
  5
8573
  8
0
 10
64.27349690451766
 20
204.4584472782429
 30
0.0
 40
0.4999999999999996
  0
LINE
  5
8574
  8
0
 10
42.53437110525465
 20
212.5722665128199
 30
0.0
 11
44.87115260525468
 21
212.5722665128199
 31
0.0
  0
LINE
  5
8575
  8
0
 10
44.87115260525468
 20
212.5722665128199
 30
0.0
 11
44.87115260525468
 21
212.9062504128199
 31
0.0
  0
LINE
  5
8576
  8
0
 10
44.87115260525468
 20
212.9062504128199
 30
0.0
 11
42.53437110525465
 21
212.9062504128199
 31
0.0
  0
LINE
  5
8577
  8
0
 10
42.53437110525465
 20
212.9062504128199
 30
0.0
 11
42.53437110525465
 21
212.5722665128199
 31
0.0
  0
LINE
  5
8578
  8
0
 10
45.53874610525466
 20
212.5722665128199
 30
0.0
 11
46.53996060525466
 21
212.5722665128199
 31
0.0
  0
LINE
  5
8579
  8
0
 10
46.53996060525466
 20
212.5722665128199
 30
0.0
 11
46.53996060525466
 21
212.9062504128199
 31
0.0
  0
LINE
  5
857A
  8
0
 10
46.53996060525466
 20
212.9062504128199
 30
0.0
 11
45.53874610525466
 21
212.9062504128199
 31
0.0
  0
LINE
  5
857B
  8
0
 10
45.53874610525466
 20
212.9062504128199
 30
0.0
 11
45.53874610525466
 21
212.5722665128199
 31
0.0
  0
LINE
  5
857C
  8
0
 10
47.20751610525465
 20
212.5722665128199
 30
0.0
 11
47.54150000525468
 21
212.5722665128199
 31
0.0
  0
LINE
  5
857D
  8
0
 10
47.54150000525468
 20
212.5722665128199
 30
0.0
 11
47.54150000525468
 21
212.9062504128199
 31
0.0
  0
LINE
  5
857E
  8
0
 10
47.54150000525468
 20
212.9062504128199
 30
0.0
 11
47.20751610525465
 21
212.9062504128199
 31
0.0
  0
LINE
  5
857F
  8
0
 10
47.20751610525465
 20
212.9062504128199
 30
0.0
 11
47.20751610525465
 21
212.5722665128199
 31
0.0
  0
LINE
  5
8580
  8
0
 10
47.87508110525465
 20
212.5722665128199
 30
0.0
 11
48.20906595525466
 21
212.5722665128199
 31
0.0
  0
LINE
  5
8581
  8
0
 10
48.20906595525466
 20
212.5722665128199
 30
0.0
 11
48.20906595525466
 21
212.9062504128199
 31
0.0
  0
LINE
  5
8582
  8
0
 10
48.20906595525466
 20
212.9062504128199
 30
0.0
 11
47.87508110525465
 21
212.9062504128199
 31
0.0
  0
LINE
  5
8583
  8
0
 10
47.87508110525465
 20
212.9062504128199
 30
0.0
 11
47.87508110525465
 21
212.5722665128199
 31
0.0
  0
LINE
  5
8584
  8
0
 10
48.54274110525463
 20
212.5722665128199
 30
0.0
 11
48.87672595525467
 21
212.5722665128199
 31
0.0
  0
LINE
  5
8585
  8
0
 10
48.87672595525467
 20
212.5722665128199
 30
0.0
 11
48.87672595525467
 21
212.9062504128199
 31
0.0
  0
LINE
  5
8586
  8
0
 10
48.87672595525467
 20
212.9062504128199
 30
0.0
 11
48.54274110525463
 21
212.9062504128199
 31
0.0
  0
LINE
  5
8587
  8
0
 10
48.54274110525463
 20
212.9062504128199
 30
0.0
 11
48.54274110525463
 21
212.5722665128199
 31
0.0
  0
LINE
  5
8588
  8
0
 10
49.87749110525465
 20
212.5722665128199
 30
0.0
 11
50.21147500525464
 21
212.5722665128199
 31
0.0
  0
LINE
  5
8589
  8
0
 10
50.21147500525464
 20
212.5722665128199
 30
0.0
 11
50.21147500525464
 21
212.9062504128199
 31
0.0
  0
LINE
  5
858A
  8
0
 10
50.21147500525464
 20
212.9062504128199
 30
0.0
 11
49.87749110525465
 21
212.9062504128199
 31
0.0
  0
LINE
  5
858B
  8
0
 10
49.87749110525465
 20
212.9062504128199
 30
0.0
 11
49.87749110525465
 21
212.5722665128199
 31
0.0
  0
LINE
  5
858D
  8
0
 10
51.54708000525466
 20
212.5722665128199
 30
0.0
 11
53.21550610525466
 21
212.5722665128199
 31
0.0
  0
LINE
  5
858E
  8
0
 10
53.54987760525464
 20
210.5690965128199
 30
0.0
 11
53.54987760525464
 21
212.9062504128199
 31
0.0
  0
LINE
  5
858F
  8
0
 10
53.54987760525464
 20
212.9062504128199
 30
0.0
 11
51.21309610525466
 21
212.9062504128199
 31
0.0
  0
LINE
  5
8590
  8
0
 10
51.21309610525466
 20
212.9062504128199
 30
0.0
 11
51.21309610525466
 21
210.5690965128199
 31
0.0
  0
LINE
  5
8591
  8
0
 10
42.53437110525465
 20
212.2383415128199
 30
0.0
 11
42.86872645525466
 21
212.2383415128199
 31
0.0
  0
LINE
  5
8592
  8
0
 10
42.86872645525466
 20
212.2383415128199
 30
0.0
 11
42.86872645525466
 21
212.5723263628199
 31
0.0
  0
LINE
  5
8593
  8
0
 10
42.86872645525466
 20
212.5723263628199
 30
0.0
 11
42.53437110525465
 21
212.5723263628199
 31
0.0
  0
LINE
  5
8594
  8
0
 10
42.53437110525465
 20
212.5723263628199
 30
0.0
 11
42.53437110525465
 21
212.2383415128199
 31
0.0
  0
LINE
  5
8595
  8
0
 10
44.53744610525465
 20
212.2383415128199
 30
0.0
 11
44.87143000525464
 21
212.2383415128199
 31
0.0
  0
LINE
  5
8596
  8
0
 10
44.87143000525464
 20
212.2383415128199
 30
0.0
 11
44.87143000525464
 21
212.5723263628199
 31
0.0
  0
LINE
  5
8597
  8
0
 10
44.87143000525464
 20
212.5723263628199
 30
0.0
 11
44.53744610525465
 21
212.5723263628199
 31
0.0
  0
LINE
  5
8598
  8
0
 10
44.53744610525465
 20
212.5723263628199
 30
0.0
 11
44.53744610525465
 21
212.2383415128199
 31
0.0
  0
LINE
  5
8599
  8
0
 10
45.20510610525466
 20
212.2383415128199
 30
0.0
 11
46.20669110525463
 21
212.2383415128199
 31
0.0
  0
LINE
  5
859A
  8
0
 10
46.20669110525463
 20
212.2383415128199
 30
0.0
 11
46.20669110525463
 21
212.5723263628199
 31
0.0
  0
LINE
  5
859B
  8
0
 10
46.20669110525463
 20
212.5723263628199
 30
0.0
 11
45.20510610525466
 21
212.5723263628199
 31
0.0
  0
LINE
  5
859C
  8
0
 10
45.20510610525466
 20
212.5723263628199
 30
0.0
 11
45.20510610525466
 21
212.2383415128199
 31
0.0
  0
LINE
  5
859D
  8
0
 10
46.54033110525467
 20
212.2383415128199
 30
0.0
 11
47.54154560525464
 21
212.2383415128199
 31
0.0
  0
LINE
  5
859E
  8
0
 10
47.54154560525464
 20
212.2383415128199
 30
0.0
 11
47.54154560525464
 21
212.5723263628199
 31
0.0
  0
LINE
  5
859F
  8
0
 10
47.54154560525464
 20
212.5723263628199
 30
0.0
 11
46.54033110525467
 21
212.5723263628199
 31
0.0
  0
LINE
  5
85A0
  8
0
 10
46.54033110525467
 20
212.5723263628199
 30
0.0
 11
46.54033110525467
 21
212.2383415128199
 31
0.0
  0
LINE
  5
85A1
  8
0
 10
48.20910110525466
 20
212.2383415128199
 30
0.0
 11
48.54308500525465
 21
212.2383415128199
 31
0.0
  0
LINE
  5
85A2
  8
0
 10
48.54308500525465
 20
212.2383415128199
 30
0.0
 11
48.54308500525465
 21
212.5723263628199
 31
0.0
  0
LINE
  5
85A3
  8
0
 10
48.54308500525465
 20
212.5723263628199
 30
0.0
 11
48.20910110525466
 21
212.5723263628199
 31
0.0
  0
LINE
  5
85A4
  8
0
 10
48.20910110525466
 20
212.5723263628199
 30
0.0
 11
48.20910110525466
 21
212.2383415128199
 31
0.0
  0
LINE
  5
85A5
  8
0
 10
49.20992610525465
 20
212.2383415128199
 30
0.0
 11
49.54428145525466
 21
212.2383415128199
 31
0.0
  0
LINE
  5
85A6
  8
0
 10
49.54428145525466
 20
212.2383415128199
 30
0.0
 11
49.54428145525466
 21
212.5723263628199
 31
0.0
  0
LINE
  5
85A7
  8
0
 10
49.54428145525466
 20
212.5723263628199
 30
0.0
 11
49.20992610525465
 21
212.5723263628199
 31
0.0
  0
LINE
  5
85A8
  8
0
 10
49.20992610525465
 20
212.5723263628199
 30
0.0
 11
49.20992610525465
 21
212.2383415128199
 31
0.0
  0
LINE
  5
85A9
  8
0
 10
49.87749110525465
 20
212.2383415128199
 30
0.0
 11
50.21147500525464
 21
212.2383415128199
 31
0.0
  0
LINE
  5
85AA
  8
0
 10
50.21147500525464
 20
212.2383415128199
 30
0.0
 11
50.21147500525464
 21
212.5723263628199
 31
0.0
  0
LINE
  5
85AB
  8
0
 10
50.21147500525464
 20
212.5723263628199
 30
0.0
 11
49.87749110525465
 21
212.5723263628199
 31
0.0
  0
LINE
  5
85AC
  8
0
 10
49.87749110525465
 20
212.5723263628199
 30
0.0
 11
49.87749110525465
 21
212.2383415128199
 31
0.0
  0
LINE
  5
85AD
  8
0
 10
50.54591110525465
 20
212.2383415128199
 30
0.0
 11
50.87989595525465
 21
212.2383415128199
 31
0.0
  0
LINE
  5
85AF
  8
0
 10
50.87989595525465
 20
212.2382968628199
 30
0.0
 11
50.87989595525465
 21
212.5723263628199
 31
0.0
  0
LINE
  5
85B0
  8
0
 10
50.87989595525465
 20
212.5723263628199
 30
0.0
 11
50.54591110525465
 21
212.5723263628199
 31
0.0
  0
LINE
  5
85B1
  8
0
 10
50.54591110525465
 20
212.5723263628199
 30
0.0
 11
50.54591110525465
 21
212.2382968628199
 31
0.0
  0
LINE
  5
85B2
  8
0
 10
42.53437110525465
 20
211.9039415128199
 30
0.0
 11
42.86872645525466
 21
211.9039415128199
 31
0.0
  0
LINE
  5
85B3
  8
0
 10
42.86872645525466
 20
211.9039415128199
 30
0.0
 11
42.86872645525466
 21
212.2382968628199
 31
0.0
  0
LINE
  5
85B4
  8
0
 10
42.86872645525466
 20
212.2382968628199
 30
0.0
 11
42.53437110525465
 21
212.2382968628199
 31
0.0
  0
LINE
  5
85B5
  8
0
 10
42.53437110525465
 20
212.2382968628199
 30
0.0
 11
42.53437110525465
 21
211.9039415128199
 31
0.0
  0
LINE
  5
85B6
  8
0
 10
43.20193610525465
 20
211.9039415128199
 30
0.0
 11
44.20352110525465
 21
211.9039415128199
 31
0.0
  0
LINE
  5
85B7
  8
0
 10
44.20352110525465
 20
211.9039415128199
 30
0.0
 11
44.20352110525465
 21
212.2382968628199
 31
0.0
  0
LINE
  5
85B8
  8
0
 10
44.20352110525465
 20
212.2382968628199
 30
0.0
 11
43.20193610525465
 21
212.2382968628199
 31
0.0
  0
LINE
  5
85B9
  8
0
 10
43.20193610525465
 20
212.2382968628199
 30
0.0
 11
43.20193610525465
 21
211.9039415128199
 31
0.0
  0
LINE
  5
85BA
  8
0
 10
44.53744610525465
 20
211.9039415128199
 30
0.0
 11
44.87143000525464
 21
211.9039415128199
 31
0.0
  0
LINE
  5
85BB
  8
0
 10
44.87143000525464
 20
211.9039415128199
 30
0.0
 11
44.87143000525464
 21
212.2382968628199
 31
0.0
  0
LINE
  5
85BC
  8
0
 10
44.87143000525464
 20
212.2382968628199
 30
0.0
 11
44.53744610525465
 21
212.2382968628199
 31
0.0
  0
LINE
  5
85BD
  8
0
 10
44.53744610525465
 20
212.2382968628199
 30
0.0
 11
44.53744610525465
 21
211.9039415128199
 31
0.0
  0
LINE
  5
85BE
  8
0
 10
45.20510610525466
 20
211.9039415128199
 30
0.0
 11
46.20669110525463
 21
211.9039415128199
 31
0.0
  0
LINE
  5
85BF
  8
0
 10
46.20669110525463
 20
211.9039415128199
 30
0.0
 11
46.20669110525463
 21
212.2382968628199
 31
0.0
  0
LINE
  5
85C0
  8
0
 10
46.20669110525463
 20
212.2382968628199
 30
0.0
 11
45.20510610525466
 21
212.2382968628199
 31
0.0
  0
LINE
  5
85C1
  8
0
 10
45.20510610525466
 20
212.2382968628199
 30
0.0
 11
45.20510610525466
 21
211.9039415128199
 31
0.0
  0
LINE
  5
85C2
  8
0
 10
46.54033110525467
 20
211.9039415128199
 30
0.0
 11
47.20755790525465
 21
211.9039415128199
 31
0.0
  0
LINE
  5
85C3
  8
0
 10
47.20755790525465
 20
211.9039415128199
 30
0.0
 11
47.20755790525465
 21
212.2382968628199
 31
0.0
  0
LINE
  5
85C4
  8
0
 10
47.20755790525465
 20
212.2382968628199
 30
0.0
 11
46.54033110525467
 21
212.2382968628199
 31
0.0
  0
LINE
  5
85C5
  8
0
 10
46.54033110525467
 20
212.2382968628199
 30
0.0
 11
46.54033110525467
 21
211.9039415128199
 31
0.0
  0
LINE
  5
85C6
  8
0
 10
47.54153610525466
 20
211.9039415128199
 30
0.0
 11
47.87589145525467
 21
211.9039415128199
 31
0.0
  0
LINE
  5
85C7
  8
0
 10
47.87589145525467
 20
211.9039415128199
 30
0.0
 11
47.87589145525467
 21
212.2382968628199
 31
0.0
  0
LINE
  5
85C8
  8
0
 10
47.87589145525467
 20
212.2382968628199
 30
0.0
 11
47.54153610525466
 21
212.2382968628199
 31
0.0
  0
LINE
  5
85C9
  8
0
 10
47.54153610525466
 20
212.2382968628199
 30
0.0
 11
47.54153610525466
 21
211.9039415128199
 31
0.0
  0
LINE
  5
85CA
  8
0
 10
48.20910110525466
 20
211.9039415128199
 30
0.0
 11
49.21068610525467
 21
211.9039415128199
 31
0.0
  0
LINE
  5
85CB
  8
0
 10
49.21068610525467
 20
211.9039415128199
 30
0.0
 11
49.21068610525467
 21
212.2382968628199
 31
0.0
  0
LINE
  5
85CC
  8
0
 10
49.21068610525467
 20
212.2382968628199
 30
0.0
 11
48.20910110525466
 21
212.2382968628199
 31
0.0
  0
LINE
  5
85CD
  8
0
 10
48.20910110525466
 20
212.2382968628199
 30
0.0
 11
48.20910110525466
 21
211.9039415128199
 31
0.0
  0
LINE
  5
85CE
  8
0
 10
49.54432610525467
 20
211.9039415128199
 30
0.0
 11
49.87831095525465
 21
211.9039415128199
 31
0.0
  0
LINE
  5
85CF
  8
0
 10
49.87831095525465
 20
211.9039415128199
 30
0.0
 11
49.87831095525465
 21
212.2382968628199
 31
0.0
  0
LINE
  5
85D0
  8
0
 10
49.87831095525465
 20
212.2382968628199
 30
0.0
 11
49.54432610525467
 21
212.2382968628199
 31
0.0
  0
LINE
  5
85D1
  8
0
 10
49.54432610525467
 20
212.2382968628199
 30
0.0
 11
49.54432610525467
 21
211.9039415128199
 31
0.0
  0
LINE
  5
85D2
  8
0
 10
50.54591110525465
 20
211.9039415128199
 30
0.0
 11
50.87989595525465
 21
211.9039415128199
 31
0.0
  0
LINE
  5
85D3
  8
0
 10
50.87989595525465
 20
211.9039415128199
 30
0.0
 11
50.87989595525465
 21
212.2382968628199
 31
0.0
  0
LINE
  5
85D4
  8
0
 10
50.87989595525465
 20
212.2382968628199
 30
0.0
 11
50.54591110525465
 21
212.2382968628199
 31
0.0
  0
LINE
  5
85D5
  8
0
 10
50.54591110525465
 20
212.2382968628199
 30
0.0
 11
50.54591110525465
 21
211.9039415128199
 31
0.0
  0
LINE
  5
85D7
  8
0
 10
52.88224610525467
 20
211.2367565128199
 30
0.0
 11
52.88224610525467
 21
212.2382968628199
 31
0.0
  0
LINE
  5
85D8
  8
0
 10
52.88224610525467
 20
212.2382968628199
 30
0.0
 11
51.88066110525463
 21
212.2382968628199
 31
0.0
  0
LINE
  5
85D9
  8
0
 10
51.88066110525463
 20
212.2382968628199
 30
0.0
 11
51.88066110525463
 21
211.2367565128199
 31
0.0
  0
LINE
  5
85DA
  8
0
 10
42.53437110525465
 20
211.5706815128199
 30
0.0
 11
42.86872645525466
 21
211.5706815128199
 31
0.0
  0
LINE
  5
85DB
  8
0
 10
42.86872645525466
 20
211.5706815128199
 30
0.0
 11
42.86872645525466
 21
211.9046654128199
 31
0.0
  0
LINE
  5
85DC
  8
0
 10
42.86872645525466
 20
211.9046654128199
 30
0.0
 11
42.53437110525465
 21
211.9046654128199
 31
0.0
  0
LINE
  5
85DD
  8
0
 10
42.53437110525465
 20
211.9046654128199
 30
0.0
 11
42.53437110525465
 21
211.5706815128199
 31
0.0
  0
LINE
  5
85DE
  8
0
 10
43.20193610525465
 20
211.5706815128199
 30
0.0
 11
44.20352110525465
 21
211.5706815128199
 31
0.0
  0
LINE
  5
85DF
  8
0
 10
44.20352110525465
 20
211.5706815128199
 30
0.0
 11
44.20352110525465
 21
211.9046654128199
 31
0.0
  0
LINE
  5
85E0
  8
0
 10
44.20352110525465
 20
211.9046654128199
 30
0.0
 11
43.20193610525465
 21
211.9046654128199
 31
0.0
  0
LINE
  5
85E1
  8
0
 10
43.20193610525465
 20
211.9046654128199
 30
0.0
 11
43.20193610525465
 21
211.5706815128199
 31
0.0
  0
LINE
  5
85E2
  8
0
 10
44.53744610525465
 20
211.5706815128199
 30
0.0
 11
44.87143000525464
 21
211.5706815128199
 31
0.0
  0
LINE
  5
85E3
  8
0
 10
44.87143000525464
 20
211.5706815128199
 30
0.0
 11
44.87143000525464
 21
211.9046654128199
 31
0.0
  0
LINE
  5
85E4
  8
0
 10
44.87143000525464
 20
211.9046654128199
 30
0.0
 11
44.53744610525465
 21
211.9046654128199
 31
0.0
  0
LINE
  5
85E5
  8
0
 10
44.53744610525465
 20
211.9046654128199
 30
0.0
 11
44.53744610525465
 21
211.5706815128199
 31
0.0
  0
LINE
  5
85E6
  8
0
 10
45.20510610525466
 20
211.5706815128199
 30
0.0
 11
45.53909095525466
 21
211.5706815128199
 31
0.0
  0
LINE
  5
85E7
  8
0
 10
45.53909095525466
 20
211.5706815128199
 30
0.0
 11
45.53909095525466
 21
211.9046654128199
 31
0.0
  0
LINE
  5
85E8
  8
0
 10
45.53909095525466
 20
211.9046654128199
 30
0.0
 11
45.20510610525466
 21
211.9046654128199
 31
0.0
  0
LINE
  5
85E9
  8
0
 10
45.20510610525466
 20
211.9046654128199
 30
0.0
 11
45.20510610525466
 21
211.5706815128199
 31
0.0
  0
LINE
  5
85EA
  8
0
 10
48.87666610525466
 20
211.5706815128199
 30
0.0
 11
49.21065000525465
 21
211.5706815128199
 31
0.0
  0
LINE
  5
85EB
  8
0
 10
49.21065000525465
 20
211.5706815128199
 30
0.0
 11
49.21065000525465
 21
211.9046654128199
 31
0.0
  0
LINE
  5
85EC
  8
0
 10
49.21065000525465
 20
211.9046654128199
 30
0.0
 11
48.87666610525466
 21
211.9046654128199
 31
0.0
  0
LINE
  5
85ED
  8
0
 10
48.87666610525466
 20
211.9046654128199
 30
0.0
 11
48.87666610525466
 21
211.5706815128199
 31
0.0
  0
LINE
  5
85EE
  8
0
 10
49.54432610525467
 20
211.5706815128199
 30
0.0
 11
50.87915210525463
 21
211.5706815128199
 31
0.0
  0
LINE
  5
85EF
  8
0
 10
50.87915210525463
 20
211.5706815128199
 30
0.0
 11
50.87915210525463
 21
211.9046654128199
 31
0.0
  0
LINE
  5
85F0
  8
0
 10
50.87915210525463
 20
211.9046654128199
 30
0.0
 11
49.54432610525467
 21
211.9046654128199
 31
0.0
  0
LINE
  5
85F1
  8
0
 10
49.54432610525467
 20
211.9046654128199
 30
0.0
 11
49.54432610525467
 21
211.5706815128199
 31
0.0
  0
LINE
  5
85F2
  8
0
 10
42.53437110525465
 20
211.2367565128199
 30
0.0
 11
42.86872645525466
 21
211.2367565128199
 31
0.0
  0
LINE
  5
85F3
  8
0
 10
42.86872645525466
 20
211.2367565128199
 30
0.0
 11
42.86872645525466
 21
211.5707413628199
 31
0.0
  0
LINE
  5
85F4
  8
0
 10
42.86872645525466
 20
211.5707413628199
 30
0.0
 11
42.53437110525465
 21
211.5707413628199
 31
0.0
  0
LINE
  5
85F5
  8
0
 10
42.53437110525465
 20
211.5707413628199
 30
0.0
 11
42.53437110525465
 21
211.2367565128199
 31
0.0
  0
LINE
  5
85F6
  8
0
 10
43.20193610525465
 20
211.2367565128199
 30
0.0
 11
44.20352110525465
 21
211.2367565128199
 31
0.0
  0
LINE
  5
85F7
  8
0
 10
44.20352110525465
 20
211.2367565128199
 30
0.0
 11
44.20352110525465
 21
211.5707413628199
 31
0.0
  0
LINE
  5
85F8
  8
0
 10
44.20352110525465
 20
211.5707413628199
 30
0.0
 11
43.20193610525465
 21
211.5707413628199
 31
0.0
  0
LINE
  5
85F9
  8
0
 10
43.20193610525465
 20
211.5707413628199
 30
0.0
 11
43.20193610525465
 21
211.2367565128199
 31
0.0
  0
LINE
  5
85FA
  8
0
 10
44.53744610525465
 20
211.2367565128199
 30
0.0
 11
44.87143000525464
 21
211.2367565128199
 31
0.0
  0
LINE
  5
85FB
  8
0
 10
44.87143000525464
 20
211.2367565128199
 30
0.0
 11
44.87143000525464
 21
211.5707413628199
 31
0.0
  0
LINE
  5
85FC
  8
0
 10
44.87143000525464
 20
211.5707413628199
 30
0.0
 11
44.53744610525465
 21
211.5707413628199
 31
0.0
  0
LINE
  5
85FD
  8
0
 10
44.53744610525465
 20
211.5707413628199
 30
0.0
 11
44.53744610525465
 21
211.2367565128199
 31
0.0
  0
LINE
  5
85FE
  8
0
 10
45.53874610525466
 20
211.2367565128199
 30
0.0
 11
45.87273095525464
 21
211.2367565128199
 31
0.0
  0
LINE
  5
85FF
  8
0
 10
45.87273095525464
 20
211.2367565128199
 30
0.0
 11
45.87273095525464
 21
211.5707413628199
 31
0.0
  0
LINE
  5
8600
  8
0
 10
45.87273095525464
 20
211.5707413628199
 30
0.0
 11
45.53874610525466
 21
211.5707413628199
 31
0.0
  0
LINE
  5
8601
  8
0
 10
45.53874610525466
 20
211.5707413628199
 30
0.0
 11
45.53874610525466
 21
211.2367565128199
 31
0.0
  0
LINE
  5
8602
  8
0
 10
46.20593110525465
 20
211.2367565128199
 30
0.0
 11
47.20751610525465
 21
211.2367565128199
 31
0.0
  0
LINE
  5
8603
  8
0
 10
47.20751610525465
 20
211.2367565128199
 30
0.0
 11
47.20751610525465
 21
211.5707413628199
 31
0.0
  0
LINE
  5
8604
  8
0
 10
47.20751610525465
 20
211.5707413628199
 30
0.0
 11
46.20593110525465
 21
211.5707413628199
 31
0.0
  0
LINE
  5
8605
  8
0
 10
46.20593110525465
 20
211.5707413628199
 30
0.0
 11
46.20593110525465
 21
211.2367565128199
 31
0.0
  0
LINE
  5
8606
  8
0
 10
47.54153610525466
 20
211.2367565128199
 30
0.0
 11
47.87589145525467
 21
211.2367565128199
 31
0.0
  0
LINE
  5
8607
  8
0
 10
47.87589145525467
 20
211.2367565128199
 30
0.0
 11
47.87589145525467
 21
211.5707413628199
 31
0.0
  0
LINE
  5
8608
  8
0
 10
47.87589145525467
 20
211.5707413628199
 30
0.0
 11
47.54153610525466
 21
211.5707413628199
 31
0.0
  0
LINE
  5
8609
  8
0
 10
47.54153610525466
 20
211.5707413628199
 30
0.0
 11
47.54153610525466
 21
211.2367565128199
 31
0.0
  0
LINE
  5
860A
  8
0
 10
48.20910110525466
 20
211.2367565128199
 30
0.0
 11
48.87669840525464
 21
211.2367565128199
 31
0.0
  0
LINE
  5
860B
  8
0
 10
48.87669840525464
 20
211.2367565128199
 30
0.0
 11
48.87669840525464
 21
211.5707413628199
 31
0.0
  0
LINE
  5
860C
  8
0
 10
48.87669840525464
 20
211.5707413628199
 30
0.0
 11
48.20910110525466
 21
211.5707413628199
 31
0.0
  0
LINE
  5
860D
  8
0
 10
48.20910110525466
 20
211.5707413628199
 30
0.0
 11
48.20910110525466
 21
211.2367565128199
 31
0.0
  0
LINE
  5
860E
  8
0
 10
50.21151110525466
 20
211.2367565128199
 30
0.0
 11
50.54586645525464
 21
211.2367565128199
 31
0.0
  0
LINE
  5
860F
  8
0
 10
50.54586645525464
 20
211.2367565128199
 30
0.0
 11
50.54586645525464
 21
211.5707413628199
 31
0.0
  0
LINE
  5
8610
  8
0
 10
50.54586645525464
 20
211.5707413628199
 30
0.0
 11
50.21151110525466
 21
211.5707413628199
 31
0.0
  0
LINE
  5
8611
  8
0
 10
50.21151110525466
 20
211.5707413628199
 30
0.0
 11
50.21151110525466
 21
211.2367565128199
 31
0.0
  0
LINE
  5
8612
  8
0
 10
51.88066110525463
 20
211.2367565128199
 30
0.0
 11
52.88224610525467
 21
211.2367565128199
 31
0.0
  0
LINE
  5
8613
  8
0
 10
42.53437110525465
 20
210.9031165128199
 30
0.0
 11
42.86872645525466
 21
210.9031165128199
 31
0.0
  0
LINE
  5
8614
  8
0
 10
42.86872645525466
 20
210.9031165128199
 30
0.0
 11
42.86872645525466
 21
211.2371013628199
 31
0.0
  0
LINE
  5
8615
  8
0
 10
42.86872645525466
 20
211.2371013628199
 30
0.0
 11
42.53437110525465
 21
211.2371013628199
 31
0.0
  0
LINE
  5
8616
  8
0
 10
42.53437110525465
 20
211.2371013628199
 30
0.0
 11
42.53437110525465
 21
210.9031165128199
 31
0.0
  0
LINE
  5
8617
  8
0
 10
44.53744610525465
 20
210.9031165128199
 30
0.0
 11
44.87143000525464
 21
210.9031165128199
 31
0.0
  0
LINE
  5
8618
  8
0
 10
44.87143000525464
 20
210.9031165128199
 30
0.0
 11
44.87143000525464
 21
211.2371013628199
 31
0.0
  0
LINE
  5
8619
  8
0
 10
44.87143000525464
 20
211.2371013628199
 30
0.0
 11
44.53744610525465
 21
211.2371013628199
 31
0.0
  0
LINE
  5
861A
  8
0
 10
44.53744610525465
 20
211.2371013628199
 30
0.0
 11
44.53744610525465
 21
210.9031165128199
 31
0.0
  0
LINE
  5
861B
  8
0
 10
46.87349610525465
 20
210.9031165128199
 30
0.0
 11
47.54109435525467
 21
210.9031165128199
 31
0.0
  0
LINE
  5
861C
  8
0
 10
47.54109435525467
 20
210.9031165128199
 30
0.0
 11
47.54109435525467
 21
211.2371013628199
 31
0.0
  0
LINE
  5
861D
  8
0
 10
47.54109435525467
 20
211.2371013628199
 30
0.0
 11
46.87349610525465
 21
211.2371013628199
 31
0.0
  0
LINE
  5
861E
  8
0
 10
46.87349610525465
 20
211.2371013628199
 30
0.0
 11
46.87349610525465
 21
210.9031165128199
 31
0.0
  0
LINE
  5
861F
  8
0
 10
47.87508110525465
 20
210.9031165128199
 30
0.0
 11
48.20906595525466
 21
210.9031165128199
 31
0.0
  0
LINE
  5
8620
  8
0
 10
48.20906595525466
 20
210.9031165128199
 30
0.0
 11
48.20906595525466
 21
211.2371013628199
 31
0.0
  0
LINE
  5
8621
  8
0
 10
48.20906595525466
 20
211.2371013628199
 30
0.0
 11
47.87508110525465
 21
211.2371013628199
 31
0.0
  0
LINE
  5
8622
  8
0
 10
47.87508110525465
 20
211.2371013628199
 30
0.0
 11
47.87508110525465
 21
210.9031165128199
 31
0.0
  0
LINE
  5
8623
  8
0
 10
48.54274110525463
 20
210.9031165128199
 30
0.0
 11
48.87672595525467
 21
210.9031165128199
 31
0.0
  0
LINE
  5
8624
  8
0
 10
48.87672595525467
 20
210.9031165128199
 30
0.0
 11
48.87672595525467
 21
211.2371013628199
 31
0.0
  0
LINE
  5
8625
  8
0
 10
48.87672595525467
 20
211.2371013628199
 30
0.0
 11
48.54274110525463
 21
211.2371013628199
 31
0.0
  0
LINE
  5
8626
  8
0
 10
48.54274110525463
 20
211.2371013628199
 30
0.0
 11
48.54274110525463
 21
210.9031165128199
 31
0.0
  0
LINE
  5
8627
  8
0
 10
49.20992610525465
 20
210.9031165128199
 30
0.0
 11
49.54428145525466
 21
210.9031165128199
 31
0.0
  0
LINE
  5
8628
  8
0
 10
49.54428145525466
 20
210.9031165128199
 30
0.0
 11
49.54428145525466
 21
211.2371013628199
 31
0.0
  0
LINE
  5
8629
  8
0
 10
49.54428145525466
 20
211.2371013628199
 30
0.0
 11
49.20992610525465
 21
211.2371013628199
 31
0.0
  0
LINE
  5
862A
  8
0
 10
49.20992610525465
 20
211.2371013628199
 30
0.0
 11
49.20992610525465
 21
210.9031165128199
 31
0.0
  0
LINE
  5
862B
  8
0
 10
51.54708000525466
 20
210.9030804128199
 30
0.0
 11
51.54708000525466
 21
212.5722665128199
 31
0.0
  0
LINE
  5
862C
  8
0
 10
53.21550610525466
 20
212.5722665128199
 30
0.0
 11
53.21550610525466
 21
210.9030804128199
 31
0.0
  0
LINE
  5
862D
  8
0
 10
42.53437110525465
 20
210.5690965128199
 30
0.0
 11
44.87115260525468
 21
210.5690965128199
 31
0.0
  0
LINE
  5
862E
  8
0
 10
44.87115260525468
 20
210.5690965128199
 30
0.0
 11
44.87115260525468
 21
210.9030804128199
 31
0.0
  0
LINE
  5
862F
  8
0
 10
44.87115260525468
 20
210.9030804128199
 30
0.0
 11
42.53437110525465
 21
210.9030804128199
 31
0.0
  0
LINE
  5
8630
  8
0
 10
42.53437110525465
 20
210.9030804128199
 30
0.0
 11
42.53437110525465
 21
210.5690965128199
 31
0.0
  0
LINE
  5
8631
  8
0
 10
45.20510610525466
 20
210.5690965128199
 30
0.0
 11
45.53909095525466
 21
210.5690965128199
 31
0.0
  0
LINE
  5
8632
  8
0
 10
45.53909095525466
 20
210.5690965128199
 30
0.0
 11
45.53909095525466
 21
210.9030804128199
 31
0.0
  0
LINE
  5
8633
  8
0
 10
45.53909095525466
 20
210.9030804128199
 30
0.0
 11
45.20510610525466
 21
210.9030804128199
 31
0.0
  0
LINE
  5
8634
  8
0
 10
45.20510610525466
 20
210.9030804128199
 30
0.0
 11
45.20510610525466
 21
210.5690965128199
 31
0.0
  0
LINE
  5
8635
  8
0
 10
45.87267110525465
 20
210.5690965128199
 30
0.0
 11
46.20665500525465
 21
210.5690965128199
 31
0.0
  0
LINE
  5
8636
  8
0
 10
46.20665500525465
 20
210.5690965128199
 30
0.0
 11
46.20665500525465
 21
210.9030804128199
 31
0.0
  0
LINE
  5
8637
  8
0
 10
46.20665500525465
 20
210.9030804128199
 30
0.0
 11
45.87267110525465
 21
210.9030804128199
 31
0.0
  0
LINE
  5
8638
  8
0
 10
45.87267110525465
 20
210.9030804128199
 30
0.0
 11
45.87267110525465
 21
210.5690965128199
 31
0.0
  0
LINE
  5
8639
  8
0
 10
46.54033110525467
 20
210.5690965128199
 30
0.0
 11
46.87431500525466
 21
210.5690965128199
 31
0.0
  0
LINE
  5
863A
  8
0
 10
46.87431500525466
 20
210.5690965128199
 30
0.0
 11
46.87431500525466
 21
210.9030804128199
 31
0.0
  0
LINE
  5
863B
  8
0
 10
46.87431500525466
 20
210.9030804128199
 30
0.0
 11
46.54033110525467
 21
210.9030804128199
 31
0.0
  0
LINE
  5
863C
  8
0
 10
46.54033110525467
 20
210.9030804128199
 30
0.0
 11
46.54033110525467
 21
210.5690965128199
 31
0.0
  0
LINE
  5
863D
  8
0
 10
47.20751610525465
 20
210.5690965128199
 30
0.0
 11
47.54150000525468
 21
210.5690965128199
 31
0.0
  0
LINE
  5
863E
  8
0
 10
47.54150000525468
 20
210.5690965128199
 30
0.0
 11
47.54150000525468
 21
210.9030804128199
 31
0.0
  0
LINE
  5
863F
  8
0
 10
47.54150000525468
 20
210.9030804128199
 30
0.0
 11
47.20751610525465
 21
210.9030804128199
 31
0.0
  0
LINE
  5
8640
  8
0
 10
47.20751610525465
 20
210.9030804128199
 30
0.0
 11
47.20751610525465
 21
210.5690965128199
 31
0.0
  0
LINE
  5
8641
  8
0
 10
47.87508110525465
 20
210.5690965128199
 30
0.0
 11
48.20906595525466
 21
210.5690965128199
 31
0.0
  0
LINE
  5
8642
  8
0
 10
48.20906595525466
 20
210.5690965128199
 30
0.0
 11
48.20906595525466
 21
210.9030804128199
 31
0.0
  0
LINE
  5
8643
  8
0
 10
48.20906595525466
 20
210.9030804128199
 30
0.0
 11
47.87508110525465
 21
210.9030804128199
 31
0.0
  0
LINE
  5
8644
  8
0
 10
47.87508110525465
 20
210.9030804128199
 30
0.0
 11
47.87508110525465
 21
210.5690965128199
 31
0.0
  0
LINE
  5
8645
  8
0
 10
48.54274110525463
 20
210.5690965128199
 30
0.0
 11
48.87672595525467
 21
210.5690965128199
 31
0.0
  0
LINE
  5
8646
  8
0
 10
48.87672595525467
 20
210.5690965128199
 30
0.0
 11
48.87672595525467
 21
210.9030804128199
 31
0.0
  0
LINE
  5
8647
  8
0
 10
48.87672595525467
 20
210.9030804128199
 30
0.0
 11
48.54274110525463
 21
210.9030804128199
 31
0.0
  0
LINE
  5
8648
  8
0
 10
48.54274110525463
 20
210.9030804128199
 30
0.0
 11
48.54274110525463
 21
210.5690965128199
 31
0.0
  0
LINE
  5
8649
  8
0
 10
49.20992610525465
 20
210.5690965128199
 30
0.0
 11
49.54428145525466
 21
210.5690965128199
 31
0.0
  0
LINE
  5
864A
  8
0
 10
49.54428145525466
 20
210.5690965128199
 30
0.0
 11
49.54428145525466
 21
210.9030804128199
 31
0.0
  0
LINE
  5
864B
  8
0
 10
49.54428145525466
 20
210.9030804128199
 30
0.0
 11
49.20992610525465
 21
210.9030804128199
 31
0.0
  0
LINE
  5
864C
  8
0
 10
49.20992610525465
 20
210.9030804128199
 30
0.0
 11
49.20992610525465
 21
210.5690965128199
 31
0.0
  0
LINE
  5
864D
  8
0
 10
49.87749110525465
 20
210.5690965128199
 30
0.0
 11
50.21147500525464
 21
210.5690965128199
 31
0.0
  0
LINE
  5
864E
  8
0
 10
50.21147500525464
 20
210.5690965128199
 30
0.0
 11
50.21147500525464
 21
210.9030804128199
 31
0.0
  0
LINE
  5
864F
  8
0
 10
50.21147500525464
 20
210.9030804128199
 30
0.0
 11
49.87749110525465
 21
210.9030804128199
 31
0.0
  0
LINE
  5
8650
  8
0
 10
49.87749110525465
 20
210.9030804128199
 30
0.0
 11
49.87749110525465
 21
210.5690965128199
 31
0.0
  0
LINE
  5
8651
  8
0
 10
50.54591110525465
 20
210.5690965128199
 30
0.0
 11
50.87989595525465
 21
210.5690965128199
 31
0.0
  0
LINE
  5
8652
  8
0
 10
50.87989595525465
 20
210.5690965128199
 30
0.0
 11
50.87989595525465
 21
210.9030804128199
 31
0.0
  0
LINE
  5
8653
  8
0
 10
50.87989595525465
 20
210.9030804128199
 30
0.0
 11
50.54591110525465
 21
210.9030804128199
 31
0.0
  0
LINE
  5
8654
  8
0
 10
50.54591110525465
 20
210.9030804128199
 30
0.0
 11
50.54591110525465
 21
210.5690965128199
 31
0.0
  0
LINE
  5
8655
  8
0
 10
51.21309610525466
 20
210.5690965128199
 30
0.0
 11
53.54987760525464
 21
210.5690965128199
 31
0.0
  0
LINE
  5
8656
  8
0
 10
53.21550610525466
 20
210.9030804128199
 30
0.0
 11
51.54708000525466
 21
210.9030804128199
 31
0.0
  0
LINE
  5
8657
  8
0
 10
45.20510610525466
 20
210.2359315128199
 30
0.0
 11
45.53909095525466
 21
210.2359315128199
 31
0.0
  0
LINE
  5
8658
  8
0
 10
45.53909095525466
 20
210.2359315128199
 30
0.0
 11
45.53909095525466
 21
210.5699154128199
 31
0.0
  0
LINE
  5
8659
  8
0
 10
45.53909095525466
 20
210.5699154128199
 30
0.0
 11
45.20510610525466
 21
210.5699154128199
 31
0.0
  0
LINE
  5
865A
  8
0
 10
45.20510610525466
 20
210.5699154128199
 30
0.0
 11
45.20510610525466
 21
210.2359315128199
 31
0.0
  0
LINE
  5
865B
  8
0
 10
46.54033110525467
 20
210.2359315128199
 30
0.0
 11
46.87431500525466
 21
210.2359315128199
 31
0.0
  0
LINE
  5
865C
  8
0
 10
46.87431500525466
 20
210.2359315128199
 30
0.0
 11
46.87431500525466
 21
210.5699154128199
 31
0.0
  0
LINE
  5
865D
  8
0
 10
46.87431500525466
 20
210.5699154128199
 30
0.0
 11
46.54033110525467
 21
210.5699154128199
 31
0.0
  0
LINE
  5
865E
  8
0
 10
46.54033110525467
 20
210.5699154128199
 30
0.0
 11
46.54033110525467
 21
210.2359315128199
 31
0.0
  0
LINE
  5
865F
  8
0
 10
47.20751610525465
 20
210.2359315128199
 30
0.0
 11
47.54150000525468
 21
210.2359315128199
 31
0.0
  0
LINE
  5
8660
  8
0
 10
47.54150000525468
 20
210.2359315128199
 30
0.0
 11
47.54150000525468
 21
210.5699154128199
 31
0.0
  0
LINE
  5
8661
  8
0
 10
47.54150000525468
 20
210.5699154128199
 30
0.0
 11
47.20751610525465
 21
210.5699154128199
 31
0.0
  0
LINE
  5
8662
  8
0
 10
47.20751610525465
 20
210.5699154128199
 30
0.0
 11
47.20751610525465
 21
210.2359315128199
 31
0.0
  0
LINE
  5
8663
  8
0
 10
49.87749110525465
 20
210.2359315128199
 30
0.0
 11
50.21147500525464
 21
210.2359315128199
 31
0.0
  0
LINE
  5
8664
  8
0
 10
50.21147500525464
 20
210.2359315128199
 30
0.0
 11
50.21147500525464
 21
210.5699154128199
 31
0.0
  0
LINE
  5
8665
  8
0
 10
50.21147500525464
 20
210.5699154128199
 30
0.0
 11
49.87749110525465
 21
210.5699154128199
 31
0.0
  0
LINE
  5
8666
  8
0
 10
49.87749110525465
 20
210.5699154128199
 30
0.0
 11
49.87749110525465
 21
210.2359315128199
 31
0.0
  0
LINE
  5
8667
  8
0
 10
50.54591110525465
 20
210.2359315128199
 30
0.0
 11
50.87989595525465
 21
210.2359315128199
 31
0.0
  0
LINE
  5
8668
  8
0
 10
50.87989595525465
 20
210.2359315128199
 30
0.0
 11
50.87989595525465
 21
210.5699154128199
 31
0.0
  0
LINE
  5
8669
  8
0
 10
50.87989595525465
 20
210.5699154128199
 30
0.0
 11
50.54591110525465
 21
210.5699154128199
 31
0.0
  0
LINE
  5
866A
  8
0
 10
50.54591110525465
 20
210.5699154128199
 30
0.0
 11
50.54591110525465
 21
210.2359315128199
 31
0.0
  0
LINE
  5
866B
  8
0
 10
42.53437110525465
 20
209.9015315128199
 30
0.0
 11
42.86872645525466
 21
209.9015315128199
 31
0.0
  0
LINE
  5
866C
  8
0
 10
42.86872645525466
 20
209.9015315128199
 30
0.0
 11
42.86872645525466
 21
210.2358868628199
 31
0.0
  0
LINE
  5
866D
  8
0
 10
42.86872645525466
 20
210.2358868628199
 30
0.0
 11
42.53437110525465
 21
210.2358868628199
 31
0.0
  0
LINE
  5
866E
  8
0
 10
42.53437110525465
 20
210.2358868628199
 30
0.0
 11
42.53437110525465
 21
209.9015315128199
 31
0.0
  0
LINE
  5
866F
  8
0
 10
44.53744610525465
 20
209.9015315128199
 30
0.0
 11
44.87143000525464
 21
209.9015315128199
 31
0.0
  0
LINE
  5
8670
  8
0
 10
44.87143000525464
 20
209.9015315128199
 30
0.0
 11
44.87143000525464
 21
210.2358868628199
 31
0.0
  0
LINE
  5
8671
  8
0
 10
44.87143000525464
 20
210.2358868628199
 30
0.0
 11
44.53744610525465
 21
210.2358868628199
 31
0.0
  0
LINE
  5
8672
  8
0
 10
44.53744610525465
 20
210.2358868628199
 30
0.0
 11
44.53744610525465
 21
209.9015315128199
 31
0.0
  0
LINE
  5
8673
  8
0
 10
45.20510610525466
 20
209.9015315128199
 30
0.0
 11
46.20669110525463
 21
209.9015315128199
 31
0.0
  0
LINE
  5
8674
  8
0
 10
46.20669110525463
 20
209.9015315128199
 30
0.0
 11
46.20669110525463
 21
210.2358868628199
 31
0.0
  0
LINE
  5
8675
  8
0
 10
46.20669110525463
 20
210.2358868628199
 30
0.0
 11
45.20510610525466
 21
210.2358868628199
 31
0.0
  0
LINE
  5
8676
  8
0
 10
45.20510610525466
 20
210.2358868628199
 30
0.0
 11
45.20510610525466
 21
209.9015315128199
 31
0.0
  0
LINE
  5
8677
  8
0
 10
46.87349610525465
 20
209.9015315128199
 30
0.0
 11
48.54267460525466
 21
209.9015315128199
 31
0.0
  0
LINE
  5
8678
  8
0
 10
48.54267460525466
 20
209.9015315128199
 30
0.0
 11
48.54267460525466
 21
210.2358868628199
 31
0.0
  0
LINE
  5
8679
  8
0
 10
48.54267460525466
 20
210.2358868628199
 30
0.0
 11
46.87349610525465
 21
210.2358868628199
 31
0.0
  0
LINE
  5
867A
  8
0
 10
46.87349610525465
 20
210.2358868628199
 30
0.0
 11
46.87349610525465
 21
209.9015315128199
 31
0.0
  0
LINE
  5
867B
  8
0
 10
49.87749110525465
 20
209.9015315128199
 30
0.0
 11
50.21147500525464
 21
209.9015315128199
 31
0.0
  0
LINE
  5
867C
  8
0
 10
50.21147500525464
 20
209.9015315128199
 30
0.0
 11
50.21147500525464
 21
210.2358868628199
 31
0.0
  0
LINE
  5
867D
  8
0
 10
50.21147500525464
 20
210.2358868628199
 30
0.0
 11
49.87749110525465
 21
210.2358868628199
 31
0.0
  0
LINE
  5
867E
  8
0
 10
49.87749110525465
 20
210.2358868628199
 30
0.0
 11
49.87749110525465
 21
209.9015315128199
 31
0.0
  0
LINE
  5
867F
  8
0
 10
50.54591110525465
 20
209.9015315128199
 30
0.0
 11
51.54712560525465
 21
209.9015315128199
 31
0.0
  0
LINE
  5
8680
  8
0
 10
51.54712560525465
 20
209.9015315128199
 30
0.0
 11
51.54712560525465
 21
210.2358868628199
 31
0.0
  0
LINE
  5
8681
  8
0
 10
51.54712560525465
 20
210.2358868628199
 30
0.0
 11
50.54591110525465
 21
210.2358868628199
 31
0.0
  0
LINE
  5
8682
  8
0
 10
50.54591110525465
 20
210.2358868628199
 30
0.0
 11
50.54591110525465
 21
209.9015315128199
 31
0.0
  0
LINE
  5
8683
  8
0
 10
52.21392110525466
 20
209.9015315128199
 30
0.0
 11
53.21550610525466
 21
209.9015315128199
 31
0.0
  0
LINE
  5
8684
  8
0
 10
53.21550610525466
 20
209.9015315128199
 30
0.0
 11
53.21550610525466
 21
210.2358868628199
 31
0.0
  0
LINE
  5
8685
  8
0
 10
53.21550610525466
 20
210.2358868628199
 30
0.0
 11
52.21392110525466
 21
210.2358868628199
 31
0.0
  0
LINE
  5
8686
  8
0
 10
52.21392110525466
 20
210.2358868628199
 30
0.0
 11
52.21392110525466
 21
209.9015315128199
 31
0.0
  0
LINE
  5
8687
  8
0
 10
42.53437110525465
 20
209.5682715128199
 30
0.0
 11
42.86872645525466
 21
209.5682715128199
 31
0.0
  0
LINE
  5
8688
  8
0
 10
42.86872645525466
 20
209.5682715128199
 30
0.0
 11
42.86872645525466
 21
209.9022563628199
 31
0.0
  0
LINE
  5
8689
  8
0
 10
42.86872645525466
 20
209.9022563628199
 30
0.0
 11
42.53437110525465
 21
209.9022563628199
 31
0.0
  0
LINE
  5
868A
  8
0
 10
42.53437110525465
 20
209.9022563628199
 30
0.0
 11
42.53437110525465
 21
209.5682715128199
 31
0.0
  0
LINE
  5
868B
  8
0
 10
44.20352110525465
 20
209.5682715128199
 30
0.0
 11
44.53750595525466
 21
209.5682715128199
 31
0.0
  0
LINE
  5
868C
  8
0
 10
44.53750595525466
 20
209.5682715128199
 30
0.0
 11
44.53750595525466
 21
209.9022563628199
 31
0.0
  0
LINE
  5
868D
  8
0
 10
44.53750595525466
 20
209.9022563628199
 30
0.0
 11
44.20352110525465
 21
209.9022563628199
 31
0.0
  0
LINE
  5
868E
  8
0
 10
44.20352110525465
 20
209.9022563628199
 30
0.0
 11
44.20352110525465
 21
209.5682715128199
 31
0.0
  0
LINE
  5
868F
  8
0
 10
45.20510610525466
 20
209.5682715128199
 30
0.0
 11
45.53909095525466
 21
209.5682715128199
 31
0.0
  0
LINE
  5
8690
  8
0
 10
45.53909095525466
 20
209.5682715128199
 30
0.0
 11
45.53909095525466
 21
209.9022563628199
 31
0.0
  0
LINE
  5
8691
  8
0
 10
45.53909095525466
 20
209.9022563628199
 30
0.0
 11
45.20510610525466
 21
209.9022563628199
 31
0.0
  0
LINE
  5
8692
  8
0
 10
45.20510610525466
 20
209.9022563628199
 30
0.0
 11
45.20510610525466
 21
209.5682715128199
 31
0.0
  0
LINE
  5
8693
  8
0
 10
45.87267110525465
 20
209.5682715128199
 30
0.0
 11
46.87388560525466
 21
209.5682715128199
 31
0.0
  0
LINE
  5
8694
  8
0
 10
46.87388560525466
 20
209.5682715128199
 30
0.0
 11
46.87388560525466
 21
209.9022563628199
 31
0.0
  0
LINE
  5
8695
  8
0
 10
46.87388560525466
 20
209.9022563628199
 30
0.0
 11
45.87267110525465
 21
209.9022563628199
 31
0.0
  0
LINE
  5
8696
  8
0
 10
45.87267110525465
 20
209.9022563628199
 30
0.0
 11
45.87267110525465
 21
209.5682715128199
 31
0.0
  0
LINE
  5
8697
  8
0
 10
47.54153610525466
 20
209.5682715128199
 30
0.0
 11
47.87589145525467
 21
209.5682715128199
 31
0.0
  0
LINE
  5
8698
  8
0
 10
47.87589145525467
 20
209.5682715128199
 30
0.0
 11
47.87589145525467
 21
209.9022563628199
 31
0.0
  0
LINE
  5
8699
  8
0
 10
47.87589145525467
 20
209.9022563628199
 30
0.0
 11
47.54153610525466
 21
209.9022563628199
 31
0.0
  0
LINE
  5
869A
  8
0
 10
47.54153610525466
 20
209.9022563628199
 30
0.0
 11
47.54153610525466
 21
209.5682715128199
 31
0.0
  0
LINE
  5
869B
  8
0
 10
48.54274110525463
 20
209.5682715128199
 30
0.0
 11
49.20996790525467
 21
209.5682715128199
 31
0.0
  0
LINE
  5
869C
  8
0
 10
49.20996790525467
 20
209.5682715128199
 30
0.0
 11
49.20996790525467
 21
209.9022563628199
 31
0.0
  0
LINE
  5
869D
  8
0
 10
49.20996790525467
 20
209.9022563628199
 30
0.0
 11
48.54274110525463
 21
209.9022563628199
 31
0.0
  0
LINE
  5
869E
  8
0
 10
48.54274110525463
 20
209.9022563628199
 30
0.0
 11
48.54274110525463
 21
209.5682715128199
 31
0.0
  0
LINE
  5
869F
  8
0
 10
49.54432610525467
 20
209.5682715128199
 30
0.0
 11
50.54591110525465
 21
209.5682715128199
 31
0.0
  0
LINE
  5
86A0
  8
0
 10
50.54591110525465
 20
209.5682715128199
 30
0.0
 11
50.54591110525465
 21
209.9022563628199
 31
0.0
  0
LINE
  5
86A1
  8
0
 10
50.54591110525465
 20
209.9022563628199
 30
0.0
 11
49.54432610525467
 21
209.9022563628199
 31
0.0
  0
LINE
  5
86A2
  8
0
 10
49.54432610525467
 20
209.9022563628199
 30
0.0
 11
49.54432610525467
 21
209.5682715128199
 31
0.0
  0
LINE
  5
86A3
  8
0
 10
51.88066110525463
 20
209.5682715128199
 30
0.0
 11
52.88224610525467
 21
209.5682715128199
 31
0.0
  0
LINE
  5
86A4
  8
0
 10
52.88224610525467
 20
209.5682715128199
 30
0.0
 11
52.88224610525467
 21
209.9022563628199
 31
0.0
  0
LINE
  5
86A5
  8
0
 10
52.88224610525467
 20
209.9022563628199
 30
0.0
 11
51.88066110525463
 21
209.9022563628199
 31
0.0
  0
LINE
  5
86A6
  8
0
 10
51.88066110525463
 20
209.9022563628199
 30
0.0
 11
51.88066110525463
 21
209.5682715128199
 31
0.0
  0
LINE
  5
86A7
  8
0
 10
43.20193610525465
 20
209.2343465128199
 30
0.0
 11
43.53629240525464
 21
209.2343465128199
 31
0.0
  0
LINE
  5
86A8
  8
0
 10
43.53629240525464
 20
209.2343465128199
 30
0.0
 11
43.53629240525464
 21
209.5683304128199
 31
0.0
  0
LINE
  5
86A9
  8
0
 10
43.53629240525464
 20
209.5683304128199
 30
0.0
 11
43.20193610525465
 21
209.5683304128199
 31
0.0
  0
LINE
  5
86AA
  8
0
 10
43.20193610525465
 20
209.5683304128199
 30
0.0
 11
43.20193610525465
 21
209.2343465128199
 31
0.0
  0
LINE
  5
86AB
  8
0
 10
43.86950110525467
 20
209.2343465128199
 30
0.0
 11
45.20469760525464
 21
209.2343465128199
 31
0.0
  0
LINE
  5
86AC
  8
0
 10
45.20469760525464
 20
209.2343465128199
 30
0.0
 11
45.20469760525464
 21
209.5683304128199
 31
0.0
  0
LINE
  5
86AD
  8
0
 10
45.20469760525464
 20
209.5683304128199
 30
0.0
 11
43.86950110525467
 21
209.5683304128199
 31
0.0
  0
LINE
  5
86AE
  8
0
 10
43.86950110525467
 20
209.5683304128199
 30
0.0
 11
43.86950110525467
 21
209.2343465128199
 31
0.0
  0
LINE
  5
86AF
  8
0
 10
45.53874610525466
 20
209.2343465128199
 30
0.0
 11
46.20597290525464
 21
209.2343465128199
 31
0.0
  0
LINE
  5
86B0
  8
0
 10
46.20597290525464
 20
209.2343465128199
 30
0.0
 11
46.20597290525464
 21
209.5683304128199
 31
0.0
  0
LINE
  5
86B1
  8
0
 10
46.20597290525464
 20
209.5683304128199
 30
0.0
 11
45.53874610525466
 21
209.5683304128199
 31
0.0
  0
LINE
  5
86B2
  8
0
 10
45.53874610525466
 20
209.5683304128199
 30
0.0
 11
45.53874610525466
 21
209.2343465128199
 31
0.0
  0
LINE
  5
86B3
  8
0
 10
46.54033110525467
 20
209.2343465128199
 30
0.0
 11
46.87431500525466
 21
209.2343465128199
 31
0.0
  0
LINE
  5
86B4
  8
0
 10
46.87431500525466
 20
209.2343465128199
 30
0.0
 11
46.87431500525466
 21
209.5683304128199
 31
0.0
  0
LINE
  5
86B5
  8
0
 10
46.87431500525466
 20
209.5683304128199
 30
0.0
 11
46.54033110525467
 21
209.5683304128199
 31
0.0
  0
LINE
  5
86B6
  8
0
 10
46.54033110525467
 20
209.5683304128199
 30
0.0
 11
46.54033110525467
 21
209.2343465128199
 31
0.0
  0
LINE
  5
86B7
  8
0
 10
47.54153610525466
 20
209.2343465128199
 30
0.0
 11
47.87589145525467
 21
209.2343465128199
 31
0.0
  0
LINE
  5
86B8
  8
0
 10
47.87589145525467
 20
209.2343465128199
 30
0.0
 11
47.87589145525467
 21
209.5683304128199
 31
0.0
  0
LINE
  5
86B9
  8
0
 10
47.87589145525467
 20
209.5683304128199
 30
0.0
 11
47.54153610525466
 21
209.5683304128199
 31
0.0
  0
LINE
  5
86BA
  8
0
 10
47.54153610525466
 20
209.5683304128199
 30
0.0
 11
47.54153610525466
 21
209.2343465128199
 31
0.0
  0
LINE
  5
86BB
  8
0
 10
48.54274110525463
 20
209.2343465128199
 30
0.0
 11
48.87672595525467
 21
209.2343465128199
 31
0.0
  0
LINE
  5
86BC
  8
0
 10
48.87672595525467
 20
209.2343465128199
 30
0.0
 11
48.87672595525467
 21
209.5683304128199
 31
0.0
  0
LINE
  5
86BD
  8
0
 10
48.87672595525467
 20
209.5683304128199
 30
0.0
 11
48.54274110525463
 21
209.5683304128199
 31
0.0
  0
LINE
  5
86BE
  8
0
 10
48.54274110525463
 20
209.5683304128199
 30
0.0
 11
48.54274110525463
 21
209.2343465128199
 31
0.0
  0
LINE
  5
86BF
  8
0
 10
49.20992610525465
 20
209.2343465128199
 30
0.0
 11
49.54428145525466
 21
209.2343465128199
 31
0.0
  0
LINE
  5
86C0
  8
0
 10
49.54428145525466
 20
209.2343465128199
 30
0.0
 11
49.54428145525466
 21
209.5683304128199
 31
0.0
  0
LINE
  5
86C1
  8
0
 10
49.54428145525466
 20
209.5683304128199
 30
0.0
 11
49.20992610525465
 21
209.5683304128199
 31
0.0
  0
LINE
  5
86C2
  8
0
 10
49.20992610525465
 20
209.5683304128199
 30
0.0
 11
49.20992610525465
 21
209.2343465128199
 31
0.0
  0
LINE
  5
86C3
  8
0
 10
49.87749110525465
 20
209.2343465128199
 30
0.0
 11
50.21147500525464
 21
209.2343465128199
 31
0.0
  0
LINE
  5
86C4
  8
0
 10
50.21147500525464
 20
209.2343465128199
 30
0.0
 11
50.21147500525464
 21
209.5683304128199
 31
0.0
  0
LINE
  5
86C5
  8
0
 10
50.21147500525464
 20
209.5683304128199
 30
0.0
 11
49.87749110525465
 21
209.5683304128199
 31
0.0
  0
LINE
  5
86C6
  8
0
 10
49.87749110525465
 20
209.5683304128199
 30
0.0
 11
49.87749110525465
 21
209.2343465128199
 31
0.0
  0
LINE
  5
86C7
  8
0
 10
50.54591110525465
 20
209.2343465128199
 30
0.0
 11
51.54712560525465
 21
209.2343465128199
 31
0.0
  0
LINE
  5
86C8
  8
0
 10
51.54712560525465
 20
209.2343465128199
 30
0.0
 11
51.54712560525465
 21
209.5683304128199
 31
0.0
  0
LINE
  5
86C9
  8
0
 10
51.54712560525465
 20
209.5683304128199
 30
0.0
 11
50.54591110525465
 21
209.5683304128199
 31
0.0
  0
LINE
  5
86CA
  8
0
 10
50.54591110525465
 20
209.5683304128199
 30
0.0
 11
50.54591110525465
 21
209.2343465128199
 31
0.0
  0
LINE
  5
86CB
  8
0
 10
51.88066110525463
 20
209.2343465128199
 30
0.0
 11
52.21464595525467
 21
209.2343465128199
 31
0.0
  0
LINE
  5
86CC
  8
0
 10
52.21464595525467
 20
209.2343465128199
 30
0.0
 11
52.21464595525467
 21
209.5683304128199
 31
0.0
  0
LINE
  5
86CD
  8
0
 10
52.21464595525467
 20
209.5683304128199
 30
0.0
 11
51.88066110525463
 21
209.5683304128199
 31
0.0
  0
LINE
  5
86CE
  8
0
 10
51.88066110525463
 20
209.5683304128199
 30
0.0
 11
51.88066110525463
 21
209.2343465128199
 31
0.0
  0
LINE
  5
86CF
  8
0
 10
52.54832110525464
 20
209.2343465128199
 30
0.0
 11
53.21554695525467
 21
209.2343465128199
 31
0.0
  0
LINE
  5
86D0
  8
0
 10
53.21554695525467
 20
209.2343465128199
 30
0.0
 11
53.21554695525467
 21
209.5683304128199
 31
0.0
  0
LINE
  5
86D1
  8
0
 10
53.21554695525467
 20
209.5683304128199
 30
0.0
 11
52.54832110525464
 21
209.5683304128199
 31
0.0
  0
LINE
  5
86D2
  8
0
 10
52.54832110525464
 20
209.5683304128199
 30
0.0
 11
52.54832110525464
 21
209.2343465128199
 31
0.0
  0
LINE
  5
86D3
  8
0
 10
42.53437110525465
 20
208.8999465128199
 30
0.0
 11
43.20196840525463
 21
208.8999465128199
 31
0.0
  0
LINE
  5
86D4
  8
0
 10
43.20196840525463
 20
208.8999465128199
 30
0.0
 11
43.20196840525463
 21
209.2343018628199
 31
0.0
  0
LINE
  5
86D5
  8
0
 10
43.20196840525463
 20
209.2343018628199
 30
0.0
 11
42.53437110525465
 21
209.2343018628199
 31
0.0
  0
LINE
  5
86D6
  8
0
 10
42.53437110525465
 20
209.2343018628199
 30
0.0
 11
42.53437110525465
 21
208.8999465128199
 31
0.0
  0
LINE
  5
86D7
  8
0
 10
43.53586110525467
 20
208.8999465128199
 30
0.0
 11
44.20345840525465
 21
208.8999465128199
 31
0.0
  0
LINE
  5
86D8
  8
0
 10
44.20345840525465
 20
208.8999465128199
 30
0.0
 11
44.20345840525465
 21
209.2343018628199
 31
0.0
  0
LINE
  5
86D9
  8
0
 10
44.20345840525465
 20
209.2343018628199
 30
0.0
 11
43.53586110525467
 21
209.2343018628199
 31
0.0
  0
LINE
  5
86DA
  8
0
 10
43.53586110525467
 20
209.2343018628199
 30
0.0
 11
43.53586110525467
 21
208.8999465128199
 31
0.0
  0
LINE
  5
86DB
  8
0
 10
44.87108610525465
 20
208.8999465128199
 30
0.0
 11
45.20507000525464
 21
208.8999465128199
 31
0.0
  0
LINE
  5
86DC
  8
0
 10
45.20507000525464
 20
208.8999465128199
 30
0.0
 11
45.20507000525464
 21
209.2343018628199
 31
0.0
  0
LINE
  5
86DD
  8
0
 10
45.20507000525464
 20
209.2343018628199
 30
0.0
 11
44.87108610525465
 21
209.2343018628199
 31
0.0
  0
LINE
  5
86DE
  8
0
 10
44.87108610525465
 20
209.2343018628199
 30
0.0
 11
44.87108610525465
 21
208.8999465128199
 31
0.0
  0
LINE
  5
86DF
  8
0
 10
45.87267110525465
 20
208.8999465128199
 30
0.0
 11
46.53989695525465
 21
208.8999465128199
 31
0.0
  0
LINE
  5
86E0
  8
0
 10
46.53989695525465
 20
208.8999465128199
 30
0.0
 11
46.53989695525465
 21
209.2343018628199
 31
0.0
  0
LINE
  5
86E1
  8
0
 10
46.53989695525465
 20
209.2343018628199
 30
0.0
 11
45.87267110525465
 21
209.2343018628199
 31
0.0
  0
LINE
  5
86E2
  8
0
 10
45.87267110525465
 20
209.2343018628199
 30
0.0
 11
45.87267110525465
 21
208.8999465128199
 31
0.0
  0
LINE
  5
86E3
  8
0
 10
47.20751610525465
 20
208.8999465128199
 30
0.0
 11
47.87511340525467
 21
208.8999465128199
 31
0.0
  0
LINE
  5
86E4
  8
0
 10
47.87511340525467
 20
208.8999465128199
 30
0.0
 11
47.87511340525467
 21
209.2343018628199
 31
0.0
  0
LINE
  5
86E5
  8
0
 10
47.87511340525467
 20
209.2343018628199
 30
0.0
 11
47.20751610525465
 21
209.2343018628199
 31
0.0
  0
LINE
  5
86E6
  8
0
 10
47.20751610525465
 20
209.2343018628199
 30
0.0
 11
47.20751610525465
 21
208.8999465128199
 31
0.0
  0
LINE
  5
86E7
  8
0
 10
48.87666610525466
 20
208.8999465128199
 30
0.0
 11
49.54426340525464
 21
208.8999465128199
 31
0.0
  0
LINE
  5
86E8
  8
0
 10
49.54426340525464
 20
208.8999465128199
 30
0.0
 11
49.54426340525464
 21
209.2343018628199
 31
0.0
  0
LINE
  5
86E9
  8
0
 10
49.54426340525464
 20
209.2343018628199
 30
0.0
 11
48.87666610525466
 21
209.2343018628199
 31
0.0
  0
LINE
  5
86EA
  8
0
 10
48.87666610525466
 20
209.2343018628199
 30
0.0
 11
48.87666610525466
 21
208.8999465128199
 31
0.0
  0
LINE
  5
86EB
  8
0
 10
49.87749110525465
 20
208.8999465128199
 30
0.0
 11
50.54508840525466
 21
208.8999465128199
 31
0.0
  0
LINE
  5
86EC
  8
0
 10
50.54508840525466
 20
208.8999465128199
 30
0.0
 11
50.54508840525466
 21
209.2343018628199
 31
0.0
  0
LINE
  5
86ED
  8
0
 10
50.54508840525466
 20
209.2343018628199
 30
0.0
 11
49.87749110525465
 21
209.2343018628199
 31
0.0
  0
LINE
  5
86EE
  8
0
 10
49.87749110525465
 20
209.2343018628199
 30
0.0
 11
49.87749110525465
 21
208.8999465128199
 31
0.0
  0
LINE
  5
86EF
  8
0
 10
50.87907610525465
 20
208.8999465128199
 30
0.0
 11
51.21306095525466
 21
208.8999465128199
 31
0.0
  0
LINE
  5
86F0
  8
0
 10
51.21306095525466
 20
208.8999465128199
 30
0.0
 11
51.21306095525466
 21
209.2343018628199
 31
0.0
  0
LINE
  5
86F1
  8
0
 10
51.21306095525466
 20
209.2343018628199
 30
0.0
 11
50.87907610525465
 21
209.2343018628199
 31
0.0
  0
LINE
  5
86F2
  8
0
 10
50.87907610525465
 20
209.2343018628199
 30
0.0
 11
50.87907610525465
 21
208.8999465128199
 31
0.0
  0
LINE
  5
86F3
  8
0
 10
51.54673610525467
 20
208.8999465128199
 30
0.0
 11
53.54915560525467
 21
208.8999465128199
 31
0.0
  0
LINE
  5
86F4
  8
0
 10
53.54915560525467
 20
208.8999465128199
 30
0.0
 11
53.54915560525467
 21
209.2343018628199
 31
0.0
  0
LINE
  5
86F5
  8
0
 10
53.54915560525467
 20
209.2343018628199
 30
0.0
 11
51.54673610525467
 21
209.2343018628199
 31
0.0
  0
LINE
  5
86F6
  8
0
 10
51.54673610525467
 20
209.2343018628199
 30
0.0
 11
51.54673610525467
 21
208.8999465128199
 31
0.0
  0
LINE
  5
86F7
  8
0
 10
42.86867610525465
 20
208.5666865128199
 30
0.0
 11
43.20266095525466
 21
208.5666865128199
 31
0.0
  0
LINE
  5
86F8
  8
0
 10
43.20266095525466
 20
208.5666865128199
 30
0.0
 11
43.20266095525466
 21
208.9006713628199
 31
0.0
  0
LINE
  5
86F9
  8
0
 10
43.20266095525466
 20
208.9006713628199
 30
0.0
 11
42.86867610525465
 21
208.9006713628199
 31
0.0
  0
LINE
  5
86FA
  8
0
 10
42.86867610525465
 20
208.9006713628199
 30
0.0
 11
42.86867610525465
 21
208.5666865128199
 31
0.0
  0
LINE
  5
86FB
  8
0
 10
43.53586110525467
 20
208.5666865128199
 30
0.0
 11
43.86984500525466
 21
208.5666865128199
 31
0.0
  0
LINE
  5
86FC
  8
0
 10
43.86984500525466
 20
208.5666865128199
 30
0.0
 11
43.86984500525466
 21
208.9006713628199
 31
0.0
  0
LINE
  5
86FD
  8
0
 10
43.86984500525466
 20
208.9006713628199
 30
0.0
 11
43.53586110525467
 21
208.9006713628199
 31
0.0
  0
LINE
  5
86FE
  8
0
 10
43.53586110525467
 20
208.9006713628199
 30
0.0
 11
43.53586110525467
 21
208.5666865128199
 31
0.0
  0
LINE
  5
86FF
  8
0
 10
44.53744610525465
 20
208.5666865128199
 30
0.0
 11
45.53903110525465
 21
208.5666865128199
 31
0.0
  0
LINE
  5
8700
  8
0
 10
45.53903110525465
 20
208.5666865128199
 30
0.0
 11
45.53903110525465
 21
208.9006713628199
 31
0.0
  0
LINE
  5
8701
  8
0
 10
45.53903110525465
 20
208.9006713628199
 30
0.0
 11
44.53744610525465
 21
208.9006713628199
 31
0.0
  0
LINE
  5
8702
  8
0
 10
44.53744610525465
 20
208.9006713628199
 30
0.0
 11
44.53744610525465
 21
208.5666865128199
 31
0.0
  0
LINE
  5
8703
  8
0
 10
46.87349610525465
 20
208.5666865128199
 30
0.0
 11
47.54109435525467
 21
208.5666865128199
 31
0.0
  0
LINE
  5
8704
  8
0
 10
47.54109435525467
 20
208.5666865128199
 30
0.0
 11
47.54109435525467
 21
208.9006713628199
 31
0.0
  0
LINE
  5
8705
  8
0
 10
47.54109435525467
 20
208.9006713628199
 30
0.0
 11
46.87349610525465
 21
208.9006713628199
 31
0.0
  0
LINE
  5
8706
  8
0
 10
46.87349610525465
 20
208.9006713628199
 30
0.0
 11
46.87349610525465
 21
208.5666865128199
 31
0.0
  0
LINE
  5
8707
  8
0
 10
47.87508110525465
 20
208.5666865128199
 30
0.0
 11
48.87666610525466
 21
208.5666865128199
 31
0.0
  0
LINE
  5
8708
  8
0
 10
48.87666610525466
 20
208.5666865128199
 30
0.0
 11
48.87666610525466
 21
208.9006713628199
 31
0.0
  0
LINE
  5
8709
  8
0
 10
48.87666610525466
 20
208.9006713628199
 30
0.0
 11
47.87508110525465
 21
208.9006713628199
 31
0.0
  0
LINE
  5
870A
  8
0
 10
47.87508110525465
 20
208.9006713628199
 30
0.0
 11
47.87508110525465
 21
208.5666865128199
 31
0.0
  0
LINE
  5
870B
  8
0
 10
49.20992610525465
 20
208.5666865128199
 30
0.0
 11
50.21151110525466
 21
208.5666865128199
 31
0.0
  0
LINE
  5
870C
  8
0
 10
50.21151110525466
 20
208.5666865128199
 30
0.0
 11
50.21151110525466
 21
208.9006713628199
 31
0.0
  0
LINE
  5
870D
  8
0
 10
50.21151110525466
 20
208.9006713628199
 30
0.0
 11
49.20992610525465
 21
208.9006713628199
 31
0.0
  0
LINE
  5
870E
  8
0
 10
49.20992610525465
 20
208.9006713628199
 30
0.0
 11
49.20992610525465
 21
208.5666865128199
 31
0.0
  0
LINE
  5
870F
  8
0
 10
50.54591110525465
 20
208.5666865128199
 30
0.0
 11
50.87989595525465
 21
208.5666865128199
 31
0.0
  0
LINE
  5
8710
  8
0
 10
50.87989595525465
 20
208.5666865128199
 30
0.0
 11
50.87989595525465
 21
208.9006713628199
 31
0.0
  0
LINE
  5
8711
  8
0
 10
50.87989595525465
 20
208.9006713628199
 30
0.0
 11
50.54591110525465
 21
208.9006713628199
 31
0.0
  0
LINE
  5
8712
  8
0
 10
50.54591110525465
 20
208.9006713628199
 30
0.0
 11
50.54591110525465
 21
208.5666865128199
 31
0.0
  0
LINE
  5
8713
  8
0
 10
51.21309610525466
 20
208.5666865128199
 30
0.0
 11
51.88069340525465
 21
208.5666865128199
 31
0.0
  0
LINE
  5
8714
  8
0
 10
51.88069340525465
 20
208.5666865128199
 30
0.0
 11
51.88069340525465
 21
208.9006713628199
 31
0.0
  0
LINE
  5
8715
  8
0
 10
51.88069340525465
 20
208.9006713628199
 30
0.0
 11
51.21309610525466
 21
208.9006713628199
 31
0.0
  0
LINE
  5
8716
  8
0
 10
51.21309610525466
 20
208.9006713628199
 30
0.0
 11
51.21309610525466
 21
208.5666865128199
 31
0.0
  0
LINE
  5
8717
  8
0
 10
42.53437110525465
 20
208.2327615128199
 30
0.0
 11
43.20196840525463
 21
208.2327615128199
 31
0.0
  0
LINE
  5
8718
  8
0
 10
43.20196840525463
 20
208.2327615128199
 30
0.0
 11
43.20196840525463
 21
208.5667454128199
 31
0.0
  0
LINE
  5
8719
  8
0
 10
43.20196840525463
 20
208.5667454128199
 30
0.0
 11
42.53437110525465
 21
208.5667454128199
 31
0.0
  0
LINE
  5
871A
  8
0
 10
42.53437110525465
 20
208.5667454128199
 30
0.0
 11
42.53437110525465
 21
208.2327615128199
 31
0.0
  0
LINE
  5
871B
  8
0
 10
43.53586110525467
 20
208.2327615128199
 30
0.0
 11
44.20345840525465
 21
208.2327615128199
 31
0.0
  0
LINE
  5
871C
  8
0
 10
44.20345840525465
 20
208.2327615128199
 30
0.0
 11
44.20345840525465
 21
208.5667454128199
 31
0.0
  0
LINE
  5
871D
  8
0
 10
44.20345840525465
 20
208.5667454128199
 30
0.0
 11
43.53586110525467
 21
208.5667454128199
 31
0.0
  0
LINE
  5
871E
  8
0
 10
43.53586110525467
 20
208.5667454128199
 30
0.0
 11
43.53586110525467
 21
208.2327615128199
 31
0.0
  0
LINE
  5
871F
  8
0
 10
44.87108610525465
 20
208.2327615128199
 30
0.0
 11
45.53868340525466
 21
208.2327615128199
 31
0.0
  0
LINE
  5
8720
  8
0
 10
45.53868340525466
 20
208.2327615128199
 30
0.0
 11
45.53868340525466
 21
208.5667454128199
 31
0.0
  0
LINE
  5
8721
  8
0
 10
45.53868340525466
 20
208.5667454128199
 30
0.0
 11
44.87108610525465
 21
208.5667454128199
 31
0.0
  0
LINE
  5
8722
  8
0
 10
44.87108610525465
 20
208.5667454128199
 30
0.0
 11
44.87108610525465
 21
208.2327615128199
 31
0.0
  0
LINE
  5
8723
  8
0
 10
46.20593110525465
 20
208.2327615128199
 30
0.0
 11
46.87352840525466
 21
208.2327615128199
 31
0.0
  0
LINE
  5
8724
  8
0
 10
46.87352840525466
 20
208.2327615128199
 30
0.0
 11
46.87352840525466
 21
208.5667454128199
 31
0.0
  0
LINE
  5
8725
  8
0
 10
46.87352840525466
 20
208.5667454128199
 30
0.0
 11
46.20593110525465
 21
208.5667454128199
 31
0.0
  0
LINE
  5
8726
  8
0
 10
46.20593110525465
 20
208.5667454128199
 30
0.0
 11
46.20593110525465
 21
208.2327615128199
 31
0.0
  0
LINE
  5
8727
  8
0
 10
47.20751610525465
 20
208.2327615128199
 30
0.0
 11
47.54150000525468
 21
208.2327615128199
 31
0.0
  0
LINE
  5
8728
  8
0
 10
47.54150000525468
 20
208.2327615128199
 30
0.0
 11
47.54150000525468
 21
208.5667454128199
 31
0.0
  0
LINE
  5
8729
  8
0
 10
47.54150000525468
 20
208.5667454128199
 30
0.0
 11
47.20751610525465
 21
208.5667454128199
 31
0.0
  0
LINE
  5
872A
  8
0
 10
47.20751610525465
 20
208.5667454128199
 30
0.0
 11
47.20751610525465
 21
208.2327615128199
 31
0.0
  0
LINE
  5
872B
  8
0
 10
47.87508110525465
 20
208.2327615128199
 30
0.0
 11
48.54267840525463
 21
208.2327615128199
 31
0.0
  0
LINE
  5
872C
  8
0
 10
48.54267840525463
 20
208.2327615128199
 30
0.0
 11
48.54267840525463
 21
208.5667454128199
 31
0.0
  0
LINE
  5
872D
  8
0
 10
48.54267840525463
 20
208.5667454128199
 30
0.0
 11
47.87508110525465
 21
208.5667454128199
 31
0.0
  0
LINE
  5
872E
  8
0
 10
47.87508110525465
 20
208.5667454128199
 30
0.0
 11
47.87508110525465
 21
208.2327615128199
 31
0.0
  0
LINE
  5
872F
  8
0
 10
49.20992610525465
 20
208.2327615128199
 30
0.0
 11
49.87752435525465
 21
208.2327615128199
 31
0.0
  0
LINE
  5
8730
  8
0
 10
49.87752435525465
 20
208.2327615128199
 30
0.0
 11
49.87752435525465
 21
208.5667454128199
 31
0.0
  0
LINE
  5
8731
  8
0
 10
49.87752435525465
 20
208.5667454128199
 30
0.0
 11
49.20992610525465
 21
208.5667454128199
 31
0.0
  0
LINE
  5
8732
  8
0
 10
49.20992610525465
 20
208.5667454128199
 30
0.0
 11
49.20992610525465
 21
208.2327615128199
 31
0.0
  0
LINE
  5
8733
  8
0
 10
50.21151110525466
 20
208.2327615128199
 30
0.0
 11
50.54586645525464
 21
208.2327615128199
 31
0.0
  0
LINE
  5
8734
  8
0
 10
50.54586645525464
 20
208.2327615128199
 30
0.0
 11
50.54586645525464
 21
208.5667454128199
 31
0.0
  0
LINE
  5
8735
  8
0
 10
50.54586645525464
 20
208.5667454128199
 30
0.0
 11
50.21151110525466
 21
208.5667454128199
 31
0.0
  0
LINE
  5
8736
  8
0
 10
50.21151110525466
 20
208.5667454128199
 30
0.0
 11
50.21151110525466
 21
208.2327615128199
 31
0.0
  0
LINE
  5
8737
  8
0
 10
51.21309610525466
 20
208.2327615128199
 30
0.0
 11
51.54708000525466
 21
208.2327615128199
 31
0.0
  0
LINE
  5
8738
  8
0
 10
51.54708000525466
 20
208.2327615128199
 30
0.0
 11
51.54708000525466
 21
208.5667454128199
 31
0.0
  0
LINE
  5
8739
  8
0
 10
51.54708000525466
 20
208.5667454128199
 30
0.0
 11
51.21309610525466
 21
208.5667454128199
 31
0.0
  0
LINE
  5
873A
  8
0
 10
51.21309610525466
 20
208.5667454128199
 30
0.0
 11
51.21309610525466
 21
208.2327615128199
 31
0.0
  0
LINE
  5
873B
  8
0
 10
52.21392110525466
 20
208.2327615128199
 30
0.0
 11
53.54911760525465
 21
208.2327615128199
 31
0.0
  0
LINE
  5
873C
  8
0
 10
53.54911760525465
 20
208.2327615128199
 30
0.0
 11
53.54911760525465
 21
208.5667454128199
 31
0.0
  0
LINE
  5
873D
  8
0
 10
53.54911760525465
 20
208.5667454128199
 30
0.0
 11
52.21392110525466
 21
208.5667454128199
 31
0.0
  0
LINE
  5
873E
  8
0
 10
52.21392110525466
 20
208.5667454128199
 30
0.0
 11
52.21392110525466
 21
208.2327615128199
 31
0.0
  0
LINE
  5
873F
  8
0
 10
42.86867610525465
 20
207.8991215128199
 30
0.0
 11
46.20666260525465
 21
207.8991215128199
 31
0.0
  0
LINE
  5
8740
  8
0
 10
46.20666260525465
 20
207.8991215128199
 30
0.0
 11
46.20666260525465
 21
208.2331063628199
 31
0.0
  0
LINE
  5
8741
  8
0
 10
46.20666260525465
 20
208.2331063628199
 30
0.0
 11
42.86867610525465
 21
208.2331063628199
 31
0.0
  0
LINE
  5
8742
  8
0
 10
42.86867610525465
 20
208.2331063628199
 30
0.0
 11
42.86867610525465
 21
207.8991215128199
 31
0.0
  0
LINE
  5
8743
  8
0
 10
46.87349610525465
 20
207.8991215128199
 30
0.0
 11
47.20748095525465
 21
207.8991215128199
 31
0.0
  0
LINE
  5
8744
  8
0
 10
47.20748095525465
 20
207.8991215128199
 30
0.0
 11
47.20748095525465
 21
208.2331063628199
 31
0.0
  0
LINE
  5
8745
  8
0
 10
47.20748095525465
 20
208.2331063628199
 30
0.0
 11
46.87349610525465
 21
208.2331063628199
 31
0.0
  0
LINE
  5
8746
  8
0
 10
46.87349610525465
 20
208.2331063628199
 30
0.0
 11
46.87349610525465
 21
207.8991215128199
 31
0.0
  0
LINE
  5
8747
  8
0
 10
48.20910110525466
 20
207.8991215128199
 30
0.0
 11
48.54308500525465
 21
207.8991215128199
 31
0.0
  0
LINE
  5
8748
  8
0
 10
48.54308500525465
 20
207.8991215128199
 30
0.0
 11
48.54308500525465
 21
208.2331063628199
 31
0.0
  0
LINE
  5
8749
  8
0
 10
48.54308500525465
 20
208.2331063628199
 30
0.0
 11
48.20910110525466
 21
208.2331063628199
 31
0.0
  0
LINE
  5
874A
  8
0
 10
48.20910110525466
 20
208.2331063628199
 30
0.0
 11
48.20910110525466
 21
207.8991215128199
 31
0.0
  0
LINE
  5
874B
  8
0
 10
48.87666610525466
 20
207.8991215128199
 30
0.0
 11
49.21065000525465
 21
207.8991215128199
 31
0.0
  0
LINE
  5
874C
  8
0
 10
49.21065000525465
 20
207.8991215128199
 30
0.0
 11
49.21065000525465
 21
208.2331063628199
 31
0.0
  0
LINE
  5
874D
  8
0
 10
49.21065000525465
 20
208.2331063628199
 30
0.0
 11
48.87666610525466
 21
208.2331063628199
 31
0.0
  0
LINE
  5
874E
  8
0
 10
48.87666610525466
 20
208.2331063628199
 30
0.0
 11
48.87666610525466
 21
207.8991215128199
 31
0.0
  0
LINE
  5
874F
  8
0
 10
50.87907610525465
 20
207.8991215128199
 30
0.0
 11
51.54667435525465
 21
207.8991215128199
 31
0.0
  0
LINE
  5
8750
  8
0
 10
51.54667435525465
 20
207.8991215128199
 30
0.0
 11
51.54667435525465
 21
208.2331063628199
 31
0.0
  0
LINE
  5
8751
  8
0
 10
51.54667435525465
 20
208.2331063628199
 30
0.0
 11
50.87907610525465
 21
208.2331063628199
 31
0.0
  0
LINE
  5
8752
  8
0
 10
50.87907610525465
 20
208.2331063628199
 30
0.0
 11
50.87907610525465
 21
207.8991215128199
 31
0.0
  0
LINE
  5
8753
  8
0
 10
51.88066110525463
 20
207.8991215128199
 30
0.0
 11
52.21464595525467
 21
207.8991215128199
 31
0.0
  0
LINE
  5
8754
  8
0
 10
52.21464595525467
 20
207.8991215128199
 30
0.0
 11
52.21464595525467
 21
208.2331063628199
 31
0.0
  0
LINE
  5
8755
  8
0
 10
52.21464595525467
 20
208.2331063628199
 30
0.0
 11
51.88066110525463
 21
208.2331063628199
 31
0.0
  0
LINE
  5
8756
  8
0
 10
51.88066110525463
 20
208.2331063628199
 30
0.0
 11
51.88066110525463
 21
207.8991215128199
 31
0.0
  0
LINE
  5
8757
  8
0
 10
52.54832110525464
 20
207.8991215128199
 30
0.0
 11
53.21554695525467
 21
207.8991215128199
 31
0.0
  0
LINE
  5
8758
  8
0
 10
53.21554695525467
 20
207.8991215128199
 30
0.0
 11
53.21554695525467
 21
208.2331063628199
 31
0.0
  0
LINE
  5
8759
  8
0
 10
53.21554695525467
 20
208.2331063628199
 30
0.0
 11
52.54832110525464
 21
208.2331063628199
 31
0.0
  0
LINE
  5
875A
  8
0
 10
52.54832110525464
 20
208.2331063628199
 30
0.0
 11
52.54832110525464
 21
207.8991215128199
 31
0.0
  0
LINE
  5
875B
  8
0
 10
42.53437110525465
 20
207.5651015128199
 30
0.0
 11
43.20196840525463
 21
207.5651015128199
 31
0.0
  0
LINE
  5
875C
  8
0
 10
43.20196840525463
 20
207.5651015128199
 30
0.0
 11
43.20196840525463
 21
207.8991215128199
 31
0.0
  0
LINE
  5
875D
  8
0
 10
43.20196840525463
 20
207.8991215128199
 30
0.0
 11
42.53437110525465
 21
207.8991215128199
 31
0.0
  0
LINE
  5
875E
  8
0
 10
42.53437110525465
 20
207.8991215128199
 30
0.0
 11
42.53437110525465
 21
207.5651015128199
 31
0.0
  0
LINE
  5
875F
  8
0
 10
43.53586110525467
 20
207.5651015128199
 30
0.0
 11
44.20345840525465
 21
207.5651015128199
 31
0.0
  0
LINE
  5
8760
  8
0
 10
44.20345840525465
 20
207.5651015128199
 30
0.0
 11
44.20345840525465
 21
207.8991215128199
 31
0.0
  0
LINE
  5
8761
  8
0
 10
44.20345840525465
 20
207.8991215128199
 30
0.0
 11
43.53586110525467
 21
207.8991215128199
 31
0.0
  0
LINE
  5
8762
  8
0
 10
43.53586110525467
 20
207.8991215128199
 30
0.0
 11
43.53586110525467
 21
207.5651015128199
 31
0.0
  0
LINE
  5
8763
  8
0
 10
45.53874610525466
 20
207.5651015128199
 30
0.0
 11
45.87273095525464
 21
207.5651015128199
 31
0.0
  0
LINE
  5
8764
  8
0
 10
45.87273095525464
 20
207.5651015128199
 30
0.0
 11
45.87273095525464
 21
207.8991215128199
 31
0.0
  0
LINE
  5
8765
  8
0
 10
45.87273095525464
 20
207.8991215128199
 30
0.0
 11
45.53874610525466
 21
207.8991215128199
 31
0.0
  0
LINE
  5
8766
  8
0
 10
45.53874610525466
 20
207.8991215128199
 30
0.0
 11
45.53874610525466
 21
207.5651015128199
 31
0.0
  0
LINE
  5
8767
  8
0
 10
46.54033110525467
 20
207.5651015128199
 30
0.0
 11
46.87431500525466
 21
207.5651015128199
 31
0.0
  0
LINE
  5
8768
  8
0
 10
46.87431500525466
 20
207.5651015128199
 30
0.0
 11
46.87431500525466
 21
207.8991215128199
 31
0.0
  0
LINE
  5
8769
  8
0
 10
46.87431500525466
 20
207.8991215128199
 30
0.0
 11
46.54033110525467
 21
207.8991215128199
 31
0.0
  0
LINE
  5
876A
  8
0
 10
46.54033110525467
 20
207.8991215128199
 30
0.0
 11
46.54033110525467
 21
207.5651015128199
 31
0.0
  0
LINE
  5
876B
  8
0
 10
47.20751610525465
 20
207.5651015128199
 30
0.0
 11
47.87511340525467
 21
207.5651015128199
 31
0.0
  0
LINE
  5
876C
  8
0
 10
47.87511340525467
 20
207.5651015128199
 30
0.0
 11
47.87511340525467
 21
207.8991215128199
 31
0.0
  0
LINE
  5
876D
  8
0
 10
47.87511340525467
 20
207.8991215128199
 30
0.0
 11
47.20751610525465
 21
207.8991215128199
 31
0.0
  0
LINE
  5
876E
  8
0
 10
47.20751610525465
 20
207.8991215128199
 30
0.0
 11
47.20751610525465
 21
207.5651015128199
 31
0.0
  0
LINE
  5
876F
  8
0
 10
48.54274110525463
 20
207.5651015128199
 30
0.0
 11
49.20996790525467
 21
207.5651015128199
 31
0.0
  0
LINE
  5
8770
  8
0
 10
49.20996790525467
 20
207.5651015128199
 30
0.0
 11
49.20996790525467
 21
207.8991215128199
 31
0.0
  0
LINE
  5
8771
  8
0
 10
49.20996790525467
 20
207.8991215128199
 30
0.0
 11
48.54274110525463
 21
207.8991215128199
 31
0.0
  0
LINE
  5
8772
  8
0
 10
48.54274110525463
 20
207.8991215128199
 30
0.0
 11
48.54274110525463
 21
207.5651015128199
 31
0.0
  0
LINE
  5
8773
  8
0
 10
50.87907610525465
 20
207.5651015128199
 30
0.0
 11
51.21309610525466
 21
207.5651015128199
 31
0.0
  0
LINE
  5
8774
  8
0
 10
51.21309610525466
 20
207.5651015128199
 30
0.0
 11
51.21309610525466
 21
207.8991215128199
 31
0.0
  0
LINE
  5
8775
  8
0
 10
51.21309610525466
 20
207.8991215128199
 30
0.0
 11
50.87911125525466
 21
207.8991215128199
 31
0.0
  0
LINE
  5
8776
  8
0
 10
50.87911125525466
 20
207.8991215128199
 30
0.0
 11
50.87907610525465
 21
207.5651015128199
 31
0.0
  0
LINE
  5
8777
  8
0
 10
51.88066110525463
 20
207.5651015128199
 30
0.0
 11
52.88224610525467
 21
207.5651015128199
 31
0.0
  0
LINE
  5
8778
  8
0
 10
52.88224610525467
 20
207.5651015128199
 30
0.0
 11
52.88224610525467
 21
207.8991215128199
 31
0.0
  0
LINE
  5
8779
  8
0
 10
52.88224610525467
 20
207.8991215128199
 30
0.0
 11
51.88066110525463
 21
207.8991215128199
 31
0.0
  0
LINE
  5
877A
  8
0
 10
51.88066110525463
 20
207.8991215128199
 30
0.0
 11
51.88066110525463
 21
207.5651015128199
 31
0.0
  0
LINE
  5
877B
  8
0
 10
53.21550610525466
 20
207.5651015128199
 30
0.0
 11
53.54986240525466
 21
207.5651015128199
 31
0.0
  0
LINE
  5
877C
  8
0
 10
53.54986240525466
 20
207.5651015128199
 30
0.0
 11
53.54986240525466
 21
207.8991215128199
 31
0.0
  0
LINE
  5
877D
  8
0
 10
53.54986240525466
 20
207.8991215128199
 30
0.0
 11
53.21550610525466
 21
207.8991215128199
 31
0.0
  0
LINE
  5
877E
  8
0
 10
53.21550610525466
 20
207.8991215128199
 30
0.0
 11
53.21550610525466
 21
207.5651015128199
 31
0.0
  0
LINE
  5
877F
  8
0
 10
42.86867610525465
 20
207.2315565128199
 30
0.0
 11
43.20266095525466
 21
207.2315565128199
 31
0.0
  0
LINE
  5
8780
  8
0
 10
43.20266095525466
 20
207.2315565128199
 30
0.0
 11
43.20266095525466
 21
207.5659118628199
 31
0.0
  0
LINE
  5
8781
  8
0
 10
43.20266095525466
 20
207.5659118628199
 30
0.0
 11
42.86867610525465
 21
207.5659118628199
 31
0.0
  0
LINE
  5
8782
  8
0
 10
42.86867610525465
 20
207.5659118628199
 30
0.0
 11
42.86867610525465
 21
207.2315565128199
 31
0.0
  0
LINE
  5
8783
  8
0
 10
44.53744610525465
 20
207.2315565128199
 30
0.0
 11
44.87143000525464
 21
207.2315565128199
 31
0.0
  0
LINE
  5
8784
  8
0
 10
44.87143000525464
 20
207.2315565128199
 30
0.0
 11
44.87143000525464
 21
207.5659118628199
 31
0.0
  0
LINE
  5
8785
  8
0
 10
44.87143000525464
 20
207.5659118628199
 30
0.0
 11
44.53744610525465
 21
207.5659118628199
 31
0.0
  0
LINE
  5
8786
  8
0
 10
44.53744610525465
 20
207.5659118628199
 30
0.0
 11
44.53744610525465
 21
207.2315565128199
 31
0.0
  0
LINE
  5
8787
  8
0
 10
45.53874610525466
 20
207.2315565128199
 30
0.0
 11
46.20597290525464
 21
207.2315565128199
 31
0.0
  0
LINE
  5
8788
  8
0
 10
46.20597290525464
 20
207.2315565128199
 30
0.0
 11
46.20597290525464
 21
207.5659118628199
 31
0.0
  0
LINE
  5
8789
  8
0
 10
46.20597290525464
 20
207.5659118628199
 30
0.0
 11
45.53874610525466
 21
207.5659118628199
 31
0.0
  0
LINE
  5
878A
  8
0
 10
45.53874610525466
 20
207.5659118628199
 30
0.0
 11
45.53874610525466
 21
207.2315565128199
 31
0.0
  0
LINE
  5
878B
  8
0
 10
46.54033110525467
 20
207.2315565128199
 30
0.0
 11
47.20755790525465
 21
207.2315565128199
 31
0.0
  0
LINE
  5
878C
  8
0
 10
47.20755790525465
 20
207.2315565128199
 30
0.0
 11
47.20755790525465
 21
207.5659118628199
 31
0.0
  0
LINE
  5
878D
  8
0
 10
47.20755790525465
 20
207.5659118628199
 30
0.0
 11
46.54033110525467
 21
207.5659118628199
 31
0.0
  0
LINE
  5
878E
  8
0
 10
46.54033110525467
 20
207.5659118628199
 30
0.0
 11
46.54033110525467
 21
207.2315565128199
 31
0.0
  0
LINE
  5
878F
  8
0
 10
48.20910110525466
 20
207.2315565128199
 30
0.0
 11
49.21068610525467
 21
207.2315565128199
 31
0.0
  0
LINE
  5
8790
  8
0
 10
49.21068610525467
 20
207.2315565128199
 30
0.0
 11
49.21068610525467
 21
207.5659118628199
 31
0.0
  0
LINE
  5
8791
  8
0
 10
49.21068610525467
 20
207.5659118628199
 30
0.0
 11
48.20910110525466
 21
207.5659118628199
 31
0.0
  0
LINE
  5
8792
  8
0
 10
48.20910110525466
 20
207.5659118628199
 30
0.0
 11
48.20910110525466
 21
207.2315565128199
 31
0.0
  0
LINE
  5
8793
  8
0
 10
49.87749110525465
 20
207.2315565128199
 30
0.0
 11
50.21147500525464
 21
207.2315565128199
 31
0.0
  0
LINE
  5
8794
  8
0
 10
50.21147500525464
 20
207.2315565128199
 30
0.0
 11
50.21147500525464
 21
207.5659118628199
 31
0.0
  0
LINE
  5
8795
  8
0
 10
50.21147500525464
 20
207.5659118628199
 30
0.0
 11
49.87749110525465
 21
207.5659118628199
 31
0.0
  0
LINE
  5
8796
  8
0
 10
49.87749110525465
 20
207.5659118628199
 30
0.0
 11
49.87749110525465
 21
207.2315565128199
 31
0.0
  0
LINE
  5
8797
  8
0
 10
50.54591110525465
 20
207.2315565128199
 30
0.0
 11
51.21313790525465
 21
207.2315565128199
 31
0.0
  0
LINE
  5
8798
  8
0
 10
51.21313790525465
 20
207.2315565128199
 30
0.0
 11
51.21313790525465
 21
207.5659118628199
 31
0.0
  0
LINE
  5
8799
  8
0
 10
51.21313790525465
 20
207.5659118628199
 30
0.0
 11
50.54591110525465
 21
207.5659118628199
 31
0.0
  0
LINE
  5
879A
  8
0
 10
50.54591110525465
 20
207.5659118628199
 30
0.0
 11
50.54591110525465
 21
207.2315565128199
 31
0.0
  0
LINE
  5
879B
  8
0
 10
51.54673610525467
 20
207.2315565128199
 30
0.0
 11
52.54832110525464
 21
207.2315565128199
 31
0.0
  0
LINE
  5
879C
  8
0
 10
52.54832110525464
 20
207.2315565128199
 30
0.0
 11
52.54832110525464
 21
207.5659118628199
 31
0.0
  0
LINE
  5
879D
  8
0
 10
52.54832110525464
 20
207.5659118628199
 30
0.0
 11
51.54673610525467
 21
207.5659118628199
 31
0.0
  0
LINE
  5
879E
  8
0
 10
51.54673610525467
 20
207.5659118628199
 30
0.0
 11
51.54673610525467
 21
207.2315565128199
 31
0.0
  0
LINE
  5
879F
  8
0
 10
53.21550610525466
 20
207.2315565128199
 30
0.0
 11
53.54986240525466
 21
207.2315565128199
 31
0.0
  0
LINE
  5
87A0
  8
0
 10
53.54986240525466
 20
207.2315565128199
 30
0.0
 11
53.54986240525466
 21
207.5659118628199
 31
0.0
  0
LINE
  5
87A1
  8
0
 10
53.54986240525466
 20
207.5659118628199
 30
0.0
 11
53.21550610525466
 21
207.5659118628199
 31
0.0
  0
LINE
  5
87A2
  8
0
 10
53.21550610525466
 20
207.5659118628199
 30
0.0
 11
53.21550610525466
 21
207.2315565128199
 31
0.0
  0
LINE
  5
87A3
  8
0
 10
42.86867610525465
 20
206.8975365128199
 30
0.0
 11
43.53590290525466
 21
206.8975365128199
 31
0.0
  0
LINE
  5
87A4
  8
0
 10
43.53590290525466
 20
206.8975365128199
 30
0.0
 11
43.53590290525466
 21
207.2315213628199
 31
0.0
  0
LINE
  5
87A5
  8
0
 10
43.53590290525466
 20
207.2315213628199
 30
0.0
 11
42.86867610525465
 21
207.2315213628199
 31
0.0
  0
LINE
  5
87A6
  8
0
 10
42.86867610525465
 20
207.2315213628199
 30
0.0
 11
42.86867610525465
 21
206.8975365128199
 31
0.0
  0
LINE
  5
87A7
  8
0
 10
43.86950110525467
 20
206.8975365128199
 30
0.0
 11
44.20348500525466
 21
206.8975365128199
 31
0.0
  0
LINE
  5
87A8
  8
0
 10
44.20348500525466
 20
206.8975365128199
 30
0.0
 11
44.20348500525466
 21
207.2315213628199
 31
0.0
  0
LINE
  5
87A9
  8
0
 10
44.20348500525466
 20
207.2315213628199
 30
0.0
 11
43.86950110525467
 21
207.2315213628199
 31
0.0
  0
LINE
  5
87AA
  8
0
 10
43.86950110525467
 20
207.2315213628199
 30
0.0
 11
43.86950110525467
 21
206.8975365128199
 31
0.0
  0
LINE
  5
87AB
  8
0
 10
46.20593110525465
 20
206.8975365128199
 30
0.0
 11
46.53991500525464
 21
206.8975365128199
 31
0.0
  0
LINE
  5
87AC
  8
0
 10
46.53991500525464
 20
206.8975365128199
 30
0.0
 11
46.53991500525464
 21
207.2315213628199
 31
0.0
  0
LINE
  5
87AD
  8
0
 10
46.53991500525464
 20
207.2315213628199
 30
0.0
 11
46.20593110525465
 21
207.2315213628199
 31
0.0
  0
LINE
  5
87AE
  8
0
 10
46.20593110525465
 20
207.2315213628199
 30
0.0
 11
46.20593110525465
 21
206.8975365128199
 31
0.0
  0
LINE
  5
87AF
  8
0
 10
46.87349610525465
 20
206.8975365128199
 30
0.0
 11
49.87750060525465
 21
206.8975365128199
 31
0.0
  0
LINE
  5
87B0
  8
0
 10
49.87750060525465
 20
206.8975365128199
 30
0.0
 11
49.87750060525465
 21
207.2315213628199
 31
0.0
  0
LINE
  5
87B1
  8
0
 10
49.87750060525465
 20
207.2315213628199
 30
0.0
 11
46.87349610525465
 21
207.2315213628199
 31
0.0
  0
LINE
  5
87B2
  8
0
 10
46.87349610525465
 20
207.2315213628199
 30
0.0
 11
46.87349610525465
 21
206.8975365128199
 31
0.0
  0
LINE
  5
87B3
  8
0
 10
50.21151110525466
 20
206.8975365128199
 30
0.0
 11
51.54670760525465
 21
206.8975365128199
 31
0.0
  0
LINE
  5
87B4
  8
0
 10
51.54670760525465
 20
206.8975365128199
 30
0.0
 11
51.54670760525465
 21
207.2315213628199
 31
0.0
  0
LINE
  5
87B5
  8
0
 10
51.54670760525465
 20
207.2315213628199
 30
0.0
 11
50.21151110525466
 21
207.2315213628199
 31
0.0
  0
LINE
  5
87B6
  8
0
 10
50.21151110525466
 20
207.2315213628199
 30
0.0
 11
50.21151110525466
 21
206.8975365128199
 31
0.0
  0
LINE
  5
87B7
  8
0
 10
52.21392110525466
 20
206.8975365128199
 30
0.0
 11
52.88151840525464
 21
206.8975365128199
 31
0.0
  0
LINE
  5
87B8
  8
0
 10
52.88151840525464
 20
206.8975365128199
 30
0.0
 11
52.88151840525464
 21
207.2315213628199
 31
0.0
  0
LINE
  5
87B9
  8
0
 10
52.88151840525464
 20
207.2315213628199
 30
0.0
 11
52.21392110525466
 21
207.2315213628199
 31
0.0
  0
LINE
  5
87BA
  8
0
 10
52.21392110525466
 20
207.2315213628199
 30
0.0
 11
52.21392110525466
 21
206.8975365128199
 31
0.0
  0
LINE
  5
87BB
  8
0
 10
53.21550610525466
 20
206.8975365128199
 30
0.0
 11
53.54986240525466
 21
206.8975365128199
 31
0.0
  0
LINE
  5
87BC
  8
0
 10
53.54986240525466
 20
206.8975365128199
 30
0.0
 11
53.54986240525466
 21
207.2315213628199
 31
0.0
  0
LINE
  5
87BD
  8
0
 10
53.54986240525466
 20
207.2315213628199
 30
0.0
 11
53.21550610525466
 21
207.2315213628199
 31
0.0
  0
LINE
  5
87BE
  8
0
 10
53.21550610525466
 20
207.2315213628199
 30
0.0
 11
53.21550610525466
 21
206.8975365128199
 31
0.0
  0
LINE
  5
87BF
  8
0
 10
43.20193610525465
 20
206.5642765128199
 30
0.0
 11
43.53629240525464
 21
206.5642765128199
 31
0.0
  0
LINE
  5
87C0
  8
0
 10
43.53629240525464
 20
206.5642765128199
 30
0.0
 11
43.53629240525464
 21
206.8982604128199
 31
0.0
  0
LINE
  5
87C1
  8
0
 10
43.53629240525464
 20
206.8982604128199
 30
0.0
 11
43.20193610525465
 21
206.8982604128199
 31
0.0
  0
LINE
  5
87C2
  8
0
 10
43.20193610525465
 20
206.8982604128199
 30
0.0
 11
43.20193610525465
 21
206.5642765128199
 31
0.0
  0
LINE
  5
87C3
  8
0
 10
43.86950110525467
 20
206.5642765128199
 30
0.0
 11
44.20348500525466
 21
206.5642765128199
 31
0.0
  0
LINE
  5
87C4
  8
0
 10
44.20348500525466
 20
206.5642765128199
 30
0.0
 11
44.20348500525466
 21
206.8982604128199
 31
0.0
  0
LINE
  5
87C5
  8
0
 10
44.20348500525466
 20
206.8982604128199
 30
0.0
 11
43.86950110525467
 21
206.8982604128199
 31
0.0
  0
LINE
  5
87C6
  8
0
 10
43.86950110525467
 20
206.8982604128199
 30
0.0
 11
43.86950110525467
 21
206.5642765128199
 31
0.0
  0
LINE
  5
87C7
  8
0
 10
44.53744610525465
 20
206.5642765128199
 30
0.0
 11
46.54023610525465
 21
206.5642765128199
 31
0.0
  0
LINE
  5
87C8
  8
0
 10
46.54023610525465
 20
206.5642765128199
 30
0.0
 11
46.54023610525465
 21
206.8982604128199
 31
0.0
  0
LINE
  5
87C9
  8
0
 10
46.54023610525465
 20
206.8982604128199
 30
0.0
 11
44.53744610525465
 21
206.8982604128199
 31
0.0
  0
LINE
  5
87CA
  8
0
 10
44.53744610525465
 20
206.8982604128199
 30
0.0
 11
44.53744610525465
 21
206.5642765128199
 31
0.0
  0
LINE
  5
87CB
  8
0
 10
46.87349610525465
 20
206.5642765128199
 30
0.0
 11
47.20748095525465
 21
206.5642765128199
 31
0.0
  0
LINE
  5
87CC
  8
0
 10
47.20748095525465
 20
206.5642765128199
 30
0.0
 11
47.20748095525465
 21
206.8982604128199
 31
0.0
  0
LINE
  5
87CD
  8
0
 10
47.20748095525465
 20
206.8982604128199
 30
0.0
 11
46.87349610525465
 21
206.8982604128199
 31
0.0
  0
LINE
  5
87CE
  8
0
 10
46.87349610525465
 20
206.8982604128199
 30
0.0
 11
46.87349610525465
 21
206.5642765128199
 31
0.0
  0
LINE
  5
87CF
  8
0
 10
47.54153610525466
 20
206.5642765128199
 30
0.0
 11
48.20913435525463
 21
206.5642765128199
 31
0.0
  0
LINE
  5
87D0
  8
0
 10
48.20913435525463
 20
206.5642765128199
 30
0.0
 11
48.20913435525463
 21
206.8982604128199
 31
0.0
  0
LINE
  5
87D1
  8
0
 10
48.20913435525463
 20
206.8982604128199
 30
0.0
 11
47.54153610525466
 21
206.8982604128199
 31
0.0
  0
LINE
  5
87D2
  8
0
 10
47.54153610525466
 20
206.8982604128199
 30
0.0
 11
47.54153610525466
 21
206.5642765128199
 31
0.0
  0
LINE
  5
87D3
  8
0
 10
48.87666610525466
 20
206.5642765128199
 30
0.0
 11
49.21065000525465
 21
206.5642765128199
 31
0.0
  0
LINE
  5
87D4
  8
0
 10
49.21065000525465
 20
206.5642765128199
 30
0.0
 11
49.21065000525465
 21
206.8982604128199
 31
0.0
  0
LINE
  5
87D5
  8
0
 10
49.21065000525465
 20
206.8982604128199
 30
0.0
 11
48.87666610525466
 21
206.8982604128199
 31
0.0
  0
LINE
  5
87D6
  8
0
 10
48.87666610525466
 20
206.8982604128199
 30
0.0
 11
48.87666610525466
 21
206.5642765128199
 31
0.0
  0
LINE
  5
87D7
  8
0
 10
50.21151110525466
 20
206.5642765128199
 30
0.0
 11
50.54586645525464
 21
206.5642765128199
 31
0.0
  0
LINE
  5
87D8
  8
0
 10
50.54586645525464
 20
206.5642765128199
 30
0.0
 11
50.54586645525464
 21
206.8982604128199
 31
0.0
  0
LINE
  5
87D9
  8
0
 10
50.54586645525464
 20
206.8982604128199
 30
0.0
 11
50.21151110525466
 21
206.8982604128199
 31
0.0
  0
LINE
  5
87DA
  8
0
 10
50.21151110525466
 20
206.8982604128199
 30
0.0
 11
50.21151110525466
 21
206.5642765128199
 31
0.0
  0
LINE
  5
87DB
  8
0
 10
51.54673610525467
 20
206.5642765128199
 30
0.0
 11
51.88072000525466
 21
206.5642765128199
 31
0.0
  0
LINE
  5
87DC
  8
0
 10
51.88072000525466
 20
206.5642765128199
 30
0.0
 11
51.88072000525466
 21
206.8982604128199
 31
0.0
  0
LINE
  5
87DD
  8
0
 10
51.88072000525466
 20
206.8982604128199
 30
0.0
 11
51.54673610525467
 21
206.8982604128199
 31
0.0
  0
LINE
  5
87DE
  8
0
 10
51.54673610525467
 20
206.8982604128199
 30
0.0
 11
51.54673610525467
 21
206.5642765128199
 31
0.0
  0
LINE
  5
87DF
  8
0
 10
52.21392110525466
 20
206.5642765128199
 30
0.0
 11
52.88151840525464
 21
206.5642765128199
 31
0.0
  0
LINE
  5
87E0
  8
0
 10
52.88151840525464
 20
206.5642765128199
 30
0.0
 11
52.88151840525464
 21
206.8982604128199
 31
0.0
  0
LINE
  5
87E1
  8
0
 10
52.88151840525464
 20
206.8982604128199
 30
0.0
 11
52.21392110525466
 21
206.8982604128199
 31
0.0
  0
LINE
  5
87E2
  8
0
 10
52.21392110525466
 20
206.8982604128199
 30
0.0
 11
52.21392110525466
 21
206.5642765128199
 31
0.0
  0
LINE
  5
87E3
  8
0
 10
53.21550610525466
 20
206.5642765128199
 30
0.0
 11
53.54986240525466
 21
206.5642765128199
 31
0.0
  0
LINE
  5
87E4
  8
0
 10
53.54986240525466
 20
206.5642765128199
 30
0.0
 11
53.54986240525466
 21
206.8982604128199
 31
0.0
  0
LINE
  5
87E5
  8
0
 10
53.54986240525466
 20
206.8982604128199
 30
0.0
 11
53.21550610525466
 21
206.8982604128199
 31
0.0
  0
LINE
  5
87E6
  8
0
 10
53.21550610525466
 20
206.8982604128199
 30
0.0
 11
53.21550610525466
 21
206.5642765128199
 31
0.0
  0
LINE
  5
87E7
  8
0
 10
42.86867610525465
 20
206.2303515128199
 30
0.0
 11
43.20266095525466
 21
206.2303515128199
 31
0.0
  0
LINE
  5
87E8
  8
0
 10
43.20266095525466
 20
206.2303515128199
 30
0.0
 11
43.20266095525466
 21
206.5643363628199
 31
0.0
  0
LINE
  5
87E9
  8
0
 10
43.20266095525466
 20
206.5643363628199
 30
0.0
 11
42.86867610525465
 21
206.5643363628199
 31
0.0
  0
LINE
  5
87EA
  8
0
 10
42.86867610525465
 20
206.5643363628199
 30
0.0
 11
42.86867610525465
 21
206.2303515128199
 31
0.0
  0
LINE
  5
87EB
  8
0
 10
43.53586110525467
 20
206.2303515128199
 30
0.0
 11
44.53744610525465
 21
206.2303515128199
 31
0.0
  0
LINE
  5
87EC
  8
0
 10
44.53744610525465
 20
206.2303515128199
 30
0.0
 11
44.53744610525465
 21
206.5643363628199
 31
0.0
  0
LINE
  5
87ED
  8
0
 10
44.53744610525465
 20
206.5643363628199
 30
0.0
 11
43.53586110525467
 21
206.5643363628199
 31
0.0
  0
LINE
  5
87EE
  8
0
 10
43.53586110525467
 20
206.5643363628199
 30
0.0
 11
43.53586110525467
 21
206.2303515128199
 31
0.0
  0
LINE
  5
87EF
  8
0
 10
44.87108610525465
 20
206.2303515128199
 30
0.0
 11
45.53868340525466
 21
206.2303515128199
 31
0.0
  0
LINE
  5
87F0
  8
0
 10
45.53868340525466
 20
206.2303515128199
 30
0.0
 11
45.53868340525466
 21
206.5643363628199
 31
0.0
  0
LINE
  5
87F1
  8
0
 10
45.53868340525466
 20
206.5643363628199
 30
0.0
 11
44.87108610525465
 21
206.5643363628199
 31
0.0
  0
LINE
  5
87F2
  8
0
 10
44.87108610525465
 20
206.5643363628199
 30
0.0
 11
44.87108610525465
 21
206.2303515128199
 31
0.0
  0
LINE
  5
87F3
  8
0
 10
45.87267110525465
 20
206.2303515128199
 30
0.0
 11
46.20665500525465
 21
206.2303515128199
 31
0.0
  0
LINE
  5
87F4
  8
0
 10
46.20665500525465
 20
206.2303515128199
 30
0.0
 11
46.20665500525465
 21
206.5643363628199
 31
0.0
  0
LINE
  5
87F5
  8
0
 10
46.20665500525465
 20
206.5643363628199
 30
0.0
 11
45.87267110525465
 21
206.5643363628199
 31
0.0
  0
LINE
  5
87F6
  8
0
 10
45.87267110525465
 20
206.5643363628199
 30
0.0
 11
45.87267110525465
 21
206.2303515128199
 31
0.0
  0
LINE
  5
87F7
  8
0
 10
47.54153610525466
 20
206.2303515128199
 30
0.0
 11
49.87831760525467
 21
206.2303515128199
 31
0.0
  0
LINE
  5
87F8
  8
0
 10
49.87831760525467
 20
206.2303515128199
 30
0.0
 11
49.87831760525467
 21
206.5643363628199
 31
0.0
  0
LINE
  5
87F9
  8
0
 10
49.87831760525467
 20
206.5643363628199
 30
0.0
 11
47.54153610525466
 21
206.5643363628199
 31
0.0
  0
LINE
  5
87FA
  8
0
 10
47.54153610525466
 20
206.5643363628199
 30
0.0
 11
47.54153610525466
 21
206.2303515128199
 31
0.0
  0
LINE
  5
87FB
  8
0
 10
50.21151110525466
 20
206.2303515128199
 30
0.0
 11
50.54586645525464
 21
206.2303515128199
 31
0.0
  0
LINE
  5
87FC
  8
0
 10
50.54586645525464
 20
206.2303515128199
 30
0.0
 11
50.54586645525464
 21
206.5643363628199
 31
0.0
  0
LINE
  5
87FD
  8
0
 10
50.54586645525464
 20
206.5643363628199
 30
0.0
 11
50.21151110525466
 21
206.5643363628199
 31
0.0
  0
LINE
  5
87FE
  8
0
 10
50.21151110525466
 20
206.5643363628199
 30
0.0
 11
50.21151110525466
 21
206.2303515128199
 31
0.0
  0
LINE
  5
87FF
  8
0
 10
50.87907610525465
 20
206.2303515128199
 30
0.0
 11
51.21306095525466
 21
206.2303515128199
 31
0.0
  0
LINE
  5
8800
  8
0
 10
51.21306095525466
 20
206.2303515128199
 30
0.0
 11
51.21306095525466
 21
206.5643363628199
 31
0.0
  0
LINE
  5
8801
  8
0
 10
51.21306095525466
 20
206.5643363628199
 30
0.0
 11
50.87907610525465
 21
206.5643363628199
 31
0.0
  0
LINE
  5
8802
  8
0
 10
50.87907610525465
 20
206.5643363628199
 30
0.0
 11
50.87907610525465
 21
206.2303515128199
 31
0.0
  0
LINE
  5
8803
  8
0
 10
51.88066110525463
 20
206.2303515128199
 30
0.0
 11
52.88224610525467
 21
206.2303515128199
 31
0.0
  0
LINE
  5
8804
  8
0
 10
52.88224610525467
 20
206.2303515128199
 30
0.0
 11
52.88224610525467
 21
206.5643363628199
 31
0.0
  0
LINE
  5
8805
  8
0
 10
52.88224610525467
 20
206.5643363628199
 30
0.0
 11
51.88066110525463
 21
206.5643363628199
 31
0.0
  0
LINE
  5
8806
  8
0
 10
51.88066110525463
 20
206.5643363628199
 30
0.0
 11
51.88066110525463
 21
206.2303515128199
 31
0.0
  0
LINE
  5
8807
  8
0
 10
53.21550610525466
 20
206.2303515128199
 30
0.0
 11
53.54986240525466
 21
206.2303515128199
 31
0.0
  0
LINE
  5
8808
  8
0
 10
53.54986240525466
 20
206.2303515128199
 30
0.0
 11
53.54986240525466
 21
206.5643363628199
 31
0.0
  0
LINE
  5
8809
  8
0
 10
53.54986240525466
 20
206.5643363628199
 30
0.0
 11
53.21550610525466
 21
206.5643363628199
 31
0.0
  0
LINE
  5
880A
  8
0
 10
53.21550610525466
 20
206.5643363628199
 30
0.0
 11
53.21550610525466
 21
206.2303515128199
 31
0.0
  0
LINE
  5
880B
  8
0
 10
42.53437110525465
 20
205.8959515128199
 30
0.0
 11
43.86956760525467
 21
205.8959515128199
 31
0.0
  0
LINE
  5
880C
  8
0
 10
43.86956760525467
 20
205.8959515128199
 30
0.0
 11
43.86956760525467
 21
206.2303068628199
 31
0.0
  0
LINE
  5
880D
  8
0
 10
43.86956760525467
 20
206.2303068628199
 30
0.0
 11
42.53437110525465
 21
206.2303068628199
 31
0.0
  0
LINE
  5
880E
  8
0
 10
42.53437110525465
 20
206.2303068628199
 30
0.0
 11
42.53437110525465
 21
205.8959515128199
 31
0.0
  0
LINE
  5
880F
  8
0
 10
44.53744610525465
 20
205.8959515128199
 30
0.0
 11
44.87143000525464
 21
205.8959515128199
 31
0.0
  0
LINE
  5
8810
  8
0
 10
44.87143000525464
 20
205.8959515128199
 30
0.0
 11
44.87143000525464
 21
206.2303068628199
 31
0.0
  0
LINE
  5
8811
  8
0
 10
44.87143000525464
 20
206.2303068628199
 30
0.0
 11
44.53744610525465
 21
206.2303068628199
 31
0.0
  0
LINE
  5
8812
  8
0
 10
44.53744610525465
 20
206.2303068628199
 30
0.0
 11
44.53744610525465
 21
205.8959515128199
 31
0.0
  0
LINE
  5
8813
  8
0
 10
45.20510610525466
 20
205.8959515128199
 30
0.0
 11
45.53909095525466
 21
205.8959515128199
 31
0.0
  0
LINE
  5
8814
  8
0
 10
45.53909095525466
 20
205.8959515128199
 30
0.0
 11
45.53909095525466
 21
206.2303068628199
 31
0.0
  0
LINE
  5
8815
  8
0
 10
45.53909095525466
 20
206.2303068628199
 30
0.0
 11
45.20510610525466
 21
206.2303068628199
 31
0.0
  0
LINE
  5
8816
  8
0
 10
45.20510610525466
 20
206.2303068628199
 30
0.0
 11
45.20510610525466
 21
205.8959515128199
 31
0.0
  0
LINE
  5
8817
  8
0
 10
45.87267110525465
 20
205.8959515128199
 30
0.0
 11
46.20665500525465
 21
205.8959515128199
 31
0.0
  0
LINE
  5
8818
  8
0
 10
46.20665500525465
 20
205.8959515128199
 30
0.0
 11
46.20665500525465
 21
206.2303068628199
 31
0.0
  0
LINE
  5
8819
  8
0
 10
46.20665500525465
 20
206.2303068628199
 30
0.0
 11
45.87267110525465
 21
206.2303068628199
 31
0.0
  0
LINE
  5
881A
  8
0
 10
45.87267110525465
 20
206.2303068628199
 30
0.0
 11
45.87267110525465
 21
205.8959515128199
 31
0.0
  0
LINE
  5
881B
  8
0
 10
46.54033110525467
 20
205.8959515128199
 30
0.0
 11
47.54154560525464
 21
205.8959515128199
 31
0.0
  0
LINE
  5
881C
  8
0
 10
47.54154560525464
 20
205.8959515128199
 30
0.0
 11
47.54154560525464
 21
206.2303068628199
 31
0.0
  0
LINE
  5
881D
  8
0
 10
47.54154560525464
 20
206.2303068628199
 30
0.0
 11
46.54033110525467
 21
206.2303068628199
 31
0.0
  0
LINE
  5
881E
  8
0
 10
46.54033110525467
 20
206.2303068628199
 30
0.0
 11
46.54033110525467
 21
205.8959515128199
 31
0.0
  0
LINE
  5
881F
  8
0
 10
47.87508110525465
 20
205.8959515128199
 30
0.0
 11
48.20906595525466
 21
205.8959515128199
 31
0.0
  0
LINE
  5
8820
  8
0
 10
48.20906595525466
 20
205.8959515128199
 30
0.0
 11
48.20906595525466
 21
206.2303068628199
 31
0.0
  0
LINE
  5
8821
  8
0
 10
48.20906595525466
 20
206.2303068628199
 30
0.0
 11
47.87508110525465
 21
206.2303068628199
 31
0.0
  0
LINE
  5
8822
  8
0
 10
47.87508110525465
 20
206.2303068628199
 30
0.0
 11
47.87508110525465
 21
205.8959515128199
 31
0.0
  0
LINE
  5
8823
  8
0
 10
49.20992610525465
 20
205.8959515128199
 30
0.0
 11
50.21151110525466
 21
205.8959515128199
 31
0.0
  0
LINE
  5
8824
  8
0
 10
50.21151110525466
 20
205.8959515128199
 30
0.0
 11
50.21151110525466
 21
206.2303068628199
 31
0.0
  0
LINE
  5
8825
  8
0
 10
50.21151110525466
 20
206.2303068628199
 30
0.0
 11
49.20992610525465
 21
206.2303068628199
 31
0.0
  0
LINE
  5
8826
  8
0
 10
49.20992610525465
 20
206.2303068628199
 30
0.0
 11
49.20992610525465
 21
205.8959515128199
 31
0.0
  0
LINE
  5
8827
  8
0
 10
50.87907610525465
 20
205.8959515128199
 30
0.0
 11
51.21306095525466
 21
205.8959515128199
 31
0.0
  0
LINE
  5
8828
  8
0
 10
51.21306095525466
 20
205.8959515128199
 30
0.0
 11
51.21306095525466
 21
206.2303068628199
 31
0.0
  0
LINE
  5
8829
  8
0
 10
51.21306095525466
 20
206.2303068628199
 30
0.0
 11
50.87907610525465
 21
206.2303068628199
 31
0.0
  0
LINE
  5
882A
  8
0
 10
50.87907610525465
 20
206.2303068628199
 30
0.0
 11
50.87907610525465
 21
205.8959515128199
 31
0.0
  0
LINE
  5
882B
  8
0
 10
51.88066110525463
 20
205.8959515128199
 30
0.0
 11
52.54788790525467
 21
205.8959515128199
 31
0.0
  0
LINE
  5
882C
  8
0
 10
52.54788790525467
 20
205.8959515128199
 30
0.0
 11
52.54788790525467
 21
206.2303068628199
 31
0.0
  0
LINE
  5
882D
  8
0
 10
52.54788790525467
 20
206.2303068628199
 30
0.0
 11
51.88066110525463
 21
206.2303068628199
 31
0.0
  0
LINE
  5
882E
  8
0
 10
51.88066110525463
 20
206.2303068628199
 30
0.0
 11
51.88066110525463
 21
205.8959515128199
 31
0.0
  0
LINE
  5
882F
  8
0
 10
42.53437110525465
 20
205.5626915128199
 30
0.0
 11
43.20196840525463
 21
205.5626915128199
 31
0.0
  0
LINE
  5
8830
  8
0
 10
43.20196840525463
 20
205.5626915128199
 30
0.0
 11
43.20196840525463
 21
205.8966763628199
 31
0.0
  0
LINE
  5
8831
  8
0
 10
43.20196840525463
 20
205.8966763628199
 30
0.0
 11
42.53437110525465
 21
205.8966763628199
 31
0.0
  0
LINE
  5
8832
  8
0
 10
42.53437110525465
 20
205.8966763628199
 30
0.0
 11
42.53437110525465
 21
205.5626915128199
 31
0.0
  0
LINE
  5
8833
  8
0
 10
43.53586110525467
 20
205.5626915128199
 30
0.0
 11
43.86984500525466
 21
205.5626915128199
 31
0.0
  0
LINE
  5
8834
  8
0
 10
43.86984500525466
 20
205.5626915128199
 30
0.0
 11
43.86984500525466
 21
205.8966763628199
 31
0.0
  0
LINE
  5
8835
  8
0
 10
43.86984500525466
 20
205.8966763628199
 30
0.0
 11
43.53586110525467
 21
205.8966763628199
 31
0.0
  0
LINE
  5
8836
  8
0
 10
43.53586110525467
 20
205.8966763628199
 30
0.0
 11
43.53586110525467
 21
205.5626915128199
 31
0.0
  0
LINE
  5
8837
  8
0
 10
44.20352110525465
 20
205.5626915128199
 30
0.0
 11
44.53750595525466
 21
205.5626915128199
 31
0.0
  0
LINE
  5
8838
  8
0
 10
44.53750595525466
 20
205.5626915128199
 30
0.0
 11
44.53750595525466
 21
205.8966763628199
 31
0.0
  0
LINE
  5
8839
  8
0
 10
44.53750595525466
 20
205.8966763628199
 30
0.0
 11
44.20352110525465
 21
205.8966763628199
 31
0.0
  0
LINE
  5
883A
  8
0
 10
44.20352110525465
 20
205.8966763628199
 30
0.0
 11
44.20352110525465
 21
205.5626915128199
 31
0.0
  0
LINE
  5
883B
  8
0
 10
45.20510610525466
 20
205.5626915128199
 30
0.0
 11
45.53909095525466
 21
205.5626915128199
 31
0.0
  0
LINE
  5
883C
  8
0
 10
45.53909095525466
 20
205.5626915128199
 30
0.0
 11
45.53909095525466
 21
205.8966763628199
 31
0.0
  0
LINE
  5
883D
  8
0
 10
45.53909095525466
 20
205.8966763628199
 30
0.0
 11
45.20510610525466
 21
205.8966763628199
 31
0.0
  0
LINE
  5
883E
  8
0
 10
45.20510610525466
 20
205.8966763628199
 30
0.0
 11
45.20510610525466
 21
205.5626915128199
 31
0.0
  0
LINE
  5
883F
  8
0
 10
45.87267110525465
 20
205.5626915128199
 30
0.0
 11
46.87388560525466
 21
205.5626915128199
 31
0.0
  0
LINE
  5
8840
  8
0
 10
46.87388560525466
 20
205.5626915128199
 30
0.0
 11
46.87388560525466
 21
205.8966763628199
 31
0.0
  0
LINE
  5
8841
  8
0
 10
46.87388560525466
 20
205.8966763628199
 30
0.0
 11
45.87267110525465
 21
205.8966763628199
 31
0.0
  0
LINE
  5
8842
  8
0
 10
45.87267110525465
 20
205.8966763628199
 30
0.0
 11
45.87267110525465
 21
205.5626915128199
 31
0.0
  0
LINE
  5
8843
  8
0
 10
47.20751610525465
 20
205.5626915128199
 30
0.0
 11
47.54150000525468
 21
205.5626915128199
 31
0.0
  0
LINE
  5
8844
  8
0
 10
47.54150000525468
 20
205.5626915128199
 30
0.0
 11
47.54150000525468
 21
205.8966763628199
 31
0.0
  0
LINE
  5
8845
  8
0
 10
47.54150000525468
 20
205.8966763628199
 30
0.0
 11
47.20751610525465
 21
205.8966763628199
 31
0.0
  0
LINE
  5
8846
  8
0
 10
47.20751610525465
 20
205.8966763628199
 30
0.0
 11
47.20751610525465
 21
205.5626915128199
 31
0.0
  0
LINE
  5
8847
  8
0
 10
47.87508110525465
 20
205.5626915128199
 30
0.0
 11
48.87666610525466
 21
205.5626915128199
 31
0.0
  0
LINE
  5
8848
  8
0
 10
48.87666610525466
 20
205.5626915128199
 30
0.0
 11
48.87666610525466
 21
205.8966763628199
 31
0.0
  0
LINE
  5
8849
  8
0
 10
48.87666610525466
 20
205.8966763628199
 30
0.0
 11
47.87508110525465
 21
205.8966763628199
 31
0.0
  0
LINE
  5
884A
  8
0
 10
47.87508110525465
 20
205.8966763628199
 30
0.0
 11
47.87508110525465
 21
205.5626915128199
 31
0.0
  0
LINE
  5
884B
  8
0
 10
49.20992610525465
 20
205.5626915128199
 30
0.0
 11
49.54428145525466
 21
205.5626915128199
 31
0.0
  0
LINE
  5
884C
  8
0
 10
49.54428145525466
 20
205.5626915128199
 30
0.0
 11
49.54428145525466
 21
205.8966763628199
 31
0.0
  0
LINE
  5
884D
  8
0
 10
49.54428145525466
 20
205.8966763628199
 30
0.0
 11
49.20992610525465
 21
205.8966763628199
 31
0.0
  0
LINE
  5
884E
  8
0
 10
49.20992610525465
 20
205.8966763628199
 30
0.0
 11
49.20992610525465
 21
205.5626915128199
 31
0.0
  0
LINE
  5
884F
  8
0
 10
49.87749110525465
 20
205.5626915128199
 30
0.0
 11
50.54508840525466
 21
205.5626915128199
 31
0.0
  0
LINE
  5
8850
  8
0
 10
50.54508840525466
 20
205.5626915128199
 30
0.0
 11
50.54508840525466
 21
205.8966763628199
 31
0.0
  0
LINE
  5
8851
  8
0
 10
50.54508840525466
 20
205.8966763628199
 30
0.0
 11
49.87749110525465
 21
205.8966763628199
 31
0.0
  0
LINE
  5
8852
  8
0
 10
49.87749110525465
 20
205.8966763628199
 30
0.0
 11
49.87749110525465
 21
205.5626915128199
 31
0.0
  0
LINE
  5
8853
  8
0
 10
51.54673610525467
 20
205.5626915128199
 30
0.0
 11
52.88156210525463
 21
205.5626915128199
 31
0.0
  0
LINE
  5
8854
  8
0
 10
52.88156210525463
 20
205.5626915128199
 30
0.0
 11
52.88156210525463
 21
205.8966763628199
 31
0.0
  0
LINE
  5
8855
  8
0
 10
52.88156210525463
 20
205.8966763628199
 30
0.0
 11
51.54673610525467
 21
205.8966763628199
 31
0.0
  0
LINE
  5
8856
  8
0
 10
51.54673610525467
 20
205.8966763628199
 30
0.0
 11
51.54673610525467
 21
205.5626915128199
 31
0.0
  0
LINE
  5
8857
  8
0
 10
42.53437110525465
 20
205.2287665128199
 30
0.0
 11
42.86872645525466
 21
205.2287665128199
 31
0.0
  0
LINE
  5
8858
  8
0
 10
42.86872645525466
 20
205.2287665128199
 30
0.0
 11
42.86872645525466
 21
205.5627504128199
 31
0.0
  0
LINE
  5
8859
  8
0
 10
42.86872645525466
 20
205.5627504128199
 30
0.0
 11
42.53437110525465
 21
205.5627504128199
 31
0.0
  0
LINE
  5
885A
  8
0
 10
42.53437110525465
 20
205.5627504128199
 30
0.0
 11
42.53437110525465
 21
205.2287665128199
 31
0.0
  0
LINE
  5
885B
  8
0
 10
43.20193610525465
 20
205.2287665128199
 30
0.0
 11
43.53629240525464
 21
205.2287665128199
 31
0.0
  0
LINE
  5
885C
  8
0
 10
43.53629240525464
 20
205.2287665128199
 30
0.0
 11
43.53629240525464
 21
205.5627504128199
 31
0.0
  0
LINE
  5
885D
  8
0
 10
43.53629240525464
 20
205.5627504128199
 30
0.0
 11
43.20193610525465
 21
205.5627504128199
 31
0.0
  0
LINE
  5
885E
  8
0
 10
43.20193610525465
 20
205.5627504128199
 30
0.0
 11
43.20193610525465
 21
205.2287665128199
 31
0.0
  0
LINE
  5
885F
  8
0
 10
43.86950110525467
 20
205.2287665128199
 30
0.0
 11
44.87108610525465
 21
205.2287665128199
 31
0.0
  0
LINE
  5
8860
  8
0
 10
44.87108610525465
 20
205.2287665128199
 30
0.0
 11
44.87108610525465
 21
205.5627504128199
 31
0.0
  0
LINE
  5
8861
  8
0
 10
44.87108610525465
 20
205.5627504128199
 30
0.0
 11
43.86950110525467
 21
205.5627504128199
 31
0.0
  0
LINE
  5
8862
  8
0
 10
43.86950110525467
 20
205.5627504128199
 30
0.0
 11
43.86950110525467
 21
205.2287665128199
 31
0.0
  0
LINE
  5
8863
  8
0
 10
45.53874610525466
 20
205.2287665128199
 30
0.0
 11
45.87273095525464
 21
205.2287665128199
 31
0.0
  0
LINE
  5
8864
  8
0
 10
45.87273095525464
 20
205.2287665128199
 30
0.0
 11
45.87273095525464
 21
205.5627504128199
 31
0.0
  0
LINE
  5
8865
  8
0
 10
45.87273095525464
 20
205.5627504128199
 30
0.0
 11
45.53874610525466
 21
205.5627504128199
 31
0.0
  0
LINE
  5
8866
  8
0
 10
45.53874610525466
 20
205.5627504128199
 30
0.0
 11
45.53874610525466
 21
205.2287665128199
 31
0.0
  0
LINE
  5
8867
  8
0
 10
46.20593110525465
 20
205.2287665128199
 30
0.0
 11
46.53991500525464
 21
205.2287665128199
 31
0.0
  0
LINE
  5
8868
  8
0
 10
46.53991500525464
 20
205.2287665128199
 30
0.0
 11
46.53991500525464
 21
205.5627504128199
 31
0.0
  0
LINE
  5
8869
  8
0
 10
46.53991500525464
 20
205.5627504128199
 30
0.0
 11
46.20593110525465
 21
205.5627504128199
 31
0.0
  0
LINE
  5
886A
  8
0
 10
46.20593110525465
 20
205.5627504128199
 30
0.0
 11
46.20593110525465
 21
205.2287665128199
 31
0.0
  0
LINE
  5
886B
  8
0
 10
47.54153610525466
 20
205.2287665128199
 30
0.0
 11
48.54312110525464
 21
205.2287665128199
 31
0.0
  0
LINE
  5
886C
  8
0
 10
48.54312110525464
 20
205.2287665128199
 30
0.0
 11
48.54312110525464
 21
205.5627504128199
 31
0.0
  0
LINE
  5
886D
  8
0
 10
48.54312110525464
 20
205.5627504128199
 30
0.0
 11
47.54153610525466
 21
205.5627504128199
 31
0.0
  0
LINE
  5
886E
  8
0
 10
47.54153610525466
 20
205.5627504128199
 30
0.0
 11
47.54153610525466
 21
205.2287665128199
 31
0.0
  0
LINE
  5
886F
  8
0
 10
49.20992610525465
 20
205.2287665128199
 30
0.0
 11
49.87752435525465
 21
205.2287665128199
 31
0.0
  0
LINE
  5
8870
  8
0
 10
49.87752435525465
 20
205.2287665128199
 30
0.0
 11
49.87752435525465
 21
205.5627504128199
 31
0.0
  0
LINE
  5
8871
  8
0
 10
49.87752435525465
 20
205.5627504128199
 30
0.0
 11
49.20992610525465
 21
205.5627504128199
 31
0.0
  0
LINE
  5
8872
  8
0
 10
49.20992610525465
 20
205.5627504128199
 30
0.0
 11
49.20992610525465
 21
205.2287665128199
 31
0.0
  0
LINE
  5
8873
  8
0
 10
50.54591110525465
 20
205.2287665128199
 30
0.0
 11
51.21313790525465
 21
205.2287665128199
 31
0.0
  0
LINE
  5
8874
  8
0
 10
51.21313790525465
 20
205.2287665128199
 30
0.0
 11
51.21313790525465
 21
205.5627504128199
 31
0.0
  0
LINE
  5
8875
  8
0
 10
51.21313790525465
 20
205.5627504128199
 30
0.0
 11
50.54591110525465
 21
205.5627504128199
 31
0.0
  0
LINE
  5
8876
  8
0
 10
50.54591110525465
 20
205.5627504128199
 30
0.0
 11
50.54591110525465
 21
205.2287665128199
 31
0.0
  0
LINE
  5
8877
  8
0
 10
51.54673610525467
 20
205.2287665128199
 30
0.0
 11
51.88072000525466
 21
205.2287665128199
 31
0.0
  0
LINE
  5
8878
  8
0
 10
51.88072000525466
 20
205.2287665128199
 30
0.0
 11
51.88072000525466
 21
205.5627504128199
 31
0.0
  0
LINE
  5
8879
  8
0
 10
51.88072000525466
 20
205.5627504128199
 30
0.0
 11
51.54673610525467
 21
205.5627504128199
 31
0.0
  0
LINE
  5
887A
  8
0
 10
51.54673610525467
 20
205.5627504128199
 30
0.0
 11
51.54673610525467
 21
205.2287665128199
 31
0.0
  0
LINE
  5
887B
  8
0
 10
52.21392110525466
 20
205.2287665128199
 30
0.0
 11
53.21550610525466
 21
205.2287665128199
 31
0.0
  0
LINE
  5
887C
  8
0
 10
53.21550610525466
 20
205.2287665128199
 30
0.0
 11
53.21550610525466
 21
205.5627504128199
 31
0.0
  0
LINE
  5
887D
  8
0
 10
53.21550610525466
 20
205.5627504128199
 30
0.0
 11
52.21392110525466
 21
205.5627504128199
 31
0.0
  0
LINE
  5
887E
  8
0
 10
52.21392110525466
 20
205.5627504128199
 30
0.0
 11
52.21392110525466
 21
205.2287665128199
 31
0.0
  0
LINE
  5
887F
  8
0
 10
42.53437110525465
 20
204.8951265128199
 30
0.0
 11
42.86872645525466
 21
204.8951265128199
 31
0.0
  0
LINE
  5
8880
  8
0
 10
42.86872645525466
 20
204.8951265128199
 30
0.0
 11
42.86872645525466
 21
205.2291104128199
 31
0.0
  0
LINE
  5
8881
  8
0
 10
42.86872645525466
 20
205.2291104128199
 30
0.0
 11
42.53437110525465
 21
205.2291104128199
 31
0.0
  0
LINE
  5
8882
  8
0
 10
42.53437110525465
 20
205.2291104128199
 30
0.0
 11
42.53437110525465
 21
204.8951265128199
 31
0.0
  0
LINE
  5
8883
  8
0
 10
43.86950110525467
 20
204.8951265128199
 30
0.0
 11
44.53709840525465
 21
204.8951265128199
 31
0.0
  0
LINE
  5
8884
  8
0
 10
44.53709840525465
 20
204.8951265128199
 30
0.0
 11
44.53709840525465
 21
205.2291104128199
 31
0.0
  0
LINE
  5
8885
  8
0
 10
44.53709840525465
 20
205.2291104128199
 30
0.0
 11
43.86950110525467
 21
205.2291104128199
 31
0.0
  0
LINE
  5
8886
  8
0
 10
43.86950110525467
 20
205.2291104128199
 30
0.0
 11
43.86950110525467
 21
204.8951265128199
 31
0.0
  0
LINE
  5
8887
  8
0
 10
44.87108610525465
 20
204.8951265128199
 30
0.0
 11
46.87350560525468
 21
204.8951265128199
 31
0.0
  0
LINE
  5
8888
  8
0
 10
46.87350560525468
 20
204.8951265128199
 30
0.0
 11
46.87350560525468
 21
205.2291104128199
 31
0.0
  0
LINE
  5
8889
  8
0
 10
46.87350560525468
 20
205.2291104128199
 30
0.0
 11
44.87108610525465
 21
205.2291104128199
 31
0.0
  0
LINE
  5
888A
  8
0
 10
44.87108610525465
 20
205.2291104128199
 30
0.0
 11
44.87108610525465
 21
204.8951265128199
 31
0.0
  0
LINE
  5
888B
  8
0
 10
48.54274110525463
 20
204.8951265128199
 30
0.0
 11
48.87672595525467
 21
204.8951265128199
 31
0.0
  0
LINE
  5
888C
  8
0
 10
48.87672595525467
 20
204.8951265128199
 30
0.0
 11
48.87672595525467
 21
205.2291104128199
 31
0.0
  0
LINE
  5
888D
  8
0
 10
48.87672595525467
 20
205.2291104128199
 30
0.0
 11
48.54274110525463
 21
205.2291104128199
 31
0.0
  0
LINE
  5
888E
  8
0
 10
48.54274110525463
 20
205.2291104128199
 30
0.0
 11
48.54274110525463
 21
204.8951265128199
 31
0.0
  0
LINE
  5
888F
  8
0
 10
49.87749110525465
 20
204.8951265128199
 30
0.0
 11
50.54508840525466
 21
204.8951265128199
 31
0.0
  0
LINE
  5
8890
  8
0
 10
50.54508840525466
 20
204.8951265128199
 30
0.0
 11
50.54508840525466
 21
205.2291104128199
 31
0.0
  0
LINE
  5
8891
  8
0
 10
50.54508840525466
 20
205.2291104128199
 30
0.0
 11
49.87749110525465
 21
205.2291104128199
 31
0.0
  0
LINE
  5
8892
  8
0
 10
49.87749110525465
 20
205.2291104128199
 30
0.0
 11
49.87749110525465
 21
204.8951265128199
 31
0.0
  0
LINE
  5
8893
  8
0
 10
50.87907610525465
 20
204.8951265128199
 30
0.0
 11
51.88066110525463
 21
204.8951265128199
 31
0.0
  0
LINE
  5
8894
  8
0
 10
51.88066110525463
 20
204.8951265128199
 30
0.0
 11
51.88066110525463
 21
205.2291104128199
 31
0.0
  0
LINE
  5
8895
  8
0
 10
51.88066110525463
 20
205.2291104128199
 30
0.0
 11
50.87907610525465
 21
205.2291104128199
 31
0.0
  0
LINE
  5
8896
  8
0
 10
50.87907610525465
 20
205.2291104128199
 30
0.0
 11
50.87907610525465
 21
204.8951265128199
 31
0.0
  0
LINE
  5
8897
  8
0
 10
52.21392110525466
 20
204.8951265128199
 30
0.0
 11
52.88151840525464
 21
204.8951265128199
 31
0.0
  0
LINE
  5
8898
  8
0
 10
52.88151840525464
 20
204.8951265128199
 30
0.0
 11
52.88151840525464
 21
205.2291104128199
 31
0.0
  0
LINE
  5
8899
  8
0
 10
52.88151840525464
 20
205.2291104128199
 30
0.0
 11
52.21392110525466
 21
205.2291104128199
 31
0.0
  0
LINE
  5
889A
  8
0
 10
52.21392110525466
 20
205.2291104128199
 30
0.0
 11
52.21392110525466
 21
204.8951265128199
 31
0.0
  0
LINE
  5
889B
  8
0
 10
53.21550610525466
 20
204.8951265128199
 30
0.0
 11
53.54986240525466
 21
204.8951265128199
 31
0.0
  0
LINE
  5
889C
  8
0
 10
53.54986240525466
 20
204.8951265128199
 30
0.0
 11
53.54986240525466
 21
205.2291104128199
 31
0.0
  0
LINE
  5
889D
  8
0
 10
53.54986240525466
 20
205.2291104128199
 30
0.0
 11
53.21550610525466
 21
205.2291104128199
 31
0.0
  0
LINE
  5
889E
  8
0
 10
53.21550610525466
 20
205.2291104128199
 30
0.0
 11
53.21550610525466
 21
204.8951265128199
 31
0.0
  0
LINE
  5
889F
  8
0
 10
42.53437110525465
 20
204.5611065128199
 30
0.0
 11
43.20196840525463
 21
204.5611065128199
 31
0.0
  0
LINE
  5
88A0
  8
0
 10
43.20196840525463
 20
204.5611065128199
 30
0.0
 11
43.20196840525463
 21
204.8950913628199
 31
0.0
  0
LINE
  5
88A1
  8
0
 10
43.20196840525463
 20
204.8950913628199
 30
0.0
 11
42.53437110525465
 21
204.8950913628199
 31
0.0
  0
LINE
  5
88A2
  8
0
 10
42.53437110525465
 20
204.8950913628199
 30
0.0
 11
42.53437110525465
 21
204.5611065128199
 31
0.0
  0
LINE
  5
88A3
  8
0
 10
43.53586110525467
 20
204.5611065128199
 30
0.0
 11
43.86984500525466
 21
204.5611065128199
 31
0.0
  0
LINE
  5
88A4
  8
0
 10
43.86984500525466
 20
204.5611065128199
 30
0.0
 11
43.86984500525466
 21
204.8950913628199
 31
0.0
  0
LINE
  5
88A5
  8
0
 10
43.86984500525466
 20
204.8950913628199
 30
0.0
 11
43.53586110525467
 21
204.8950913628199
 31
0.0
  0
LINE
  5
88A6
  8
0
 10
43.53586110525467
 20
204.8950913628199
 30
0.0
 11
43.53586110525467
 21
204.5611065128199
 31
0.0
  0
LINE
  5
88A7
  8
0
 10
44.20352110525465
 20
204.5611065128199
 30
0.0
 11
46.20594060525465
 21
204.5611065128199
 31
0.0
  0
LINE
  5
88A8
  8
0
 10
46.20594060525465
 20
204.5611065128199
 30
0.0
 11
46.20594060525465
 21
204.8950913628199
 31
0.0
  0
LINE
  5
88A9
  8
0
 10
46.20594060525465
 20
204.8950913628199
 30
0.0
 11
44.20352110525465
 21
204.8950913628199
 31
0.0
  0
LINE
  5
88AA
  8
0
 10
44.20352110525465
 20
204.8950913628199
 30
0.0
 11
44.20352110525465
 21
204.5611065128199
 31
0.0
  0
LINE
  5
88AB
  8
0
 10
47.54153610525466
 20
204.5611065128199
 30
0.0
 11
48.20913435525463
 21
204.5611065128199
 31
0.0
  0
LINE
  5
88AC
  8
0
 10
48.20913435525463
 20
204.5611065128199
 30
0.0
 11
48.20913435525463
 21
204.8950913628199
 31
0.0
  0
LINE
  5
88AD
  8
0
 10
48.20913435525463
 20
204.8950913628199
 30
0.0
 11
47.54153610525466
 21
204.8950913628199
 31
0.0
  0
LINE
  5
88AE
  8
0
 10
47.54153610525466
 20
204.8950913628199
 30
0.0
 11
47.54153610525466
 21
204.5611065128199
 31
0.0
  0
LINE
  5
88AF
  8
0
 10
48.87666610525466
 20
204.5611065128199
 30
0.0
 11
49.54426340525464
 21
204.5611065128199
 31
0.0
  0
LINE
  5
88B0
  8
0
 10
49.54426340525464
 20
204.5611065128199
 30
0.0
 11
49.54426340525464
 21
204.8950913628199
 31
0.0
  0
LINE
  5
88B1
  8
0
 10
49.54426340525464
 20
204.8950913628199
 30
0.0
 11
48.87666610525466
 21
204.8950913628199
 31
0.0
  0
LINE
  5
88B2
  8
0
 10
48.87666610525466
 20
204.8950913628199
 30
0.0
 11
48.87666610525466
 21
204.5611065128199
 31
0.0
  0
LINE
  5
88B3
  8
0
 10
50.54591110525465
 20
204.5611065128199
 30
0.0
 11
52.54833060525465
 21
204.5611065128199
 31
0.0
  0
LINE
  5
88B4
  8
0
 10
52.54833060525465
 20
204.5611065128199
 30
0.0
 11
52.54833060525465
 21
204.8950913628199
 31
0.0
  0
LINE
  5
88B5
  8
0
 10
52.54833060525465
 20
204.8950913628199
 30
0.0
 11
50.54591110525465
 21
204.8950913628199
 31
0.0
  0
LINE
  5
88B6
  8
0
 10
50.54591110525465
 20
204.8950913628199
 30
0.0
 11
50.54591110525465
 21
204.5611065128199
 31
0.0
  0
LINE
  5
88B7
  8
0
 10
45.20510610525466
 20
204.2275615128199
 30
0.0
 11
45.53909095525466
 21
204.2275615128199
 31
0.0
  0
LINE
  5
88B8
  8
0
 10
45.53909095525466
 20
204.2275615128199
 30
0.0
 11
45.53909095525466
 21
204.5615463628199
 31
0.0
  0
LINE
  5
88B9
  8
0
 10
45.53909095525466
 20
204.5615463628199
 30
0.0
 11
45.20510610525466
 21
204.5615463628199
 31
0.0
  0
LINE
  5
88BA
  8
0
 10
45.20510610525466
 20
204.5615463628199
 30
0.0
 11
45.20510610525466
 21
204.2275615128199
 31
0.0
  0
LINE
  5
88BB
  8
0
 10
46.20593110525465
 20
204.2275615128199
 30
0.0
 11
46.53991500525464
 21
204.2275615128199
 31
0.0
  0
LINE
  5
88BC
  8
0
 10
46.53991500525464
 20
204.2275615128199
 30
0.0
 11
46.53991500525464
 21
204.5615463628199
 31
0.0
  0
LINE
  5
88BD
  8
0
 10
46.53991500525464
 20
204.5615463628199
 30
0.0
 11
46.20593110525465
 21
204.5615463628199
 31
0.0
  0
LINE
  5
88BE
  8
0
 10
46.20593110525465
 20
204.5615463628199
 30
0.0
 11
46.20593110525465
 21
204.2275615128199
 31
0.0
  0
LINE
  5
88BF
  8
0
 10
46.87349610525465
 20
204.2275615128199
 30
0.0
 11
47.20748095525465
 21
204.2275615128199
 31
0.0
  0
LINE
  5
88C0
  8
0
 10
47.20748095525465
 20
204.2275615128199
 30
0.0
 11
47.20748095525465
 21
204.5615463628199
 31
0.0
  0
LINE
  5
88C1
  8
0
 10
47.20748095525465
 20
204.5615463628199
 30
0.0
 11
46.87349610525465
 21
204.5615463628199
 31
0.0
  0
LINE
  5
88C2
  8
0
 10
46.87349610525465
 20
204.5615463628199
 30
0.0
 11
46.87349610525465
 21
204.2275615128199
 31
0.0
  0
LINE
  5
88C3
  8
0
 10
47.54153610525466
 20
204.2275615128199
 30
0.0
 11
47.87589145525467
 21
204.2275615128199
 31
0.0
  0
LINE
  5
88C4
  8
0
 10
47.87589145525467
 20
204.2275615128199
 30
0.0
 11
47.87589145525467
 21
204.5615463628199
 31
0.0
  0
LINE
  5
88C5
  8
0
 10
47.87589145525467
 20
204.5615463628199
 30
0.0
 11
47.54153610525466
 21
204.5615463628199
 31
0.0
  0
LINE
  5
88C6
  8
0
 10
47.54153610525466
 20
204.5615463628199
 30
0.0
 11
47.54153610525466
 21
204.2275615128199
 31
0.0
  0
LINE
  5
88C7
  8
0
 10
48.54274110525463
 20
204.2275615128199
 30
0.0
 11
49.54395560525464
 21
204.2275615128199
 31
0.0
  0
LINE
  5
88C8
  8
0
 10
49.54395560525464
 20
204.2275615128199
 30
0.0
 11
49.54395560525464
 21
204.5615463628199
 31
0.0
  0
LINE
  5
88C9
  8
0
 10
49.54395560525464
 20
204.5615463628199
 30
0.0
 11
48.54274110525463
 21
204.5615463628199
 31
0.0
  0
LINE
  5
88CA
  8
0
 10
48.54274110525463
 20
204.5615463628199
 30
0.0
 11
48.54274110525463
 21
204.2275615128199
 31
0.0
  0
LINE
  5
88CB
  8
0
 10
49.87749110525465
 20
204.2275615128199
 30
0.0
 11
50.87907610525465
 21
204.2275615128199
 31
0.0
  0
LINE
  5
88CC
  8
0
 10
50.87907610525465
 20
204.2275615128199
 30
0.0
 11
50.87907610525465
 21
204.5615463628199
 31
0.0
  0
LINE
  5
88CD
  8
0
 10
50.87907610525465
 20
204.5615463628199
 30
0.0
 11
49.87749110525465
 21
204.5615463628199
 31
0.0
  0
LINE
  5
88CE
  8
0
 10
49.87749110525465
 20
204.5615463628199
 30
0.0
 11
49.87749110525465
 21
204.2275615128199
 31
0.0
  0
LINE
  5
88CF
  8
0
 10
51.88066110525463
 20
204.2275615128199
 30
0.0
 11
52.21464595525467
 21
204.2275615128199
 31
0.0
  0
LINE
  5
88D0
  8
0
 10
52.21464595525467
 20
204.2275615128199
 30
0.0
 11
52.21464595525467
 21
204.5615463628199
 31
0.0
  0
LINE
  5
88D1
  8
0
 10
52.21464595525467
 20
204.5615463628199
 30
0.0
 11
51.88066110525463
 21
204.5615463628199
 31
0.0
  0
LINE
  5
88D2
  8
0
 10
51.88066110525463
 20
204.5615463628199
 30
0.0
 11
51.88066110525463
 21
204.2275615128199
 31
0.0
  0
LINE
  5
88D3
  8
0
 10
52.54832110525464
 20
204.2275615128199
 30
0.0
 11
53.54990610525468
 21
204.2275615128199
 31
0.0
  0
LINE
  5
88D4
  8
0
 10
53.54990610525468
 20
204.2275615128199
 30
0.0
 11
53.54990610525468
 21
204.5615463628199
 31
0.0
  0
LINE
  5
88D5
  8
0
 10
53.54990610525468
 20
204.5615463628199
 30
0.0
 11
52.54832110525464
 21
204.5615463628199
 31
0.0
  0
LINE
  5
88D6
  8
0
 10
52.54832110525464
 20
204.5615463628199
 30
0.0
 11
52.54832110525464
 21
204.2275615128199
 31
0.0
  0
LINE
  5
88D7
  8
0
 10
42.53437110525465
 20
203.8935415128199
 30
0.0
 11
44.87115260525468
 21
203.8935415128199
 31
0.0
  0
LINE
  5
88D8
  8
0
 10
44.87115260525468
 20
203.8935415128199
 30
0.0
 11
44.87115260525468
 21
204.2275254128199
 31
0.0
  0
LINE
  5
88D9
  8
0
 10
44.87115260525468
 20
204.2275254128199
 30
0.0
 11
42.53437110525465
 21
204.2275254128199
 31
0.0
  0
LINE
  5
88DA
  8
0
 10
42.53437110525465
 20
204.2275254128199
 30
0.0
 11
42.53437110525465
 21
203.8935415128199
 31
0.0
  0
LINE
  5
88DB
  8
0
 10
46.20593110525465
 20
203.8935415128199
 30
0.0
 11
47.20751610525465
 21
203.8935415128199
 31
0.0
  0
LINE
  5
88DC
  8
0
 10
47.20751610525465
 20
203.8935415128199
 30
0.0
 11
47.20751610525465
 21
204.2275254128199
 31
0.0
  0
LINE
  5
88DD
  8
0
 10
47.20751610525465
 20
204.2275254128199
 30
0.0
 11
46.20593110525465
 21
204.2275254128199
 31
0.0
  0
LINE
  5
88DE
  8
0
 10
46.20593110525465
 20
204.2275254128199
 30
0.0
 11
46.20593110525465
 21
203.8935415128199
 31
0.0
  0
LINE
  5
88DF
  8
0
 10
47.54153610525466
 20
203.8935415128199
 30
0.0
 11
48.20913435525463
 21
203.8935415128199
 31
0.0
  0
LINE
  5
88E0
  8
0
 10
48.20913435525463
 20
203.8935415128199
 30
0.0
 11
48.20913435525463
 21
204.2275254128199
 31
0.0
  0
LINE
  5
88E1
  8
0
 10
48.20913435525463
 20
204.2275254128199
 30
0.0
 11
47.54153610525466
 21
204.2275254128199
 31
0.0
  0
LINE
  5
88E2
  8
0
 10
47.54153610525466
 20
204.2275254128199
 30
0.0
 11
47.54153610525466
 21
203.8935415128199
 31
0.0
  0
LINE
  5
88E3
  8
0
 10
48.54274110525463
 20
203.8935415128199
 30
0.0
 11
48.87672595525467
 21
203.8935415128199
 31
0.0
  0
LINE
  5
88E4
  8
0
 10
48.87672595525467
 20
203.8935415128199
 30
0.0
 11
48.87672595525467
 21
204.2275254128199
 31
0.0
  0
LINE
  5
88E5
  8
0
 10
48.87672595525467
 20
204.2275254128199
 30
0.0
 11
48.54274110525463
 21
204.2275254128199
 31
0.0
  0
LINE
  5
88E6
  8
0
 10
48.54274110525463
 20
204.2275254128199
 30
0.0
 11
48.54274110525463
 21
203.8935415128199
 31
0.0
  0
LINE
  5
88E7
  8
0
 10
49.20992610525465
 20
203.8935415128199
 30
0.0
 11
49.87752435525465
 21
203.8935415128199
 31
0.0
  0
LINE
  5
88E8
  8
0
 10
49.87752435525465
 20
203.8935415128199
 30
0.0
 11
49.87752435525465
 21
204.2275254128199
 31
0.0
  0
LINE
  5
88E9
  8
0
 10
49.87752435525465
 20
204.2275254128199
 30
0.0
 11
49.20992610525465
 21
204.2275254128199
 31
0.0
  0
LINE
  5
88EA
  8
0
 10
49.20992610525465
 20
204.2275254128199
 30
0.0
 11
49.20992610525465
 21
203.8935415128199
 31
0.0
  0
LINE
  5
88EB
  8
0
 10
50.21151110525466
 20
203.8935415128199
 30
0.0
 11
50.87910840525464
 21
203.8935415128199
 31
0.0
  0
LINE
  5
88EC
  8
0
 10
50.87910840525464
 20
203.8935415128199
 30
0.0
 11
50.87910840525464
 21
204.2275254128199
 31
0.0
  0
LINE
  5
88ED
  8
0
 10
50.87910840525464
 20
204.2275254128199
 30
0.0
 11
50.21151110525466
 21
204.2275254128199
 31
0.0
  0
LINE
  5
88EE
  8
0
 10
50.21151110525466
 20
204.2275254128199
 30
0.0
 11
50.21151110525466
 21
203.8935415128199
 31
0.0
  0
LINE
  5
88EF
  8
0
 10
51.21309610525466
 20
203.8935415128199
 30
0.0
 11
51.54708000525466
 21
203.8935415128199
 31
0.0
  0
LINE
  5
88F0
  8
0
 10
51.54708000525466
 20
203.8935415128199
 30
0.0
 11
51.54708000525466
 21
204.2275254128199
 31
0.0
  0
LINE
  5
88F1
  8
0
 10
51.54708000525466
 20
204.2275254128199
 30
0.0
 11
51.21309610525466
 21
204.2275254128199
 31
0.0
  0
LINE
  5
88F2
  8
0
 10
51.21309610525466
 20
204.2275254128199
 30
0.0
 11
51.21309610525466
 21
203.8935415128199
 31
0.0
  0
LINE
  5
88F3
  8
0
 10
51.88066110525463
 20
203.8935415128199
 30
0.0
 11
52.21464595525467
 21
203.8935415128199
 31
0.0
  0
LINE
  5
88F4
  8
0
 10
52.21464595525467
 20
203.8935415128199
 30
0.0
 11
52.21464595525467
 21
204.2275254128199
 31
0.0
  0
LINE
  5
88F5
  8
0
 10
52.21464595525467
 20
204.2275254128199
 30
0.0
 11
51.88066110525463
 21
204.2275254128199
 31
0.0
  0
LINE
  5
88F6
  8
0
 10
51.88066110525463
 20
204.2275254128199
 30
0.0
 11
51.88066110525463
 21
203.8935415128199
 31
0.0
  0
LINE
  5
88F7
  8
0
 10
52.54832110525464
 20
203.8935415128199
 30
0.0
 11
53.21554695525467
 21
203.8935415128199
 31
0.0
  0
LINE
  5
88F8
  8
0
 10
53.21554695525467
 20
203.8935415128199
 30
0.0
 11
53.21554695525467
 21
204.2275254128199
 31
0.0
  0
LINE
  5
88F9
  8
0
 10
53.21554695525467
 20
204.2275254128199
 30
0.0
 11
52.54832110525464
 21
204.2275254128199
 31
0.0
  0
LINE
  5
88FA
  8
0
 10
52.54832110525464
 20
204.2275254128199
 30
0.0
 11
52.54832110525464
 21
203.8935415128199
 31
0.0
  0
LINE
  5
88FB
  8
0
 10
42.53437110525465
 20
203.5602815128199
 30
0.0
 11
42.86872645525466
 21
203.5602815128199
 31
0.0
  0
LINE
  5
88FC
  8
0
 10
42.86872645525466
 20
203.5602815128199
 30
0.0
 11
42.86872645525466
 21
203.8942654128199
 31
0.0
  0
LINE
  5
88FD
  8
0
 10
42.86872645525466
 20
203.8942654128199
 30
0.0
 11
42.53437110525465
 21
203.8942654128199
 31
0.0
  0
LINE
  5
88FE
  8
0
 10
42.53437110525465
 20
203.8942654128199
 30
0.0
 11
42.53437110525465
 21
203.5602815128199
 31
0.0
  0
LINE
  5
88FF
  8
0
 10
44.53744610525465
 20
203.5602815128199
 30
0.0
 11
44.87143000525464
 21
203.5602815128199
 31
0.0
  0
LINE
  5
8900
  8
0
 10
44.87143000525464
 20
203.5602815128199
 30
0.0
 11
44.87143000525464
 21
203.8942654128199
 31
0.0
  0
LINE
  5
8901
  8
0
 10
44.87143000525464
 20
203.8942654128199
 30
0.0
 11
44.53744610525465
 21
203.8942654128199
 31
0.0
  0
LINE
  5
8902
  8
0
 10
44.53744610525465
 20
203.8942654128199
 30
0.0
 11
44.53744610525465
 21
203.5602815128199
 31
0.0
  0
LINE
  5
8903
  8
0
 10
45.53874610525466
 20
203.5602815128199
 30
0.0
 11
46.53996060525466
 21
203.5602815128199
 31
0.0
  0
LINE
  5
8904
  8
0
 10
46.53996060525466
 20
203.5602815128199
 30
0.0
 11
46.53996060525466
 21
203.8942654128199
 31
0.0
  0
LINE
  5
8905
  8
0
 10
46.53996060525466
 20
203.8942654128199
 30
0.0
 11
45.53874610525466
 21
203.8942654128199
 31
0.0
  0
LINE
  5
8906
  8
0
 10
45.53874610525466
 20
203.8942654128199
 30
0.0
 11
45.53874610525466
 21
203.5602815128199
 31
0.0
  0
LINE
  5
8907
  8
0
 10
47.54153610525466
 20
203.5602815128199
 30
0.0
 11
47.87589145525467
 21
203.5602815128199
 31
0.0
  0
LINE
  5
8908
  8
0
 10
47.87589145525467
 20
203.5602815128199
 30
0.0
 11
47.87589145525467
 21
203.8942654128199
 31
0.0
  0
LINE
  5
8909
  8
0
 10
47.87589145525467
 20
203.8942654128199
 30
0.0
 11
47.54153610525466
 21
203.8942654128199
 31
0.0
  0
LINE
  5
890A
  8
0
 10
47.54153610525466
 20
203.8942654128199
 30
0.0
 11
47.54153610525466
 21
203.5602815128199
 31
0.0
  0
LINE
  5
890B
  8
0
 10
49.20992610525465
 20
203.5602815128199
 30
0.0
 11
49.54428145525466
 21
203.5602815128199
 31
0.0
  0
LINE
  5
890C
  8
0
 10
49.54428145525466
 20
203.5602815128199
 30
0.0
 11
49.54428145525466
 21
203.8942654128199
 31
0.0
  0
LINE
  5
890D
  8
0
 10
49.54428145525466
 20
203.8942654128199
 30
0.0
 11
49.20992610525465
 21
203.8942654128199
 31
0.0
  0
LINE
  5
890E
  8
0
 10
49.20992610525465
 20
203.8942654128199
 30
0.0
 11
49.20992610525465
 21
203.5602815128199
 31
0.0
  0
LINE
  5
890F
  8
0
 10
50.21151110525466
 20
203.5602815128199
 30
0.0
 11
50.87910840525464
 21
203.5602815128199
 31
0.0
  0
LINE
  5
8910
  8
0
 10
50.87910840525464
 20
203.5602815128199
 30
0.0
 11
50.87910840525464
 21
203.8942654128199
 31
0.0
  0
LINE
  5
8911
  8
0
 10
50.87910840525464
 20
203.8942654128199
 30
0.0
 11
50.21151110525466
 21
203.8942654128199
 31
0.0
  0
LINE
  5
8912
  8
0
 10
50.21151110525466
 20
203.8942654128199
 30
0.0
 11
50.21151110525466
 21
203.5602815128199
 31
0.0
  0
LINE
  5
8913
  8
0
 10
51.88066110525463
 20
203.5602815128199
 30
0.0
 11
52.88224610525467
 21
203.5602815128199
 31
0.0
  0
LINE
  5
8914
  8
0
 10
52.88224610525467
 20
203.5602815128199
 30
0.0
 11
52.88224610525467
 21
203.8942654128199
 31
0.0
  0
LINE
  5
8915
  8
0
 10
52.88224610525467
 20
203.8942654128199
 30
0.0
 11
51.88066110525463
 21
203.8942654128199
 31
0.0
  0
LINE
  5
8916
  8
0
 10
51.88066110525463
 20
203.8942654128199
 30
0.0
 11
51.88066110525463
 21
203.5602815128199
 31
0.0
  0
LINE
  5
8917
  8
0
 10
53.21550610525466
 20
203.5602815128199
 30
0.0
 11
53.54986240525466
 21
203.5602815128199
 31
0.0
  0
LINE
  5
8918
  8
0
 10
53.54986240525466
 20
203.5602815128199
 30
0.0
 11
53.54986240525466
 21
203.8942654128199
 31
0.0
  0
LINE
  5
8919
  8
0
 10
53.54986240525466
 20
203.8942654128199
 30
0.0
 11
53.21550610525466
 21
203.8942654128199
 31
0.0
  0
LINE
  5
891A
  8
0
 10
53.21550610525466
 20
203.8942654128199
 30
0.0
 11
53.21550610525466
 21
203.5602815128199
 31
0.0
  0
LINE
  5
891B
  8
0
 10
42.53437110525465
 20
203.2262615128199
 30
0.0
 11
42.86872645525466
 21
203.2262615128199
 31
0.0
  0
LINE
  5
891C
  8
0
 10
42.86872645525466
 20
203.2262615128199
 30
0.0
 11
42.86872645525466
 21
203.5602463628199
 31
0.0
  0
LINE
  5
891D
  8
0
 10
42.86872645525466
 20
203.5602463628199
 30
0.0
 11
42.53437110525465
 21
203.5602463628199
 31
0.0
  0
LINE
  5
891E
  8
0
 10
42.53437110525465
 20
203.5602463628199
 30
0.0
 11
42.53437110525465
 21
203.2262615128199
 31
0.0
  0
LINE
  5
891F
  8
0
 10
43.20193610525465
 20
203.2262615128199
 30
0.0
 11
44.20352110525465
 21
203.2262615128199
 31
0.0
  0
LINE
  5
8920
  8
0
 10
44.20352110525465
 20
203.2262615128199
 30
0.0
 11
44.20352110525465
 21
203.5602463628199
 31
0.0
  0
LINE
  5
8921
  8
0
 10
44.20352110525465
 20
203.5602463628199
 30
0.0
 11
43.20193610525465
 21
203.5602463628199
 31
0.0
  0
LINE
  5
8922
  8
0
 10
43.20193610525465
 20
203.5602463628199
 30
0.0
 11
43.20193610525465
 21
203.2262615128199
 31
0.0
  0
LINE
  5
8923
  8
0
 10
44.53744610525465
 20
203.2262615128199
 30
0.0
 11
44.87143000525464
 21
203.2262615128199
 31
0.0
  0
LINE
  5
8924
  8
0
 10
44.87143000525464
 20
203.2262615128199
 30
0.0
 11
44.87143000525464
 21
203.5602463628199
 31
0.0
  0
LINE
  5
8925
  8
0
 10
44.87143000525464
 20
203.5602463628199
 30
0.0
 11
44.53744610525465
 21
203.5602463628199
 31
0.0
  0
LINE
  5
8926
  8
0
 10
44.53744610525465
 20
203.5602463628199
 30
0.0
 11
44.53744610525465
 21
203.2262615128199
 31
0.0
  0
LINE
  5
8927
  8
0
 10
45.87267110525465
 20
203.2262615128199
 30
0.0
 11
46.53989695525465
 21
203.2262615128199
 31
0.0
  0
LINE
  5
8928
  8
0
 10
46.53989695525465
 20
203.2262615128199
 30
0.0
 11
46.53989695525465
 21
203.5602463628199
 31
0.0
  0
LINE
  5
8929
  8
0
 10
46.53989695525465
 20
203.5602463628199
 30
0.0
 11
45.87267110525465
 21
203.5602463628199
 31
0.0
  0
LINE
  5
892A
  8
0
 10
45.87267110525465
 20
203.5602463628199
 30
0.0
 11
45.87267110525465
 21
203.2262615128199
 31
0.0
  0
LINE
  5
892B
  8
0
 10
46.87349610525465
 20
203.2262615128199
 30
0.0
 11
47.54109435525467
 21
203.2262615128199
 31
0.0
  0
LINE
  5
892C
  8
0
 10
47.54109435525467
 20
203.2262615128199
 30
0.0
 11
47.54109435525467
 21
203.5602463628199
 31
0.0
  0
LINE
  5
892D
  8
0
 10
47.54109435525467
 20
203.5602463628199
 30
0.0
 11
46.87349610525465
 21
203.5602463628199
 31
0.0
  0
LINE
  5
892E
  8
0
 10
46.87349610525465
 20
203.5602463628199
 30
0.0
 11
46.87349610525465
 21
203.2262615128199
 31
0.0
  0
LINE
  5
892F
  8
0
 10
48.54274110525463
 20
203.2262615128199
 30
0.0
 11
49.20996790525467
 21
203.2262615128199
 31
0.0
  0
LINE
  5
8930
  8
0
 10
49.20996790525467
 20
203.2262615128199
 30
0.0
 11
49.20996790525467
 21
203.5602463628199
 31
0.0
  0
LINE
  5
8931
  8
0
 10
49.20996790525467
 20
203.5602463628199
 30
0.0
 11
48.54274110525463
 21
203.5602463628199
 31
0.0
  0
LINE
  5
8932
  8
0
 10
48.54274110525463
 20
203.5602463628199
 30
0.0
 11
48.54274110525463
 21
203.2262615128199
 31
0.0
  0
LINE
  5
8933
  8
0
 10
49.54432610525467
 20
203.2262615128199
 30
0.0
 11
49.87831095525465
 21
203.2262615128199
 31
0.0
  0
LINE
  5
8934
  8
0
 10
49.87831095525465
 20
203.2262615128199
 30
0.0
 11
49.87831095525465
 21
203.5602463628199
 31
0.0
  0
LINE
  5
8935
  8
0
 10
49.87831095525465
 20
203.5602463628199
 30
0.0
 11
49.54432610525467
 21
203.5602463628199
 31
0.0
  0
LINE
  5
8936
  8
0
 10
49.54432610525467
 20
203.5602463628199
 30
0.0
 11
49.54432610525467
 21
203.2262615128199
 31
0.0
  0
LINE
  5
8937
  8
0
 10
50.54591110525465
 20
203.2262615128199
 30
0.0
 11
52.54833060525465
 21
203.2262615128199
 31
0.0
  0
LINE
  5
8938
  8
0
 10
52.54833060525465
 20
203.2262615128199
 30
0.0
 11
52.54833060525465
 21
203.5602463628199
 31
0.0
  0
LINE
  5
8939
  8
0
 10
52.54833060525465
 20
203.5602463628199
 30
0.0
 11
50.54591110525465
 21
203.5602463628199
 31
0.0
  0
LINE
  5
893A
  8
0
 10
50.54591110525465
 20
203.5602463628199
 30
0.0
 11
50.54591110525465
 21
203.2262615128199
 31
0.0
  0
LINE
  5
893B
  8
0
 10
42.53437110525465
 20
202.8919565128199
 30
0.0
 11
42.86872645525466
 21
202.8919565128199
 31
0.0
  0
LINE
  5
893C
  8
0
 10
42.86872645525466
 20
202.8919565128199
 30
0.0
 11
42.86872645525466
 21
203.2263118628199
 31
0.0
  0
LINE
  5
893D
  8
0
 10
42.86872645525466
 20
203.2263118628199
 30
0.0
 11
42.53437110525465
 21
203.2263118628199
 31
0.0
  0
LINE
  5
893E
  8
0
 10
42.53437110525465
 20
203.2263118628199
 30
0.0
 11
42.53437110525465
 21
202.8919565128199
 31
0.0
  0
LINE
  5
893F
  8
0
 10
43.20193610525465
 20
202.8919565128199
 30
0.0
 11
44.20352110525465
 21
202.8919565128199
 31
0.0
  0
LINE
  5
8940
  8
0
 10
44.20352110525465
 20
202.8919565128199
 30
0.0
 11
44.20352110525465
 21
203.2263118628199
 31
0.0
  0
LINE
  5
8941
  8
0
 10
44.20352110525465
 20
203.2263118628199
 30
0.0
 11
43.20193610525465
 21
203.2263118628199
 31
0.0
  0
LINE
  5
8942
  8
0
 10
43.20193610525465
 20
203.2263118628199
 30
0.0
 11
43.20193610525465
 21
202.8919565128199
 31
0.0
  0
LINE
  5
8943
  8
0
 10
44.53744610525465
 20
202.8919565128199
 30
0.0
 11
44.87143000525464
 21
202.8919565128199
 31
0.0
  0
LINE
  5
8944
  8
0
 10
44.87143000525464
 20
202.8919565128199
 30
0.0
 11
44.87143000525464
 21
203.2263118628199
 31
0.0
  0
LINE
  5
8945
  8
0
 10
44.87143000525464
 20
203.2263118628199
 30
0.0
 11
44.53744610525465
 21
203.2263118628199
 31
0.0
  0
LINE
  5
8946
  8
0
 10
44.53744610525465
 20
203.2263118628199
 30
0.0
 11
44.53744610525465
 21
202.8919565128199
 31
0.0
  0
LINE
  5
8947
  8
0
 10
45.53874610525466
 20
202.8919565128199
 30
0.0
 11
46.87357210525465
 21
202.8919565128199
 31
0.0
  0
LINE
  5
8948
  8
0
 10
46.87357210525465
 20
202.8919565128199
 30
0.0
 11
46.87357210525465
 21
203.2263118628199
 31
0.0
  0
LINE
  5
8949
  8
0
 10
46.87357210525465
 20
203.2263118628199
 30
0.0
 11
45.53874610525466
 21
203.2263118628199
 31
0.0
  0
LINE
  5
894A
  8
0
 10
45.53874610525466
 20
203.2263118628199
 30
0.0
 11
45.53874610525466
 21
202.8919565128199
 31
0.0
  0
LINE
  5
894B
  8
0
 10
47.20751610525465
 20
202.8919565128199
 30
0.0
 11
47.54150000525468
 21
202.8919565128199
 31
0.0
  0
LINE
  5
894C
  8
0
 10
47.54150000525468
 20
202.8919565128199
 30
0.0
 11
47.54150000525468
 21
203.2263118628199
 31
0.0
  0
LINE
  5
894D
  8
0
 10
47.54150000525468
 20
203.2263118628199
 30
0.0
 11
47.20751610525465
 21
203.2263118628199
 31
0.0
  0
LINE
  5
894E
  8
0
 10
47.20751610525465
 20
203.2263118628199
 30
0.0
 11
47.20751610525465
 21
202.8919565128199
 31
0.0
  0
LINE
  5
894F
  8
0
 10
47.87508110525465
 20
202.8919565128199
 30
0.0
 11
48.20906595525466
 21
202.8919565128199
 31
0.0
  0
LINE
  5
8950
  8
0
 10
48.20906595525466
 20
202.8919565128199
 30
0.0
 11
48.20906595525466
 21
203.2263118628199
 31
0.0
  0
LINE
  5
8951
  8
0
 10
48.20906595525466
 20
203.2263118628199
 30
0.0
 11
47.87508110525465
 21
203.2263118628199
 31
0.0
  0
LINE
  5
8952
  8
0
 10
47.87508110525465
 20
203.2263118628199
 30
0.0
 11
47.87508110525465
 21
202.8919565128199
 31
0.0
  0
LINE
  5
8953
  8
0
 10
49.20992610525465
 20
202.8919565128199
 30
0.0
 11
49.54428145525466
 21
202.8919565128199
 31
0.0
  0
LINE
  5
8954
  8
0
 10
49.54428145525466
 20
202.8919565128199
 30
0.0
 11
49.54428145525466
 21
203.2263118628199
 31
0.0
  0
LINE
  5
8955
  8
0
 10
49.54428145525466
 20
203.2263118628199
 30
0.0
 11
49.20992610525465
 21
203.2263118628199
 31
0.0
  0
LINE
  5
8956
  8
0
 10
49.20992610525465
 20
203.2263118628199
 30
0.0
 11
49.20992610525465
 21
202.8919565128199
 31
0.0
  0
LINE
  5
8957
  8
0
 10
49.87749110525465
 20
202.8919565128199
 30
0.0
 11
50.54508840525466
 21
202.8919565128199
 31
0.0
  0
LINE
  5
8958
  8
0
 10
50.54508840525466
 20
202.8919565128199
 30
0.0
 11
50.54508840525466
 21
203.2263118628199
 31
0.0
  0
LINE
  5
8959
  8
0
 10
50.54508840525466
 20
203.2263118628199
 30
0.0
 11
49.87749110525465
 21
203.2263118628199
 31
0.0
  0
LINE
  5
895A
  8
0
 10
49.87749110525465
 20
203.2263118628199
 30
0.0
 11
49.87749110525465
 21
202.8919565128199
 31
0.0
  0
LINE
  5
895B
  8
0
 10
50.87907610525465
 20
202.8919565128199
 30
0.0
 11
51.21306095525466
 21
202.8919565128199
 31
0.0
  0
LINE
  5
895C
  8
0
 10
51.21306095525466
 20
202.8919565128199
 30
0.0
 11
51.21306095525466
 21
203.2263118628199
 31
0.0
  0
LINE
  5
895D
  8
0
 10
51.21306095525466
 20
203.2263118628199
 30
0.0
 11
50.87907610525465
 21
203.2263118628199
 31
0.0
  0
LINE
  5
895E
  8
0
 10
50.87907610525465
 20
203.2263118628199
 30
0.0
 11
50.87907610525465
 21
202.8919565128199
 31
0.0
  0
LINE
  5
895F
  8
0
 10
51.54673610525467
 20
202.8919565128199
 30
0.0
 11
52.21396290525465
 21
202.8919565128199
 31
0.0
  0
LINE
  5
8960
  8
0
 10
52.21396290525465
 20
202.8919565128199
 30
0.0
 11
52.21396290525465
 21
203.2263118628199
 31
0.0
  0
LINE
  5
8961
  8
0
 10
52.21396290525465
 20
203.2263118628199
 30
0.0
 11
51.54673610525467
 21
203.2263118628199
 31
0.0
  0
LINE
  5
8962
  8
0
 10
51.54673610525467
 20
203.2263118628199
 30
0.0
 11
51.54673610525467
 21
202.8919565128199
 31
0.0
  0
LINE
  5
8963
  8
0
 10
52.54832110525464
 20
202.8919565128199
 30
0.0
 11
52.88230500525466
 21
202.8919565128199
 31
0.0
  0
LINE
  5
8964
  8
0
 10
52.88230500525466
 20
202.8919565128199
 30
0.0
 11
52.88230500525466
 21
203.2263118628199
 31
0.0
  0
LINE
  5
8965
  8
0
 10
52.88230500525466
 20
203.2263118628199
 30
0.0
 11
52.54832110525464
 21
203.2263118628199
 31
0.0
  0
LINE
  5
8966
  8
0
 10
52.54832110525464
 20
203.2263118628199
 30
0.0
 11
52.54832110525464
 21
202.8919565128199
 31
0.0
  0
LINE
  5
8967
  8
0
 10
53.21550610525466
 20
202.8919565128199
 30
0.0
 11
53.54986240525466
 21
202.8919565128199
 31
0.0
  0
LINE
  5
8968
  8
0
 10
53.54986240525466
 20
202.8919565128199
 30
0.0
 11
53.54986240525466
 21
203.2263118628199
 31
0.0
  0
LINE
  5
8969
  8
0
 10
53.54986240525466
 20
203.2263118628199
 30
0.0
 11
53.21550610525466
 21
203.2263118628199
 31
0.0
  0
LINE
  5
896A
  8
0
 10
53.21550610525466
 20
203.2263118628199
 30
0.0
 11
53.21550610525466
 21
202.8919565128199
 31
0.0
  0
LINE
  5
896B
  8
0
 10
42.53437110525465
 20
202.5586965128199
 30
0.0
 11
42.86872645525466
 21
202.5586965128199
 31
0.0
  0
LINE
  5
896C
  8
0
 10
42.86872645525466
 20
202.5586965128199
 30
0.0
 11
42.86872645525466
 21
202.8926804128199
 31
0.0
  0
LINE
  5
896D
  8
0
 10
42.86872645525466
 20
202.8926804128199
 30
0.0
 11
42.53437110525465
 21
202.8926804128199
 31
0.0
  0
LINE
  5
896E
  8
0
 10
42.53437110525465
 20
202.8926804128199
 30
0.0
 11
42.53437110525465
 21
202.5586965128199
 31
0.0
  0
LINE
  5
896F
  8
0
 10
43.20193610525465
 20
202.5586965128199
 30
0.0
 11
44.20352110525465
 21
202.5586965128199
 31
0.0
  0
LINE
  5
8970
  8
0
 10
44.20352110525465
 20
202.5586965128199
 30
0.0
 11
44.20352110525465
 21
202.8926804128199
 31
0.0
  0
LINE
  5
8971
  8
0
 10
44.20352110525465
 20
202.8926804128199
 30
0.0
 11
43.20193610525465
 21
202.8926804128199
 31
0.0
  0
LINE
  5
8972
  8
0
 10
43.20193610525465
 20
202.8926804128199
 30
0.0
 11
43.20193610525465
 21
202.5586965128199
 31
0.0
  0
LINE
  5
8973
  8
0
 10
44.53744610525465
 20
202.5586965128199
 30
0.0
 11
44.87143000525464
 21
202.5586965128199
 31
0.0
  0
LINE
  5
8974
  8
0
 10
44.87143000525464
 20
202.5586965128199
 30
0.0
 11
44.87143000525464
 21
202.8926804128199
 31
0.0
  0
LINE
  5
8975
  8
0
 10
44.87143000525464
 20
202.8926804128199
 30
0.0
 11
44.53744610525465
 21
202.8926804128199
 31
0.0
  0
LINE
  5
8976
  8
0
 10
44.53744610525465
 20
202.8926804128199
 30
0.0
 11
44.53744610525465
 21
202.5586965128199
 31
0.0
  0
LINE
  5
8977
  8
0
 10
45.87267110525465
 20
202.5586965128199
 30
0.0
 11
47.20749710525465
 21
202.5586965128199
 31
0.0
  0
LINE
  5
8978
  8
0
 10
47.20749710525465
 20
202.5586965128199
 30
0.0
 11
47.20749710525465
 21
202.8926804128199
 31
0.0
  0
LINE
  5
8979
  8
0
 10
47.20749710525465
 20
202.8926804128199
 30
0.0
 11
45.87267110525465
 21
202.8926804128199
 31
0.0
  0
LINE
  5
897A
  8
0
 10
45.87267110525465
 20
202.8926804128199
 30
0.0
 11
45.87267110525465
 21
202.5586965128199
 31
0.0
  0
LINE
  5
897B
  8
0
 10
47.87508110525465
 20
202.5586965128199
 30
0.0
 11
48.20906595525466
 21
202.5586965128199
 31
0.0
  0
LINE
  5
897C
  8
0
 10
48.20906595525466
 20
202.5586965128199
 30
0.0
 11
48.20906595525466
 21
202.8926804128199
 31
0.0
  0
LINE
  5
897D
  8
0
 10
48.20906595525466
 20
202.8926804128199
 30
0.0
 11
47.87508110525465
 21
202.8926804128199
 31
0.0
  0
LINE
  5
897E
  8
0
 10
47.87508110525465
 20
202.8926804128199
 30
0.0
 11
47.87508110525465
 21
202.5586965128199
 31
0.0
  0
LINE
  5
897F
  8
0
 10
48.54274110525463
 20
202.5586965128199
 30
0.0
 11
48.87672595525467
 21
202.5586965128199
 31
0.0
  0
LINE
  5
8980
  8
0
 10
48.87672595525467
 20
202.5586965128199
 30
0.0
 11
48.87672595525467
 21
202.8926804128199
 31
0.0
  0
LINE
  5
8981
  8
0
 10
48.87672595525467
 20
202.8926804128199
 30
0.0
 11
48.54274110525463
 21
202.8926804128199
 31
0.0
  0
LINE
  5
8982
  8
0
 10
48.54274110525463
 20
202.8926804128199
 30
0.0
 11
48.54274110525463
 21
202.5586965128199
 31
0.0
  0
LINE
  5
8983
  8
0
 10
49.20992610525465
 20
202.5586965128199
 30
0.0
 11
49.54428145525466
 21
202.5586965128199
 31
0.0
  0
LINE
  5
8984
  8
0
 10
49.54428145525466
 20
202.5586965128199
 30
0.0
 11
49.54428145525466
 21
202.8926804128199
 31
0.0
  0
LINE
  5
8985
  8
0
 10
49.54428145525466
 20
202.8926804128199
 30
0.0
 11
49.20992610525465
 21
202.8926804128199
 31
0.0
  0
LINE
  5
8986
  8
0
 10
49.20992610525465
 20
202.8926804128199
 30
0.0
 11
49.20992610525465
 21
202.5586965128199
 31
0.0
  0
LINE
  5
8987
  8
0
 10
49.87749110525465
 20
202.5586965128199
 30
0.0
 11
50.21147500525464
 21
202.5586965128199
 31
0.0
  0
LINE
  5
8988
  8
0
 10
50.21147500525464
 20
202.5586965128199
 30
0.0
 11
50.21147500525464
 21
202.8926804128199
 31
0.0
  0
LINE
  5
8989
  8
0
 10
50.21147500525464
 20
202.8926804128199
 30
0.0
 11
49.87749110525465
 21
202.8926804128199
 31
0.0
  0
LINE
  5
898A
  8
0
 10
49.87749110525465
 20
202.8926804128199
 30
0.0
 11
49.87749110525465
 21
202.5586965128199
 31
0.0
  0
LINE
  5
898B
  8
0
 10
50.54591110525465
 20
202.5586965128199
 30
0.0
 11
50.87989595525465
 21
202.5586965128199
 31
0.0
  0
LINE
  5
898C
  8
0
 10
50.87989595525465
 20
202.5586965128199
 30
0.0
 11
50.87989595525465
 21
202.8926804128199
 31
0.0
  0
LINE
  5
898D
  8
0
 10
50.87989595525465
 20
202.8926804128199
 30
0.0
 11
50.54591110525465
 21
202.8926804128199
 31
0.0
  0
LINE
  5
898E
  8
0
 10
50.54591110525465
 20
202.8926804128199
 30
0.0
 11
50.54591110525465
 21
202.5586965128199
 31
0.0
  0
LINE
  5
898F
  8
0
 10
51.54673610525467
 20
202.5586965128199
 30
0.0
 11
52.21396290525465
 21
202.5586965128199
 31
0.0
  0
LINE
  5
8990
  8
0
 10
52.21396290525465
 20
202.5586965128199
 30
0.0
 11
52.21396290525465
 21
202.8926804128199
 31
0.0
  0
LINE
  5
8991
  8
0
 10
52.21396290525465
 20
202.8926804128199
 30
0.0
 11
51.54673610525467
 21
202.8926804128199
 31
0.0
  0
LINE
  5
8992
  8
0
 10
51.54673610525467
 20
202.8926804128199
 30
0.0
 11
51.54673610525467
 21
202.5586965128199
 31
0.0
  0
LINE
  5
8993
  8
0
 10
52.88158110525464
 20
202.5586965128199
 30
0.0
 11
53.54917840525465
 21
202.5586965128199
 31
0.0
  0
LINE
  5
8994
  8
0
 10
53.54917840525465
 20
202.5586965128199
 30
0.0
 11
53.54917840525465
 21
202.8926804128199
 31
0.0
  0
LINE
  5
8995
  8
0
 10
53.54917840525465
 20
202.8926804128199
 30
0.0
 11
52.88158110525464
 21
202.8926804128199
 31
0.0
  0
LINE
  5
8996
  8
0
 10
52.88158110525464
 20
202.8926804128199
 30
0.0
 11
52.88158110525464
 21
202.5586965128199
 31
0.0
  0
LINE
  5
8997
  8
0
 10
42.53437110525465
 20
202.2247715128199
 30
0.0
 11
42.86872645525466
 21
202.2247715128199
 31
0.0
  0
LINE
  5
8998
  8
0
 10
42.86872645525466
 20
202.2247715128199
 30
0.0
 11
42.86872645525466
 21
202.5587563628199
 31
0.0
  0
LINE
  5
8999
  8
0
 10
42.86872645525466
 20
202.5587563628199
 30
0.0
 11
42.53437110525465
 21
202.5587563628199
 31
0.0
  0
LINE
  5
899A
  8
0
 10
42.53437110525465
 20
202.5587563628199
 30
0.0
 11
42.53437110525465
 21
202.2247715128199
 31
0.0
  0
LINE
  5
899B
  8
0
 10
44.53744610525465
 20
202.2247715128199
 30
0.0
 11
44.87143000525464
 21
202.2247715128199
 31
0.0
  0
LINE
  5
899C
  8
0
 10
44.87143000525464
 20
202.2247715128199
 30
0.0
 11
44.87143000525464
 21
202.5587563628199
 31
0.0
  0
LINE
  5
899D
  8
0
 10
44.87143000525464
 20
202.5587563628199
 30
0.0
 11
44.53744610525465
 21
202.5587563628199
 31
0.0
  0
LINE
  5
899E
  8
0
 10
44.53744610525465
 20
202.5587563628199
 30
0.0
 11
44.53744610525465
 21
202.2247715128199
 31
0.0
  0
LINE
  5
899F
  8
0
 10
45.87267110525465
 20
202.2247715128199
 30
0.0
 11
46.53989695525465
 21
202.2247715128199
 31
0.0
  0
LINE
  5
89A0
  8
0
 10
46.53989695525465
 20
202.2247715128199
 30
0.0
 11
46.53989695525465
 21
202.5587563628199
 31
0.0
  0
LINE
  5
89A1
  8
0
 10
46.53989695525465
 20
202.5587563628199
 30
0.0
 11
45.87267110525465
 21
202.5587563628199
 31
0.0
  0
LINE
  5
89A2
  8
0
 10
45.87267110525465
 20
202.5587563628199
 30
0.0
 11
45.87267110525465
 21
202.2247715128199
 31
0.0
  0
LINE
  5
89A3
  8
0
 10
47.20751610525465
 20
202.2247715128199
 30
0.0
 11
48.20910110525466
 21
202.2247715128199
 31
0.0
  0
LINE
  5
89A4
  8
0
 10
48.20910110525466
 20
202.2247715128199
 30
0.0
 11
48.20910110525466
 21
202.5587563628199
 31
0.0
  0
LINE
  5
89A5
  8
0
 10
48.20910110525466
 20
202.5587563628199
 30
0.0
 11
47.20751610525465
 21
202.5587563628199
 31
0.0
  0
LINE
  5
89A6
  8
0
 10
47.20751610525465
 20
202.5587563628199
 30
0.0
 11
47.20751610525465
 21
202.2247715128199
 31
0.0
  0
LINE
  5
89A7
  8
0
 10
48.87666610525466
 20
202.2247715128199
 30
0.0
 11
49.54426340525464
 21
202.2247715128199
 31
0.0
  0
LINE
  5
89A8
  8
0
 10
49.54426340525464
 20
202.2247715128199
 30
0.0
 11
49.54426340525464
 21
202.5587563628199
 31
0.0
  0
LINE
  5
89A9
  8
0
 10
49.54426340525464
 20
202.5587563628199
 30
0.0
 11
48.87666610525466
 21
202.5587563628199
 31
0.0
  0
LINE
  5
89AA
  8
0
 10
48.87666610525466
 20
202.5587563628199
 30
0.0
 11
48.87666610525466
 21
202.2247715128199
 31
0.0
  0
LINE
  5
89AB
  8
0
 10
51.54673610525467
 20
202.2247715128199
 30
0.0
 11
52.88156210525463
 21
202.2247715128199
 31
0.0
  0
LINE
  5
89AC
  8
0
 10
52.88156210525463
 20
202.2247715128199
 30
0.0
 11
52.88156210525463
 21
202.5587563628199
 31
0.0
  0
LINE
  5
89AD
  8
0
 10
52.88156210525463
 20
202.5587563628199
 30
0.0
 11
51.54673610525467
 21
202.5587563628199
 31
0.0
  0
LINE
  5
89AE
  8
0
 10
51.54673610525467
 20
202.5587563628199
 30
0.0
 11
51.54673610525467
 21
202.2247715128199
 31
0.0
  0
LINE
  5
89AF
  8
0
 10
42.53437110525465
 20
201.8911315128199
 30
0.0
 11
44.87115260525468
 21
201.8911315128199
 31
0.0
  0
LINE
  5
89B0
  8
0
 10
44.87115260525468
 20
201.8911315128199
 30
0.0
 11
44.87115260525468
 21
202.2251163628199
 31
0.0
  0
LINE
  5
89B1
  8
0
 10
44.87115260525468
 20
202.2251163628199
 30
0.0
 11
42.53437110525465
 21
202.2251163628199
 31
0.0
  0
LINE
  5
89B2
  8
0
 10
42.53437110525465
 20
202.2251163628199
 30
0.0
 11
42.53437110525465
 21
201.8911315128199
 31
0.0
  0
LINE
  5
89B3
  8
0
 10
45.20510610525466
 20
201.8911315128199
 30
0.0
 11
45.53909095525466
 21
201.8911315128199
 31
0.0
  0
LINE
  5
89B4
  8
0
 10
45.53909095525466
 20
201.8911315128199
 30
0.0
 11
45.53909095525466
 21
202.2251163628199
 31
0.0
  0
LINE
  5
89B5
  8
0
 10
45.53909095525466
 20
202.2251163628199
 30
0.0
 11
45.20510610525466
 21
202.2251163628199
 31
0.0
  0
LINE
  5
89B6
  8
0
 10
45.20510610525466
 20
202.2251163628199
 30
0.0
 11
45.20510610525466
 21
201.8911315128199
 31
0.0
  0
LINE
  5
89B7
  8
0
 10
46.20593110525465
 20
201.8911315128199
 30
0.0
 11
46.53991500525464
 21
201.8911315128199
 31
0.0
  0
LINE
  5
89B8
  8
0
 10
46.53991500525464
 20
201.8911315128199
 30
0.0
 11
46.53991500525464
 21
202.2251163628199
 31
0.0
  0
LINE
  5
89B9
  8
0
 10
46.53991500525464
 20
202.2251163628199
 30
0.0
 11
46.20593110525465
 21
202.2251163628199
 31
0.0
  0
LINE
  5
89BA
  8
0
 10
46.20593110525465
 20
202.2251163628199
 30
0.0
 11
46.20593110525465
 21
201.8911315128199
 31
0.0
  0
LINE
  5
89BB
  8
0
 10
47.20751610525465
 20
201.8911315128199
 30
0.0
 11
47.54150000525468
 21
201.8911315128199
 31
0.0
  0
LINE
  5
89BC
  8
0
 10
47.54150000525468
 20
201.8911315128199
 30
0.0
 11
47.54150000525468
 21
202.2251163628199
 31
0.0
  0
LINE
  5
89BD
  8
0
 10
47.54150000525468
 20
202.2251163628199
 30
0.0
 11
47.20751610525465
 21
202.2251163628199
 31
0.0
  0
LINE
  5
89BE
  8
0
 10
47.20751610525465
 20
202.2251163628199
 30
0.0
 11
47.20751610525465
 21
201.8911315128199
 31
0.0
  0
LINE
  5
89BF
  8
0
 10
48.20910110525466
 20
201.8911315128199
 30
0.0
 11
48.54308500525465
 21
201.8911315128199
 31
0.0
  0
LINE
  5
89C0
  8
0
 10
48.54308500525465
 20
201.8911315128199
 30
0.0
 11
48.54308500525465
 21
202.2251163628199
 31
0.0
  0
LINE
  5
89C1
  8
0
 10
48.54308500525465
 20
202.2251163628199
 30
0.0
 11
48.20910110525466
 21
202.2251163628199
 31
0.0
  0
LINE
  5
89C2
  8
0
 10
48.20910110525466
 20
202.2251163628199
 30
0.0
 11
48.20910110525466
 21
201.8911315128199
 31
0.0
  0
LINE
  5
89C3
  8
0
 10
48.87666610525466
 20
201.8911315128199
 30
0.0
 11
49.21065000525465
 21
201.8911315128199
 31
0.0
  0
LINE
  5
89C4
  8
0
 10
49.21065000525465
 20
201.8911315128199
 30
0.0
 11
49.21065000525465
 21
202.2251163628199
 31
0.0
  0
LINE
  5
89C5
  8
0
 10
49.21065000525465
 20
202.2251163628199
 30
0.0
 11
48.87666610525466
 21
202.2251163628199
 31
0.0
  0
LINE
  5
89C6
  8
0
 10
48.87666610525466
 20
202.2251163628199
 30
0.0
 11
48.87666610525466
 21
201.8911315128199
 31
0.0
  0
LINE
  5
89C7
  8
0
 10
49.87749110525465
 20
201.8911315128199
 30
0.0
 11
51.21231710525464
 21
201.8911315128199
 31
0.0
  0
LINE
  5
89C8
  8
0
 10
51.21231710525464
 20
201.8911315128199
 30
0.0
 11
51.21231710525464
 21
202.2251163628199
 31
0.0
  0
LINE
  5
89C9
  8
0
 10
51.21231710525464
 20
202.2251163628199
 30
0.0
 11
49.87749110525465
 21
202.2251163628199
 31
0.0
  0
LINE
  5
89CA
  8
0
 10
49.87749110525465
 20
202.2251163628199
 30
0.0
 11
49.87749110525465
 21
201.8911315128199
 31
0.0
  0
LINE
  5
89CB
  8
0
 10
51.54673610525467
 20
201.8911315128199
 30
0.0
 11
51.88072000525466
 21
201.8911315128199
 31
0.0
  0
LINE
  5
89CC
  8
0
 10
51.88072000525466
 20
201.8911315128199
 30
0.0
 11
51.88072000525466
 21
202.2251163628199
 31
0.0
  0
LINE
  5
89CD
  8
0
 10
51.88072000525466
 20
202.2251163628199
 30
0.0
 11
51.54673610525467
 21
202.2251163628199
 31
0.0
  0
LINE
  5
89CE
  8
0
 10
51.54673610525467
 20
202.2251163628199
 30
0.0
 11
51.54673610525467
 21
201.8911315128199
 31
0.0
  0
LINE
  5
89CF
  8
0
 10
52.21392110525466
 20
201.8911315128199
 30
0.0
 11
52.54827645525464
 21
201.8911315128199
 31
0.0
  0
LINE
  5
89D0
  8
0
 10
52.54827645525464
 20
201.8911315128199
 30
0.0
 11
52.54827645525464
 21
202.2251163628199
 31
0.0
  0
LINE
  5
89D1
  8
0
 10
52.54827645525464
 20
202.2251163628199
 30
0.0
 11
52.21392110525466
 21
202.2251163628199
 31
0.0
  0
LINE
  5
89D2
  8
0
 10
52.21392110525466
 20
202.2251163628199
 30
0.0
 11
52.21392110525466
 21
201.8911315128199
 31
0.0
  0
LINE
  5
89D3
  8
0
 10
52.88158110525464
 20
201.8911315128199
 30
0.0
 11
53.21556500525466
 21
201.8911315128199
 31
0.0
  0
LINE
  5
89D4
  8
0
 10
53.21556500525466
 20
201.8911315128199
 30
0.0
 11
53.21556500525466
 21
202.2251163628199
 31
0.0
  0
LINE
  5
89D5
  8
0
 10
53.21556500525466
 20
202.2251163628199
 30
0.0
 11
52.88158110525464
 21
202.2251163628199
 31
0.0
  0
LINE
  5
89D6
  8
0
 10
52.88158110525464
 20
202.2251163628199
 30
0.0
 11
52.88158110525464
 21
201.8911315128199
 31
0.0
  0
CIRCLE
  5
8BAC
  8
0
 10
63.5218607107895
 20
209.8911315128201
 30
0.0
 40
1.5
  0
CIRCLE
  5
939D
  8
3A
 10
98.5218607107895
 20
177.8911315128203
 30
0.0
 40
4.0
  0
CIRCLE
  5
939E
  8
3A
 10
98.5218607107895
 20
177.8911315128203
 30
0.0
 40
2.5
  0
CIRCLE
  5
939F
  8
3A
 10
98.5218607107895
 20
281.8911315128203
 30
0.0
 40
2.5
  0
CIRCLE
  5
93A0
  8
3A
 10
98.5218607107895
 20
281.8911315128203
 30
0.0
 40
4.0
  0
CIRCLE
  5
93A1
  8
3A
 10
52.5218607107895
 20
281.8911315128203
 30
0.0
 40
4.0
  0
CIRCLE
  5
93A2
  8
3A
 10
52.5218607107895
 20
281.8911315128203
 30
0.0
 40
2.5
  0
CIRCLE
  5
93A3
  8
3A
 10
52.5218607107895
 20
177.8911315128203
 30
0.0
 40
4.0
  0
CIRCLE
  5
93A4
  8
3A
 10
52.5218607107895
 20
177.8911315128203
 30
0.0
 40
2.5
  0
LINE
  5
93A5
  8
7
 10
52.5218607107895
 20
281.8911315128203
 30
0.0
 11
59.31586071078949
 21
281.8911315128203
 31
0.0
1001
GENIUS_GENOREF_13
1005
0
  0
LINE
  5
93A6
  8
7
 10
52.5218607107895
 20
281.8911315128203
 30
0.0
 11
52.5218607107895
 21
288.6851315128202
 31
0.0
1001
GENIUS_GENOREF_13
1005
0
  0
LINE
  5
93A7
  8
7
 10
52.5218607107895
 20
281.8911315128203
 30
0.0
 11
45.72786071078949
 21
281.8911315128203
 31
0.0
1001
GENIUS_GENOREF_13
1005
0
  0
LINE
  5
93A8
  8
7
 10
52.5218607107895
 20
281.8911315128203
 30
0.0
 11
52.5218607107895
 21
275.0971315128203
 31
0.0
1001
GENIUS_GENOREF_13
1005
0
  0
LINE
  5
93A9
  8
7
 10
98.5218607107895
 20
281.8911315128203
 30
0.0
 11
105.3158607107895
 21
281.8911315128203
 31
0.0
1001
GENIUS_GENOREF_13
1005
0
  0
LINE
  5
93AA
  8
7
 10
98.5218607107895
 20
281.8911315128203
 30
0.0
 11
98.5218607107895
 21
288.6851315128202
 31
0.0
1001
GENIUS_GENOREF_13
1005
0
  0
LINE
  5
93AB
  8
7
 10
98.5218607107895
 20
281.8911315128203
 30
0.0
 11
91.7278607107895
 21
281.8911315128203
 31
0.0
1001
GENIUS_GENOREF_13
1005
0
  0
LINE
  5
93AC
  8
7
 10
98.5218607107895
 20
281.8911315128203
 30
0.0
 11
98.5218607107895
 21
275.0971315128203
 31
0.0
1001
GENIUS_GENOREF_13
1005
0
  0
LINE
  5
93AD
  8
7
 10
52.5218607107895
 20
177.8911315128203
 30
0.0
 11
59.31586071078949
 21
177.8911315128203
 31
0.0
1001
GENIUS_GENOREF_13
1005
0
  0
LINE
  5
93AE
  8
7
 10
52.5218607107895
 20
177.8911315128203
 30
0.0
 11
52.5218607107895
 21
184.6851315128203
 31
0.0
1001
GENIUS_GENOREF_13
1005
0
  0
LINE
  5
93AF
  8
7
 10
52.5218607107895
 20
177.8911315128203
 30
0.0
 11
45.72786071078949
 21
177.8911315128203
 31
0.0
1001
GENIUS_GENOREF_13
1005
0
  0
LINE
  5
93B0
  8
7
 10
52.5218607107895
 20
177.8911315128203
 30
0.0
 11
52.5218607107895
 21
171.0971315128203
 31
0.0
1001
GENIUS_GENOREF_13
1005
0
  0
LINE
  5
93B1
  8
7
 10
98.5218607107895
 20
177.8911315128203
 30
0.0
 11
105.3158607107895
 21
177.8911315128203
 31
0.0
1001
GENIUS_GENOREF_13
1005
0
  0
LINE
  5
93B2
  8
7
 10
98.5218607107895
 20
177.8911315128203
 30
0.0
 11
98.5218607107895
 21
184.6851315128203
 31
0.0
1001
GENIUS_GENOREF_13
1005
0
  0
LINE
  5
93B3
  8
7
 10
98.5218607107895
 20
177.8911315128203
 30
0.0
 11
91.7278607107895
 21
177.8911315128203
 31
0.0
1001
GENIUS_GENOREF_13
1005
0
  0
LINE
  5
93B4
  8
7
 10
98.5218607107895
 20
177.8911315128203
 30
0.0
 11
98.5218607107895
 21
171.0971315128203
 31
0.0
1001
GENIUS_GENOREF_13
1005
0
  0
LINE
  5
93DD
  8
0
 10
50.9824951168566
 20
232.0632824601461
 30
0.0
 11
52.12611815685656
 21
232.0632824601461
 31
0.0
  0
LINE
  5
93DE
  8
0
 10
52.12611815685656
 20
232.0632824601461
 30
0.0
 11
52.12611815685656
 21
226.1082626201459
 31
0.0
  0
LINE
  5
93DF
  8
0
 10
52.12611815685656
 20
226.1082626201459
 30
0.0
 11
50.9824951168566
 21
226.1082626201459
 31
0.0
  0
LINE
  5
93E0
  8
0
 10
50.9824951168566
 20
226.1082626201459
 30
0.0
 11
50.9824951168566
 21
232.0632824601461
 31
0.0
  0
LINE
  5
93E1
  8
0
 10
59.90707287685697
 20
230.4253003801458
 30
0.0
 11
61.05049879685654
 21
230.4253003801458
 31
0.0
  0
LINE
  5
93E2
  8
0
 10
61.05049879685654
 20
230.4253003801458
 30
0.0
 11
61.05049879685654
 21
226.1082626201459
 31
0.0
  0
LINE
  5
93E3
  8
0
 10
61.05049879685654
 20
226.1082626201459
 30
0.0
 11
59.90707287685697
 21
226.1082626201459
 31
0.0
  0
LINE
  5
93E4
  8
0
 10
59.90707287685697
 20
226.1082626201459
 30
0.0
 11
59.90707287685697
 21
230.4253003801458
 31
0.0
  0
LINE
  5
93E5
  8
0
 10
60.13497527795877
 20
230.9231332816424
 30
0.0
 11
60.04352135685664
 21
230.8550555801461
 31
0.0
  0
LINE
  5
93E6
  8
0
 10
60.04352135685664
 20
230.8550555801461
 30
0.0
 11
60.06822017909096
 21
230.9527498708484
 31
0.0
  0
LINE
  5
93E7
  8
0
 10
59.87502185810442
 20
231.9529114835476
 30
0.0
 11
59.8071319168566
 21
232.0440520601459
 31
0.0
  0
LINE
  5
93E8
  8
0
 10
59.8071319168566
 20
232.0440520601459
 30
0.0
 11
59.90488425292958
 21
232.019376019371
 31
0.0
  0
LINE
  5
93E9
  8
0
 10
60.90499310420634
 20
232.2126248835933
 30
0.0
 11
60.99606231685672
 21
232.2804426201463
 31
0.0
  0
LINE
  5
93EA
  8
0
 10
60.99606231685672
 20
232.2804426201463
 30
0.0
 11
60.97139713446128
 21
232.1825623670446
 31
0.0
  0
LINE
  5
93EB
  8
0
 10
61.16516338733115
 20
231.1824827256922
 30
0.0
 11
61.23277767685656
 21
231.0916410201461
 31
0.0
  0
LINE
  5
93EC
  8
0
 10
61.23277767685656
 20
231.0916410201461
 30
0.0
 11
61.13502475627772
 21
231.116291160958
 31
0.0
  0
LINE
  5
93ED
  8
0
 10
60.70367401377368
 20
230.8393293734424
 30
0.0
 11
60.6872402368567
 21
230.7270171801464
 31
0.0
  0
LINE
  5
93EE
  8
0
 10
60.6872402368567
 20
230.7270171801464
 30
0.0
 11
60.63559066998093
 21
230.8135836081409
 31
0.0
  0
LINE
  5
93EF
  8
0
 10
59.79194143583433
 20
231.3841920556059
 30
0.0
 11
59.67922007685635
 21
231.4006591001461
 31
0.0
  0
LINE
  5
93F0
  8
0
 10
59.67922007685635
 20
231.4006591001461
 30
0.0
 11
59.76559718205041
 21
231.452198748092
 31
0.0
  0
LINE
  5
93F1
  8
0
 10
60.33618766449669
 20
232.2960497257462
 30
0.0
 11
60.35266935685647
 21
232.4084832601465
 31
0.0
  0
LINE
  5
93F2
  8
0
 10
60.35266935685647
 20
232.4084832601465
 30
0.0
 11
60.40441033803606
 21
232.321844448801
 31
0.0
  0
LINE
  5
93F3
  8
0
 10
61.24847395617232
 20
231.7516310386726
 30
0.0
 11
61.36068615685687
 21
231.7351672601461
 31
0.0
  0
LINE
  5
93F4
  8
0
 10
61.36068615685687
 20
231.7351672601461
 30
0.0
 11
61.27399198498867
 21
231.6834113587119
 31
0.0
  0
LINE
  5
93F5
  8
0
 10
60.41087208845371
 20
230.8244845103153
 30
0.0
 11
60.35266935685647
 21
230.7270171801464
 31
0.0
  0
LINE
  5
93F6
  8
0
 10
60.35266935685647
 20
230.7270171801464
 30
0.0
 11
60.33810185698027
 21
230.8264192819623
 31
0.0
  0
LINE
  5
93F7
  8
0
 10
59.77699738429507
 20
231.67674795355
 30
0.0
 11
59.67909015685652
 21
231.7351672601461
 31
0.0
  0
LINE
  5
93F8
  8
0
 10
59.67909015685652
 20
231.7351672601461
 30
0.0
 11
59.77881582015377
 21
231.7497339507789
 31
0.0
  0
LINE
  5
93F9
  8
0
 10
60.62891590188335
 20
232.3108980687374
 30
0.0
 11
60.68717639685698
 21
232.4084832601465
 31
0.0
  0
LINE
  5
93FA
  8
0
 10
60.68717639685698
 20
232.4084832601465
 30
0.0
 11
60.70177459553176
 21
232.3088056227342
 31
0.0
  0
LINE
  5
93FB
  8
0
 10
61.26303994635961
 20
231.4587399465817
 30
0.0
 11
61.36068615685687
 21
231.4003970201464
 31
0.0
  0
LINE
  5
93FC
  8
0
 10
60.96847517643843
 20
230.9651901427504
 30
0.0
 11
60.99625831685668
 21
230.8550555801461
 31
0.0
  0
LINE
  5
93FD
  8
0
 10
60.99625831685668
 20
230.8550555801461
 30
0.0
 11
60.91543910138259
 21
230.9152639834873
 31
0.0
  0
LINE
  5
93FE
  8
0
 10
59.91749508680138
 20
231.11951277581
 30
0.0
 11
59.8071319168566
 21
231.0916410201461
 31
0.0
  0
LINE
  5
93FF
  8
0
 10
59.8071319168566
 20
231.0916410201461
 30
0.0
 11
59.86718926716273
 21
231.1722939117789
 31
0.0
  0
LINE
  5
9400
  8
0
 10
60.0713127801109
 20
232.1704395330979
 30
0.0
 11
60.04352135685664
 21
232.2804426201463
 31
0.0
  0
LINE
  5
9401
  8
0
 10
60.04352135685664
 20
232.2804426201463
 30
0.0
 11
60.12454461489003
 21
232.220183496739
 31
0.0
  0
LINE
  5
9402
  8
0
 10
61.12278772418583
 20
232.0163246976161
 30
0.0
 11
61.23277767685656
 21
232.0440520601459
 31
0.0
  0
LINE
  5
9403
  8
0
 10
61.23277767685656
 20
232.0440520601459
 30
0.0
 11
61.17248734306938
 21
231.9631229402211
 31
0.0
  0
LINE
  5
9404
  8
0
 10
60.20212488052081
 20
230.8870376058966
 30
0.0
 11
60.11842807685659
 21
230.810397820146
 31
0.0
  0
LINE
  5
9405
  8
0
 10
60.11842807685659
 20
230.810397820146
 30
0.0
 11
60.13497527795877
 21
230.9231332816424
 31
0.0
  0
LINE
  5
9406
  8
0
 10
59.83937154461498
 20
231.8856348767766
 30
0.0
 11
59.76266679685656
 21
231.9694040601461
 31
0.0
  0
LINE
  5
9407
  8
0
 10
59.76266679685656
 20
231.9694040601461
 30
0.0
 11
59.87502185810442
 21
231.9529114835476
 31
0.0
  0
LINE
  5
9408
  8
0
 10
60.83788039467979
 20
232.2484600954252
 30
0.0
 11
60.92148039685659
 21
232.3250365401462
 31
0.0
  0
LINE
  5
9409
  8
0
 10
60.92148039685659
 20
232.3250365401462
 30
0.0
 11
60.90499310420634
 21
232.2126248835933
 31
0.0
  0
LINE
  5
940A
  8
0
 10
61.2005197871508
 20
231.2499241390896
 30
0.0
 11
61.27737159685645
 21
231.1659631001456
 31
0.0
  0
LINE
  5
940B
  8
0
 10
60.77643125302708
 20
230.8618882027621
 30
0.0
 11
60.77139815685675
 21
230.7482042201462
 31
0.0
  0
LINE
  5
940C
  8
0
 10
60.77139815685675
 20
230.7482042201462
 30
0.0
 11
60.70367401377368
 21
230.8393293734424
 31
0.0
  0
LINE
  5
940D
  8
0
 10
59.8139638974894
 20
231.3112445461119
 30
0.0
 11
59.70053367685657
 21
231.3161595801461
 31
0.0
  0
LINE
  5
940E
  8
0
 10
59.70053367685657
 20
231.3161595801461
 30
0.0
 11
59.79194143583433
 21
231.3841920556059
 31
0.0
  0
LINE
  5
940F
  8
0
 10
60.26338708585124
 20
232.2738026546502
 30
0.0
 11
60.26837815685619
 21
232.3871539801461
 31
0.0
  0
LINE
  5
9410
  8
0
 10
60.26837815685619
 20
232.3871539801461
 30
0.0
 11
60.33618766449669
 21
232.2960497257462
 31
0.0
  0
LINE
  5
9411
  8
0
 10
61.22605328535516
 20
231.8243829652773
 30
0.0
 11
61.33950135685652
 21
231.8193767001461
 31
0.0
  0
LINE
  5
9412
  8
0
 10
61.33950135685652
 20
231.8193767001461
 30
0.0
 11
61.24847395617232
 21
231.7516310386726
 31
0.0
  0
LINE
  5
9413
  8
0
 10
60.4867205281457
 20
230.8175322178803
 30
0.0
 11
60.43852855685643
 21
230.7144339801461
 31
0.0
  0
LINE
  5
9414
  8
0
 10
60.43852855685643
 20
230.7144339801461
 30
0.0
 11
60.41087208845371
 21
230.8244845103153
 31
0.0
  0
LINE
  5
9415
  8
0
 10
59.76945545452961
 20
231.6010068331224
 30
0.0
 11
59.66663911685689
 21
231.6489160601458
 31
0.0
  0
LINE
  5
9416
  8
0
 10
59.66663911685689
 20
231.6489160601458
 30
0.0
 11
59.77699738429507
 21
231.67674795355
 31
0.0
  0
LINE
  5
9417
  8
0
 10
60.55304512097607
 20
232.3182448348106
 30
0.0
 11
60.60105511685694
 21
232.421130300146
 31
0.0
  0
LINE
  5
9418
  8
0
 10
60.60105511685694
 20
232.421130300146
 30
0.0
 11
60.62891590188335
 21
232.3108980687374
 31
0.0
  0
LINE
  5
9419
  8
0
 10
61.27050992567681
 20
231.5345244653271
 30
0.0
 11
61.3733365568564
 21
231.4865183001465
 31
0.0
  0
LINE
  5
941A
  8
0
 10
61.3733365568564
 20
231.4865183001465
 30
0.0
 11
61.26303994635961
 21
231.4587399465817
 31
0.0
  0
LINE
  5
941B
  8
0
 10
61.02714387091552
 20
231.0136055088304
 30
0.0
 11
61.06588311685661
 21
230.9069507801458
 31
0.0
  0
LINE
  5
941C
  8
0
 10
59.9657004236619
 20
231.0605834510706
 30
0.0
 11
59.85908983685655
 21
231.0217664601458
 31
0.0
  0
LINE
  5
941D
  8
0
 10
59.85908983685655
 20
231.0217664601458
 30
0.0
 11
59.91749508680138
 21
231.11951277581
 31
0.0
  0
LINE
  5
941E
  8
0
 10
60.0128828901538
 20
232.1216535177872
 30
0.0
 11
59.97407351685658
 21
232.2284959001462
 31
0.0
  0
LINE
  5
941F
  8
0
 10
59.97407351685658
 20
232.2284959001462
 30
0.0
 11
60.0713127801109
 21
232.1704395330979
 31
0.0
  0
LINE
  5
9420
  8
0
 10
61.07385674956365
 20
232.0746434554629
 30
0.0
 11
61.1809328768563
 21
232.1134909401461
 31
0.0
  0
LINE
  5
9421
  8
0
 10
61.1809328768563
 20
232.1134909401461
 30
0.0
 11
61.12278772418583
 21
232.0163246976161
 31
0.0
  0
LINE
  5
9422
  8
0
 10
60.27269934656849
 20
230.8585817996899
 30
0.0
 11
60.19705207685681
 21
230.773760380146
 31
0.0
  0
LINE
  5
9423
  8
0
 10
60.19705207685681
 20
230.773760380146
 30
0.0
 11
60.20212488052081
 21
230.8870376058966
 31
0.0
  0
LINE
  5
9424
  8
0
 10
59.81084091319551
 20
231.8150842796257
 30
0.0
 11
59.72602935685651
 21
231.890651260146
 31
0.0
  0
LINE
  5
9425
  8
0
 10
59.72602935685651
 20
231.890651260146
 30
0.0
 11
59.83937154461498
 21
231.8856348767766
 31
0.0
  0
LINE
  5
9426
  8
0
 10
60.76719768671089
 20
232.276706961747
 30
0.0
 11
60.84292359685648
 21
232.361665020146
 31
0.0
  0
LINE
  5
9427
  8
0
 10
60.84292359685648
 20
232.361665020146
 30
0.0
 11
60.83788039467979
 21
232.2484600954252
 31
0.0
  0
LINE
  5
9428
  8
0
 10
61.22923539242444
 20
231.3204975182742
 30
0.0
 11
61.31413559685686
 21
231.2448368601462
 31
0.0
  0
LINE
  5
9429
  8
0
 10
60.84664274330905
 20
230.8913210331683
 30
0.0
 11
60.85315815685632
 21
230.777999580146
 31
0.0
  0
LINE
  5
942A
  8
0
 10
60.85315815685632
 20
230.777999580146
 30
0.0
 11
60.77643125302708
 21
230.8618882027621
 31
0.0
  0
LINE
  5
942B
  8
0
 10
59.84367646117423
 20
231.2411542710237
 30
0.0
 11
59.7302013568569
 21
231.2345552601463
 31
0.0
  0
LINE
  5
942C
  8
0
 10
59.7302013568569
 20
231.2345552601463
 30
0.0
 11
59.8139638974894
 21
231.3112445461119
 31
0.0
  0
LINE
  5
942D
  8
0
 10
60.19333142915681
 20
232.2441056244846
 30
0.0
 11
60.18681415685657
 21
232.3574448601461
 31
0.0
  0
LINE
  5
942E
  8
0
 10
60.18681415685657
 20
232.3574448601461
 30
0.0
 11
60.26338708585124
 21
232.2738026546502
 31
0.0
  0
LINE
  5
942F
  8
0
 10
61.19674338518777
 20
231.8945253618957
 30
0.0
 11
61.30983367685664
 21
231.9010280601459
 31
0.0
  0
LINE
  5
9430
  8
0
 10
61.30983367685664
 20
231.9010280601459
 30
0.0
 11
61.22605328535516
 21
231.8243829652773
 31
0.0
  0
LINE
  5
9431
  8
0
 10
60.56288158759205
 20
230.8177161853681
 30
0.0
 11
60.52556039685666
 21
230.7104568601461
 31
0.0
  0
LINE
  5
9432
  8
0
 10
60.52556039685666
 20
230.7104568601461
 30
0.0
 11
60.4867205281457
 21
230.8175322178803
 31
0.0
  0
LINE
  5
9433
  8
0
 10
59.77009028473228
 20
231.5249199395847
 30
0.0
 11
59.66272583685665
 21
231.5622728601464
 31
0.0
  0
LINE
  5
9434
  8
0
 10
59.66272583685665
 20
231.5622728601464
 30
0.0
 11
59.76945545452961
 21
231.6010068331224
 31
0.0
  0
LINE
  5
9435
  8
0
 10
60.47702819435696
 20
232.3177973777537
 30
0.0
 11
60.51428199685685
 21
232.4248475801459
 31
0.0
  0
LINE
  5
9436
  8
0
 10
60.51428199685685
 20
232.4248475801459
 30
0.0
 11
60.55304512097607
 21
232.3182448348106
 31
0.0
  0
LINE
  5
9437
  8
0
 10
61.26977259734619
 20
231.6106183244846
 30
0.0
 11
61.37711655685641
 21
231.5731615001458
 31
0.0
  0
LINE
  5
9438
  8
0
 10
61.08069536869741
 20
231.0677960978973
 30
0.0
 11
61.13009943685663
 21
230.9654931801459
 31
0.0
  0
LINE
  5
9439
  8
0
 10
61.13009943685663
 20
230.9654931801459
 30
0.0
 11
61.02714387091552
 21
231.0136055088304
 31
0.0
  0
LINE
  5
943A
  8
0
 10
60.01987561762095
 20
231.0071591189043
 30
0.0
 11
59.91763335685661
 21
230.9577405401459
 31
0.0
  0
LINE
  5
943B
  8
0
 10
59.91763335685661
 20
230.9577405401459
 30
0.0
 11
59.9657004236619
 21
231.0605834510706
 31
0.0
  0
LINE
  5
943C
  8
0
 10
59.95915664469791
 20
232.0676964809771
 30
0.0
 11
59.90987623685666
 21
232.1696813401458
 31
0.0
  0
LINE
  5
943D
  8
0
 10
59.90987623685666
 20
232.1696813401458
 30
0.0
 11
60.0128828901538
 21
232.1216535177872
 31
0.0
  0
LINE
  5
943E
  8
0
 10
61.0201461693691
 20
232.1287766013037
 30
0.0
 11
61.12221239685638
 21
232.1780891801462
 31
0.0
  0
LINE
  5
943F
  8
0
 10
61.12221239685638
 20
232.1780891801462
 30
0.0
 11
61.07385674956365
 21
232.0746434554629
 31
0.0
  0
LINE
  5
9440
  8
0
 10
60.33810185698027
 20
230.8264192819623
 30
0.0
 11
60.27919399685695
 21
230.7450749401459
 31
0.0
  0
LINE
  5
9441
  8
0
 10
60.27919399685695
 20
230.7450749401459
 30
0.0
 11
60.27269934656849
 21
230.8585817996899
 31
0.0
  0
LINE
  5
9442
  8
0
 10
59.77881582015286
 20
231.7497339507789
 30
0.0
 11
59.69740439685617
 21
231.8086381401462
 31
0.0
  0
LINE
  5
9443
  8
0
 10
59.69740439685617
 20
231.8086381401462
 30
0.0
 11
59.81084091319551
 21
231.8150842796257
 31
0.0
  0
LINE
  5
9444
  8
0
 10
60.70177459553176
 20
232.3088056227342
 30
0.0
 11
60.7607088768568
 21
232.3903056601456
 31
0.0
  0
LINE
  5
9445
  8
0
 10
60.7607088768568
 20
232.3903056601456
 30
0.0
 11
60.76719768671089
 21
232.276706961747
 31
0.0
  0
LINE
  5
9446
  8
0
 10
61.26134601064038
 20
231.3859157878577
 30
0.0
 11
61.34282663685642
 21
231.3269384601462
 31
0.0
  0
LINE
  5
9447
  8
0
 10
61.34282663685642
 20
231.3269384601462
 30
0.0
 11
61.22923539242444
 21
231.3204975182742
 31
0.0
  0
LINE
  5
9448
  8
0
 10
60.91543910138259
 20
230.9152639834873
 30
0.0
 11
60.93139015685662
 21
230.815679740146
 31
0.0
  0
LINE
  5
9449
  8
0
 10
60.93139015685662
 20
230.815679740146
 30
0.0
 11
60.84664274330905
 21
230.8913210331683
 31
0.0
  0
LINE
  5
944A
  8
0
 10
59.86718926716273
 20
231.1722939117789
 30
0.0
 11
59.76807863685642
 21
231.1563792601463
 31
0.0
  0
LINE
  5
944B
  8
0
 10
59.76807863685642
 20
231.1563792601463
 30
0.0
 11
59.84367646117423
 21
231.2411542710237
 31
0.0
  0
LINE
  5
944C
  8
0
 10
60.12454461489003
 20
232.220183496739
 30
0.0
 11
60.1086482368564
 21
232.3196247001459
 31
0.0
  0
LINE
  5
944D
  8
0
 10
60.1086482368564
 20
232.3196247001459
 30
0.0
 11
60.19333142915681
 21
232.2441056244846
 31
0.0
  0
LINE
  5
944E
  8
0
 10
61.17248734306938
 20
231.9631229402211
 30
0.0
 11
61.27221959685627
 21
231.979055100146
 31
0.0
  0
LINE
  5
944F
  8
0
 10
61.27221959685627
 20
231.979055100146
 30
0.0
 11
61.19674338518777
 21
231.8945253618957
 31
0.0
  0
LINE
  5
9450
  8
0
 10
60.63559066998093
 20
230.8135836081409
 30
0.0
 11
60.61220359685646
 21
230.7154139801459
 31
0.0
  0
LINE
  5
9451
  8
0
 10
59.76559718205041
 20
231.452198748092
 30
0.0
 11
59.66761575685675
 21
231.4754997401459
 31
0.0
  0
LINE
  5
9452
  8
0
 10
59.66761575685675
 20
231.4754997401459
 30
0.0
 11
59.77009028473228
 21
231.5249199395847
 31
0.0
  0
LINE
  5
9453
  8
0
 10
60.40441033803606
 20
232.321844448801
 30
0.0
 11
60.42777207685637
 21
232.4198277401464
 31
0.0
  0
LINE
  5
9454
  8
0
 10
60.42777207685637
 20
232.4198277401464
 30
0.0
 11
60.47702819435696
 21
232.3177973777537
 31
0.0
  0
LINE
  5
9455
  8
0
 10
61.27399198498867
 20
231.6834113587119
 30
0.0
 11
61.37216391685658
 21
231.6599973401461
 31
0.0
  0
LINE
  5
9456
  8
0
 10
61.37216391685658
 20
231.6599973401461
 30
0.0
 11
61.26977259734619
 21
231.6106183244846
 31
0.0
  0
LINE
  5
9457
  8
0
 10
61.13502475627772
 20
231.116291160958
 30
0.0
 11
61.1878611968568
 21
231.0303613401464
 31
0.0
  0
LINE
  5
9458
  8
0
 10
60.06822017909096
 20
230.9527498708484
 30
0.0
 11
59.98243431685702
 21
230.8999743001458
 31
0.0
  0
LINE
  5
9459
  8
0
 10
59.98243431685702
 20
230.8999743001458
 30
0.0
 11
60.01987561762095
 21
231.0071591189043
 31
0.0
  0
LINE
  5
945A
  8
0
 10
59.90488425292958
 20
232.019376019371
 30
0.0
 11
59.85224327685634
 21
232.104943100146
 31
0.0
  0
LINE
  5
945B
  8
0
 10
59.85224327685634
 20
232.104943100146
 30
0.0
 11
59.95915664469791
 21
232.0676964809771
 31
0.0
  0
LINE
  5
945C
  8
0
 10
60.97139713446128
 20
232.1825623670446
 30
0.0
 11
61.05740807685649
 21
232.235460060146
 31
0.0
  0
LINE
  5
945D
  8
0
 10
55.26074279685642
 20
228.170591420146
 30
0.0
 11
55.26074279685642
 21
227.9443032601461
 31
0.0
  0
LINE
  5
945E
  8
0
 10
52.69116487685685
 20
229.2818744601462
 30
0.0
 11
53.79990663685609
 21
229.2818744601462
 31
0.0
  0
LINE
  5
945F
  8
0
 10
55.49193319685671
 20
226.1082626201459
 30
0.0
 11
56.62251719685625
 21
226.1082626201459
 31
0.0
  0
LINE
  5
9460
  8
0
 10
58.09508983685643
 20
229.8122874201462
 30
0.0
 11
58.09508983685643
 21
230.4253003801458
 31
0.0
  0
LINE
  5
9461
  8
0
 10
58.09508983685643
 20
230.4253003801458
 30
0.0
 11
57.03530663685657
 21
230.4253003801458
 31
0.0
  0
LINE
  5
9462
  8
0
 10
57.03530663685657
 20
230.4253003801458
 30
0.0
 11
57.03530663685657
 21
226.1082626201459
 31
0.0
  0
LINE
  5
9463
  8
0
 10
57.03530663685657
 20
226.1082626201459
 30
0.0
 11
58.17866647685648
 21
226.1082626201459
 31
0.0
  0
LINE
  5
9464
  8
0
 10
58.17866647685648
 20
226.1082626201459
 30
0.0
 11
58.17866647685648
 21
227.4397085401459
 31
0.0
  0
LINE
  5
9465
  8
0
 10
59.47960023685661
 20
229.3071707801463
 30
0.0
 11
59.47960023685661
 21
230.4555504601457
 31
0.0
  0
LINE
  5
9466
  8
0
 10
64.11745191685665
 20
229.3719090201456
 30
0.0
 11
65.27750199685667
 21
229.3719090201456
 31
0.0
  0
LINE
  5
9467
  8
0
 10
62.59590503685646
 20
227.3287490201463
 30
0.0
 11
61.39726087685673
 21
227.3287490201463
 31
0.0
  0
LINE
  5
9468
  8
0
 10
44.87127447685677
 20
233.695465180146
 30
0.0
 11
45.39836215685634
 21
233.695465180146
 31
0.0
  0
LINE
  5
9469
  8
0
 10
45.43636823685662
 20
229.3110807001457
 30
0.0
 11
44.93451079685698
 21
229.3110807001457
 31
0.0
  0
LINE
  5
946A
  8
0
 10
44.67165127685664
 20
229.6024957401459
 30
0.0
 11
44.67165127685664
 21
233.2240527001458
 31
0.0
  0
LINE
  5
946B
  8
0
 10
44.72243767685674
 20
228.8267602201457
 30
0.0
 11
45.25786935685662
 21
228.8267602201457
 31
0.0
  0
LINE
  5
946C
  8
0
 10
45.70398775685678
 20
234.1801776601459
 30
0.0
 11
42.03314631685632
 21
234.1801776601459
 31
0.0
  0
LINE
  5
946D
  8
0
 10
42.03314631685632
 20
234.1801776601459
 30
0.0
 11
42.03314631685632
 21
233.7337971801461
 31
0.0
  0
LINE
  5
946E
  8
0
 10
42.03314631685632
 20
233.7337971801461
 30
0.0
 11
42.34776887685663
 21
233.7337971801461
 31
0.0
  0
LINE
  5
946F
  8
0
 10
43.11659511685636
 20
232.8588375001463
 30
0.0
 11
43.11659511685636
 21
227.2732687001461
 31
0.0
  0
LINE
  5
9470
  8
0
 10
42.08419143685657
 20
226.3541743001459
 30
0.0
 11
42.08419143685657
 21
225.9081847001461
 31
0.0
  0
LINE
  5
9471
  8
0
 10
42.08419143685657
 20
225.9081847001461
 30
0.0
 11
46.02917079685628
 21
225.9081847001461
 31
0.0
  0
LINE
  5
9472
  8
0
 10
46.02917079685628
 20
225.9081847001461
 30
0.0
 11
46.02917079685628
 21
226.3543031001462
 31
0.0
  0
LINE
  5
9473
  8
0
 10
44.67165127685664
 20
227.3208586201462
 30
0.0
 11
44.67165127685664
 21
228.6230983001459
 31
0.0
  0
LINE
  5
9474
  8
0
  6
CONTINUOUS
 10
60.56288158759205
 20
230.8177161853681
 30
0.0
 11
60.61220359685646
 21
230.7154139801459
 31
0.0
  0
LINE
  5
9475
  8
0
  6
CONTINUOUS
 10
60.96847517643843
 20
230.9651901427504
 30
0.0
 11
61.06588311685661
 21
230.9069507801458
 31
0.0
  0
LINE
  5
9476
  8
0
  6
CONTINUOUS
 10
61.08069536869741
 20
231.0677960978973
 30
0.0
 11
61.1878611968568
 21
231.0303613401464
 31
0.0
  0
LINE
  5
9477
  8
0
  6
CONTINUOUS
 10
61.16516338733115
 20
231.1824827256922
 30
0.0
 11
61.27737159685645
 21
231.1659631001456
 31
0.0
  0
LINE
  5
9478
  8
0
  6
CONTINUOUS
 10
61.2005197871508
 20
231.2499241390896
 30
0.0
 11
61.31413559685686
 21
231.2448368601462
 31
0.0
  0
LINE
  5
9479
  8
0
  6
CONTINUOUS
 10
61.26134601064038
 20
231.3859157878577
 30
0.0
 11
61.36068615685687
 21
231.4003970201464
 31
0.0
  0
LINE
  5
947A
  8
0
  6
CONTINUOUS
 10
61.27050992567681
 20
231.5345244653271
 30
0.0
 11
61.37711655685641
 21
231.5731615001458
 31
0.0
  0
LINE
  5
947B
  8
0
  6
CONTINUOUS
 10
61.05740807685649
 20
232.235460060146
 30
0.0
 11
61.0201461693691
 21
232.1287766013037
 31
0.0
  0
LINE
  5
947C
  8
0
 10
54.60330254796779
 20
238.277962477924
 30
0.0
 11
56.88752193996785
 21
238.7501688139236
 31
0.0
  0
LINE
  5
947D
  8
0
 10
56.88752193996785
 20
238.7501688139236
 30
0.0
 11
54.60338184396775
 21
239.222143981924
 31
0.0
  0
LINE
  5
947E
  8
0
 10
54.60338184396775
 20
239.222143981924
 30
0.0
 11
55.88873505996841
 21
241.0060687819249
 31
0.0
  0
LINE
  5
947F
  8
0
 10
55.88873505996841
 20
241.0060687819249
 30
0.0
 11
54.10465435596777
 21
239.7207948619238
 31
0.0
  0
LINE
  5
9480
  8
0
 10
54.10465435596777
 20
239.7207948619238
 30
0.0
 11
53.82589984044259
 21
241.0698814012202
 31
0.0
  0
LINE
  5
9481
  8
0
 10
53.41422135681066
 20
240.9476326822731
 30
0.0
 11
53.16078465996722
 21
239.7209507659235
 31
0.0
  0
LINE
  5
9482
  8
0
 10
53.16078465996722
 20
239.7209507659235
 30
0.0
 11
52.31630278512054
 21
240.3291990591623
 31
0.0
  0
LINE
  5
9483
  8
0
 10
52.04114494434813
 20
240.083680614507
 30
0.0
 11
52.66189723596742
 21
239.222143981924
 31
0.0
  0
LINE
  5
9484
  8
0
 10
52.66189723596742
 20
239.222143981924
 30
0.0
 11
51.600732202442
 21
239.0027213117281
 31
0.0
  0
LINE
  5
9485
  8
0
 10
51.62145527260961
 20
238.4931168390184
 30
0.0
 11
52.662132435968
 21
238.278272941924
 31
0.0
  0
LINE
  5
9486
  8
0
 10
52.662132435968
 20
238.278272941924
 30
0.0
 11
52.04907205628385
 21
237.4273162645103
 31
0.0
  0
LINE
  5
9487
  8
0
 10
52.28871939702455
 20
237.1510237175543
 30
0.0
 11
53.16078465996722
 21
237.7792309579235
 31
0.0
  0
LINE
  5
9488
  8
0
 10
53.16078465996722
 20
237.7792309579235
 30
0.0
 11
53.46670710367059
 21
236.2986082223396
 31
0.0
  0
LINE
  5
9489
  8
0
 10
53.77137802213244
 20
236.1665638512467
 30
0.0
 11
54.10465435596777
 21
237.7794661579236
 31
0.0
  0
LINE
  5
948A
  8
0
 10
54.10465435596777
 20
237.7794661579236
 30
0.0
 11
55.88889096396721
 21
236.494037677924
 31
0.0
  0
LINE
  5
948B
  8
0
 10
55.88889096396721
 20
236.494037677924
 30
0.0
 11
54.60330254796779
 21
238.277962477924
 31
0.0
  0
LINE
  5
948C
  8
0
 10
58.36152477018956
 20
224.9475047466393
 30
0.0
 11
58.36152477018956
 21
225.4104069223685
 31
0.0
  0
LINE
  5
948D
  8
0
 10
57.58389194420167
 20
224.7931968608217
 30
0.0
 11
57.58389194420167
 21
224.9475047466393
 31
0.0
  0
LINE
  5
948E
  8
0
 10
58.36152477018956
 20
224.9475047466393
 30
0.0
 11
57.58389194420167
 21
224.9475047466393
 31
0.0
  0
LINE
  5
948F
  8
0
 10
58.35782365944394
 20
224.7931968608217
 30
0.0
 11
57.58389194420167
 21
224.7931968608217
 31
0.0
  0
LINE
  5
9490
  8
0
 10
58.75008906553373
 20
225.4104069223685
 30
0.0
 11
58.36152477018956
 21
225.4104069223685
 31
0.0
  0
LINE
  5
9491
  8
0
 10
58.75008906553373
 20
225.4104069223685
 30
0.0
 11
58.75008906553373
 21
224.9401347087195
 31
0.0
  0
LINE
  5
9492
  8
0
 10
59.49780749571661
 20
224.9401347087195
 30
0.0
 11
58.75008906553373
 21
224.9401347087195
 31
0.0
  0
LINE
  5
9493
  8
0
 10
59.49780749571661
 20
224.7907509093724
 30
0.0
 11
59.49780749571661
 21
224.9401347087195
 31
0.0
  0
LINE
  5
9494
  8
0
 10
58.74498796941859
 20
224.7907509093724
 30
0.0
 11
59.49780749571661
 21
224.7907509093724
 31
0.0
  0
ARC
  5
9495
  8
0
 10
56.514687314479
 20
225.600729891128
 30
0.0
 40
1.78373366193507
 50
310.0456923729903
 51
327.1738262384467
  0
ARC
  5
9496
  8
0
 10
56.25651791752668
 20
224.9441322725005
 30
0.0
 40
1.92069235163314
 50
325.4885178757467
 51
349.9185299046333
  0
LINE
  5
9497
  8
0
 10
58.01359269708925
 20
224.6337818931978
 30
0.0
 11
58.14755447859031
 21
224.6079183014316
 31
0.0
  0
LINE
  5
9498
  8
0
 10
57.45980943199672
 20
224.0921763249943
 30
0.0
 11
57.83919273847775
 21
223.8559229540559
 31
0.0
  0
ARC
  5
9499
  8
0
 10
56.22875497254742
 20
226.0499998966233
 30
0.0
 40
2.312697174244312
 50
302.1611570594345
 51
308.3070197817706
  0
LINE
  5
949A
  8
0
 10
58.35782365944394
 20
224.7931968608217
 30
0.0
 11
58.35782365944394
 21
223.9044442903531
 31
0.0
  0
LINE
  5
949B
  8
0
 10
58.02107968023253
 20
223.9118325799326
 30
0.0
 11
58.02107968023253
 21
223.7651291930332
 31
0.0
  0
LINE
  5
949C
  8
0
 10
58.02107968023253
 20
223.9118325799326
 30
0.0
 11
58.25988413308139
 21
223.8334972318324
 31
0.0
  0
ARC
  5
949D
  8
0
 10
58.28315699277707
 20
223.9044442903531
 30
0.0
 40
0.0746666666666667
 50
251.8388875732299
 51
0.0
  0
LINE
  5
949E
  8
0
 10
58.74498796941859
 20
223.8773306647262
 30
0.0
 11
58.74498796941859
 21
224.7907509093724
 31
0.0
  0
LINE
  5
949F
  8
0
 10
58.36789030949919
 20
223.62379708991
 30
0.0
 11
58.02107968023253
 21
223.7651291930332
 31
0.0
  0
ARC
  5
94A0
  8
0
 10
58.47121019164067
 20
223.8773306647262
 30
0.0
 40
0.2737777777777778
 50
247.8281449539039
 51
0.0
  0
LINE
  5
94A1
  8
0
 10
59.05427140421941
 20
224.6443678417326
 30
0.0
 11
59.1663791567598
 21
224.5391074812959
 31
0.0
  0
LINE
  5
94A2
  8
0
 10
58.93140859331513
 20
224.6028502261728
 30
0.0
 11
59.05427140421941
 21
224.6443678417326
 31
0.0
  0
LINE
  5
94A3
  8
0
 10
59.56812368847656
 20
224.0461886085185
 30
0.0
 11
59.13668292439704
 21
223.8598186161465
 31
0.0
  0
ARC
  5
94A4
  8
0
 10
56.54297614292634
 20
223.5431367157211
 30
0.0
 40
2.61296810051403
 50
6.961145816582685
 51
23.92618042379387
  0
ARC
  5
94A5
  8
0
 10
57.49391840801351
 20
222.7841858559581
 30
0.0
 40
2.4279576794027
 50
31.31746538013244
 51
50.00949102187557
  0
LINE
  5
94A6
  8
0
 10
61.34510914602421
 20
225.2716701831913
 30
0.0
 11
61.34510914602421
 21
225.1173622973732
 31
0.0
  0
LINE
  5
94A7
  8
0
 10
61.34510914602421
 20
225.2716701831913
 30
0.0
 11
59.85344299742425
 21
225.2716701831913
 31
0.0
  0
LINE
  5
94A8
  8
0
 10
59.85344299742425
 20
225.1173622973732
 30
0.0
 11
59.85344299742425
 21
225.2716701831913
 31
0.0
  0
LINE
  5
94A9
  8
0
 10
61.34510914602421
 20
225.1173622973732
 30
0.0
 11
59.85344299742425
 21
225.1173622973732
 31
0.0
  0
LINE
  5
94AA
  8
0
 10
61.485535288622
 20
224.7953690178182
 30
0.0
 11
59.69599721336542
 21
224.7953690178182
 31
0.0
  0
LINE
  5
94AB
  8
0
 10
59.69599721336542
 20
224.6342436827689
 30
0.0
 11
59.69599721336542
 21
224.7953690178182
 31
0.0
  0
LINE
  5
94AC
  8
0
 10
60.99630183440965
 20
224.6342436827689
 30
0.0
 11
59.69599721336542
 21
224.6342436827689
 31
0.0
  0
LINE
  5
94AD
  8
0
 10
61.485535288622
 20
224.6564138020038
 30
0.0
 11
61.485535288622
 21
224.7953690178182
 31
0.0
  0
LINE
  5
94AE
  8
0
 10
59.85514070973201
 20
223.7357042026819
 30
0.0
 11
59.90345790072931
 21
223.6109447582438
 31
0.0
  0
ARC
  5
94AF
  8
0
 10
59.38489231898117
 20
225.7243529733904
 30
0.0
 40
2.043491493068839
 50
283.3041404476273
 51
312.187984758957
  0
ARC
  5
94B0
  8
0
 10
59.72960287778184
 20
225.0690566873799
 30
0.0
 40
1.33924926570833
 50
320.1134675612495
 51
341.0544644537724
  0
ARC
  5
94B1
  8
0
 10
60.28015248987774
 20
224.9681541287754
 30
0.0
 40
1.245042056656759
 50
284.1440925346391
 51
345.4996819276624
  0
ARC
  5
94B2
  8
0
 10
59.86880951040663
 20
225.3897658386567
 30
0.0
 40
1.77915849408482
 50
271.1158826182763
 51
293.7159784209443
  0
LINE
  5
94B3
  8
0
 10
62.1412955670057
 20
224.2933855963191
 30
0.0
 11
62.1412955670057
 21
225.3337194071554
 31
0.0
  0
LINE
  5
94B4
  8
0
 10
62.1412955670057
 20
225.3337194071554
 30
0.0
 11
61.73249874100063
 21
225.3337194071554
 31
0.0
  0
LINE
  5
94B5
  8
0
 10
61.73249874100063
 20
224.2933855963191
 30
0.0
 11
61.73249874100063
 21
225.3337194071554
 31
0.0
  0
LINE
  5
94B6
  8
0
 10
62.1412955670057
 20
224.2933855963191
 30
0.0
 11
61.73249874100063
 21
224.2933855963191
 31
0.0
  0
LINE
  5
94B7
  8
0
 10
63.07892191309381
 20
224.5884788316015
 30
0.0
 11
63.07892191309381
 21
225.3337194071554
 31
0.0
  0
LINE
  5
94B8
  8
0
 10
62.68049882099282
 20
224.6430893977657
 30
0.0
 11
62.68049882099282
 21
225.3337194071554
 31
0.0
  0
LINE
  5
94B9
  8
0
 10
62.68049882099282
 20
225.3337194071554
 30
0.0
 11
63.07892191309381
 21
225.3337194071554
 31
0.0
  0
LINE
  5
94BA
  8
0
 10
61.84759125682191
 20
223.6730430264705
 30
0.0
 11
61.93138877212911
 21
223.5654767673622
 31
0.0
  0
ARC
  5
94BB
  8
0
 10
61.73526096789098
 20
224.6120942520091
 30
0.0
 40
0.9457458950466363
 50
276.8213681552839
 51
1.878103949386534
  0
ARC
  5
94BC
  8
0
 10
61.87426527407339
 20
224.9016217971329
 30
0.0
 40
1.337365557583815
 50
272.4480452339944
 51
323.9127955890404
  0
ARC
  5
94BD
  8
0
 10
62.03129566426603
 20
224.6085208960957
 30
0.0
 40
1.047817942956835
 50
331.8321656005633
 51
358.9040121443402
  0
LINE
  5
94BE
  8
0
 10
64.71642104433792
 20
225.0632349197025
 30
0.0
 11
64.71642104433792
 21
225.1826672179249
 31
0.0
  0
LINE
  5
94BF
  8
0
 10
63.36816650495754
 20
225.0438609557585
 30
0.0
 11
63.36816650495754
 21
225.1826672179249
 31
0.0
  0
LINE
  5
94C0
  8
0
 10
64.71642104433792
 20
225.1826672179249
 30
0.0
 11
63.36816650495754
 21
225.1826672179249
 31
0.0
  0
LINE
  5
94C1
  8
0
 10
64.23955169759617
 20
225.0438609557585
 30
0.0
 11
63.36816650495754
 21
225.0438609557585
 31
0.0
  0
LINE
  5
94C2
  8
0
 10
62.98337905088462
 20
223.72543407602
 30
0.0
 11
63.06039726727155
 21
223.6054669444901
 31
0.0
  0
ARC
  5
94C3
  8
0
 10
62.37740299873073
 20
225.5604392296917
 30
0.0
 40
1.932472739726369
 50
288.2748377643809
 51
344.4954648401276
  0
ARC
  5
94C4
  8
0
 10
62.39068372267226
 20
226.1655427636755
 30
0.0
 40
2.646224561861322
 50
284.6600032593546
 51
312.5396667739578
  0
LINE
  5
94C5
  8
0
 10
64.81691565058415
 20
223.5841542622665
 30
0.0
 11
65.12240321401211
 21
223.9279829818087
 31
0.0
  0
ARC
  5
94C6
  8
0
 10
62.78856148968723
 20
222.175302493656
 30
0.0
 40
2.469632342666266
 50
34.78302390875149
 51
55.71309290050228
  0
ARC
  5
94C7
  8
0
 10
62.9624848521016
 20
225.6001375155346
 30
0.0
 40
1.834272761572525
 50
316.4306178633717
 51
342.9799715932805
  0
ARC
  5
94C8
  8
0
 10
62.71363163530256
 20
220.0715941709321
 30
0.0
 40
4.546857725842939
 50
58.0103401497656
 51
69.6947510335346
  0
ARC
  5
99D3
  8
0
 10
53.62970639697352
 20
238.7350801367537
 30
0.0
 40
5.33214218313847
 50
74.3144994222587
 51
104.1724498576072
  0
ARC
  5
99D4
  8
0
 10
53.63719310871336
 20
238.7456094663922
 30
0.0
 40
5.323775476131433
 50
104.2783165563115
 51
166.1870765708273
  0
ARC
  5
99D5
  8
0
 10
53.64133191370578
 20
238.7525351297845
 30
0.0
 40
5.326146654840227
 50
166.270054507626
 51
215.0482339935348
  0
ARC
  5
99D6
  8
0
 10
53.62940012955991
 20
238.7439038680774
 30
0.0
 40
5.311421839969246
 50
215.0459241187442
 51
273.2408824576858
  0
ARC
  5
99D7
  8
0
 10
53.63143619020693
 20
238.7515028889411
 30
0.0
 40
5.318894171081752
 50
273.2143571100679
 51
346.1779060677009
  0
ARC
  5
99D8
  8
0
 10
53.64154207740778
 20
238.7440216934738
 30
0.0
 40
5.307295827239366
 50
346.2302669880835
 51
43.78488871851541
  0
ARC
  5
99D9
  8
0
 10
55.70429788432008
 20
238.3225571428676
 30
0.0
 40
4.459640505811445
 50
66.63259795322786
 51
109.905871685035
  0
ARC
  5
99DA
  8
0
 10
55.48614554150333
 20
238.842788987966
 30
0.0
 40
3.896315762598357
 50
109.4942419685547
 51
167.6530237580676
  0
ARC
  5
99DB
  8
0
 10
54.74744579647201
 20
237.322440089896
 30
0.0
 40
3.866330758866939
 50
121.4932770185398
 51
142.5031668973391
  0
ARC
  5
99DC
  8
0
 10
54.6957598031005
 20
237.3858913141115
 30
0.0
 40
3.78524088928143
 50
91.77940320266809
 51
121.3278955587064
  0
ARC
  5
99DD
  8
0
 10
54.68348645526373
 20
237.268226074317
 30
0.0
 40
3.90250076108918
 50
65.20023754136542
 51
91.54565188015103
  0
ARC
  5
99DE
  8
0
 10
54.5097554146397
 20
236.9088374047436
 30
0.0
 40
4.301623157105358
 50
30.14973546883459
 51
65.10747394303505
  0
ARC
  5
99DF
  8
0
 10
54.29351862566165
 20
236.7694586733186
 30
0.0
 40
4.558626665475829
 50
8.9769926527231
 51
30.2994981683211
  0
ARC
  5
99E0
  8
0
 10
55.40717092375999
 20
240.2892959310867
 30
0.0
 40
4.401593171265135
 50
288.3388974970104
 51
320.3520397443188
  0
ARC
  5
99E1
  8
0
 10
55.35629633250579
 20
240.3478052905062
 30
0.0
 40
4.473237795108389
 50
252.8403059470311
 51
288.7216405446108
  0
ARC
  5
99E2
  8
0
 10
55.20805891152538
 20
239.9192601153464
 30
0.0
 40
4.020062191481092
 50
209.1938724537274
 51
253.0569803949627
  0
ARC
  5
99E3
  8
0
 10
55.02000816794086
 20
239.7659905806459
 30
0.0
 40
3.781373116886767
 50
175.5970978715927
 51
208.5563260925432
  0
ARC
  5
99E4
  8
0
 10
55.24427287128474
 20
239.7234409278921
 30
0.0
 40
4.008321764107
 50
141.0080554268092
 51
175.2367758980932
  0
ARC
  5
99E5
  8
0
 10
55.58905229317234
 20
239.4514679053993
 30
0.0
 40
4.447428119007347
 50
96.68547469604019
 51
141.0795845301957
  0
ARC
  5
99E6
  8
0
 10
55.38954236543667
 20
238.9015697205973
 30
0.0
 40
3.790160167539093
 50
178.4707117364453
 51
186.1865889351898
  0
ARC
  5
99E7
  8
0
 10
42.35595743418989
 20
231.6312852038469
 30
0.0
 40
2.102527922038834
 50
84.9561999668056
 51
90.22314612645847
  0
ARC
  5
99E8
  8
0
 10
42.48802372906351
 20
232.8785595352927
 30
0.0
 40
0.848754935304436
 50
65.19337763183492
 51
86.43460068621052
  0
ARC
  5
99E9
  8
0
 10
42.64724748005941
 20
233.2638793826216
 30
0.0
 40
0.432524910680116
 50
13.9863879207907
 51
62.92338893732329
  0
ARC
  5
99EA
  8
0
 10
41.97679210851945
 20
233.0598726831937
 30
0.0
 40
1.132979464242894
 50
3.904131892889081
 51
15.80295944671843
  0
ARC
  5
99EB
  8
0
 10
39.91717572266282
 20
232.8893663895178
 30
0.0
 40
3.199565044350259
 50
359.4532997353156
 51
4.439158366316591
  0
ARC
  5
99EC
  8
0
 10
42.09848132486883
 20
228.3160026635954
 30
0.0
 40
1.961880406277173
 50
269.5826669607686
 51
281.2467372863051
  0
ARC
  5
99ED
  8
0
 10
42.32568579859648
 20
227.2422111742876
 30
0.0
 40
0.8645009778283242
 50
280.3576091429006
 51
308.9726038906425
  0
ARC
  5
99EE
  8
0
 10
42.39730952214254
 20
227.0954508824086
 30
0.0
 40
0.7063050293075379
 50
311.9446536813444
 51
353.5803040312001
  0
ARC
  5
99EF
  8
0
 10
41.45875165978404
 20
227.2566791112643
 30
0.0
 40
1.657926458748007
 50
351.6696629683137
 51
0.5733241568768106
  0
ARC
  5
99F0
  8
0
 10
46.74033401452621
 20
232.2628580020243
 30
0.0
 40
5.95119938757511
 50
257.5813101393111
 51
263.1368024967187
  0
ARC
  5
99F1
  8
0
 10
45.75063144462831
 20
227.8189305955279
 30
0.0
 40
1.398452974297173
 50
235.2289453505774
 51
258.0263291625699
  0
ARC
  5
99F2
  8
0
 10
45.40572338769636
 20
227.2440325655737
 30
0.0
 40
0.7308682337771808
 50
181.3642075179843
 51
231.7348554842791
  0
ARC
  5
99F3
  8
0
 10
45.95041944077477
 20
227.3199757175731
 30
0.0
 40
1.278768468710234
 50
179.9604411616191
 51
184.1860155147163
  0
ARC
  5
99F4
  8
0
 10
33.22875335713414
 20
228.4535396852764
 30
0.0
 40
11.44415409390602
 50
0.848935483152986
 51
1.690006264274332
  0
ARC
  5
99F5
  8
0
 10
44.70342547741768
 20
228.7937716728675
 30
0.0
 40
0.0356002396173115
 50
132.0995794755948
 51
184.3854082312399
  0
ARC
  5
99F6
  8
0
 10
44.7117376596056
 20
228.7534215940468
 30
0.0
 40
0.0741150757083008
 50
81.69918243476886
 51
115.7331729843349
  0
ARC
  5
99F7
  8
0
 10
44.91831029065838
 20
229.5833981531199
 30
0.0
 40
0.2727989215437704
 50
229.3422064805662
 51
273.4045849244121
  0
ARC
  5
99F8
  8
0
 10
44.94464848448186
 20
229.5524808256873
 30
0.0
 40
0.2695085644996453
 50
184.8442539947764
 51
220.7801867736532
  0
ARC
  5
99F9
  8
0
 10
45.23608322764116
 20
229.6004968204359
 30
0.0
 40
0.5644354903320787
 50
179.7970894737595
 51
187.2033550483905
  0
ARC
  5
99FA
  8
0
 10
45.24423008002881
 20
234.4519779213501
 30
0.0
 40
5.625234236528772
 50
270.1389228840429
 51
282.574963880413
  0
ARC
  5
99FB
  8
0
 10
45.70357304034957
 20
232.7862907934843
 30
0.0
 40
3.900438044695806
 50
281.31631568977
 51
306.6736079669237
  0
ARC
  5
99FC
  8
0
 10
46.0675371166179
 20
232.0841837765644
 30
0.0
 40
3.122533740917625
 50
309.0122993056875
 51
333.1868714432045
  0
ARC
  5
99FD
  8
0
 10
46.78214621315962
 20
231.641835448772
 30
0.0
 40
2.286370135056757
 50
335.0025208531055
 51
3.132350940942409
  0
ARC
  5
99FE
  8
0
 10
46.67398901651691
 20
231.5562944295652
 30
0.0
 40
2.400356917899017
 50
5.030415615660186
 51
45.88015556804394
  0
ARC
  5
99FF
  8
0
 10
46.02389455579979
 20
230.6135326863779
 30
0.0
 40
3.534812041936091
 50
48.95520224166617
 51
77.68716474380041
  0
ARC
  5
9A00
  8
0
 10
45.7460831555789
 20
229.4284073274072
 30
0.0
 40
4.751956788280896
 50
77.46176455392263
 51
90.50756358638267
  0
ARC
  5
9A01
  8
0
 10
44.86914345818178
 20
233.5626248671133
 30
0.0
 40
0.1328574047888303
 50
89.08094236461791
 51
124.4007292599872
  0
ARC
  5
9A02
  8
0
 10
44.92148369101258
 20
233.5016267710106
 30
0.0
 40
0.2129371461418388
 50
126.7487054586267
 51
162.0338218173676
  0
ARC
  5
9A03
  8
0
 10
45.42921822193551
 20
233.3135065404122
 30
0.0
 40
0.7542713589800576
 50
160.3370642577249
 51
177.7002884087945
  0
ARC
  5
9A04
  8
0
 10
46.36590144124062
 20
233.2287411431722
 30
0.0
 40
1.69425665145904
 50
176.1068976128699
 51
180.1585523306186
  0
ARC
  5
9A05
  8
0
 10
45.37356275037305
 20
231.5295001595206
 30
0.0
 40
2.219308321722258
 50
271.6216628224748
 51
290.5180238120254
  0
ARC
  5
9A06
  8
0
 10
45.55354670475737
 20
230.9596548260781
 30
0.0
 40
1.622827402472289
 50
291.6184361004764
 51
329.2928533987833
  0
ARC
  5
9A07
  8
0
 10
44.62443842257278
 20
231.4712987697128
 30
0.0
 40
2.683157532333741
 50
330.0305147082963
 51
359.7069691972517
  0
ARC
  5
9A08
  8
0
 10
44.49651675808974
 20
231.5819236312872
 30
0.0
 40
2.813793035039953
 50
357.4671544818835
 51
18.09389103936943
  0
ARC
  5
9A09
  8
0
 10
45.34875832821606
 20
231.8783530264601
 30
0.0
 40
1.911708557628758
 50
17.58181129013311
 51
44.10613559949745
  0
ARC
  5
9A0A
  8
0
 10
45.60837962687484
 20
232.0888194365864
 30
0.0
 40
1.579081423259486
 50
45.17904980442386
 51
71.36379322642686
  0
ARC
  5
9A0B
  8
0
 10
45.43169608899933
 20
231.5424050128347
 30
0.0
 40
2.153318191790253
 50
71.55515292962627
 51
90.8869891698155
  0
ARC
  5
9A0C
  8
0
 10
48.45918952960545
 20
228.6333834214107
 30
0.0
 40
0.9504697930117868
 50
45.647846390803
 51
90.95907175324457
  0
ARC
  5
9A0D
  8
0
 10
48.19057423128953
 20
228.4027589820964
 30
0.0
 40
1.303524477208397
 50
356.2866180422669
 51
44.29157541670799
  0
ARC
  5
9A0E
  8
0
 10
47.74044742681943
 20
228.2344256136675
 30
0.0
 40
1.752924040513615
 50
332.8282653512688
 51
2.743720271344923
  0
ARC
  5
9A0F
  8
0
 10
48.43247162729918
 20
227.9488132994722
 30
0.0
 40
1.008745565207887
 50
281.1029522262601
 51
329.3086861457625
  0
ARC
  5
9A10
  8
0
 10
48.44503473972415
 20
228.0210939977401
 30
0.0
 40
1.077573765673208
 50
254.3735857114849
 51
279.7072195183892
  0
ARC
  5
9A11
  8
0
 10
48.45865623713561
 20
227.9612160308433
 30
0.0
 40
1.023995873514749
 50
198.078198350464
 51
252.7369026576832
  0
ARC
  5
9A12
  8
0
 10
49.50470998084242
 20
228.2674976660432
 30
0.0
 40
2.113718303506307
 50
164.6942276189749
 51
197.1716014617761
  0
ARC
  5
9A13
  8
0
 10
48.50065069068057
 20
228.5323181699372
 30
0.0
 40
1.07541041250608
 50
123.3084104466144
 51
164.1819940011187
  0
ARC
  5
9A14
  8
0
 10
48.42975451827664
 20
228.623477731192
 30
0.0
 40
0.9603375863241239
 50
89.19299068101529
 51
122.7601092117214
  0
ARC
  5
9A15
  8
0
 10
48.74599718647386
 20
228.2713786612691
 30
0.0
 40
2.529168051565525
 50
164.9665044400625
 51
190.6145490228779
  0
ARC
  5
9A16
  8
0
 10
48.3794325311284
 20
228.0951948431446
 30
0.0
 40
2.13903317801624
 50
187.7835408718213
 51
220.8538282758054
  0
ARC
  5
9A17
  8
0
 10
48.36290865327172
 20
228.2577180871719
 30
0.0
 40
2.23684800464541
 50
224.28151327257
 51
262.3352180838961
  0
ARC
  5
9A18
  8
0
 10
48.44410295745772
 20
228.4258822990527
 30
0.0
 40
2.415036709056927
 50
260.9581187463501
 51
295.9617934482598
  0
ARC
  5
9A19
  8
0
 10
48.46881443093585
 20
228.1923705494534
 30
0.0
 40
2.195729658493223
 50
298.0499757225375
 51
338.9010076102918
  0
ARC
  5
9A1A
  8
0
 10
48.07925792781006
 20
228.2778063081659
 30
0.0
 40
2.590632549888452
 50
340.2397223934027
 51
12.59603457387198
  0
ARC
  5
9A1B
  8
0
 10
48.55389651119853
 20
228.3963453312892
 30
0.0
 40
2.101602444292964
 50
12.26400142418717
 51
42.00204460107005
  0
ARC
  5
9A1C
  8
0
 10
48.55340540655558
 20
228.4238311796801
 30
0.0
 40
2.083678402800012
 50
41.43135548057312
 51
84.31090183999093
  0
ARC
  5
9A1D
  8
0
 10
54.44238830636191
 20
228.9527678098833
 30
0.0
 40
0.7218683279506627
 50
130.1010359850333
 51
152.8765297157261
  0
ARC
  5
9A1E
  8
0
 10
54.38442435428115
 20
228.9390519749673
 30
0.0
 40
0.6970539232955045
 50
93.62160758699905
 51
125.7261982466873
  0
ARC
  5
9A1F
  8
0
 10
54.49550482082093
 20
227.9945760133442
 30
0.0
 40
1.647456117640462
 50
86.1442592668658
 51
95.40251107253543
  0
ARC
  5
9A20
  8
0
 10
54.54423721877008
 20
228.166370747146
 30
0.0
 40
1.473239699002557
 50
75.78444603343868
 51
87.58609443775944
  0
ARC
  5
9A21
  8
0
 10
54.80892063113743
 20
229.1636007470819
 30
0.0
 40
0.4417023764257507
 50
38.65642909797035
 51
77.30076056537986
  0
ARC
  5
9A22
  8
0
 10
54.63722881674141
 20
229.0930928512732
 30
0.0
 40
0.622013293909289
 50
359.8735965182385
 51
33.84363804094075
  0
ARC
  5
9A23
  8
0
 10
51.67911811270633
 20
228.9728267001458
 30
0.0
 40
3.582096140528945
 50
359.0859929973961
 51
1.902062204167362
  0
ARC
  5
9A24
  8
0
 10
54.32177715937522
 20
231.2426093856838
 30
0.0
 40
2.509234634269819
 50
284.9657500733399
 51
291.97550982172
  0
ARC
  5
9A25
  8
0
 10
52.64245385887466
 20
237.390446899377
 30
0.0
 40
8.882278806531481
 50
280.2043110183695
 51
285.1898042810342
  0
ARC
  5
9A26
  8
0
 10
55.10755945142196
 20
223.491050309525
 30
0.0
 40
5.234101951295329
 50
99.80708673503382
 51
108.9029002183751
  0
ARC
  5
9A27
  8
0
 10
53.80234854898904
 20
227.2414467942424
 30
0.0
 40
1.263280702218469
 50
108.0038789458561
 51
139.5346921255566
  0
ARC
  5
9A28
  8
0
 10
53.74244764032551
 20
227.3252835839237
 30
0.0
 40
1.163565746446632
 50
140.7612947780745
 51
168.9659435881561
  0
ARC
  5
9A29
  8
0
 10
53.97681523829
 20
227.2835826452749
 30
0.0
 40
1.401587473098195
 50
169.1264415873883
 51
196.8129880402177
  0
ARC
  5
9A2A
  8
0
 10
53.77683507748719
 20
227.2500635818269
 30
0.0
 40
1.200736629503124
 50
198.0421705376476
 51
235.7348582477589
  0
ARC
  5
9A2B
  8
0
 10
53.93369472243589
 20
227.5481098003603
 30
0.0
 40
1.535844315416191
 50
237.1590292494219
 51
270.7198132743666
  0
ARC
  5
9A2C
  8
0
 10
54.01363110535323
 20
227.8221220858965
 30
0.0
 40
1.810751131158588
 50
268.0808101764746
 51
292.8635926074776
  0
ARC
  5
9A2D
  8
0
 10
53.88282183575734
 20
228.0491282055435
 30
0.0
 40
2.070998767971581
 50
293.7580989581123
 51
314.7899657835182
  0
ARC
  5
9A2E
  8
0
 10
58.86200473000079
 20
227.2175711586334
 30
0.0
 40
2.499173832420186
 50
192.2727471956715
 51
206.3510707099188
  0
ARC
  5
9A2F
  8
0
 10
60.8276307107856
 20
227.3923902617629
 30
0.0
 40
4.463878389973498
 50
178.3054146575074
 51
189.1007693226515
  0
ARC
  5
9A30
  8
0
 10
-122.3404779120987
 20
230.4452549141968
 30
0.0
 40
178.7300508439498
 50
359.0636135939208
 51
359.5331222948618
  0
ARC
  5
9A31
  8
0
 10
53.30452549634894
 20
228.9884370703637
 30
0.0
 40
3.07911375910394
 50
0.0082366020401114
 51
13.70501902078777
  0
ARC
  5
9A32
  8
0
 10
55.44388379996916
 20
229.4575682087111
 30
0.0
 40
0.8909843556742496
 50
16.99219239725991
 51
58.15468777164648
  0
ARC
  5
9A33
  8
0
 10
54.97608523618598
 20
228.7979992709118
 30
0.0
 40
1.698813368729804
 50
56.4891308086457
 51
88.52476597508146
  0
ARC
  5
9A34
  8
0
 10
54.61316639129549
 20
226.2210003378491
 30
0.0
 40
4.294545824498953
 50
84.56646884241289
 51
99.63736677787178
  0
ARC
  5
9A35
  8
0
 10
54.13967752931234
 20
229.0002988264794
 30
0.0
 40
1.475204576717583
 50
99.5783577095598
 51
133.4108128523488
  0
ARC
  5
9A36
  8
0
 10
54.39336012037565
 20
228.8599301171438
 30
0.0
 40
1.753711970549818
 50
136.2812462218209
 51
166.078002621643
  0
ARC
  5
9A37
  8
0
 10
53.27121216602612
 20
234.6295018425469
 30
0.0
 40
6.758384124597473
 50
280.6962555586757
 51
287.1203411217375
  0
ARC
  5
9A38
  8
0
 10
55.23844411769076
 20
224.5367719452913
 30
0.0
 40
3.524614443440088
 50
101.6686696910117
 51
109.1101391117779
  0
ARC
  5
9A39
  8
0
 10
54.24780114577175
 20
227.3431129557906
 30
0.0
 40
0.5488788980844314
 50
107.304431562489
 51
142.6785974978676
  0
ARC
  5
9A3A
  8
0
 10
54.16061746956538
 20
227.4055050142891
 30
0.0
 40
0.4417308257590526
 50
142.2581992011801
 51
180.7216068092584
  0
ARC
  5
9A3B
  8
0
 10
54.26475672049042
 20
227.3946860322041
 30
0.0
 40
0.5458603467606972
 50
179.4483220443287
 51
220.6412737198976
  0
ARC
  5
9A3C
  8
0
 10
54.31853279352926
 20
227.4229268951842
 30
0.0
 40
0.6052123636331186
 50
219.3540008203597
 51
262.0493699394866
  0
ARC
  5
9A3D
  8
0
 10
54.35795008110841
 20
227.7219473003506
 30
0.0
 40
0.9068136346841665
 50
262.1960849641753
 51
288.4736708280107
  0
ARC
  5
9A3E
  8
0
 10
54.31018420135015
 20
227.8652764664091
 30
0.0
 40
1.057892482791887
 50
288.467600933972
 51
313.9760865401699
  0
ARC
  5
9A3F
  8
0
 10
54.56843688096306
 20
227.5823892068353
 30
0.0
 40
0.6750814753682137
 50
314.8739683616068
 51
353.3371743964237
  0
ARC
  5
9A40
  8
0
 10
51.80432293624349
 20
227.8946728926005
 30
0.0
 40
3.456776160850171
 50
353.5117984853132
 51
0.8226475095749395
  0
ARC
  5
9A41
  8
0
 10
62.41484515251636
 20
228.5730999778255
 30
0.0
 40
7.34861436909221
 50
195.7421928264704
 51
199.597791318071
  0
ARC
  5
9A42
  8
0
 10
75.18631218033322
 20
227.4760619796532
 30
0.0
 40
17.00768455573995
 50
177.5431527159517
 51
180.1224681839423
  0
ARC
  5
9A43
  8
0
 10
62.17308935800006
 20
228.0814562109148
 30
0.0
 40
3.98074969577439
 50
168.3575610519279
 51
178.2196605600729
  0
ARC
  5
9A44
  8
0
 10
59.26394801097672
 20
228.6605468426151
 30
0.0
 40
1.014793522696064
 50
138.3863021467757
 51
167.2340218536034
  0
ARC
  5
9A45
  8
0
 10
58.90834637183772
 20
228.8937662451143
 30
0.0
 40
0.5972547683434593
 50
96.77586538956558
 51
132.447773558299
  0
ARC
  5
9A46
  8
0
 10
58.9391397153741
 20
228.7418664560007
 30
0.0
 40
0.7518332906437697
 50
71.72267914677991
 51
97.74042030460295
  0
ARC
  5
9A47
  8
0
 10
58.76568800753989
 20
228.2300673868575
 30
0.0
 40
1.29221607752043
 50
56.46328333653608
 51
71.53679490684749
  0
ARC
  5
9A48
  8
0
 10
60.69935289574332
 20
228.2080396085121
 30
0.0
 40
3.058724754046294
 50
139.5470247594359
 51
148.3665835328131
  0
ARC
  5
9A49
  8
0
 10
59.04756343606104
 20
229.6400047893052
 30
0.0
 40
0.8729050829687197
 50
109.5979517564685
 51
140.7231812093455
  0
ARC
  5
9A4A
  8
0
 10
59.07795105936677
 20
229.5124914714546
 30
0.0
 40
1.003323721815536
 50
86.36469047660621
 51
108.7902753767986
  0
ARC
  5
9A4B
  8
0
 10
59.07698552933503
 20
229.1373132866378
 30
0.0
 40
1.377997254265745
 50
78.84643697971599
 51
87.31376656527219
  0
ARC
  5
9A4C
  8
0
 10
59.06326719858228
 20
229.0675839147004
 30
0.0
 40
1.449063259500479
 50
73.30291166206497
 51
78.8475905402678
  0
ARC
  5
9A4D
  8
0
 10
63.66424728098903
 20
228.9259226435331
 30
0.0
 40
1.673766598535952
 50
15.45353000298215
 51
35.65921843237705
  0
ARC
  5
9A4E
  8
0
 10
63.9493665455287
 20
229.115630428983
 30
0.0
 40
1.331569712949468
 50
36.17886961743995
 51
65.18032133965768
  0
ARC
  5
9A4F
  8
0
 10
63.56608375979559
 20
228.0470225469627
 30
0.0
 40
2.464419661937123
 50
67.52176510600205
 51
89.95176516883794
  0
ARC
  5
9A50
  8
0
 10
63.38651319318026
 20
226.785499971009
 30
0.0
 40
3.730366476747655
 50
87.208954205559
 51
101.0994306540248
  0
ARC
  5
9A51
  8
0
 10
62.94850651561217
 20
228.9845515575744
 30
0.0
 40
1.488141506149253
 50
100.8503522773502
 51
133.1120733601343
  0
ARC
  5
9A52
  8
0
 10
62.76145707744749
 20
229.1943259151714
 30
0.0
 40
1.207186880999289
 50
133.4355814373259
 51
160.54030576771
  0
ARC
  5
9A53
  8
0
 10
62.8591333728716
 20
229.1871480016744
 30
0.0
 40
1.30192991328094
 50
161.6745785399147
 51
192.4880693726293
  0
ARC
  5
9A54
  8
0
 10
62.62543913118878
 20
229.1332123204452
 30
0.0
 40
1.06210390647494
 50
192.3733574320921
 51
226.495337067095
  0
ARC
  5
9A55
  8
0
 10
62.78676830254689
 20
229.2884788719433
 30
0.0
 40
1.285822665205259
 50
226.0440591685035
 51
249.5155775654867
  0
ARC
  5
9A56
  8
0
 10
64.73357905773717
 20
234.189235003137
 30
0.0
 40
6.558883186265355
 50
248.5661847695235
 51
256.3648823317471
  0
ARC
  5
9A57
  8
0
 10
73.48599801232069
 20
269.2980407368296
 30
0.0
 40
42.74209767946007
 50
256.0575388595495
 51
257.0500330678841
  0
ARC
  5
9A58
  8
0
 10
63.76554476188167
 20
226.9182213842146
 30
0.0
 40
0.738586693301286
 50
53.94494987543574
 51
78.91973275289719
  0
ARC
  5
9A59
  8
0
 10
63.97533764177837
 20
227.3050312417083
 30
0.0
 40
0.3079156393342173
 50
351.7054337157874
 51
43.07738885190663
  0
ARC
  5
9A5A
  8
0
 10
63.9230150829614
 20
227.2876829902158
 30
0.0
 40
0.3580422081846633
 50
305.5545895016557
 51
355.6635972446031
  0
ARC
  5
9A5B
  8
0
 10
63.601523645992
 20
227.8083903953461
 30
0.0
 40
0.9694871848616392
 50
270.6346537603566
 51
303.1173831021151
  0
ARC
  5
9A5C
  8
0
 10
63.47389066174793
 20
228.3682927136163
 30
0.0
 40
1.535577099296554
 50
255.0528385911238
 51
275.1699625266891
  0
ARC
  5
9A5D
  8
0
 10
63.27465533834258
 20
227.5786286173942
 30
0.0
 40
0.72133028502093
 50
220.3482025964629
 51
254.1645624218334
  0
ARC
  5
9A5E
  8
0
 10
63.35127921402264
 20
227.630657939204
 30
0.0
 40
0.8134735047535518
 50
201.7856653156537
 51
219.6469566048348
  0
ARC
  5
9A5F
  8
0
 10
63.02558367137087
 20
227.7410992661108
 30
0.0
 40
1.679722551042641
 50
194.210622631723
 51
218.9435761559328
  0
ARC
  5
9A60
  8
0
 10
63.03591206439509
 20
227.7783791764094
 30
0.0
 40
1.711336039747307
 50
219.6970036238809
 51
248.5406571485441
  0
ARC
  5
9A61
  8
0
 10
63.33653074007492
 20
228.6338611883289
 30
0.0
 40
2.617702860846573
 50
249.2671616286075
 51
267.747025064058
  0
ARC
  5
9A62
  8
0
 10
63.46981174030461
 20
229.161812932018
 30
0.0
 40
3.152491240768179
 50
265.7033250605309
 51
289.3905439589275
  0
ARC
  5
9A63
  8
0
 10
63.94426730960416
 20
227.604322435486
 30
0.0
 40
1.527408099999837
 50
292.0004687572242
 51
331.7243378576277
  0
ARC
  5
9A64
  8
0
 10
64.13360255601549
 20
227.4613607512876
 30
0.0
 40
1.293448633509429
 50
333.3286501185843
 51
10.01278361973784
  0
ARC
  5
9A65
  8
0
 10
64.43045511397308
 20
227.5489684193868
 30
0.0
 40
0.9864943557164728
 50
7.999299177210378
 51
56.09544702440729
  0
ARC
  5
9A66
  8
0
 10
63.41324836749403
 20
225.8489953444752
 30
0.0
 40
2.966650730685512
 50
58.10472620690843
 51
77.57165611660318
  0
ARC
  5
9A67
  8
0
 10
69.64394504281981
 20
253.1738836785003
 30
0.0
 40
25.05969444260865
 50
254.9920383624129
 51
257.1055378385227
  0
ARC
  5
9A68
  8
0
 10
63.57116716342506
 20
230.708274918665
 30
0.0
 40
1.788471967299355
 50
241.9968666432906
 51
256.5329008491028
  0
ARC
  5
9A69
  8
0
 10
62.87463969629826
 20
229.3424945672857
 30
0.0
 40
0.2569089219111538
 50
181.4229295114256
 51
236.1252737546306
  0
ARC
  5
9A6A
  8
0
 10
62.8898603339585
 20
229.3369881812189
 30
0.0
 40
0.272051738584831
 50
114.9382961617164
 51
180.1839102890763
  0
ARC
  5
9A6B
  8
0
 10
63.2918476123607
 20
228.4278838968055
 30
0.0
 40
1.266027764923893
 50
87.40586972974698
 51
114.0870118917362
  0
ARC
  5
9A6C
  8
0
 10
63.39235586872027
 20
228.1086641274896
 30
0.0
 40
1.584539315298479
 50
81.26152734193053
 51
91.56252783870202
  0
ARC
  5
9A6D
  8
0
 10
63.52585264114873
 20
228.9144511697256
 30
0.0
 40
0.767883455285971
 50
58.63150134670305
 51
81.97250411125933
  0
ARC
  5
9A6E
  8
0
 10
63.58578561950694
 20
229.0491406487311
 30
0.0
 40
0.6219714409278794
 50
31.26144626097709
 51
56.88664282448827
  0
ARC
  5
9A6F
  8
0
 10
59.23256996357821
 20
225.2464504649053
 30
0.0
 40
0.1450093835969383
 50
152.3324835633369
 51
201.6883497501597
  0
ARC
  5
9A70
  8
0
 10
59.28284993014131
 20
225.2134662426
 30
0.0
 40
0.2049400430791757
 50
94.26849177823954
 51
150.6923636878295
  0
ARC
  5
9A71
  8
0
 10
59.29528997282723
 20
225.175856338828
 30
0.0
 40
0.2435610534233947
 50
65.67526895000451
 51
96.52886377924207
  0
ARC
  5
9A72
  8
0
 10
59.32619666219065
 20
225.2323533220937
 30
0.0
 40
0.1794155440342952
 50
15.00501194484213
 51
67.2375225199484
  0
ARC
  5
9A73
  8
0
 10
59.35879971028901
 20
225.2461984966144
 30
0.0
 40
0.1444238304842776
 50
334.547571826115
 51
13.047988576613
  0
ARC
  5
9A74
  8
0
 10
59.31704976757622
 20
225.2690698337149
 30
0.0
 40
0.1919699607925253
 50
283.3392084596498
 51
333.7390166514095
  0
ARC
  5
9A75
  8
0
 10
59.29549833912455
 20
225.3182107990952
 30
0.0
 40
0.2449468824808138
 50
249.2475068279205
 51
285.5929160340207
  0
ARC
  5
9A76
  8
0
 10
59.27216905525665
 20
225.2681379094637
 30
0.0
 40
0.1899001165681578
 50
203.353445485098
 51
250.4765665943434
  0
ARC
  5
9A77
  8
0
 10
59.23345617450263
 20
225.2463887837813
 30
0.0
 40
0.220563220518459
 50
149.5924277991477
 51
208.5026443066654
  0
ARC
  5
9A78
  8
0
 10
59.28313473185243
 20
225.2113949925995
 30
0.0
 40
0.2811654578303905
 50
99.15226556107332
 51
148.5662219609103
  0
ARC
  5
9A79
  8
0
 10
59.2952505223744
 20
225.1742798933832
 30
0.0
 40
0.3197925578412533
 50
69.2643536209876
 51
100.2377265552896
  0
ARC
  5
9A7A
  8
0
 10
59.31447537002494
 20
225.2179424306344
 30
0.0
 40
0.2721632922277281
 50
34.33047436698183
 51
69.79498100629164
  0
ARC
  5
9A7B
  8
0
 10
59.35674565701981
 20
225.2465096247515
 30
0.0
 40
0.2211457863352724
 50
330.8904082426641
 51
34.39478799471744
  0
ARC
  5
9A7C
  8
0
 10
59.31254421196292
 20
225.2747259022186
 30
0.0
 40
0.2735090128067355
 50
281.5278040705526
 51
330.2307053142214
  0
ARC
  5
9A7D
  8
0
 10
59.29551632932046
 20
225.3182157167443
 30
0.0
 40
0.3196244185618837
 50
249.2057013607624
 51
282.9608191978165
  0
ARC
  5
9A7E
  8
0
 10
59.27496521886641
 20
225.2723063283269
 30
0.0
 40
0.2694253491506349
 50
209.1338557825235
 51
249.8253936421853
  0
LINE
  5
9B0C
  8
D002
 10
77.32347425020453
 20
202.7911315128203
 30
0.0
 11
77.32347425020453
 21
203.3375781222271
 31
0.0
1001
GENIUS_GENODEF_13
1002
{
1000
HIER
1070
     0
1002
}
1002
{
1000
MANEDIT
1070
     0
1002
}
1002
{
1000
NOSEL
1070
     0
1002
}
1002
{
1000
BEHIND
1070
     0
1002
}
1002
{
1000
OTHER
1070
     0
1002
}
1002
{
1000
REACTOR
1002
}
1001
GENIUS_GENOBJ-N-CEN_13
1002
{
1000
OWNER
1000
GEN
1002
}
1001
GENIUS_GENCEN_19
1002
{
1040
3.0
1002
}
  0
LINE
  5
9B0D
  8
D002
 10
77.62347425020471
 20
202.7911315128203
 30
0.0
 11
77.62347425020471
 21
203.3375781222271
 31
0.0
1001
GENIUS_GENODEF_13
1002
{
1000
HIER
1070
     0
1002
}
1002
{
1000
MANEDIT
1070
     0
1002
}
1002
{
1000
NOSEL
1070
     0
1002
}
1002
{
1000
BEHIND
1070
     0
1002
}
1002
{
1000
OTHER
1070
     0
1002
}
1002
{
1000
REACTOR
1002
}
1001
GENIUS_GENOBJ-N-CEN_13
1002
{
1000
OWNER
1000
GEN
1002
}
1001
GENIUS_GENCEN_19
1002
{
1040
3.0
1002
}
  0
LINE
  5
9B0E
  8
D002
 10
77.62347425020471
 20
206.8911315128205
 30
0.0
 11
78.26930105515157
 21
207.5369583177674
 31
0.0
  0
LINE
  5
9B0F
  8
D002
 10
77.62347425020471
 20
207.3911315128205
 30
0.0
 11
78.01930105515157
 21
207.7869583177674
 31
0.0
  0
ARC
  5
9B10
  8
D002
 10
77.47347425020462
 20
208.9911315128204
 30
0.0
 40
0.1499999999999773
 50
0.0
 51
180.0
  0
ARC
  5
9B11
  8
D002
 10
78.14430105515157
 20
207.6619583177674
 30
0.0
 40
0.1767766952966168
 50
315.0000000000293
 51
135.0000000000033
  0
LINE
  5
9B12
  8
D002
 10
77.32347425020453
 20
206.8911315128205
 30
0.0
 11
76.67764744525766
 21
207.5369583177674
 31
0.0
  0
LINE
  5
9B13
  8
D002
 10
77.32347425020453
 20
207.3911315128205
 30
0.0
 11
76.92764744525766
 21
207.7869583177674
 31
0.0
  0
ARC
  5
9B14
  8
D002
 10
76.80264744525766
 20
207.6619583177674
 30
0.0
 40
0.1767766952966168
 50
44.99999999999675
 51
224.9999999999707
  0
LINE
  5
9B15
  8
D002
 10
77.62347425020471
 20
208.0911315128204
 30
0.0
 11
78.0222601474261
 21
208.4899174100418
 31
0.0
  0
LINE
  5
9B16
  8
D002
 10
77.62347425020471
 20
208.4446849034136
 30
0.0
 11
77.84548345212943
 21
208.6666941053383
 31
0.0
  0
ARC
  5
9B17
  8
D002
 10
77.93387179977753
 20
208.5783057576902
 30
0.0
 40
0.1249999999999206
 50
314.999999999894
 51
134.9999999999309
  0
LINE
  5
9B18
  8
D002
 10
79.30373013853045
 20
204.6612277022528
 30
0.0
 11
79.44969590758433
 21
204.1164760359775
 31
0.0
  0
LINE
  5
9B19
  8
D002
 10
79.60991635637833
 20
204.4844510069562
 30
0.0
 11
79.6911773641566
 21
204.1811807972532
 31
0.0
  0
ARC
  5
9B1A
  8
D002
 10
80.03083418544361
 20
204.9462603641559
 30
0.0
 40
0.1249999999999206
 50
285.0000000000046
 51
105.0000000000046
  0
LINE
  5
9B1B
  8
D002
 10
77.62347425020471
 20
204.8911315128205
 30
0.0
 11
77.62347425020471
 21
205.2836146774311
 31
0.0
1001
GENIUS_GENODEF_13
1002
{
1000
HIER
1070
     0
1002
}
1002
{
1000
MANEDIT
1070
     0
1002
}
1002
{
1000
NOSEL
1070
     0
1002
}
1002
{
1000
BEHIND
1070
     0
1002
}
1002
{
1000
OTHER
1070
     0
1002
}
1002
{
1000
REACTOR
1002
}
1001
GENIUS_GENOBJ-N-CEN_13
1002
{
1000
OWNER
1000
GEN
1002
}
1001
GENIUS_GENCEN_19
1002
{
1040
3.0
1002
}
  0
LINE
  5
9B1C
  8
D002
 10
79.7599163563782
 20
204.7442586280915
 30
0.0
 11
80.06318656608141
 21
204.8255196358699
 31
0.0
  0
ARC
  5
9B1D
  8
D002
 10
79.57043663587069
 20
204.1488284166153
 30
0.0
 40
0.1249999999999206
 50
194.9999999999509
 51
15.00000000000457
  0
LINE
  5
9B1E
  8
D002
 10
79.45373013853032
 20
204.9210353233882
 30
0.0
 11
79.9984818048058
 21
205.0670010924422
 31
0.0
  0
LINE
  5
9B1F
  8
D002
 10
77.62347425020471
 20
203.6911315128204
 30
0.0
 11
77.62347425020471
 21
204.3911315128205
 31
0.0
1001
GENIUS_GENODEF_13
1002
{
1000
HIER
1070
     0
1002
}
1002
{
1000
MANEDIT
1070
     0
1002
}
1002
{
1000
NOSEL
1070
     0
1002
}
1002
{
1000
BEHIND
1070
     0
1002
}
1002
{
1000
OTHER
1070
     0
1002
}
1002
{
1000
REACTOR
1002
}
1001
GENIUS_GENOBJ-N-CEN_13
1002
{
1000
OWNER
1000
GEN
1002
}
1001
GENIUS_GENCEN_19
1002
{
1040
3.0
1002
}
  0
LINE
  5
9B20
  8
D002
 10
77.32347425020453
 20
203.6911315128204
 30
0.0
 11
77.32347425020453
 21
204.3911315128205
 31
0.0
1001
GENIUS_GENODEF_13
1002
{
1000
HIER
1070
     0
1002
}
1002
{
1000
MANEDIT
1070
     0
1002
}
1002
{
1000
NOSEL
1070
     0
1002
}
1002
{
1000
BEHIND
1070
     0
1002
}
1002
{
1000
OTHER
1070
     0
1002
}
1002
{
1000
REACTOR
1002
}
1001
GENIUS_GENOBJ-N-CEN_13
1002
{
1000
OWNER
1000
GEN
1002
}
1001
GENIUS_GENCEN_19
1002
{
1040
3.0
1002
}
  0
LINE
  5
9B21
  8
D002
 10
77.32347425020453
 20
208.4446849034136
 30
0.0
 11
77.32347425020453
 21
208.9911315128204
 31
0.0
1001
GENIUS_GENODEF_13
1002
{
1000
HIER
1070
     0
1002
}
1002
{
1000
MANEDIT
1070
     0
1002
}
1002
{
1000
NOSEL
1070
     0
1002
}
1002
{
1000
BEHIND
1070
     0
1002
}
1002
{
1000
OTHER
1070
     0
1002
}
1002
{
1000
REACTOR
1002
}
1001
GENIUS_GENOBJ-N-CEN_13
1002
{
1000
OWNER
1000
GEN
1002
}
1001
GENIUS_GENCEN_19
1002
{
1040
3.0
1002
}
  0
LINE
  5
9B22
  8
D002
 10
77.62347425020471
 20
208.4446849034136
 30
0.0
 11
77.62347425020471
 21
208.9911315128204
 31
0.0
1001
GENIUS_GENODEF_13
1002
{
1000
HIER
1070
     0
1002
}
1002
{
1000
MANEDIT
1070
     0
1002
}
1002
{
1000
NOSEL
1070
     0
1002
}
1002
{
1000
BEHIND
1070
     0
1002
}
1002
{
1000
OTHER
1070
     0
1002
}
1002
{
1000
REACTOR
1002
}
1001
GENIUS_GENOBJ-N-CEN_13
1002
{
1000
OWNER
1000
GEN
1002
}
1001
GENIUS_GENCEN_19
1002
{
1040
3.0
1002
}
  0
ARC
  5
9B23
  8
D002
 10
77.0130767006317
 20
208.5783057576902
 30
0.0
 40
0.1249999999999206
 50
45.00000000006909
 51
224.9999999999585
  0
LINE
  5
9B24
  8
D002
 10
77.32347425020453
 20
208.4446849034136
 30
0.0
 11
77.1014650482798
 21
208.6666941053383
 31
0.0
  0
LINE
  5
9B25
  8
D002
 10
77.32347425020453
 20
208.0911315128204
 30
0.0
 11
76.92468835298314
 21
208.4899174100418
 31
0.0
  0
LINE
  5
9B26
  8
D002
 10
77.62347425020471
 20
207.3911315128205
 30
0.0
 11
77.62347425020471
 21
208.0911315128204
 31
0.0
1001
GENIUS_GENODEF_13
1002
{
1000
HIER
1070
     0
1002
}
1002
{
1000
MANEDIT
1070
     0
1002
}
1002
{
1000
NOSEL
1070
     0
1002
}
1002
{
1000
BEHIND
1070
     0
1002
}
1002
{
1000
OTHER
1070
     0
1002
}
1002
{
1000
REACTOR
1002
}
1001
GENIUS_GENOBJ-N-CEN_13
1002
{
1000
OWNER
1000
GEN
1002
}
1001
GENIUS_GENCEN_19
1002
{
1040
3.0
1002
}
  0
LINE
  5
9B27
  8
D002
 10
77.32347425020453
 20
207.3911315128205
 30
0.0
 11
77.32347425020453
 21
208.0911315128204
 31
0.0
1001
GENIUS_GENODEF_13
1002
{
1000
HIER
1070
     0
1002
}
1002
{
1000
MANEDIT
1070
     0
1002
}
1002
{
1000
NOSEL
1070
     0
1002
}
1002
{
1000
BEHIND
1070
     0
1002
}
1002
{
1000
OTHER
1070
     0
1002
}
1002
{
1000
REACTOR
1002
}
1001
GENIUS_GENOBJ-N-CEN_13
1002
{
1000
OWNER
1000
GEN
1002
}
1001
GENIUS_GENCEN_19
1002
{
1040
3.0
1002
}
  0
LINE
  5
9B28
  8
D002
 10
77.62347425020471
 20
203.3375781222271
 30
0.0
 11
77.84548345212943
 21
203.1155689203024
 31
0.0
  0
LINE
  5
9B29
  8
D002
 10
77.32347425020453
 20
204.3911315128205
 30
0.0
 11
76.92764744525766
 21
203.9953047078734
 31
0.0
  0
ARC
  5
9B2A
  8
D002
 10
77.47347425020462
 20
202.7911315128203
 30
0.0
 40
0.1499999999999773
 50
180.0
 51
0.0
  0
ARC
  5
9B2B
  8
D002
 10
78.14430105515157
 20
204.1203047078734
 30
0.0
 40
0.1767766952966168
 50
224.9999999999968
 51
44.99999999999675
  0
ARC
  5
9B2C
  8
D002
 10
76.80264744525766
 20
204.1203047078734
 30
0.0
 40
0.1767766952966168
 50
135.0000000000033
 51
315.0000000000032
  0
LINE
  5
9B2D
  8
D002
 10
77.62347425020471
 20
204.3911315128205
 30
0.0
 11
78.01930105515157
 21
203.9953047078734
 31
0.0
  0
LINE
  5
9B2E
  8
D002
 10
77.32347425020453
 20
204.8911315128205
 30
0.0
 11
76.67764744525766
 21
204.2453047078734
 31
0.0
  0
ARC
  5
9B2F
  8
D002
 10
77.93387179977753
 20
203.2039572679506
 30
0.0
 40
0.1249999999999206
 50
225.0000000000691
 51
44.99999999995854
  0
LINE
  5
9B30
  8
D002
 10
77.32347425020453
 20
203.6911315128204
 30
0.0
 11
76.92468835298314
 21
203.292345615599
 31
0.0
  0
LINE
  5
9B31
  8
D002
 10
77.62347425020471
 20
203.6911315128204
 30
0.0
 11
78.0222601474261
 21
203.292345615599
 31
0.0
  0
LINE
  5
9B32
  8
D002
 10
77.62347425020471
 20
204.8911315128205
 30
0.0
 11
78.26930105515157
 21
204.2453047078734
 31
0.0
  0
ARC
  5
9B33
  8
D002
 10
77.0130767006317
 20
203.2039572679506
 30
0.0
 40
0.1249999999999206
 50
134.9999999998941
 51
314.999999999894
  0
LINE
  5
9B34
  8
D002
 10
77.32347425020453
 20
203.3375781222271
 30
0.0
 11
77.1014650482798
 21
203.1155689203024
 31
0.0
  0
LINE
  5
9B35
  8
D002
 10
78.69751235588137
 20
206.7710353233881
 30
0.0
 11
78.8423950219908
 21
207.3117447944445
 31
0.0
  0
ARC
  5
9B36
  8
D002
 10
78.67164184651779
 20
207.3574979699176
 30
0.0
 40
0.1767766952966168
 50
344.9999999999747
 51
164.9999999999747
  0
LINE
  5
9B37
  8
D002
 10
75.3370321440309
 20
204.4844510069562
 30
0.0
 11
74.86379549847288
 21
204.2112277022528
 31
0.0
1001
GENIUS_GENODEF_13
1002
{
1000
HIER
1070
     0
1002
}
1002
{
1000
MANEDIT
1070
     0
1002
}
1002
{
1000
NOSEL
1070
     0
1002
}
1002
{
1000
BEHIND
1070
     0
1002
}
1002
{
1000
OTHER
1070
     0
1002
}
1002
{
1000
REACTOR
1002
}
1001
GENIUS_GENOBJ-N-CEN_13
1002
{
1000
OWNER
1000
GEN
1002
}
1001
GENIUS_GENCEN_19
1002
{
1040
3.0
1002
}
  0
LINE
  5
9B38
  8
D002
 10
78.41449965398897
 20
206.2612277022527
 30
0.0
 11
79.29671547599173
 21
206.0248386851972
 31
0.0
  0
LINE
  5
9B39
  8
D002
 10
79.45373013853032
 20
206.8612277022528
 30
0.0
 11
79.9984818048058
 21
206.7152619331988
 31
0.0
  0
LINE
  5
9B3A
  8
D002
 10
79.7599163563782
 20
207.0380043975494
 30
0.0
 11
80.06318656608141
 21
206.956743389771
 31
0.0
  0
ARC
  5
9B3B
  8
D002
 10
80.03083418544361
 20
206.836002661485
 30
0.0
 40
0.1249999999999206
 50
254.9999999999954
 51
74.99999999999544
  0
LINE
  5
9B3C
  8
D002
 10
79.30373013853045
 20
207.1210353233881
 30
0.0
 11
79.44969590758433
 21
207.6657869896635
 31
0.0
  0
LINE
  5
9B3D
  8
D002
 10
76.099436144528
 20
205.2710353233881
 30
0.0
 11
75.49321836187892
 21
204.9210353233881
 31
0.0
1001
GENIUS_GENODEF_13
1002
{
1000
HIER
1070
     0
1002
}
1002
{
1000
MANEDIT
1070
     0
1002
}
1002
{
1000
NOSEL
1070
     0
1002
}
1002
{
1000
BEHIND
1070
     0
1002
}
1002
{
1000
OTHER
1070
     0
1002
}
1002
{
1000
REACTOR
1002
}
1001
GENIUS_GENOBJ-N-CEN_13
1002
{
1000
OWNER
1000
GEN
1002
}
1001
GENIUS_GENCEN_19
1002
{
1040
3.0
1002
}
  0
ARC
  5
9B3E
  8
D002
 10
76.27530665389145
 20
204.4247650557232
 30
0.0
 40
0.1767766952966168
 50
164.9999999999747
 51
345.0000000000139
  0
LINE
  5
9B3F
  8
D002
 10
76.099436144528
 20
205.2710353233881
 30
0.0
 11
75.55872667347148
 21
205.4159179894975
 31
0.0
  0
ARC
  5
9B40
  8
D002
 10
80.1581530019364
 20
207.4411315128204
 30
0.0
 40
0.1499999999999773
 50
300.0000000000254
 51
120.0000000000254
  0
LINE
  5
9B41
  8
D002
 10
78.41449965398897
 20
206.2612277022527
 30
0.0
 11
78.07459926287834
 21
206.0649861199473
 31
0.0
1001
GENIUS_GENODEF_13
1002
{
1000
HIER
1070
     0
1002
}
1002
{
1000
MANEDIT
1070
     0
1002
}
1002
{
1000
NOSEL
1070
     0
1002
}
1002
{
1000
BEHIND
1070
     0
1002
}
1002
{
1000
OTHER
1070
     0
1002
}
1002
{
1000
REACTOR
1002
}
1001
GENIUS_GENOBJ-N-CEN_13
1002
{
1000
OWNER
1000
GEN
1002
}
1001
GENIUS_GENCEN_19
1002
{
1040
3.0
1002
}
  0
LINE
  5
9B42
  8
D002
 10
78.2644996539891
 20
206.5210353233881
 30
0.0
 11
77.92459926287847
 21
206.3247937410826
 31
0.0
1001
GENIUS_GENODEF_13
1002
{
1000
HIER
1070
     0
1002
}
1002
{
1000
MANEDIT
1070
     0
1002
}
1002
{
1000
NOSEL
1070
     0
1002
}
1002
{
1000
BEHIND
1070
     0
1002
}
1002
{
1000
OTHER
1070
     0
1002
}
1002
{
1000
REACTOR
1002
}
1001
GENIUS_GENOBJ-N-CEN_13
1002
{
1000
OWNER
1000
GEN
1002
}
1001
GENIUS_GENCEN_19
1002
{
1040
3.0
1002
}
  0
LINE
  5
9B43
  8
D002
 10
76.24943614452786
 20
205.0112277022527
 30
0.0
 11
76.10455347841844
 21
204.4705182311963
 31
0.0
  0
LINE
  5
9B44
  8
D002
 10
76.68244884642013
 20
205.2612277022527
 30
0.0
 11
76.44605982936469
 21
204.3790118802502
 31
0.0
  0
LINE
  5
9B45
  8
D002
 10
80.23315300193644
 20
207.3112277022528
 30
0.0
 11
79.7599163563782
 21
207.0380043975494
 31
0.0
1001
GENIUS_GENODEF_13
1002
{
1000
HIER
1070
     0
1002
}
1002
{
1000
MANEDIT
1070
     0
1002
}
1002
{
1000
NOSEL
1070
     0
1002
}
1002
{
1000
BEHIND
1070
     0
1002
}
1002
{
1000
OTHER
1070
     0
1002
}
1002
{
1000
REACTOR
1002
}
1001
GENIUS_GENOBJ-N-CEN_13
1002
{
1000
OWNER
1000
GEN
1002
}
1001
GENIUS_GENCEN_19
1002
{
1040
3.0
1002
}
  0
ARC
  5
9B46
  8
D002
 10
74.78879549847284
 20
204.3411315128204
 30
0.0
 40
0.1499999999999773
 50
120.0000000000254
 51
300.0000000000254
  0
ARC
  5
9B47
  8
D002
 10
75.6044798489445
 20
205.5866711649705
 30
0.0
 40
0.1767766952966168
 50
75.0000000000127
 51
255.0000000000127
  0
LINE
  5
9B48
  8
D002
 10
80.08315300193635
 20
207.5710353233881
 30
0.0
 11
79.60991635637833
 21
207.2978120186848
 31
0.0
1001
GENIUS_GENODEF_13
1002
{
1000
HIER
1070
     0
1002
}
1002
{
1000
MANEDIT
1070
     0
1002
}
1002
{
1000
NOSEL
1070
     0
1002
}
1002
{
1000
BEHIND
1070
     0
1002
}
1002
{
1000
OTHER
1070
     0
1002
}
1002
{
1000
REACTOR
1002
}
1001
GENIUS_GENOBJ-N-CEN_13
1002
{
1000
OWNER
1000
GEN
1002
}
1001
GENIUS_GENCEN_19
1002
{
1040
3.0
1002
}
  0
LINE
  5
9B49
  8
D002
 10
79.30373013853045
 20
207.1210353233881
 30
0.0
 11
78.69751235588137
 21
206.7710353233881
 31
0.0
1001
GENIUS_GENODEF_13
1002
{
1000
HIER
1070
     0
1002
}
1002
{
1000
MANEDIT
1070
     0
1002
}
1002
{
1000
NOSEL
1070
     0
1002
}
1002
{
1000
BEHIND
1070
     0
1002
}
1002
{
1000
OTHER
1070
     0
1002
}
1002
{
1000
REACTOR
1002
}
1001
GENIUS_GENOBJ-N-CEN_13
1002
{
1000
OWNER
1000
GEN
1002
}
1001
GENIUS_GENCEN_19
1002
{
1040
3.0
1002
}
  0
LINE
  5
9B4A
  8
D002
 10
75.18703214403104
 20
204.7442586280915
 30
0.0
 11
74.71379549847279
 21
204.4710353233881
 31
0.0
1001
GENIUS_GENODEF_13
1002
{
1000
HIER
1070
     0
1002
}
1002
{
1000
MANEDIT
1070
     0
1002
}
1002
{
1000
NOSEL
1070
     0
1002
}
1002
{
1000
BEHIND
1070
     0
1002
}
1002
{
1000
OTHER
1070
     0
1002
}
1002
{
1000
REACTOR
1002
}
1001
GENIUS_GENOBJ-N-CEN_13
1002
{
1000
OWNER
1000
GEN
1002
}
1001
GENIUS_GENCEN_19
1002
{
1040
3.0
1002
}
  0
LINE
  5
9B4B
  8
D002
 10
79.45373013853032
 20
206.8612277022528
 30
0.0
 11
78.84751235588124
 21
206.5112277022527
 31
0.0
1001
GENIUS_GENODEF_13
1002
{
1000
HIER
1070
     0
1002
}
1002
{
1000
MANEDIT
1070
     0
1002
}
1002
{
1000
NOSEL
1070
     0
1002
}
1002
{
1000
BEHIND
1070
     0
1002
}
1002
{
1000
OTHER
1070
     0
1002
}
1002
{
1000
REACTOR
1002
}
1001
GENIUS_GENOBJ-N-CEN_13
1002
{
1000
OWNER
1000
GEN
1002
}
1001
GENIUS_GENCEN_19
1002
{
1040
3.0
1002
}
  0
LINE
  5
9B4C
  8
D002
 10
75.64321836187878
 20
204.6612277022527
 30
0.0
 11
75.4972525928249
 21
204.1164760359773
 31
0.0
  0
LINE
  5
9B4D
  8
D002
 10
75.3370321440309
 20
204.4844510069562
 30
0.0
 11
75.25577113625263
 21
204.1811807972531
 31
0.0
  0
ARC
  5
9B4E
  8
D002
 10
75.37651186453854
 20
204.1488284166151
 30
0.0
 40
0.1249999999999206
 50
164.9999999999954
 51
345.0000000001045
  0
LINE
  5
9B4F
  8
D002
 10
75.49321836187892
 20
204.9210353233881
 30
0.0
 11
74.94846669560343
 21
205.067001092442
 31
0.0
  0
LINE
  5
9B50
  8
D002
 10
75.18703214403104
 20
204.7442586280915
 30
0.0
 11
74.88376193432782
 21
204.8255196358698
 31
0.0
  0
LINE
  5
9B51
  8
D002
 10
76.24943614452786
 20
205.0112277022527
 30
0.0
 11
75.64321836187878
 21
204.6612277022527
 31
0.0
1001
GENIUS_GENODEF_13
1002
{
1000
HIER
1070
     0
1002
}
1002
{
1000
MANEDIT
1070
     0
1002
}
1002
{
1000
NOSEL
1070
     0
1002
}
1002
{
1000
BEHIND
1070
     0
1002
}
1002
{
1000
OTHER
1070
     0
1002
}
1002
{
1000
REACTOR
1002
}
1001
GENIUS_GENOBJ-N-CEN_13
1002
{
1000
OWNER
1000
GEN
1002
}
1001
GENIUS_GENCEN_19
1002
{
1040
3.0
1002
}
  0
LINE
  5
9B52
  8
D002
 10
76.53244884642027
 20
205.5210353233881
 30
0.0
 11
75.6502330244175
 21
205.7574243404436
 31
0.0
  0
ARC
  5
9B53
  8
D002
 10
74.91611431496563
 20
204.9462603641558
 30
0.0
 40
0.1249999999999206
 50
74.99999999999544
 51
254.9999999999954
  0
LINE
  5
9B54
  8
D002
 10
78.84751235588124
 20
206.5112277022527
 30
0.0
 11
79.38822182693775
 21
206.3663450361433
 31
0.0
  0
ARC
  5
9B55
  8
D002
 10
79.34246865146474
 20
206.1955918606703
 30
0.0
 40
0.1767766952966168
 50
255.0000000000127
 51
75.0000000000127
  0
LINE
  5
9B56
  8
D002
 10
78.2644996539891
 20
206.5210353233881
 30
0.0
 11
78.50088867104478
 21
207.4032511453906
 31
0.0
  0
LINE
  5
9B57
  8
D002
 10
77.32347425020453
 20
204.8911315128205
 30
0.0
 11
77.32347425020453
 21
205.2836146774311
 31
0.0
1001
GENIUS_GENODEF_13
1002
{
1000
HIER
1070
     0
1002
}
1002
{
1000
MANEDIT
1070
     0
1002
}
1002
{
1000
NOSEL
1070
     0
1002
}
1002
{
1000
BEHIND
1070
     0
1002
}
1002
{
1000
OTHER
1070
     0
1002
}
1002
{
1000
REACTOR
1002
}
1001
GENIUS_GENOBJ-N-CEN_13
1002
{
1000
OWNER
1000
GEN
1002
}
1001
GENIUS_GENCEN_19
1002
{
1040
3.0
1002
}
  0
LINE
  5
9B58
  8
D002
 10
79.60991635637833
 20
207.2978120186848
 30
0.0
 11
79.6911773641566
 21
207.6010822283878
 31
0.0
  0
ARC
  5
9B59
  8
D002
 10
79.57043663587069
 20
207.6334346090257
 30
0.0
 40
0.1249999999999206
 50
344.9999999999954
 51
165.0000000001046
  0
LINE
  5
9B5A
  8
D002
 10
75.3370321440309
 20
207.2978120186848
 30
0.0
 11
75.25577113625263
 21
207.6010822283879
 31
0.0
  0
LINE
  5
9B5B
  8
D002
 10
75.49321836187892
 20
206.8612277022528
 30
0.0
 11
74.94846669560343
 21
206.7152619331988
 31
0.0
  0
LINE
  5
9B5C
  8
D002
 10
75.18703214403104
 20
207.0380043975494
 30
0.0
 11
74.88376193432782
 21
206.9567433897712
 31
0.0
  0
LINE
  5
9B5D
  8
D002
 10
79.30373013853045
 20
204.6612277022528
 30
0.0
 11
78.69751235588137
 21
205.0112277022529
 31
0.0
1001
GENIUS_GENODEF_13
1002
{
1000
HIER
1070
     0
1002
}
1002
{
1000
MANEDIT
1070
     0
1002
}
1002
{
1000
NOSEL
1070
     0
1002
}
1002
{
1000
BEHIND
1070
     0
1002
}
1002
{
1000
OTHER
1070
     0
1002
}
1002
{
1000
REACTOR
1002
}
1001
GENIUS_GENOBJ-N-CEN_13
1002
{
1000
OWNER
1000
GEN
1002
}
1001
GENIUS_GENCEN_19
1002
{
1040
3.0
1002
}
  0
LINE
  5
9B5E
  8
D002
 10
79.45373013853032
 20
204.9210353233882
 30
0.0
 11
78.84751235588124
 21
205.2710353233882
 31
0.0
1001
GENIUS_GENODEF_13
1002
{
1000
HIER
1070
     0
1002
}
1002
{
1000
MANEDIT
1070
     0
1002
}
1002
{
1000
NOSEL
1070
     0
1002
}
1002
{
1000
BEHIND
1070
     0
1002
}
1002
{
1000
OTHER
1070
     0
1002
}
1002
{
1000
REACTOR
1002
}
1001
GENIUS_GENOBJ-N-CEN_13
1002
{
1000
OWNER
1000
GEN
1002
}
1001
GENIUS_GENCEN_19
1002
{
1040
3.0
1002
}
  0
ARC
  5
9B5F
  8
D002
 10
75.37651186453854
 20
207.6334346090257
 30
0.0
 40
0.1249999999999206
 50
14.99999999995087
 51
194.9999999999509
  0
ARC
  5
9B60
  8
D002
 10
74.91611431496563
 20
206.836002661485
 30
0.0
 40
0.1249999999999206
 50
105.0000000000046
 51
285.0000000000046
  0
LINE
  5
9B61
  8
D002
 10
78.2644996539891
 20
205.2612277022529
 30
0.0
 11
77.92459926287847
 21
205.4574692845582
 31
0.0
1001
GENIUS_GENODEF_13
1002
{
1000
HIER
1070
     0
1002
}
1002
{
1000
MANEDIT
1070
     0
1002
}
1002
{
1000
NOSEL
1070
     0
1002
}
1002
{
1000
BEHIND
1070
     0
1002
}
1002
{
1000
OTHER
1070
     0
1002
}
1002
{
1000
REACTOR
1002
}
1001
GENIUS_GENOBJ-N-CEN_13
1002
{
1000
OWNER
1000
GEN
1002
}
1001
GENIUS_GENCEN_19
1002
{
1040
3.0
1002
}
  0
LINE
  5
9B62
  8
D002
 10
75.3370321440309
 20
207.2978120186848
 30
0.0
 11
74.86379549847288
 21
207.5710353233881
 31
0.0
1001
GENIUS_GENODEF_13
1002
{
1000
HIER
1070
     0
1002
}
1002
{
1000
MANEDIT
1070
     0
1002
}
1002
{
1000
NOSEL
1070
     0
1002
}
1002
{
1000
BEHIND
1070
     0
1002
}
1002
{
1000
OTHER
1070
     0
1002
}
1002
{
1000
REACTOR
1002
}
1001
GENIUS_GENOBJ-N-CEN_13
1002
{
1000
OWNER
1000
GEN
1002
}
1001
GENIUS_GENCEN_19
1002
{
1040
3.0
1002
}
  0
LINE
  5
9B63
  8
D002
 10
76.24943614452786
 20
206.7710353233882
 30
0.0
 11
76.10455347841844
 21
207.3117447944446
 31
0.0
  0
LINE
  5
9B64
  8
D002
 10
78.41449965398897
 20
205.5210353233882
 30
0.0
 11
79.29671547599173
 21
205.7574243404436
 31
0.0
  0
ARC
  5
9B65
  8
D002
 10
76.27530665389145
 20
207.3574979699176
 30
0.0
 40
0.1767766952966168
 50
15.00000000002528
 51
194.9999999999861
  0
LINE
  5
9B66
  8
D002
 10
80.08315300193635
 20
204.2112277022528
 30
0.0
 11
79.60991635637833
 21
204.4844510069562
 31
0.0
1001
GENIUS_GENODEF_13
1002
{
1000
HIER
1070
     0
1002
}
1002
{
1000
MANEDIT
1070
     0
1002
}
1002
{
1000
NOSEL
1070
     0
1002
}
1002
{
1000
BEHIND
1070
     0
1002
}
1002
{
1000
OTHER
1070
     0
1002
}
1002
{
1000
REACTOR
1002
}
1001
GENIUS_GENOBJ-N-CEN_13
1002
{
1000
OWNER
1000
GEN
1002
}
1001
GENIUS_GENCEN_19
1002
{
1040
3.0
1002
}
  0
LINE
  5
9B67
  8
D002
 10
76.53244884642027
 20
206.2612277022529
 30
0.0
 11
75.6502330244175
 21
206.0248386851973
 31
0.0
  0
LINE
  5
9B68
  8
D002
 10
78.41449965398897
 20
205.5210353233882
 30
0.0
 11
78.07459926287834
 21
205.7172769056935
 31
0.0
1001
GENIUS_GENODEF_13
1002
{
1000
HIER
1070
     0
1002
}
1002
{
1000
MANEDIT
1070
     0
1002
}
1002
{
1000
NOSEL
1070
     0
1002
}
1002
{
1000
BEHIND
1070
     0
1002
}
1002
{
1000
OTHER
1070
     0
1002
}
1002
{
1000
REACTOR
1002
}
1001
GENIUS_GENOBJ-N-CEN_13
1002
{
1000
OWNER
1000
GEN
1002
}
1001
GENIUS_GENCEN_19
1002
{
1040
3.0
1002
}
  0
LINE
  5
9B69
  8
D002
 10
80.23315300193644
 20
204.4710353233881
 30
0.0
 11
79.7599163563782
 21
204.7442586280915
 31
0.0
1001
GENIUS_GENODEF_13
1002
{
1000
HIER
1070
     0
1002
}
1002
{
1000
MANEDIT
1070
     0
1002
}
1002
{
1000
NOSEL
1070
     0
1002
}
1002
{
1000
BEHIND
1070
     0
1002
}
1002
{
1000
OTHER
1070
     0
1002
}
1002
{
1000
REACTOR
1002
}
1001
GENIUS_GENOBJ-N-CEN_13
1002
{
1000
OWNER
1000
GEN
1002
}
1001
GENIUS_GENCEN_19
1002
{
1040
3.0
1002
}
  0
LINE
  5
9B6A
  8
D002
 10
75.64321836187878
 20
207.1210353233881
 30
0.0
 11
75.4972525928249
 21
207.6657869896635
 31
0.0
  0
ARC
  5
9B6B
  8
D002
 10
75.6044798489445
 20
206.1955918606703
 30
0.0
 40
0.1767766952966168
 50
104.9999999999873
 51
284.9999999999873
  0
ARC
  5
9B6C
  8
D002
 10
74.78879549847284
 20
207.4411315128205
 30
0.0
 40
0.1499999999999773
 50
59.99999999997465
 51
239.9999999999746
  0
LINE
  5
9B6D
  8
D002
 10
78.84751235588124
 20
205.2710353233882
 30
0.0
 11
79.38822182693775
 21
205.4159179894975
 31
0.0
  0
LINE
  5
9B6E
  8
D002
 10
76.24943614452786
 20
206.7710353233882
 30
0.0
 11
75.64321836187878
 21
207.1210353233881
 31
0.0
1001
GENIUS_GENODEF_13
1002
{
1000
HIER
1070
     0
1002
}
1002
{
1000
MANEDIT
1070
     0
1002
}
1002
{
1000
NOSEL
1070
     0
1002
}
1002
{
1000
BEHIND
1070
     0
1002
}
1002
{
1000
OTHER
1070
     0
1002
}
1002
{
1000
REACTOR
1002
}
1001
GENIUS_GENOBJ-N-CEN_13
1002
{
1000
OWNER
1000
GEN
1002
}
1001
GENIUS_GENCEN_19
1002
{
1040
3.0
1002
}
  0
ARC
  5
9B6F
  8
D002
 10
80.1581530019364
 20
204.3411315128205
 30
0.0
 40
0.1499999999999773
 50
239.9999999999746
 51
59.99999999997465
  0
ARC
  5
9B70
  8
D002
 10
79.34246865146474
 20
205.5866711649706
 30
0.0
 40
0.1767766952966168
 50
284.9999999999873
 51
104.9999999999873
  0
LINE
  5
9B71
  8
D002
 10
78.2644996539891
 20
205.2612277022529
 30
0.0
 11
78.50088867104478
 21
204.3790118802502
 31
0.0
  0
LINE
  5
9B72
  8
D002
 10
75.18703214403104
 20
207.0380043975494
 30
0.0
 11
74.71379549847279
 21
207.3112277022528
 31
0.0
1001
GENIUS_GENODEF_13
1002
{
1000
HIER
1070
     0
1002
}
1002
{
1000
MANEDIT
1070
     0
1002
}
1002
{
1000
NOSEL
1070
     0
1002
}
1002
{
1000
BEHIND
1070
     0
1002
}
1002
{
1000
OTHER
1070
     0
1002
}
1002
{
1000
REACTOR
1002
}
1001
GENIUS_GENOBJ-N-CEN_13
1002
{
1000
OWNER
1000
GEN
1002
}
1001
GENIUS_GENCEN_19
1002
{
1040
3.0
1002
}
  0
LINE
  5
9B73
  8
D002
 10
78.69751235588137
 20
205.0112277022529
 30
0.0
 11
78.8423950219908
 21
204.4705182311963
 31
0.0
  0
LINE
  5
9B74
  8
D002
 10
76.099436144528
 20
206.5112277022529
 30
0.0
 11
75.55872667347148
 21
206.3663450361434
 31
0.0
  0
LINE
  5
9B75
  8
D002
 10
76.68244884642013
 20
206.5210353233882
 30
0.0
 11
76.44605982936469
 21
207.4032511453907
 31
0.0
  0
ARC
  5
9B76
  8
D002
 10
78.67164184651779
 20
204.4247650557233
 30
0.0
 40
0.1767766952966168
 50
195.0000000000253
 51
14.99999999998613
  0
LINE
  5
9B77
  8
D002
 10
76.099436144528
 20
206.5112277022529
 30
0.0
 11
75.49321836187892
 21
206.8612277022528
 31
0.0
1001
GENIUS_GENODEF_13
1002
{
1000
HIER
1070
     0
1002
}
1002
{
1000
MANEDIT
1070
     0
1002
}
1002
{
1000
NOSEL
1070
     0
1002
}
1002
{
1000
BEHIND
1070
     0
1002
}
1002
{
1000
OTHER
1070
     0
1002
}
1002
{
1000
REACTOR
1002
}
1001
GENIUS_GENOBJ-N-CEN_13
1002
{
1000
OWNER
1000
GEN
1002
}
1001
GENIUS_GENCEN_19
1002
{
1040
3.0
1002
}
  0
LINE
  5
9B7D
  8
D002
 10
76.8723492375309
 20
206.0649861199474
 30
0.0
 11
76.53244884642027
 21
206.2612277022529
 31
0.0
1001
GENIUS_GENODEF_13
1002
{
1000
HIER
1070
     0
1002
}
1002
{
1000
MANEDIT
1070
     0
1002
}
1002
{
1000
NOSEL
1070
     0
1002
}
1002
{
1000
BEHIND
1070
     0
1002
}
1002
{
1000
OTHER
1070
     0
1002
}
1002
{
1000
REACTOR
1002
}
1001
GENIUS_GENOBJ-N-CEN_13
1002
{
1000
OWNER
1000
GEN
1002
}
1001
GENIUS_GENCEN_19
1002
{
1040
3.0
1002
}
  0
LINE
  5
9B7E
  8
D002
 10
77.02234923753076
 20
205.4574692845581
 30
0.0
 11
76.68244884642013
 21
205.2612277022527
 31
0.0
1001
GENIUS_GENODEF_13
1002
{
1000
HIER
1070
     0
1002
}
1002
{
1000
MANEDIT
1070
     0
1002
}
1002
{
1000
NOSEL
1070
     0
1002
}
1002
{
1000
BEHIND
1070
     0
1002
}
1002
{
1000
OTHER
1070
     0
1002
}
1002
{
1000
REACTOR
1002
}
1001
GENIUS_GENOBJ-N-CEN_13
1002
{
1000
OWNER
1000
GEN
1002
}
1001
GENIUS_GENCEN_19
1002
{
1040
3.0
1002
}
  0
LINE
  5
9B7F
  8
D002
 10
77.62347425020471
 20
206.4986483482097
 30
0.0
 11
77.62347425020471
 21
206.8911315128205
 31
0.0
1001
GENIUS_GENODEF_13
1002
{
1000
HIER
1070
     0
1002
}
1002
{
1000
MANEDIT
1070
     0
1002
}
1002
{
1000
NOSEL
1070
     0
1002
}
1002
{
1000
BEHIND
1070
     0
1002
}
1002
{
1000
OTHER
1070
     0
1002
}
1002
{
1000
REACTOR
1002
}
1001
GENIUS_GENOBJ-N-CEN_13
1002
{
1000
OWNER
1000
GEN
1002
}
1001
GENIUS_GENCEN_19
1002
{
1040
3.0
1002
}
  0
LINE
  5
9B80
  8
D002
 10
76.8723492375309
 20
205.7172769056934
 30
0.0
 11
76.53244884642027
 21
205.5210353233881
 31
0.0
1001
GENIUS_GENODEF_13
1002
{
1000
HIER
1070
     0
1002
}
1002
{
1000
MANEDIT
1070
     0
1002
}
1002
{
1000
NOSEL
1070
     0
1002
}
1002
{
1000
BEHIND
1070
     0
1002
}
1002
{
1000
OTHER
1070
     0
1002
}
1002
{
1000
REACTOR
1002
}
1001
GENIUS_GENOBJ-N-CEN_13
1002
{
1000
OWNER
1000
GEN
1002
}
1001
GENIUS_GENCEN_19
1002
{
1040
3.0
1002
}
  0
LINE
  5
9B81
  8
D002
 10
77.02234923753099
 20
206.3247937410827
 30
0.0
 11
76.68244884642013
 21
206.5210353233882
 31
0.0
1001
GENIUS_GENODEF_13
1002
{
1000
HIER
1070
     0
1002
}
1002
{
1000
MANEDIT
1070
     0
1002
}
1002
{
1000
NOSEL
1070
     0
1002
}
1002
{
1000
BEHIND
1070
     0
1002
}
1002
{
1000
OTHER
1070
     0
1002
}
1002
{
1000
REACTOR
1002
}
1001
GENIUS_GENOBJ-N-CEN_13
1002
{
1000
OWNER
1000
GEN
1002
}
1001
GENIUS_GENCEN_19
1002
{
1040
3.0
1002
}
  0
LINE
  5
9B82
  8
D002
 10
77.32347425020453
 20
206.4986483482097
 30
0.0
 11
77.32347425020453
 21
206.8911315128205
 31
0.0
1001
GENIUS_GENODEF_13
1002
{
1000
HIER
1070
     0
1002
}
1002
{
1000
MANEDIT
1070
     0
1002
}
1002
{
1000
NOSEL
1070
     0
1002
}
1002
{
1000
BEHIND
1070
     0
1002
}
1002
{
1000
OTHER
1070
     0
1002
}
1002
{
1000
REACTOR
1002
}
1001
GENIUS_GENOBJ-N-CEN_13
1002
{
1000
OWNER
1000
GEN
1002
}
1001
GENIUS_GENCEN_19
1002
{
1040
3.0
1002
}
  0
POINT
  5
9B83
  8
D002
 10
77.47347425020462
 20
205.8911315128205
 30
0.0
  0
LINE
  5
9B85
  8
0
 10
42.752193846816
 20
200.4403658406169
 30
0.0
 11
41.53975828151783
 21
198.3403658406165
 31
0.0
  0
ARC
  5
9B86
  8
0
 10
41.62636082189616
 20
198.2903658406167
 30
0.0
 40
0.0999999999998077
 50
150.0000000000498
 51
270.0000000000499
  0
LINE
  5
9B87
  8
0
 10
41.62636082189624
 20
198.1903658406169
 30
0.0
 11
44.05123195249257
 21
198.1903658406169
 31
0.0
  0
ARC
  5
9B88
  8
0
 10
44.05123195249266
 20
198.2903658406167
 30
0.0
 40
0.0999999999998075
 50
269.9999999999499
 51
29.9999999999503
  0
LINE
  5
9B89
  8
0
 10
44.13783449287098
 20
198.3403658406165
 30
0.0
 11
42.92539892757281
 21
200.4403658406169
 31
0.0
  0
ARC
  5
9B8A
  8
0
 10
42.83879638719441
 20
200.3903658406169
 30
0.0
 40
0.0999999999999585
 50
29.99999999999998
 51
150.0
  0
LINE
  5
9B8B
  8
0
 10
42.79549511770051
 20
200.3153658406169
 30
0.0
 11
41.66966209211773
 21
198.365365840628
 31
0.0
  0
ARC
  5
9B8C
  8
0
 10
41.71296336230068
 20
198.3403658406166
 30
0.0
 40
0.0500000000002611
 50
149.9999999851142
 51
269.9999999998677
  0
LINE
  5
9B8D
  8
0
 10
41.71296336230057
 20
198.2903658406163
 30
0.0
 11
43.96462941214008
 21
198.2903658406163
 31
0.0
  0
ARC
  5
9B8E
  8
0
 10
43.96462941214003
 20
198.3403658406163
 30
0.0
 40
0.0500000000000013
 50
270.0000000000688
 51
29.99999998531542
  0
LINE
  5
9B8F
  8
0
 10
44.00793068233565
 20
198.3653658406052
 30
0.0
 11
42.88209765807892
 21
200.3153658406169
 31
0.0
  0
ARC
  5
9B90
  8
0
 10
42.83879638788972
 20
200.2903658406169
 30
0.0
 40
0.0499999999999793
 50
30.00000000000012
 51
149.9999999999999
  0
LINE
  5
9B91
  8
D002
 10
77.47347425020462
 20
206.2009979616207
 30
0.0
 11
77.20512203376302
 21
206.0460647372206
 31
0.0
  0
LINE
  5
9B92
  8
D002
 10
77.20512203376302
 20
206.0460647372206
 30
0.0
 11
77.20512203376302
 21
205.7361982884202
 31
0.0
  0
LINE
  5
9B93
  8
D002
 10
77.20512203376302
 20
205.7361982884202
 30
0.0
 11
77.47347425020462
 21
205.5812650640201
 31
0.0
  0
LINE
  5
9B94
  8
D002
 10
77.47347425020462
 20
205.5812650640201
 30
0.0
 11
77.74182646664622
 21
205.7361982884202
 31
0.0
  0
LINE
  5
9B95
  8
D002
 10
77.74182646664622
 20
205.7361982884202
 30
0.0
 11
77.74182646664622
 21
206.0460647372206
 31
0.0
  0
LINE
  5
9B96
  8
D002
 10
77.74182646664622
 20
206.0460647372206
 30
0.0
 11
77.47347425020462
 21
206.2009979616207
 31
0.0
  0
LINE
  5
9B97
  8
D002
 10
77.32347425020453
 20
206.4986483482097
 30
0.0
 11
77.02234923753099
 21
206.3247937410827
 31
0.0
  0
LINE
  5
9B98
  8
D002
 10
77.92459926287847
 20
206.3247937410826
 30
0.0
 11
77.62347425020471
 21
206.4986483482097
 31
0.0
  0
LINE
  5
9B99
  8
D002
 10
77.02234923753076
 20
205.4574692845581
 30
0.0
 11
77.32347425020453
 21
205.2836146774311
 31
0.0
  0
LINE
  5
9B9A
  8
D002
 10
77.62347425020471
 20
205.2836146774311
 30
0.0
 11
77.92459926287847
 21
205.4574692845582
 31
0.0
  0
LINE
  5
9B9B
  8
D002
 10
78.07459926287834
 20
205.7172769056935
 30
0.0
 11
78.07459926287834
 21
206.0649861199473
 31
0.0
  0
LINE
  5
9B9C
  8
D002
 10
76.8723492375309
 20
206.0649861199474
 30
0.0
 11
76.8723492375309
 21
205.7172769056934
 31
0.0
  0
VIEWPORT
  5
22
 67
     1
  8
0
 10
5.269134197284911
 20
5.545311567251436
 30
0.0
 40
11.13808705479925
 41
12.32365374410561
 68
     1
 69
     1
1001
GENIUS_GENSCREG_15
1000
PF
1040
1.0
1000
DF
1040
1.0
1000
MIN
1011
-0.2999093301147138
1021
-0.6165153048013714
1031
0.0
1021
-0.6165153048013714
1031
0.0
1000
MAX
1011
10.83817772468454
1021
11.70713843930424
1031
0.0
1021
11.70713843930424
1031
0.0
1000
FLAGS
1070
     4
1001
GENIUS_GENODEF_13
1002
{
1000
HIER
1070
     0
1002
}
1002
{
1000
MANEDIT
1070
     0
1002
}
1002
{
1000
NOSEL
1070
     0
1002
}
1002
{
1000
BEHIND
1070
     0
1002
}
1002
{
1000
OTHER
1070
     0
1002
}
1002
{
1000
REACTOR
1002
}
1001
GENIUS_GENOBJ-N-SDF_13
1002
{
1000
OWNER
1000
GEN
1002
}
1001
ACAD
1000
MVIEW
1002
{
1070
    16
1010
0.0
1020
0.0
1030
0.0
1020
0.0
1030
0.0
1010
0.0
1020
0.0
1030
1.0
1020
0.0
1030
1.0
1040
0.0
1040
12.32365374410561
1040
5.269134197284911
1040
5.545311567251436
1040
50.0
1040
0.0
1040
0.0
1070
     0
1070
   100
1070
     0
1070
     1
1070
     0
1070
     0
1070
     0
1070
     0
1040
0.0
1040
0.0
1040
0.0
1040
1.0
1040
1.0
1040
10.0
1040
10.0
1070
     0
1002
{
1002
}
1002
}
  0
ENDSEC
  0
EOF
