  0
SECTION
  2
HEADER
  9
$ACADVER
  1
AC1009
  9
$DWGCODEPAGE
  3
ansi_932
  9
$INSBASE
 10
0.0
 20
0.0
 30
0.0
  9
$EXTMIN
 10
0.0000064909936555
 20
0.0000014963793546
 30
0.0
  9
$EXTMAX
 10
235.833339824327
 20
292.6851326928806
 30
0.0
  9
$LIMMIN
 10
0.0
 20
0.0
  9
$LIMMAX
 10
420.0
 20
420.0
  9
$ORTHOMODE
 70
     0
  9
$REGENMODE
 70
     1
  9
$FILLMODE
 70
     1
  9
$QTEXTMODE
 70
     0
  9
$MIRRTEXT
 70
     0
  9
$DRAGMODE
 70
     2
  9
$LTSCALE
 40
10.0
  9
$OSMODE
 70
   549
  9
$ATTMODE
 70
     1
  9
$TEXTSIZE
 40
1.0
  9
$TRACEWID
 40
1.0
  9
$TEXTSTYLE
  7
STANDARD
  9
$CLAYER
  8
0
  9
$CELTYPE
  6
BYLAYER
  9
$CECOLOR
 62
   256
  9
$DIMSCALE
 40
1.0
  9
$DIMASZ
 40
2.5
  9
$DIMEXO
 40
1.0
  9
$DIMDLI
 40
7.0
  9
$DIMRND
 40
0.0
  9
$DIMDLE
 40
0.0
  9
$DIMEXE
 40
1.0
  9
$DIMTP
 40
0.1
  9
$DIMTM
 40
0.1
  9
$DIMTXT
 40
3.0
  9
$DIMCEN
 40
0.0
  9
$DIMTSZ
 40
0.0
  9
$DIMTOL
 70
     0
  9
$DIMLIM
 70
     0
  9
$DIMTIH
 70
     0
  9
$DIMTOH
 70
     0
  9
$DIMSE1
 70
     0
  9
$DIMSE2
 70
     0
  9
$DIMTAD
 70
     3
  9
$DIMZIN
 70
     8
  9
$DIMBLK
  1
OPEN
  9
$DIMASO
 70
     1
  9
$DIMSHO
 70
     1
  9
$DIMPOST
  1

  9
$DIMAPOST
  1
"
  9
$DIMALT
 70
     0
  9
$DIMALTD
 70
     2
  9
$DIMALTF
 40
0.0393701
  9
$DIMLFAC
 40
1.0
  9
$DIMTOFL
 70
     1
  9
$DIMTVP
 40
0.0
  9
$DIMTIX
 70
     0
  9
$DIMSOXD
 70
     0
  9
$DIMSAH
 70
     0
  9
$DIMBLK1
  1

  9
$DIMBLK2
  1

  9
$DIMSTYLE
  2
AM_JIS
  9
$DIMCLRD
 70
   256
  9
$DIMCLRE
 70
   256
  9
$DIMCLRT
 70
     2
  9
$DIMTFAC
 40
0.71
  9
$DIMGAP
 40
1.0
  9
$LUNITS
 70
     2
  9
$LUPREC
 70
     2
  9
$SKETCHINC
 40
1.0
  9
$FILLETRAD
 40
2.5
  9
$AUNITS
 70
     0
  9
$AUPREC
 70
     0
  9
$MENU
  1
.
  9
$ELEVATION
 40
0.0
  9
$PELEVATION
 40
0.0
  9
$THICKNESS
 40
0.0
  9
$LIMCHECK
 70
     0
  9
$CHAMFERA
 40
2.5
  9
$CHAMFERB
 40
2.5
  9
$SKPOLY
 70
     1
  9
$TDCREATE
 40
2457177.635644502
  9
$TDUPDATE
 40
2460346.649815567
  9
$TDINDWG
 40
0.0209781597
  9
$TDUSRTIMER
 40
0.0209695949
  9
$USRTIMER
 70
     1
  9
$ANGBASE
 50
0.0
  9
$ANGDIR
 70
     0
  9
$PDMODE
 70
     0
  9
$PDSIZE
 40
0.0
  9
$PLINEWID
 40
0.0
  9
$COORDS
 70
     0
  9
$SPLFRAME
 70
     0
  9
$SPLINETYPE
 70
     6
  9
$SPLINESEGS
 70
     8
  9
$ATTDIA
 70
     1
  9
$ATTREQ
 70
     1
  9
$HANDLING
 70
     1
  9
$HANDSEED
  5
A4CC
  9
$SURFTAB1
 70
     6
  9
$SURFTAB2
 70
     6
  9
$SURFTYPE
 70
     6
  9
$SURFU
 70
     6
  9
$SURFV
 70
     6
  9
$UCSNAME
  2

  9
$UCSORG
 10
0.0
 20
0.0
 30
0.0
  9
$UCSXDIR
 10
1.0
 20
0.0
 30
0.0
  9
$UCSYDIR
 10
0.0
 20
1.0
 30
0.0
  9
$PUCSNAME
  2

  9
$PUCSORG
 10
0.0
 20
0.0
 30
0.0
  9
$PUCSXDIR
 10
1.0
 20
0.0
 30
0.0
  9
$PUCSYDIR
 10
0.0
 20
1.0
 30
0.0
  9
$USERI1
 70
     0
  9
$USERI2
 70
     0
  9
$USERI3
 70
     0
  9
$USERI4
 70
     0
  9
$USERI5
 70
     0
  9
$USERR1
 40
0.0
  9
$USERR2
 40
0.0
  9
$USERR3
 40
0.0
  9
$USERR4
 40
0.0
  9
$USERR5
 40
0.0
  9
$WORLDVIEW
 70
     1
  9
$SHADEDGE
 70
     3
  9
$SHADEDIF
 70
    70
  9
$TILEMODE
 70
     1
  9
$MAXACTVP
 70
    48
  9
$PLIMCHECK
 70
     0
  9
$PEXTMIN
 10
1.000000000000000E+20
 20
1.000000000000000E+20
 30
1.000000000000000E+20
  9
$PEXTMAX
 10
-1.000000000000000E+20
 20
-1.000000000000000E+20
 30
-1.000000000000000E+20
  9
$PLIMMIN
 10
-0.2500002402958907
 20
-0.2499999962453767
  9
$PLIMMAX
 10
10.74999951940822
 20
8.249999763458732
  9
$UNITMODE
 70
     0
  9
$VISRETAIN
 70
     1
  9
$PLINEGEN
 70
     0
  9
$PSLTSCALE
 70
     1
  0
ENDSEC
  0
SECTION
  2
TABLES
  0
TABLE
  2
VPORT
 70
     1
  0
VPORT
  2
*ACTIVE
 70
     0
 10
0.0
 20
0.0
 11
1.0
 21
1.0
 12
210.0
 22
210.0
 13
0.0
 23
0.0
 14
2.5
 24
2.5
 15
10.0
 25
10.0
 16
0.0
 26
0.0
 36
1.0
 17
0.0
 27
0.0
 37
0.0
 40
423.2589718719689
 41
2.05293551491819
 42
50.0
 43
0.0
 44
0.0
 50
0.0
 51
0.0
 71
     0
 72
   100
 73
     1
 74
     3
 75
     0
 76
     0
 77
     0
 78
     0
  0
ENDTAB
  0
TABLE
  2
LTYPE
 70
    22
  0
LTYPE
  2
CONTINUOUS
 70
     0
  3
Solid line
 72
    65
 73
     0
 40
0.0
  0
LTYPE
  2
HIDDEN
 70
     0
  3
__ __ __ __ __ __ __ __ __ __ __ __ __ __ __ __
 72
    65
 73
     2
 40
0.375
 49
0.25
 49
-0.125
  0
LTYPE
  2
PHANTOM2
 70
     0
  3
___ _ _ ___ _ _ ___ _ _ ___ _ _ ___ _ _ ___ _ _
 72
    65
 73
     6
 40
1.25
 49
0.625
 49
-0.125
 49
0.125
 49
-0.125
 49
0.125
 49
-0.125
  0
LTYPE
  2
CENTER
 70
     0
  3
____ _ ____ _ ____ _ ____ _ ____ _ ____ _ ____ 
 72
    65
 73
     4
 40
2.0
 49
1.25
 49
-0.25
 49
0.25
 49
-0.25
  0
LTYPE
  2
ACJISTGB
 70
     0
  3
__ . . __ . .
 72
    65
 73
     6
 40
9.0
 49
4.0
 49
-1.0
 49
1.0
 49
-1.0
 49
1.0
 49
-1.0
  0
LTYPE
  2
ACJISTGL
 70
     0
  3
_ _ _ _ _
 72
    65
 73
     2
 40
3.0
 49
2.0
 49
-1.0
  0
LTYPE
  2
ACISOWELD
 70
     0
  3
_ _ _ _ _
 72
    65
 73
     2
 40
2.0
 49
2.0
 49
-1.0
  0
LTYPE
  2
ACISOTGB
 70
     0
  3
__ . . __ . .
 72
    65
 73
     6
 40
9.0
 49
4.0
 49
-1.0
 49
1.0
 49
-1.0
 49
1.0
 49
-1.0
  0
LTYPE
  2
ACISOTGL
 70
     0
  3
_ _ _ _ _
 72
    65
 73
     2
 40
3.0
 49
2.0
 49
-1.0
  0
LTYPE
  2
AM_ISO02W050
 70
     0
  3
__ __ __ __ __ __ __ __ __ __ __ __ __ __ __
 72
    65
 73
     2
 40
7.5
 49
6.0
 49
-1.5
  0
LTYPE
  2
AM_ISO08W050
 70
     0
  3
____ . ____ . ____ . ____ . ____ . ____ . ____
 72
    65
 73
     4
 40
18.0
 49
12.0
 49
-1.5
 49
3.0
 49
-1.5
  0
LTYPE
  2
AM_ISO09W050
 70
     0
  3
_____ . . _____ . . _____ . . ____ .. ____
 72
    65
 73
     6
 40
22.5
 49
12.0
 49
-1.5
 49
3.0
 49
-1.5
 49
3.0
 49
-1.5
  0
LTYPE
  2
AM_ISO02W050X2
 70
     0
  3
 _ _ _ _ _ _ _ _ _ _ _ _
 72
    65
 73
     2
 40
3.75
 49
3.0
 49
-0.75
  0
LTYPE
  2
AM_ISO08W050X2
 70
     0
  3
__ . __ . __ . __ . __ . __
 72
    65
 73
     4
 40
9.0
 49
6.0
 49
-0.75
 49
1.5
 49
-0.75
  0
LTYPE
  2
AMZIGZAG
 70
     0
  3
/\/-/\/-/\/-/\/-/\/-/\/
 72
    65
 73
     2
 40
11.0001
 49
0.0001
 49
-11.0
  0
LTYPE
  2
AMCONSTR
 70
     0
  3
_______________________
 72
    65
 73
     2
 40
9999.0
 49
9999.0
 49
0.0
  0
LTYPE
  2
CENTER2
 70
     0
  3
Center (.5x) ___ _ ___ _ ___ _ ___ _ ___ _ ___
 72
    65
 73
     4
 40
1.125
 49
0.75
 49
-0.125
 49
0.125
 49
-0.125
  0
LTYPE
  2
HIDDEN2
 70
     0
  3
Hidden (.5x) _ _ _ _ _ _ _ _ _ _ _ _ _ _ _ _ _
 72
    65
 73
     2
 40
0.1875
 49
0.125
 49
-0.0625
  0
LTYPE
  2
ACJISWELD
 70
     0
  3
_ _ _ _ _
 72
    65
 73
     2
 40
2.0
 49
2.0
 49
-1.0
  0
LTYPE
  2
AMZIGZAG2
 70
     0
  3
/\/-/\/-/\/-/\/-/\/-/\/
 72
    65
 73
     2
 40
0.4401
 49
0.0001
 49
-0.44
  0
LTYPE
  2
ACANSTGB
 70
     0
  3
__ . . __ . .
 72
    65
 73
     6
 40
0.35433070866
 49
0.15748031496
 49
-0.03937007874
 49
0.03937007874
 49
-0.03937007874
 49
0.03937007874
 49
-0.03937007874
  0
LTYPE
  2
ACANSTGL
 70
     0
  3
_ _ _ _ _
 72
    65
 73
     2
 40
0.11811023622
 49
0.07874015748
 49
-0.03937007874
  0
ENDTAB
  0
TABLE
  2
LAYER
 70
     9
  0
LAYER
  2
0
 70
     0
 62
     7
  6
CONTINUOUS
  0
LAYER
  2
3A
 70
     0
 62
     6
  6
HIDDEN2
  0
LAYER
  2
7
 70
     0
 62
     4
  6
CENTER2
  0
LAYER
  2
AM_7
 70
     0
 62
     4
  6
CENTER2
  0
LAYER
  2
10
 70
     0
 62
     2
  6
CONTINUOUS
  0
LAYER
  2
DEFPOINTS
 70
     0
 62
     7
  6
CONTINUOUS
  0
LAYER
  2
AM_0
 70
     0
 62
     7
  6
CONTINUOUS
  0
LAYER
  2
D002
 70
     0
 62
   152
  6
CONTINUOUS
  0
ENDTAB
  0
TABLE
  2
STYLE
 70
     8
  0
STYLE
  2
STANDARD
 70
     0
 40
0.0
 41
1.0
 50
0.0
 71
     0
 42
1.0
  3
ISOCP.SHX
  4
EXTFONT.SHX
  0
STYLE
  2
ACJISTS
 70
     0
 40
1.0
 41
1.0
 50
0.0
 71
     0
 42
3.5
  3
isocp.shx
  4
extfont.shx
  0
STYLE
  2
ACJISGDT
 70
     0
 40
0.0
 41
1.0
 50
0.0
 71
     0
 42
3.5
  3
amgdt.shx
  4
extfont.shx
  0
STYLE
  2
ACISOTS
 70
     0
 40
1.0
 41
1.0
 50
0.0
 71
     0
 42
1.0
  3
isocp.shx
  4
extfont.shx
  0
STYLE
  2
ACISOGDT
 70
     0
 40
0.0
 41
1.0
 50
0.0
 71
     0
 42
3.5
  3
amgdt.shx
  4
extfont.shx
  0
STYLE
  2

 70
     1
 40
0.0
 41
1.0
 50
0.0
 71
     0
 42
3.5
  3
ltypeshp.shx
  4

  0
STYLE
  2

 70
     1
 40
0.0
 41
1.0
 50
0.0
 71
     0
 42
0.2
  3
genltshp.shx
  4

  0
STYLE
  2
ACANSGDT
 70
     0
 40
0.0
 41
1.0
 50
0.0
 71
     0
 42
0.2
  3
amgdt.shx
  4

  0
ENDTAB
  0
TABLE
  2
VIEW
 70
     3
  0
VIEW
  2
AMDTVIEW1
 70
     0
 40
329.0721649484536
 10
210.0
 20
164.5360824742268
 41
420.0
 11
0.0
 21
0.0
 31
1.0
 12
0.0
 22
0.0
 32
0.0
 42
50.0
 43
0.0
 44
0.0
 50
0.0
 71
     0
  0
VIEW
  2
AMDTVIEW2
 70
     0
 40
329.0721649484536
 10
210.0
 20
164.5360824742268
 41
420.0
 11
0.0
 21
0.0
 31
1.0
 12
0.0
 22
0.0
 32
0.0
 42
50.0
 43
0.0
 44
0.0
 50
0.0
 71
     0
  0
VIEW
  2
AMDTVIEW3
 70
     0
 40
329.0721649484536
 10
210.0
 20
164.5360824742268
 41
420.0
 11
0.0
 21
0.0
 31
1.0
 12
0.0
 22
0.0
 32
0.0
 42
50.0
 43
0.0
 44
0.0
 50
0.0
 71
     0
  0
ENDTAB
  0
TABLE
  2
UCS
 70
     0
  0
ENDTAB
  0
TABLE
  2
APPID
 70
    65
  0
APPID
  2
ACAD
 70
     0
  0
APPID
  2
AD_DRAW
 70
     0
  0
APPID
  2
DESIGNERASSEMBLIES
 70
     0
  0
APPID
  2
MCAD_NO_VIS
 70
     0
  0
APPID
  2
ASURF_PCURVE_APPNAME
 70
     0
  0
APPID
  2
ACAD_TEMP_GRAPHIC
 70
     0
  0
APPID
  2
ACATTRIBSERVICES
 70
     0
  0
APPID
  2
ACADM_DIM_EDIT
 70
     0
  0
APPID
  2
GENIUS_GENDIM_13
 70
     0
  0
APPID
  2
GENIUS_GENDTOL_13
 70
     0
  0
APPID
  2
GENIUS_GE3DTOL_13
 70
     0
  0
APPID
  2
AMG_3D2D_5_0
 70
     0
  0
APPID
  2
AMDT_DM_ADJ
 70
     0
  0
APPID
  2
ACAD_PSEXT
 70
     0
  0
APPID
  2
ACAD_DSTYLE_DIMTEXT_FILL
 70
     0
  0
APPID
  2
ACAECLAYERSTANDARD
 70
     0
  0
APPID
  2
GENIUS_GENREC_14
 70
     0
  0
APPID
  2
GENIUS_GENODEF_13
 70
     0
  0
APPID
  2
GENIUS_GENOBJ-N-REC_13
 70
     0
  0
APPID
  2
DCO15
 70
     0
  0
APPID
  2
ACAD_DSTYLE_DIMJAG
 70
     0
  0
APPID
  2
ACAD_DSTYLE_DIMTALN
 70
     0
  0
APPID
  2
ACAD_MLEADERVER
 70
     0
  0
APPID
  2
GENIUS_GENSCREG_15
 70
     0
  0
APPID
  2
GENIUS_GENOBJ-N-SDF_13
 70
     0
  0
APPID
  2
ACAD_NAV_VCDISPLAY
 70
     0
  0
APPID
  2
ACAD_EXEMPT_FROM_CAD_STAND
 70
     0
  0
APPID
  2
ACCMTRANSPARENCY
 70
     0
  0
APPID
  2
GENIUS_GENOBJ-N-CEN_13
 70
     0
  0
APPID
  2
GENIUS_GENOBJ-N-FIL_13
 70
     0
  0
APPID
  2
GENIUS_GENCEN_19
 70
     0
  0
APPID
  2
ACAD_DSTYLE_DIMBREAK
 70
     0
  0
APPID
  2
PLOTTRANSPARENCY
 70
     0
  0
APPID
  2
GENIUS_GENOLIS_13
 70
     0
  0
APPID
  2
GENIUS_GENOENT_13
 70
     0
  0
APPID
  2
GENIUS_GENOBJ-N-CRS_13
 70
     0
  0
APPID
  2
GENIUS_GENOREF_13
 70
     0
  0
APPID
  2
HC_SUPERPART
 70
     0
  0
APPID
  2
HC_SP4BLOCK
 70
     0
  0
APPID
  2
HC_XDATA_SPRING
 70
     0
  0
APPID
  2
HCCAD_FRAME
 70
     0
  0
APPID
  2
GENIUS_GENOBJ-N-TIT_13
 70
     0
  0
APPID
  2
GENIUS_GENOBJ-N-ZOO_13
 70
     0
  0
APPID
  2
GENIUS_GENTITLE_13
 70
     0
  0
APPID
  2
GENIUS_GENSYMENT_13
 70
     0
  0
APPID
  2
GENIUS_GENSCSYM_13
 70
     0
  0
APPID
  2
GENIUS_GENOBJ-N-REV_13
 70
     0
  0
APPID
  2
GENIUS_GENOBJ-N-RSSYM_13
 70
     0
  0
APPID
  2
GENIUS_GENREV_15
 70
     0
  0
APPID
  2
HRA
 70
     0
  0
APPID
  2
HTIT
 70
     0
  0
APPID
  2
GENIUS_GENZOO_17
 70
     0
  0
APPID
  2
GENIUS_GENCRS_20
 70
     0
  0
APPID
  2
GENIUS_GENOBJ-N-CRC_13
 70
     0
  0
APPID
  2
GENIUS_GENCRC_14
 70
     0
  0
APPID
  2
GENIUS_GENFIL_13
 70
     0
  0
APPID
  2
GENIUS_GENOBJ-N-CHA_13
 70
     0
  0
APPID
  2
GENIUS_GENHATCH_13
 70
     0
  0
APPID
  2
GENIUS_GENOBJ-N-HTC_13
 70
     0
  0
APPID
  2
GENIUS_GENOBJ-N-DIM_13
 70
     0
  0
APPID
  2
GENIUS_GENOBJ-N-DIMLI_13
 70
     0
  0
APPID
  2
GENIUS_GENOBJ-N-FITL_13
 70
     0
  0
APPID
  2
GENIUS_GENFITL_13
 70
     0
  0
APPID
  2
GENLAYCOLOR
 70
     0
  0
APPID
  2
ACADANNOTATIVE
 70
     0
  0
ENDTAB
  0
TABLE
  2
DIMSTYLE
 70
    23
  0
DIMSTYLE
  2
STANDARD
 70
     0
  3

  4

  5

  6

  7

 40
1.0
 41
2.5
 42
0.625
 43
3.75
 44
1.25
 45
0.0
 46
0.0
 47
0.0
 48
0.0
140
2.5
141
2.5
142
0.0
143
0.0394
144
1.0
145
0.0
146
1.0
147
0.625
 71
     0
 72
     0
 73
     0
 74
     0
 75
     0
 76
     0
 77
     1
 78
     8
170
     0
171
     4
172
     1
173
     0
174
     0
175
     0
176
     0
177
     0
178
     0
  0
DIMSTYLE
  2
AM_JIS
 70
     0
  3

  4
"
  5
OPEN
  6

  7

 40
1.0
 41
2.5
 42
1.0
 43
7.0
 44
1.0
 45
0.0
 46
0.0
 47
0.1
 48
0.1
140
3.0
141
0.0
142
0.0
143
0.0393701
144
1.0
145
0.0
146
0.71
147
1.0
 71
     0
 72
     0
 73
     0
 74
     0
 75
     0
 76
     0
 77
     3
 78
     8
170
     0
171
     2
172
     1
173
     0
174
     0
175
     0
176
   256
177
   256
178
     2
  0
DIMSTYLE
  2
AM_JIS$3
 70
     0
  3

  4
"
  5
OPEN
  6

  7

 40
1.0
 41
2.5
 42
1.0
 43
10.0
 44
1.0
 45
0.0
 46
0.0
 47
0.1
 48
0.1
140
3.0
141
0.0
142
0.0
143
0.0393701
144
1.0
145
0.0
146
0.71
147
1.0
 71
     0
 72
     0
 73
     0
 74
     0
 75
     0
 76
     0
 77
     3
 78
     8
170
     0
171
     2
172
     1
173
     0
174
     0
175
     0
176
   256
177
   256
178
     2
  0
DIMSTYLE
  2
AM_JIS$4
 70
     0
  3

  4
"
  5

  6
OPEN30
  7
OPEN
 40
1.0
 41
2.5
 42
1.0
 43
10.0
 44
1.0
 45
0.0
 46
0.0
 47
0.1
 48
0.1
140
3.0
141
0.0
142
0.0
143
0.0393701
144
1.0
145
0.0
146
0.71
147
1.0
 71
     0
 72
     0
 73
     0
 74
     0
 75
     0
 76
     0
 77
     3
 78
     8
170
     0
171
     2
172
     1
173
     1
174
     0
175
     0
176
   256
177
   256
178
     2
  0
DIMSTYLE
  2
AM_JIS$6
 70
     0
  3

  4
"
  5
OPEN30
  6
OPEN30
  7
OPEN30
 40
1.0
 41
2.5
 42
1.0
 43
10.0
 44
1.0
 45
0.0
 46
0.0
 47
0.1
 48
0.1
140
3.5
141
0.0
142
0.0
143
0.0393701
144
1.0
145
0.0
146
0.71
147
1.5
 71
     0
 72
     0
 73
     0
 74
     0
 75
     0
 76
     0
 77
     0
 78
     8
170
     0
171
     2
172
     1
173
     0
174
     0
175
     0
176
   256
177
   256
178
     2
  0
DIMSTYLE
  2
AM_JIS$7
 70
     0
  3

  4
"
  5
OPEN30
  6

  7

 40
1.0
 41
2.5
 42
1.0
 43
10.0
 44
1.0
 45
0.0
 46
0.0
 47
0.1
 48
0.1
140
3.0
141
0.0
142
0.0
143
0.0393701
144
1.0
145
0.0
146
0.71
147
1.0
 71
     0
 72
     0
 73
     0
 74
     0
 75
     0
 76
     0
 77
     3
 78
     8
170
     0
171
     2
172
     1
173
     0
174
     0
175
     0
176
   256
177
   256
178
     2
  0
DIMSTYLE
  2
AM_JIS$SF
 70
     0
  3

  4
"
  5
OPEN
  6

  7

 40
1.0
 41
2.5
 42
1.0
 43
7.0
 44
1.0
 45
0.0
 46
0.0
 47
0.1
 48
0.1
140
3.5
141
0.0
142
0.0
143
0.0393701
144
1.0
145
0.0
146
0.71
147
1.5
 71
     0
 72
     0
 73
     0
 74
     0
 75
     1
 76
     1
 77
     3
 78
     8
170
     0
171
     2
172
     1
173
     0
174
     0
175
     0
176
   256
177
   256
178
     2
  0
DIMSTYLE
  2
AM_JIS$SH
 70
     0
  3

  4
"
  5

  6
GENAXEH
  7
OPEN
 40
1.0
 41
2.5
 42
1.0
 43
7.0
 44
1.0
 45
0.0
 46
0.0
 47
0.1
 48
0.1
140
3.5
141
0.0
142
0.0
143
0.0393701
144
2.0
145
0.0
146
0.71
147
1.5
 71
     0
 72
     0
 73
     0
 74
     0
 75
     1
 76
     1
 77
     3
 78
     8
170
     0
171
     2
172
     1
173
     1
174
     0
175
     0
176
   256
177
   256
178
     2
  0
DIMSTYLE
  2
AM_ISO
 70
     0
  3

  4
"
  5

  6

  7

 40
1.0
 41
2.5
 42
1.0
 43
10.0
 44
1.0
 45
0.0
 46
0.0
 47
0.1
 48
0.1
140
3.5
141
0.0
142
0.0
143
0.0393701
144
1.0
145
0.0
146
0.71
147
1.5
 71
     0
 72
     0
 73
     0
 74
     0
 75
     0
 76
     0
 77
     1
 78
     8
170
     0
171
     2
172
     1
173
     0
174
     0
175
     0
176
   256
177
   256
178
     2
  0
DIMSTYLE
  2
AM_ISO$3
 70
     0
  3

  4
"
  5

  6

  7

 40
1.0
 41
2.5
 42
1.0
 43
10.0
 44
1.0
 45
0.0
 46
0.0
 47
0.1
 48
0.1
140
3.5
141
0.0
142
0.0
143
0.0393701
144
1.0
145
0.0
146
0.71
147
1.5
 71
     0
 72
     0
 73
     0
 74
     1
 75
     0
 76
     0
 77
     1
 78
     8
170
     0
171
     2
172
     0
173
     0
174
     0
175
     0
176
   256
177
   256
178
     2
  0
DIMSTYLE
  2
AM_ISO$4
 70
     0
  3

  4
"
  5

  6

  7

 40
1.0
 41
2.5
 42
1.0
 43
10.0
 44
1.0
 45
0.0
 46
0.0
 47
0.1
 48
0.1
140
3.5
141
0.0
142
0.0
143
0.0393701
144
1.0
145
0.0
146
0.71
147
1.5
 71
     0
 72
     0
 73
     0
 74
     1
 75
     0
 76
     0
 77
     1
 78
     8
170
     0
171
     2
172
     0
173
     0
174
     0
175
     0
176
   256
177
   256
178
     2
  0
DIMSTYLE
  2
AM_ISO$6
 70
     0
  3

  4
"
  5

  6

  7

 40
1.0
 41
2.5
 42
1.0
 43
10.0
 44
1.0
 45
0.0
 46
0.0
 47
0.1
 48
0.1
140
3.5
141
0.0
142
0.0
143
0.0393701
144
1.0
145
0.0
146
0.71
147
1.5
 71
     0
 72
     0
 73
     0
 74
     0
 75
     0
 76
     0
 77
     0
 78
     8
170
     0
171
     2
172
     1
173
     0
174
     0
175
     0
176
   256
177
   256
178
     2
  0
DIMSTYLE
  2
AM_ISO$7
 70
     0
  3

  4
"
  5

  6

  7

 40
1.0
 41
2.5
 42
1.0
 43
10.0
 44
1.0
 45
0.0
 46
0.0
 47
0.1
 48
0.1
140
5.0
141
0.0
142
0.0
143
0.0393701
144
1.0
145
0.0
146
0.71
147
1.5
 71
     0
 72
     0
 73
     0
 74
     0
 75
     0
 76
     0
 77
     1
 78
     8
170
     0
171
     2
172
     1
173
     0
174
     0
175
     0
176
   256
177
   256
178
     2
  0
DIMSTYLE
  2
AM_ISO$SF
 70
     0
  3

  4
"
  5

  6

  7

 40
1.0
 41
2.5
 42
1.0
 43
10.0
 44
1.0
 45
0.0
 46
0.0
 47
0.1
 48
0.1
140
3.5
141
0.0
142
0.0
143
0.0393701
144
1.0
145
0.0
146
0.71
147
1.5
 71
     0
 72
     0
 73
     0
 74
     0
 75
     1
 76
     1
 77
     1
 78
     8
170
     0
171
     2
172
     1
173
     0
174
     0
175
     0
176
   256
177
   256
178
     2
  0
DIMSTYLE
  2
AM_ISO$SH
 70
     0
  3

  4
"
  5

  6
GENAXEH
  7

 40
1.0
 41
2.5
 42
1.0
 43
10.0
 44
1.0
 45
0.0
 46
0.0
 47
0.1
 48
0.1
140
3.5
141
0.0
142
0.0
143
0.0393701
144
2.0
145
0.0
146
0.71
147
1.5
 71
     0
 72
     0
 73
     0
 74
     0
 75
     1
 76
     1
 77
     1
 78
     8
170
     0
171
     2
172
     1
173
     1
174
     0
175
     0
176
   256
177
   256
178
     2
  0
DIMSTYLE
  2
AM_JIS$2
 70
     0
  3

  4
"
  5
OPEN
  6

  7

 40
1.0
 41
2.5
 42
1.0
 43
7.0
 44
1.0
 45
0.0
 46
0.0
 47
0.1
 48
0.1
140
3.0
141
0.0
142
0.0
143
0.0393701
144
1.0
145
0.0
146
0.71
147
1.0
 71
     0
 72
     0
 73
     0
 74
     0
 75
     0
 76
     0
 77
     3
 78
     8
170
     0
171
     2
172
     1
173
     0
174
     0
175
     0
176
   256
177
   256
178
     2
  0
DIMSTYLE
  2
AM_JIS$0
 70
     0
  3

  4
"
  5
OPEN
  6

  7

 40
1.0
 41
2.5
 42
1.0
 43
7.0
 44
1.0
 45
0.0
 46
0.0
 47
0.1
 48
0.1
140
3.0
141
0.0
142
0.0
143
0.0393701
144
1.0
145
0.0
146
0.71
147
1.0
 71
     0
 72
     0
 73
     0
 74
     0
 75
     0
 76
     0
 77
     3
 78
     8
170
     0
171
     2
172
     1
173
     0
174
     0
175
     0
176
   256
177
   256
178
     2
  0
DIMSTYLE
  2
AM_ANSI
 70
     0
  3

  4
mm
  5

  6

  7

 40
1.0
 41
0.12
 42
0.05
 43
0.5
 44
0.1
 45
0.0
 46
0.0
 47
0.1
 48
0.1
140
0.12
141
0.0
142
0.0
143
25.4
144
1.0
145
0.0
146
0.71
147
0.06
 71
     0
 72
     0
 73
     1
 74
     1
 75
     0
 76
     0
 77
     0
 78
     7
170
     0
171
     2
172
     0
173
     0
174
     0
175
     0
176
   256
177
   256
178
     2
  0
DIMSTYLE
  2
AM_ANSI$3
 70
     0
  3

  4
mm
  5

  6

  7

 40
1.0
 41
0.12
 42
0.05
 43
0.5
 44
0.1
 45
0.0
 46
0.0
 47
0.1
 48
0.1
140
0.12
141
0.0
142
0.0
143
25.4
144
1.0
145
0.0
146
0.71
147
0.06
 71
     0
 72
     0
 73
     1
 74
     1
 75
     0
 76
     0
 77
     0
 78
     7
170
     0
171
     2
172
     0
173
     0
174
     0
175
     0
176
   256
177
   256
178
     2
  0
DIMSTYLE
  2
AM_ANSI$4
 70
     0
  3

  4
mm
  5

  6

  7

 40
1.0
 41
0.12
 42
0.05
 43
0.5
 44
0.1
 45
0.0
 46
0.0
 47
0.1
 48
0.1
140
0.12
141
0.0
142
0.0
143
25.4
144
1.0
145
0.0
146
0.71
147
0.06
 71
     0
 72
     0
 73
     1
 74
     1
 75
     0
 76
     0
 77
     0
 78
     7
170
     0
171
     2
172
     0
173
     0
174
     0
175
     0
176
   256
177
   256
178
     2
  0
DIMSTYLE
  2
AM_ANSI$7
 70
     0
  3

  4
mm
  5

  6

  7

 40
1.0
 41
0.12
 42
0.05
 43
0.5
 44
0.1
 45
0.0
 46
0.0
 47
0.1
 48
0.1
140
0.12
141
0.0
142
0.0
143
25.4
144
1.0
145
0.0
146
0.71
147
0.06
 71
     0
 72
     0
 73
     1
 74
     1
 75
     0
 76
     0
 77
     0
 78
     7
170
     0
171
     2
172
     0
173
     0
174
     0
175
     0
176
   256
177
   256
178
     2
  0
DIMSTYLE
  2
AM_ANSI$SF
 70
     0
  3

  4
mm
  5

  6

  7

 40
1.0
 41
0.12
 42
0.05
 43
0.5
 44
0.1
 45
0.0
 46
0.0
 47
0.1
 48
0.1
140
0.12
141
0.0
142
0.0
143
25.4
144
1.0
145
0.0
146
0.71
147
0.06
 71
     0
 72
     0
 73
     1
 74
     1
 75
     1
 76
     1
 77
     0
 78
     7
170
     0
171
     2
172
     0
173
     0
174
     0
175
     0
176
   256
177
   256
178
     2
  0
DIMSTYLE
  2
AM_ANSI$SH
 70
     0
  3

  4
mm
  5

  6
GENAXEH
  7

 40
1.0
 41
0.12
 42
0.05
 43
0.5
 44
0.1
 45
0.0
 46
0.0
 47
0.1
 48
0.1
140
0.12
141
0.0
142
0.0
143
25.4
144
1.0
145
0.0
146
0.71
147
0.06
 71
     0
 72
     0
 73
     1
 74
     1
 75
     1
 76
     1
 77
     0
 78
     7
170
     0
171
     2
172
     0
173
     1
174
     0
175
     0
176
   256
177
   256
178
     2
  0
ENDTAB
  0
ENDSEC
  0
SECTION
  2
BLOCKS
  0
BLOCK
  8
0
  2
$MODEL_SPACE
 70
     0
 10
0.0
 20
0.0
 30
0.0
  3
$MODEL_SPACE
  1

  0
ENDBLK
  5
1C
  8
0
  0
BLOCK
 67
     1
  8
0
  2
$PAPER_SPACE
 70
     0
 10
0.0
 20
0.0
 30
0.0
  3
$PAPER_SPACE
  1

  0
ENDBLK
  5
19
 67
     1
  8
0
  0
BLOCK
  8
0
  2
_OPEN30
 70
     0
 10
0.0
 20
0.0
 30
0.0
  3
_OPEN30
  1

  0
LINE
  5
2EF
  8
0
  6
BYBLOCK
 62
     0
 10
-1.0
 20
0.26794919
 30
0.0
 11
0.0
 21
0.0
 31
0.0
  0
LINE
  5
2F0
  8
0
  6
BYBLOCK
 62
     0
 10
0.0
 20
0.0
 30
0.0
 11
-1.0
 21
-0.26794919
 31
0.0
  0
LINE
  5
2F1
  8
0
  6
BYBLOCK
 62
     0
 10
0.0
 20
0.0
 30
0.0
 11
-1.0
 21
0.0
 31
0.0
  0
ENDBLK
  5
2F3
  8
0
  0
BLOCK
  8
0
  2
GENAXEH
 70
     0
 10
0.0
 20
0.0
 30
0.0
  3
GENAXEH
  1

  0
LINE
  5
2F5
  8
0
 10
-1.0
 20
0.0
 30
0.0
 11
1.0
 21
0.0
 31
0.0
  0
ENDBLK
  5
2F7
  8
0
  0
BLOCK
  8
0
  2
_OPEN
 70
     0
 10
0.0
 20
0.0
 30
0.0
  3
_OPEN
  1

  0
LINE
  5
597
  8
0
  6
BYBLOCK
 62
     0
 10
-1.0
 20
0.1666666666666667
 30
0.0
 11
0.0
 21
0.0
 31
0.0
  0
LINE
  5
598
  8
0
  6
BYBLOCK
 62
     0
 10
-1.0
 20
-0.1666666666666667
 30
0.0
 11
0.0
 21
0.0
 31
0.0
  0
LINE
  5
599
  8
0
  6
BYBLOCK
 62
     0
 10
0.0
 20
0.0
 30
0.0
 11
-1.0
 21
0.0
 31
0.0
  0
ENDBLK
  5
59B
  8
0
  0
BLOCK
  8
0
  2
_TAGCIRCLE
 70
     2
 10
0.0
 20
0.0
 30
0.0
  3
_TAGCIRCLE
  1

  0
CIRCLE
  5
1151
  8
0
  6
BYBLOCK
 62
     0
 10
0.0
 20
0.0
 30
0.0
 40
4.0
  0
ATTDEF
  5
1152
  8
0
 62
     0
 10
-7.1
 20
-1.5
 30
0.0
 40
3.0
  1
タグ番号
 72
     1
 11
0.0
 21
-1.5
 31
0.0
  3
タグ番号を入力
  2
タグ番号
 70
     0
  0
ENDBLK
  5
1154
  8
0
  0
BLOCK
  8
0
  2
_ACMFILLED15
 70
     0
 10
0.0
 20
0.0
 30
0.0
  3
_ACMFILLED15
  1
Acad:XRef
  0
TRACE
  5
7C7A
  8
AM_0
 62
     0
 10
-1.0
 20
0.1316524975873958
 30
0.0
 11
-1.0
 21
-0.1316524975873958
 31
0.0
 12
0.0
 22
0.0
 32
0.0
 13
0.0
 23
0.0
 33
0.0
  0
ENDBLK
  5
7C78
  8
0
  0
BLOCK
  8
0
  2
_ACMOPEN30
 70
     0
 10
0.0
 20
0.0
 30
0.0
  3
_ACMOPEN30
  1
Acad:XRef
  0
LINE
  5
7C84
  8
AM_0
 62
     0
 10
-1.0
 20
0.0
 30
0.0
 11
0.0
 21
0.0
 31
0.0
  0
LINE
  5
7C85
  8
AM_0
 62
     0
 10
-1.0
 20
-0.2679491924311227
 30
0.0
 11
0.0
 21
0.0
 31
0.0
  0
LINE
  5
7C86
  8
AM_0
 62
     0
 10
-1.0
 20
0.2679491924311227
 30
0.0
 11
0.0
 21
0.0
 31
0.0
  0
ENDBLK
  5
7C83
  8
0
  0
BLOCK
  8
0
  2
_ACMFILLEDHALF
 70
     0
 10
0.0
 20
0.0
 30
0.0
  3
_ACMFILLEDHALF
  1

  0
TRACE
  5
7C8F
  8
0
 62
     0
 10
-0.8
 20
0.0
 30
0.0
 11
-1.0
 21
0.166666666
 31
0.0
 12
0.0
 22
0.0
 32
0.0
 13
0.0
 23
0.0
 33
0.0
  0
LINE
  5
7C90
  8
0
 62
     0
 10
-1.0
 20
0.0
 30
0.0
 11
-0.8
 21
0.0
 31
0.0
  0
ENDBLK
  5
7C91
  8
0
  0
BLOCK
  8
0
  2
_ACMOPEN15
 70
     0
 10
0.0
 20
0.0
 30
0.0
  3
_ACMOPEN15
  1
Acad:XRef
  0
LINE
  5
7C9E
  8
AM_0
 62
     0
 10
-1.0
 20
0.0
 30
0.0
 11
0.0
 21
0.0
 31
0.0
  0
LINE
  5
7C9F
  8
AM_0
 62
     0
 10
-1.0
 20
-0.1316524975873958
 30
0.0
 11
0.0
 21
0.0
 31
0.0
  0
LINE
  5
7CA0
  8
AM_0
 62
     0
 10
-1.0
 20
0.1316524975873958
 30
0.0
 11
0.0
 21
0.0
 31
0.0
  0
ENDBLK
  5
7C9D
  8
0
  0
BLOCK
  8
0
  2
*X14
 70
     1
 10
0.0
 20
0.0
 30
0.0
  3
*X14
  1
Acad:XRef
  0
TEXT
  5
A4C3
  8
0
 10
69.35713162404996
 20
206.6384425259045
 30
0.0
 40
1.9
  1
凍結
  0
TEXT
  5
A4C4
  8
0
 10
69.34303143852121
 20
203.3143237875001
 30
0.0
 40
1.9
  1
予防
  0
ENDBLK
  5
A4C9
  8
0
  0
BLOCK
  8
0
  2
*X15
 70
     1
 10
0.0
 20
0.0
 30
0.0
  3
*X15
  1
Acad:XRef
  0
TEXT
  5
A4C6
  8
0
 10
69.35713162404996
 20
226.6384425259049
 30
0.0
 40
1.9
  1
凍結
  0
TEXT
  5
A4C7
  8
0
 10
69.34303143852121
 20
223.3143237875004
 30
0.0
 40
1.9
  1
予防
  0
ENDBLK
  5
A4CB
  8
0
  0
ENDSEC
  0
SECTION
  2
ENTITIES
  0
TEXT
  5
17D1
  8
10
 10
-1.499993509006345
 20
0.0000014963793546
 30
0.0
 40
10.0
  1
2024.02.01 ER2000SQ-A 2台連動+1台単独
 11
-1.499993509006345
 21
0.0000014963793546
 31
0.0
 73
     1
  0
LINE
  5
46CF
  8
0
 10
25.52186071078961
 20
289.8911326928806
 30
0.0
 11
125.5218607107896
 21
289.8911326928804
 31
0.0
  0
LINE
  5
46D0
  8
0
 10
25.52186071078961
 20
169.8911326928805
 30
0.0
 11
125.5218607107896
 21
169.8911326928805
 31
0.0
  0
ARC
  5
46D2
  8
0
 10
25.52186071078961
 20
281.8911326928806
 30
0.0
 40
8.0
 50
90.0
 51
180.0
  0
LINE
  5
46D3
  8
0
 10
21.27922002367029
 20
286.1337733799997
 30
0.0
 11
29.52186071078961
 21
277.8911326928806
 31
0.0
  0
LINE
  5
46D4
  8
0
 10
31.52186071078961
 20
181.8911326928804
 30
0.0
 11
119.5218607107896
 21
181.8911326928807
 31
0.0
  0
LINE
  5
46D5
  8
0
 10
31.52186071078961
 20
277.8911326928806
 30
0.0
 11
119.5218607107896
 21
277.8911326928805
 31
0.0
  0
LINE
  5
46D8
  8
0
 10
29.52186071078961
 20
275.8911326928806
 30
0.0
 11
29.52186071078961
 21
183.8911326928805
 31
0.0
  0
LINE
  5
46DA
  8
0
 10
17.52186071078961
 20
281.8911326928806
 30
0.0
 11
17.52186071078961
 21
177.8911326928805
 31
0.0
  0
LINE
  5
46DB
  8
0
 10
21.27922002367052
 20
173.6484920057612
 30
0.0
 11
29.52186071078961
 21
181.8911326928805
 31
0.0
  0
ARC
  5
46DC
  8
0
 10
25.52186071078961
 20
177.8911326928805
 30
0.0
 40
8.0
 50
180.0
 51
270.0
  0
ARC
  5
46E0
  8
0
 10
125.5218607107896
 20
281.8911326928804
 30
0.0
 40
8.0
 50
0.0
 51
90.0
  0
LINE
  5
46E1
  8
0
 10
129.7645013979089
 20
286.1337733799997
 30
0.0
 11
121.5218607107896
 21
277.8911326928804
 31
0.0
  0
LINE
  5
46E3
  8
0
 10
121.5218607107896
 20
275.8911326928805
 30
0.0
 11
121.5218607107896
 21
183.8911326928807
 31
0.0
  0
LINE
  5
46E4
  8
0
 10
133.5218607107896
 20
281.8911326928804
 30
0.0
 11
133.5218607107896
 21
177.8911326928805
 31
0.0
  0
LINE
  5
46E5
  8
0
 10
121.5218607107896
 20
181.8911326928806
 30
0.0
 11
129.7645013979089
 21
173.6484920057611
 31
0.0
  0
ARC
  5
46E6
  8
0
 10
125.5218607107896
 20
177.8911326928805
 30
0.0
 40
8.0
 50
270.0
 51
0.0
  0
LINE
  5
7292
  8
AM_7
 10
75.52186071078961
 20
284.6851326928806
 30
0.0
 11
75.52186071078961
 21
175.0971326928806
 31
0.0
1001
GENIUS_GENOBJ-N-CEN_13
1002
{
1000
OWNER
1000
GEN
1002
}
1001
GENIUS_GENODEF_13
1002
{
1000
HIER
1070
     0
1002
}
1002
{
1000
MANEDIT
1070
     0
1002
}
1002
{
1000
NOSEL
1070
     0
1002
}
1002
{
1000
BEHIND
1070
     0
1002
}
1002
{
1000
OTHER
1070
     0
1002
}
1002
{
1000
REACTOR
1002
}
1001
GENIUS_GENCEN_19
1002
{
1040
2.794
1002
}
  0
LINE
  5
72F9
  8
AM_7
 10
14.72786071078963
 20
229.8911326928805
 30
0.0
 11
136.3158607107896
 21
229.8911326928805
 31
0.0
1001
GENIUS_GENODEF_13
1002
{
1000
HIER
1070
     0
1002
}
1002
{
1000
MANEDIT
1070
     0
1002
}
1002
{
1000
NOSEL
1070
     0
1002
}
1002
{
1000
BEHIND
1070
     0
1002
}
1002
{
1000
OTHER
1070
     0
1002
}
1002
{
1000
REACTOR
1002
}
1001
GENIUS_GENOBJ-N-CEN_13
1002
{
1000
OWNER
1000
GEN
1002
}
1001
GENIUS_GENCEN_19
1002
{
1040
2.794
1002
}
  0
LINE
  5
72FA
  8
AM_7
 10
75.52186071078961
 20
167.0971326928805
 30
0.0
 11
75.52186071078961
 21
292.6851326928806
 31
0.0
1001
GENIUS_GENOBJ-N-CEN_13
1002
{
1000
OWNER
1000
GEN
1002
}
1001
GENIUS_GENODEF_13
1002
{
1000
HIER
1070
     0
1002
}
1002
{
1000
MANEDIT
1070
     0
1002
}
1002
{
1000
NOSEL
1070
     0
1002
}
1002
{
1000
BEHIND
1070
     0
1002
}
1002
{
1000
OTHER
1070
     0
1002
}
1002
{
1000
REACTOR
1002
}
1001
GENIUS_GENCEN_19
1002
{
1040
2.794
1002
}
  0
LINE
  5
72FB
  8
0
 10
133.5218607107895
 20
121.135862802299
 30
0.0
 11
17.52186071078972
 21
121.135862802299
 31
0.0
  0
LINE
  5
72FC
  8
0
 10
133.5218607107895
 20
124.135862802299
 30
0.0
 11
17.52186071078972
 21
124.1358628023049
 31
0.0
  0
LINE
  5
72FD
  8
0
 10
133.5218607107893
 20
124.635862802299
 30
0.0
 11
17.52186071078927
 21
124.635862802299
 31
0.0
  0
ARC
  5
72FE
  8
0
 10
118.8972008050118
 20
100.135862802299
 30
0.0
 40
30.0
 50
80.0000000000023
 51
90.0
  0
LINE
  5
72FF
  8
0
 10
118.8972008050118
 20
130.135862802299
 30
0.0
 11
32.14652061656739
 21
130.135862802299
 31
0.0
  0
ARC
  5
7300
  8
0
 10
48.52186071078972
 20
131.3358628022988
 30
0.0
 40
1.0
 50
90.0
 51
180.0
  0
ARC
  5
7301
  8
0
 10
32.14652061656739
 20
100.135862802299
 30
0.0
 40
30.0
 50
90.0
 51
99.99999999999771
  0
LINE
  5
7302
  8
0
 10
26.93707528655955
 20
129.6800953926652
 30
0.0
 11
19.58774026662218
 21
128.3842093383848
 31
0.0
  0
LINE
  5
7303
  8
0
 10
17.52186071078972
 20
124.135862802299
 30
0.0
 11
17.52186071078972
 21
121.135862802299
 31
0.0
  0
LINE
  5
7304
  8
0
 10
18.62186071078941
 20
124.6358628022992
 30
0.0
 11
18.62186071078941
 21
124.1358628022992
 31
0.0
  0
LINE
  5
7305
  8
0
 10
17.52186071078927
 20
124.6358628023056
 30
0.0
 11
17.52186071078927
 21
125.9221899558609
 31
0.0
  0
ARC
  5
7306
  8
0
 10
20.0218607107895
 20
125.9221899558543
 30
0.0
 40
2.5
 50
99.99999999999771
 51
180.0
  0
LINE
  5
7307
  8
0
 10
47.52186071078972
 20
131.3358628022988
 30
0.0
 11
47.52186071078972
 21
130.135862802299
 31
0.0
  0
ARC
  5
7308
  8
0
 10
53.52186071078972
 20
131.3358628022988
 30
0.0
 40
1.0
 50
0.0
 51
90.0
  0
LINE
  5
7309
  8
0
 10
48.52186071078972
 20
132.3358628022988
 30
0.0
 11
53.52186071078972
 21
132.3358628022988
 31
0.0
  0
LINE
  5
730A
  8
0
 10
54.52186071078972
 20
131.3358628022988
 30
0.0
 11
54.52186071078972
 21
130.135862802299
 31
0.0
  0
LINE
  5
730B
  8
0
 10
179.4813735440985
 20
289.8911326928808
 30
0.0
 11
179.4813735440985
 21
169.8911326928808
 31
0.0
  0
LINE
  5
730C
  8
0
 10
176.4813735440985
 20
289.8911326928808
 30
0.0
 11
176.4813735440971
 21
169.8911326928808
 31
0.0
  0
LINE
  5
730D
  8
0
 10
175.9813735440982
 20
169.8911326928803
 30
0.0
 11
175.9813735440985
 21
289.8911326928803
 31
0.0
  0
LINE
  5
730E
  8
0
 10
170.9371409537321
 20
280.47591811711
 30
0.0
 11
172.2330270080126
 21
287.8252531370474
 31
0.0
  0
LINE
  5
730F
  8
0
 10
175.9813735440985
 20
169.8911326928803
 30
0.0
 11
174.6950463905432
 21
169.8911326928803
 31
0.0
  0
LINE
  5
7310
  8
0
 10
170.4813735440985
 20
184.515792598658
 30
0.0
 11
170.4813735440985
 21
275.2664727871022
 31
0.0
  0
LINE
  5
7311
  8
0
 10
124.1066461350197
 20
129.6800953926652
 30
0.0
 11
131.4559811549566
 21
128.3842093383848
 31
0.0
  0
LINE
  5
7312
  8
0
 10
133.5218607107895
 20
124.135862802299
 30
0.0
 11
133.5218607107895
 21
121.135862802299
 31
0.0
  0
LINE
  5
7313
  8
0
 10
132.4218607107896
 20
124.635862802299
 30
0.0
 11
132.4218607107896
 21
124.135862802299
 31
0.0
  0
LINE
  5
7314
  8
0
 10
133.5218607107893
 20
124.635862802299
 30
0.0
 11
133.5218607107893
 21
125.9221899558543
 31
0.0
  0
ARC
  5
7315
  8
0
 10
131.0218607107893
 20
125.9221899558543
 30
0.0
 40
2.5
 50
0.0
 51
80.0000000000023
  0
LINE
  5
7316
  8
0
 10
170.9371409537321
 20
179.3063472686501
 30
0.0
 11
172.2330270080126
 21
171.9570122487132
 31
0.0
  0
ARC
  5
7317
  8
0
 10
174.6950463905432
 20
172.3911326928803
 30
0.0
 40
2.5
 50
190.0000000000052
 51
270.0
  0
ARC
  5
7318
  8
0
 10
200.4813735440985
 20
184.515792598658
 30
0.0
 40
30.0
 50
180.0
 51
190.0000000000052
  0
ARC
  5
7319
  8
0
 10
200.4813735440985
 20
275.2664727871022
 30
0.0
 40
30.0
 50
169.9999999999948
 51
180.0
  0
LINE
  5
731A
  8
0
 10
176.4813735440985
 20
169.8911326928808
 30
0.0
 11
179.4813735440985
 21
169.8911326928808
 31
0.0
  0
LINE
  5
731B
  8
0
 10
175.9813735440982
 20
170.9911326928809
 30
0.0
 11
176.4813735440985
 21
170.9911326928809
 31
0.0
  0
LINE
  5
731C
  8
0
 10
175.9813735440916
 20
289.8911326928803
 30
0.0
 11
174.6950463905366
 21
289.8911326928803
 31
0.0
  0
ARC
  5
731D
  8
0
 10
174.6950463905432
 20
287.3911326928801
 30
0.0
 40
2.5
 50
90.0
 51
169.9999999999948
  0
LINE
  5
731E
  8
0
 10
176.4813735440985
 20
289.8911326928808
 30
0.0
 11
179.4813735440985
 21
289.8911326928808
 31
0.0
  0
LINE
  5
731F
  8
0
 10
175.9813735440985
 20
288.7911326928809
 30
0.0
 11
176.4813735440966
 21
288.7911326928809
 31
0.0
  0
CIRCLE
  5
7320
  8
3A
 10
98.52186071078961
 20
281.8911326928803
 30
0.0
 40
4.0
  0
CIRCLE
  5
7321
  8
3A
 10
52.52186071078961
 20
281.8911326928803
 30
0.0
 40
4.0
  0
CIRCLE
  5
7322
  8
3A
 10
52.52186071078961
 20
177.8911326928803
 30
0.0
 40
4.0
  0
CIRCLE
  5
7323
  8
3A
 10
52.52186071078961
 20
177.8911326928803
 30
0.0
 40
2.5
  0
CIRCLE
  5
7324
  8
3A
 10
98.52186071078961
 20
177.8911326928803
 30
0.0
 40
4.0
  0
CIRCLE
  5
7325
  8
3A
 10
98.52186071078961
 20
177.8911326928803
 30
0.0
 40
2.5
  0
CIRCLE
  5
7326
  8
3A
 10
52.52186071078961
 20
281.8911326928803
 30
0.0
 40
2.5
  0
CIRCLE
  5
7327
  8
3A
 10
98.52186071078961
 20
281.8911326928803
 30
0.0
 40
2.5
  0
LINE
  5
7328
  8
0
 10
183.4813735440985
 20
264.8911326928808
 30
0.0
 11
183.4813735440985
 21
194.8911326928808
 31
0.0
  0
LINE
  5
7329
  8
0
 10
210.4813735440985
 20
262.8911326928805
 30
0.0
 11
210.4813735440985
 21
196.8911326928805
 31
0.0
  0
ARC
  5
732A
  8
0
 10
208.4813735440985
 20
262.8911326928805
 30
0.0
 40
2.0
 50
0.0
 51
90.0
  0
LINE
  5
732B
  8
0
 10
184.4813735440985
 20
264.8911326928805
 30
0.0
 11
184.4813735440985
 21
194.8911326928805
 31
0.0
  0
LINE
  5
732C
  8
0
 10
208.4813735440985
 20
194.8911326928805
 30
0.0
 11
184.4813735440985
 21
194.8911326928805
 31
0.0
  0
ARC
  5
732D
  8
0
 10
208.4813735440985
 20
196.8911326928805
 30
0.0
 40
2.0
 50
270.0
 51
0.0
  0
LINE
  5
732E
  8
0
 10
183.4813735440985
 20
194.8911326928808
 30
0.0
 11
179.4813735440985
 21
194.8911326928808
 31
0.0
  0
LINE
  5
732F
  8
0
 10
184.4813735440985
 20
195.9911326928807
 30
0.0
 11
183.4813735440985
 21
195.9911326928807
 31
0.0
  0
LINE
  5
7330
  8
0
 10
184.4813735440985
 20
264.8911326928805
 30
0.0
 11
208.4813735440985
 21
264.8911326928805
 31
0.0
  0
LINE
  5
7331
  8
0
 10
183.4813735440985
 20
264.8911326928808
 30
0.0
 11
179.4813735440985
 21
264.8911326928805
 31
0.0
  0
LINE
  5
7332
  8
0
 10
184.4813735440985
 20
263.7911326928806
 30
0.0
 11
183.4813735440985
 21
263.7911326928806
 31
0.0
  0
LINE
  5
7333
  8
0
 10
30.52186071078972
 20
121.135862802299
 30
0.0
 11
30.52186071078972
 21
117.135862802299
 31
0.0
  0
LINE
  5
7334
  8
0
 10
120.5218607107896
 20
121.135862802299
 30
0.0
 11
120.5218607107896
 21
117.135862802299
 31
0.0
  0
LINE
  5
7335
  8
0
 10
120.5218607107896
 20
117.135862802299
 30
0.0
 11
30.52186071078972
 21
117.135862802299
 31
0.0
  0
LINE
  5
7336
  8
0
 10
30.52186071078961
 20
116.135862802299
 30
0.0
 11
120.5218607107896
 21
116.135862802299
 31
0.0
  0
LINE
  5
7337
  8
0
 10
31.62186071078963
 20
116.135862802299
 30
0.0
 11
31.62186071078952
 21
117.135862802299
 31
0.0
  0
LINE
  5
7338
  8
0
 10
119.4218607107897
 20
117.135862802299
 30
0.0
 11
119.4218607107897
 21
116.135862802299
 31
0.0
  0
LINE
  5
7339
  8
0
 10
120.5218607107896
 20
116.135862802299
 30
0.0
 11
120.5218607107896
 21
113.635862802299
 31
0.0
  0
ARC
  5
733A
  8
0
 10
118.521862498929
 20
92.1358626905403
 30
0.0
 40
2.000000000000014
 50
270.0
 51
0.0
  0
LINE
  5
733B
  8
0
 10
118.5218639592428
 20
90.13586319717979
 30
0.0
 11
50.02186297576611
 21
90.13586319717979
 31
0.0
  0
LINE
  5
733C
  8
0
 10
50.02186297576611
 20
90.13586319717979
 30
0.0
 11
47.15029000442212
 21
90.13586319717979
 31
0.0
  0
LINE
  5
733D
  8
0
 10
120.5218642870683
 20
116.135862802299
 30
0.0
 11
120.5218642870683
 21
92.13586352500533
 31
0.0
  0
LINE
  5
733E
  8
0
 10
30.52186071078961
 20
113.6358628581784
 30
0.0
 11
30.52186071078961
 21
116.135862802299
 31
0.0
  0
LINE
  5
733F
  8
0
 10
32.52186103861516
 20
113.6358628581784
 30
0.0
 11
30.52186071078961
 21
113.6358628581784
 31
0.0
  0
LINE
  5
7340
  8
0
 10
33.52185944717053
 20
102.6358631971798
 30
0.0
 11
33.52185944717053
 21
102.9358655605047
 31
0.0
  0
LINE
  5
7341
  8
0
 10
40.02186326186757
 20
96.1358746412709
 30
0.0
 11
33.52186707656551
 21
102.6358708265739
 31
0.0
  0
LINE
  5
7342
  8
0
 10
35.50177125136952
 20
97.82754029068587
 30
0.0
 11
36.91598252456356
 21
99.24175537857582
 31
0.0
  0
LINE
  5
7343
  8
0
 10
36.91598252456356
 20
96.41332901749183
 30
0.0
 11
38.3301976124535
 21
97.82754029068587
 31
0.0
  0
LINE
  5
7344
  8
0
 10
36.63313035171154
 20
96.41333664688682
 30
0.0
 11
35.50176743667248
 21
97.54469956192588
 31
0.0
  0
ARC
  5
7345
  8
0
 10
40.32185486953347
 20
96.1358746412709
 30
0.0
 40
0.3000000119209
 50
179.9980552173249
 51
318.1866164775575
  0
ARC
  5
7346
  8
0
 10
35.64318970840156
 20
97.68612564835189
 30
0.0
 40
0.2000000029802
 50
135.0000039840874
 51
224.9999996583782
  0
ARC
  5
7347
  8
0
 10
36.77456025283448
 20
96.55475891861488
 30
0.0
 40
0.2000000029802
 50
224.9999996583782
 51
314.9999987477656
  0
LINE
  5
7348
  8
0
 10
42.14454664986317
 20
94.31317649516677
 30
0.0
 11
42.00312717955296
 21
94.17175516221141
 31
0.0
  0
ARC
  5
7349
  8
0
 10
47.15028962367512
 20
92.1358626905403
 30
0.0
 40
2.000000000000011
 50
224.9999999999911
 51
270.0
  0
LINE
  5
734A
  8
0
 10
45.73607667486851
 20
90.72164833280658
 30
0.0
 11
43.64343955319112
 21
92.81428545448398
 31
0.0
  0
LINE
  5
734B
  8
0
 10
43.64343955319112
 20
92.81428545448398
 30
0.0
 11
43.50201635759061
 21
92.67286412152862
 31
0.0
  0
LINE
  5
734C
  8
0
 10
43.50201635759061
 20
92.67286412152862
 30
0.0
 11
43.37272643249219
 21
92.80215404662704
 31
0.0
  0
LINE
  5
734D
  8
0
 10
43.37272643249219
 20
92.80215404662704
 30
0.0
 11
43.5141496280927
 21
92.9435753795824
 31
0.0
  0
LINE
  5
734E
  8
0
 10
43.5141496280927
 20
92.9435753795824
 30
0.0
 11
43.30187141101544
 21
93.15585359665965
 31
0.0
  0
LINE
  5
734F
  8
0
 10
43.30187141101544
 20
93.15585359665965
 30
0.0
 11
43.16044821541493
 21
93.0144322637043
 31
0.0
  0
LINE
  5
7350
  8
0
 10
43.02451609771435
 20
93.15036624405002
 30
0.0
 11
43.16044821541493
 21
93.0144322637043
 31
0.0
  0
LINE
  5
7351
  8
0
 10
43.02451609771435
 20
93.15036624405002
 30
0.0
 11
43.16593556802457
 21
93.29178757700538
 31
0.0
  0
LINE
  5
7352
  8
0
 10
43.16593556802457
 20
93.29178757700538
 30
0.0
 11
42.76651739280408
 21
93.69120947751617
 31
0.0
  0
LINE
  5
7353
  8
0
 10
42.76651739280408
 20
93.69120947751617
 30
0.0
 11
42.62509419720357
 21
93.54978814456081
 31
0.0
  0
LINE
  5
7354
  8
0
 10
42.40230321090405
 20
93.77258099350547
 30
0.0
 11
42.62509419720357
 21
93.54978814456081
 31
0.0
  0
LINE
  5
7355
  8
0
 10
42.40230321090405
 20
93.77258099350547
 30
0.0
 11
42.54372268121426
 21
93.91400232646083
 31
0.0
  0
LINE
  5
7356
  8
0
 10
42.54372268121426
 20
93.91400232646083
 30
0.0
 11
42.36597417991345
 21
94.09175269040679
 31
0.0
  0
LINE
  5
7357
  8
0
 10
42.36597417991345
 20
94.09175269040679
 30
0.0
 11
42.22455098431294
 21
93.95033135745143
 31
0.0
  0
LINE
  5
7358
  8
0
 10
42.09526105921452
 20
94.07962128254985
 30
0.0
 11
42.22455098431294
 21
93.95033135745143
 31
0.0
  0
LINE
  5
7359
  8
0
 10
42.09526105921452
 20
94.07962128254985
 30
0.0
 11
42.23668425481503
 21
94.22104261550521
 31
0.0
  0
LINE
  5
735A
  8
0
 10
42.23668425481503
 20
94.22104261550521
 30
0.0
 11
40.52186234991734
 21
95.93586265775775
 31
0.0
  0
LINE
  5
735B
  8
0
 10
47.72765225868409
 20
90.13586319717979
 30
0.0
 11
47.15029000442212
 21
90.13586319717979
 31
0.0
  0
LINE
  5
735C
  8
0
 10
39.32186066310589
 20
97.13586248192405
 30
0.0
 11
34.82186271946614
 21
101.635862288209
 31
0.0
  0
ARC
  5
735D
  8
0
 10
34.52186249892895
 20
104.7642898152865
 30
0.0
 40
2.0
 50
180.0
 51
224.9999999999911
  0
LINE
  5
735E
  8
0
 10
32.52186103861516
 20
104.7642903003416
 30
0.0
 11
32.52186103861516
 21
113.6358628581784
 31
0.0
  0
LINE
  5
735F
  8
0
 10
33.32186340491955
 20
103.1358634654007
 30
0.0
 11
33.1076480368871
 21
103.350076970788
 31
0.0
  0
LINE
  5
7360
  8
0
 10
43.26291977565472
 20
92.91196256610965
 30
0.0
 11
43.40434297125523
 21
93.05338389906501
 31
0.0
  0
LINE
  5
7361
  8
0
 10
42.83254443805401
 20
93.34233976635551
 30
0.0
 11
43.00472735564892
 21
93.17015498611545
 31
0.0
  0
LINE
  5
7362
  8
0
 10
43.17411258022969
 20
93.00076976153468
 30
0.0
 11
43.26291977565472
 21
92.91196256610965
 31
0.0
  0
LINE
  5
7363
  8
0
 10
42.83254443805401
 20
93.34233976635551
 30
0.0
 11
42.97396390836423
 21
93.48376109931087
 31
0.0
  0
LINE
  5
7364
  8
0
 10
42.79155506890004
 20
93.38332727286434
 30
0.0
 11
42.83254443805401
 21
93.34233976635551
 31
0.0
  0
LINE
  5
7365
  8
0
 10
42.79155506890004
 20
93.38332727286434
 30
0.0
 11
42.93297826450055
 21
93.5247486058197
 31
0.0
  0
LINE
  5
7366
  8
0
 10
43.59765573542302
 20
92.5772247436962
 30
0.0
 11
43.73907893102353
 21
92.71864607665157
 31
0.0
  0
LINE
  5
7367
  8
0
 10
42.04010441105549
 20
94.13477793070888
 30
0.0
 11
42.181527606656
 21
94.27619926366424
 31
0.0
  0
LINE
  5
7368
  8
0
 10
42.04010441105549
 20
94.13477793070888
 30
0.0
 11
42.09526105921452
 21
94.07962128254985
 31
0.0
  0
LINE
  5
7369
  8
0
 10
42.22455098431294
 20
93.95033135745143
 30
0.0
 11
42.40230321090405
 21
93.77258099350547
 31
0.0
  0
LINE
  5
736A
  8
0
 10
42.62509419720357
 20
93.54978814456081
 30
0.0
 11
42.79155506890004
 21
93.38332727286434
 31
0.0
  0
LINE
  5
736B
  8
0
 10
43.28270851772015
 20
92.89217568668937
 30
0.0
 11
43.37272643249219
 21
92.80215404662704
 31
0.0
  0
LINE
  5
736C
  8
0
 10
43.50201635759061
 20
92.67286412152862
 30
0.0
 11
43.59765573542302
 21
92.5772247436962
 31
0.0
  0
LINE
  5
736D
  8
0
 10
42.01961158912366
 20
94.15527261528587
 30
0.0
 11
42.16103105943387
 21
94.29669394824123
 31
0.0
  0
LINE
  5
736E
  8
0
 10
42.01961158912366
 20
94.15527261528587
 30
0.0
 11
42.04010441105549
 21
94.13477793070888
 31
0.0
  0
LINE
  5
7374
  8
0
 10
39.52186404864972
 20
96.93586282167053
 30
0.0
 11
40.32186268966382
 21
96.13586231801128
 31
0.0
  0
LINE
  5
7375
  8
0
 10
33.52186306517308
 20
102.935861942502
 30
0.0
 11
34.62186305921261
 21
101.8358619484625
 31
0.0
  0
LINE
  5
7376
  8
7
 10
167.6873735440984
 20
229.8911326928805
 30
0.0
 11
213.2753735440986
 21
229.8911326928805
 31
0.0
1001
GENIUS_GENODEF_13
1002
{
1000
HIER
1070
     0
1002
}
1002
{
1000
MANEDIT
1070
     0
1002
}
1002
{
1000
NOSEL
1070
     0
1002
}
1002
{
1000
BEHIND
1070
     0
1002
}
1002
{
1000
OTHER
1070
     0
1002
}
1002
{
1000
REACTOR
1002
}
1001
GENIUS_GENOBJ-N-CEN_13
1002
{
1000
OWNER
1000
GEN
1002
}
1001
GENIUS_GENCEN_19
1002
{
1040
2.794
1002
}
  0
LINE
  5
7377
  8
7
 10
75.52186071078961
 20
132.9298628022991
 30
0.0
 11
75.52186071078961
 21
87.34186319717969
 31
0.0
1001
GENIUS_GENOBJ-N-CEN_13
1002
{
1000
OWNER
1000
GEN
1002
}
1001
GENIUS_GENODEF_13
1002
{
1000
HIER
1070
     0
1002
}
1002
{
1000
MANEDIT
1070
     0
1002
}
1002
{
1000
NOSEL
1070
     0
1002
}
1002
{
1000
BEHIND
1070
     0
1002
}
1002
{
1000
OTHER
1070
     0
1002
}
1002
{
1000
REACTOR
1002
}
1001
GENIUS_GENCEN_19
1002
{
1040
2.794
1002
}
  0
LINE
  5
7378
  8
7
 10
52.52186071078961
 20
287.8911326928805
 30
0.0
 11
52.52186071078972
 21
275.8911326928808
 31
0.0
  0
LINE
  5
7379
  8
7
 10
52.52186071078961
 20
183.8911326928805
 30
0.0
 11
52.52186071078961
 21
171.8911326928805
 31
0.0
  0
LINE
  5
737A
  8
7
 10
98.52186071078961
 20
287.8911326928805
 30
0.0
 11
98.52186071078972
 21
275.8911326928805
 31
0.0
  0
LINE
  5
737B
  8
7
 10
98.52186071078961
 20
183.8911326928805
 30
0.0
 11
98.52186071078961
 21
171.8911326928805
 31
0.0
  0
LINE
  5
737C
  8
7
 10
46.52186071078961
 20
177.8911326928805
 30
0.0
 11
58.52186071078961
 21
177.8911326928805
 31
0.0
  0
LINE
  5
737D
  8
7
 10
92.52186071078961
 20
177.8911326928805
 30
0.0
 11
104.5218607107896
 21
177.8911326928805
 31
0.0
  0
LINE
  5
737E
  8
7
 10
46.52186071078961
 20
281.8911326928805
 30
0.0
 11
58.52186071078961
 21
281.8911326928805
 31
0.0
  0
LINE
  5
737F
  8
7
 10
92.52186071078961
 20
281.8911326928805
 30
0.0
 11
104.5218607107896
 21
281.8911326928805
 31
0.0
  0
LINE
  5
8B71
  8
0
 10
38.27186071078958
 20
264.9911326928806
 30
0.0
 11
112.7718607107896
 21
264.9911326928806
 31
0.0
  0
LINE
  5
8B72
  8
0
 10
38.27186071078958
 20
194.7911326928805
 30
0.0
 11
112.7718607107896
 21
194.7911326928805
 31
0.0
  0
LINE
  5
8B74
  8
0
 10
38.27186071078958
 20
264.9911326928806
 30
0.0
 11
38.27186071078958
 21
194.7911326928805
 31
0.0
  0
LINE
  5
8B78
  8
0
 10
112.7718607107896
 20
264.9911326928806
 30
0.0
 11
112.7718607107896
 21
194.7911326928805
 31
0.0
  0
LINE
  5
8B7F
  8
0
 10
112.0218601743478
 20
195.3911335571479
 30
0.0
 11
112.0218601743478
 21
264.3911318286132
 31
0.0
  0
LINE
  5
8B80
  8
0
 10
39.02186124723139
 20
195.3911335571479
 30
0.0
 11
112.0218601743478
 21
195.3911335571479
 31
0.0
  0
LINE
  5
8B81
  8
0
 10
39.02186124723139
 20
264.3911318286132
 30
0.0
 11
39.02186124723139
 21
195.3911335571479
 31
0.0
  0
LINE
  5
8B82
  8
0
 10
112.0218601743478
 20
264.3911318286132
 30
0.0
 11
39.02186124723139
 21
264.3911318286132
 31
0.0
  0
LINE
  5
8B83
  8
0
 10
40.52186056177797
 20
196.8911328716945
 30
0.0
 11
110.5218608598012
 21
196.8911328716945
 31
0.0
  0
LINE
  5
8B84
  8
0
 10
110.5218608598012
 20
196.8911328716945
 30
0.0
 11
110.5218608598012
 21
262.8911325140666
 31
0.0
  0
LINE
  5
8B85
  8
0
 10
110.5218608598012
 20
262.8911325140666
 30
0.0
 11
65.521860934307
 21
262.8911325140666
 31
0.0
  0
LINE
  5
8B86
  8
0
 10
40.52186056177797
 20
250.8911324097585
 30
0.0
 11
65.521860934307
 21
250.8911324097585
 31
0.0
  0
LINE
  5
8B87
  8
0
 10
40.52186056177797
 20
250.8911324097585
 30
0.0
 11
40.52186056177797
 21
196.8911328716945
 31
0.0
  0
LINE
  5
8B88
  8
0
 10
47.32186018626871
 20
253.1911322279643
 30
0.0
 11
57.32185996275129
 21
253.1911322279643
 31
0.0
  0
LINE
  5
8B89
  8
0
 10
57.32185996275129
 20
253.1911322279643
 30
0.0
 11
57.32185996275129
 21
261.1911335392665
 31
0.0
  0
LINE
  5
8B8A
  8
0
 10
57.32185996275129
 20
261.1911335392665
 30
0.0
 11
47.32186018626871
 21
261.1911335392665
 31
0.0
  0
LINE
  5
8B8B
  8
0
 10
47.32186018626871
 20
261.1911335392665
 30
0.0
 11
47.32186018626871
 21
253.1911322279643
 31
0.0
  0
LINE
  5
8B8C
  8
0
 10
65.521860934307
 20
250.8911324097585
 30
0.0
 11
65.521860934307
 21
262.8911325140666
 31
0.0
  0
LINE
  5
8B8D
  8
0
 10
112.5218611876267
 20
194.8911325438689
 30
0.0
 11
112.5218611876267
 21
264.8911328418922
 31
0.0
  0
LINE
  5
8B8E
  8
0
 10
38.52186023395242
 20
194.8911325438689
 30
0.0
 11
112.5218611876267
 21
194.8911325438689
 31
0.0
  0
LINE
  5
8B8F
  8
0
 10
38.52186023395242
 20
264.8911328418922
 30
0.0
 11
38.52186023395242
 21
194.8911325438689
 31
0.0
  0
LINE
  5
8B90
  8
0
 10
112.5218611876267
 20
264.8911328418922
 30
0.0
 11
38.52186023395242
 21
264.8911328418922
 31
0.0
  0
ARC
  5
8B91
  8
0
 10
48.72186007450998
 20
259.6911322279643
 30
0.0
 40
1.0
 50
90.0
 51
180.0
  0
ARC
  5
8B92
  8
0
 10
53.72186007450998
 20
259.6911322279643
 30
0.0
 40
1.0
 50
0.0
 51
90.0
  0
LINE
  5
8B93
  8
0
 10
48.72186007450998
 20
260.6911322279643
 30
0.0
 11
53.72186007450998
 21
260.6911322279643
 31
0.0
  0
LINE
  5
8B94
  8
0
 10
53.72186007450998
 20
253.6911322279644
 30
0.0
 11
48.72186007450998
 21
253.6911322279643
 31
0.0
  0
ARC
  5
8B95
  8
0
 10
48.72186007450998
 20
254.6911322279643
 30
0.0
 40
1.0
 50
180.0
 51
270.0000000000016
  0
ARC
  5
8B96
  8
0
 10
53.72186007450998
 20
254.6911322279644
 30
0.0
 40
1.0
 50
270.0
 51
0.0
  0
LINE
  5
8B97
  8
0
 10
52.72186007450998
 20
253.6911322279644
 30
0.0
 11
52.72186007450998
 21
260.6911322279643
 31
0.0
  0
LINE
  5
8B98
  8
0
 10
51.72186007450998
 20
253.6911322279643
 30
0.0
 11
51.72186007450998
 21
260.6911322279643
 31
0.0
  0
LINE
  5
8B99
  8
0
 10
50.72186007450998
 20
253.6911322279642
 30
0.0
 11
50.72186007450998
 21
260.6911322279643
 31
0.0
  0
LINE
  5
8B9A
  8
0
 10
49.72186007450998
 20
253.6911322279642
 30
0.0
 11
49.72186007450998
 21
260.6911322279643
 31
0.0
  0
LINE
  5
8B9B
  8
0
 10
47.72186007450998
 20
254.6911322279643
 30
0.0
 11
47.72186007450998
 21
259.6911322279643
 31
0.0
  0
LINE
  5
8B9C
  8
0
 10
54.72186007450998
 20
259.6911322279643
 30
0.0
 11
54.72186007450998
 21
254.6911322279644
 31
0.0
  0
LINE
  5
8B9D
  8
0
 10
65.771860934307
 20
262.6411326928807
 30
0.0
 11
110.2718607107896
 21
262.6411326928805
 31
0.0
  0
LINE
  5
8B9E
  8
0
 10
110.2718607107896
 20
262.6411326928805
 30
0.0
 11
110.2718607107896
 21
197.1411326928805
 31
0.0
  0
LINE
  5
8B9F
  8
0
 10
40.77186071078958
 20
197.1411326928807
 30
0.0
 11
40.77186071078958
 21
250.6411324097585
 31
0.0
  0
LINE
  5
8BA0
  8
0
 10
110.2718607107896
 20
197.1411326928805
 30
0.0
 11
40.77186071078958
 21
197.1411326928807
 31
0.0
  0
LINE
  5
8BA1
  8
0
  6
CONTINUOUS
 10
65.771860934307
 20
250.6411324097585
 30
0.0
 11
65.771860934307
 21
262.6411326928807
 31
0.0
  0
LINE
  5
8BA2
  8
0
  6
CONTINUOUS
 10
40.77186071078958
 20
250.6411324097585
 30
0.0
 11
65.771860934307
 21
250.6411324097585
 31
0.0
  0
LINE
  5
8BA3
  8
0
 10
53.57186007450998
 20
249.7411326928807
 30
0.0
 11
51.07186007450998
 21
249.7411326928807
 31
0.0
  0
LINE
  5
8D19
  8
0
 10
55.82186007451
 20
248.2411326928806
 30
0.0
 11
55.82186007451
 21
246.2411326928806
 31
0.0
  0
LINE
  5
8D1A
  8
0
 10
48.82186007451
 20
248.2411326928806
 30
0.0
 11
48.82186007451
 21
246.2411326928806
 31
0.0
  0
ARC
  5
8D1B
  8
0
 10
49.82186007451
 20
248.2411326928806
 30
0.0
 40
1.0
 50
90.0
 51
180.0
  0
ARC
  5
8D1C
  8
0
 10
49.82186007451
 20
246.2411326928806
 30
0.0
 40
1.0
 50
180.0
 51
270.0
  0
ARC
  5
8D1D
  8
0
 10
54.82186007451
 20
246.2411326928806
 30
0.0
 40
1.0
 50
270.0
 51
0.0
  0
ARC
  5
8D1E
  8
0
 10
54.82186007451
 20
248.2411326928806
 30
0.0
 40
1.0
 50
0.0
 51
90.0
  0
LINE
  5
8D1F
  8
0
 10
49.82186007451
 20
249.2411326928806
 30
0.0
 11
54.82186007451
 21
249.2411326928806
 31
0.0
  0
LINE
  5
8D20
  8
0
 10
49.82186007451
 20
245.2411326928806
 30
0.0
 11
54.82186007451
 21
245.2411326928806
 31
0.0
  0
TEXT
  5
8D21
  8
0
 10
42.16044691739713
 20
246.2788568734619
 30
0.0
 40
2.0
  1
OFF
 41
1.5
  0
TEXT
  5
8D22
  8
0
 10
57.20729606708885
 20
246.2788568734619
 30
0.0
 40
2.0
  1
ON
 41
1.5
  0
TEXT
  5
8D23
  8
0
 10
49.75043150308143
 20
246.2980281783475
 30
0.0
 40
2.0
  1
電源
  0
LINE
  5
8D25
  8
0
 10
42.27186071078958
 20
217.1012408001856
 30
0.0
 11
42.27186071078958
 21
219.6387408001862
 31
0.0
  0
LINE
  5
8D26
  8
0
 10
44.37436071078955
 20
217.1012408001856
 30
0.0
 11
44.37436071078955
 21
219.6387408001862
 31
0.0
  0
LINE
  5
8D27
  8
0
 10
44.59186071078975
 20
217.1012408001856
 30
0.0
 11
44.59186071078975
 21
219.6387408001862
 31
0.0
  0
LINE
  5
8D28
  8
0
 10
42.27186071078958
 20
217.1012408001856
 30
0.0
 11
43.06936071078971
 21
217.1012408001856
 31
0.0
  0
LINE
  5
8D29
  8
0
 10
42.27186071078958
 20
219.6387408001862
 30
0.0
 11
43.06936071078971
 21
219.6387408001862
 31
0.0
  0
LINE
  5
8D2A
  8
0
 10
43.06936071078971
 20
219.6387408001862
 30
0.0
 11
43.06936071078971
 21
218.768740800186
 31
0.0
  0
LINE
  5
8D2B
  8
0
 10
43.57686071078942
 20
219.6387408001862
 30
0.0
 11
43.57686071078942
 21
218.768740800186
 31
0.0
  0
LINE
  5
8D2C
  8
0
 10
43.06936071078971
 20
217.1012408001856
 30
0.0
 11
43.06936071078971
 21
217.9712408001855
 31
0.0
  0
LINE
  5
8D2D
  8
0
 10
43.57686071078942
 20
217.1012408001856
 30
0.0
 11
43.57686071078942
 21
217.9712408001855
 31
0.0
  0
LINE
  5
8D2E
  8
0
 10
43.57686071078942
 20
219.6387408001862
 30
0.0
 11
44.37436071078955
 21
219.6387408001862
 31
0.0
  0
LINE
  5
8D2F
  8
0
 10
43.57686071078942
 20
217.1012408001856
 30
0.0
 11
44.37436071078955
 21
217.1012408001856
 31
0.0
  0
LINE
  5
8D30
  8
0
 10
43.06936071078971
 20
218.768740800186
 30
0.0
 11
43.57686071078942
 21
218.768740800186
 31
0.0
  0
LINE
  5
8D31
  8
0
 10
43.06936071078971
 20
217.9712408001855
 30
0.0
 11
43.57686071078942
 21
217.9712408001855
 31
0.0
  0
LINE
  5
8D32
  8
0
 10
45.38936071078942
 20
217.1012408001856
 30
0.0
 11
45.38936071078942
 21
219.6387408001862
 31
0.0
  0
LINE
  5
8D33
  8
0
 10
45.60686071078962
 20
217.1012408001856
 30
0.0
 11
45.60686071078962
 21
219.6387408001862
 31
0.0
  0
LINE
  5
8D34
  8
0
 10
44.59186071078975
 20
219.6387408001862
 30
0.0
 11
45.38936071078942
 21
219.6387408001862
 31
0.0
  0
LINE
  5
8D35
  8
0
 10
44.59186071078975
 20
217.1012408001856
 30
0.0
 11
45.38936071078942
 21
217.1012408001856
 31
0.0
  0
LINE
  5
8D36
  8
0
 10
47.70936071078958
 20
217.1012408001856
 30
0.0
 11
47.70936071078958
 21
217.6812408001855
 31
0.0
  0
LINE
  5
8D37
  8
0
 10
47.70936071078958
 20
219.0587408001862
 30
0.0
 11
47.70936071078958
 21
219.6387408001862
 31
0.0
  0
LINE
  5
8D38
  8
0
 10
45.60686071078962
 20
217.1012408001856
 30
0.0
 11
46.40436071078975
 21
217.1012408001856
 31
0.0
  0
LINE
  5
8D39
  8
0
 10
45.60686071078962
 20
219.6387408001862
 30
0.0
 11
46.40436071078975
 21
219.6387408001862
 31
0.0
  0
LINE
  5
8D3A
  8
0
 10
46.40436071078975
 20
219.6387408001862
 30
0.0
 11
46.40436071078975
 21
218.768740800186
 31
0.0
  0
LINE
  5
8D3B
  8
0
 10
46.91186071078945
 20
219.6387408001862
 30
0.0
 11
46.91186071078945
 21
219.0587408001862
 31
0.0
  0
LINE
  5
8D3C
  8
0
 10
46.40436071078975
 20
217.1012408001856
 30
0.0
 11
46.40436071078975
 21
217.9712408001855
 31
0.0
  0
LINE
  5
8D3D
  8
0
 10
46.91186071078945
 20
217.1012408001856
 30
0.0
 11
46.91186071078945
 21
217.6812408001855
 31
0.0
  0
ARC
  5
8D3E
  8
0
 10
46.62186071078949
 20
217.6812408001855
 30
0.0
 40
0.29
 50
0.0
 51
90.0
  0
ARC
  5
8D3F
  8
0
 10
46.62186071078949
 20
217.6812408001855
 30
0.0
 40
1.0875
 50
0.0
 51
39.29648023919341
  0
LINE
  5
8D40
  8
0
 10
46.91186071078945
 20
219.6387408001862
 30
0.0
 11
47.70936071078958
 21
219.6387408001862
 31
0.0
  0
LINE
  5
8D41
  8
0
 10
46.91186071078945
 20
217.1012408001856
 30
0.0
 11
47.70936071078958
 21
217.1012408001856
 31
0.0
  0
LINE
  5
8D42
  8
0
 10
46.40436071078975
 20
218.768740800186
 30
0.0
 11
46.62186071078949
 21
218.768740800186
 31
0.0
  0
ARC
  5
8D43
  8
0
 10
46.62186071078949
 20
219.0587408001862
 30
0.0
 40
0.29
 50
270.0
 51
0.0
  0
ARC
  5
8D44
  8
0
 10
46.62186071078949
 20
219.0587408001862
 30
0.0
 40
1.0875
 50
320.7035197608225
 51
0.0
  0
LINE
  5
8D45
  8
0
 10
46.40436071078975
 20
217.9712408001855
 30
0.0
 11
46.62186071078949
 21
217.9712408001855
 31
0.0
  0
LINE
  5
8D46
  8
0
 10
47.92686071078978
 20
217.1012408001856
 30
0.0
 11
47.92686071078978
 21
218.5874908001855
 31
0.0
  0
LINE
  5
8D47
  8
0
 10
50.02936071078975
 20
217.1012408001856
 30
0.0
 11
50.02936071078975
 21
218.5874908001855
 31
0.0
  0
LINE
  5
8D48
  8
0
 10
47.92686071078978
 20
217.1012408001856
 30
0.0
 11
48.72436071078945
 21
217.1012408001856
 31
0.0
  0
LINE
  5
8D49
  8
0
 10
48.72436071078945
 20
217.1012408001856
 30
0.0
 11
48.72436071078945
 21
217.6087408001853
 31
0.0
  0
LINE
  5
8D4A
  8
0
 10
49.23186071078962
 20
217.1012408001856
 30
0.0
 11
49.23186071078962
 21
217.6087408001853
 31
0.0
  0
LINE
  5
8D4B
  8
0
 10
49.23186071078962
 20
217.1012408001856
 30
0.0
 11
50.02936071078975
 21
217.1012408001856
 31
0.0
  0
LINE
  5
8D4C
  8
0
 10
48.72436071078945
 20
217.6087408001853
 30
0.0
 11
49.23186071078962
 21
217.6087408001853
 31
0.0
  0
LINE
  5
8D4D
  8
0
 10
48.72436071078945
 20
218.3337408001856
 30
0.0
 11
49.23186071078962
 21
218.3337408001856
 31
0.0
  0
ARC
  5
8D4E
  8
0
 10
48.97811071078976
 20
218.5874908001855
 30
0.0
 40
1.05125
 50
0.0
 51
180.0
  0
ARC
  5
8D4F
  8
0
 10
48.97811071078976
 20
218.5874908001855
 30
0.0
 40
0.25375
 50
0.0
 51
180.0
  0
LINE
  5
8D50
  8
0
 10
48.72436071078945
 20
218.3337408001856
 30
0.0
 11
48.72436071078945
 21
218.5874908001855
 31
0.0
  0
LINE
  5
8D51
  8
0
 10
49.23186071078962
 20
218.5874908001855
 30
0.0
 11
49.23186071078962
 21
218.3337408001856
 31
0.0
  0
LINE
  5
8D52
  8
0
 10
50.24686071078949
 20
217.1012408001856
 30
0.0
 11
50.24686071078949
 21
219.6387408001862
 31
0.0
  0
LINE
  5
8D53
  8
0
 10
52.34936071078945
 20
217.1012408001856
 30
0.0
 11
52.34936071078945
 21
217.6812408001855
 31
0.0
  0
LINE
  5
8D54
  8
0
 10
50.24686071078949
 20
217.1012408001856
 30
0.0
 11
51.04436071078962
 21
217.1012408001856
 31
0.0
  0
LINE
  5
8D55
  8
0
 10
51.1893607107896
 20
217.8987408001857
 30
0.0
 11
51.33436071078958
 21
217.8987408001857
 31
0.0
  0
LINE
  5
8D56
  8
0
 10
51.1893607107896
 20
218.4787408001861
 30
0.0
 11
51.33436071078958
 21
218.4787408001861
 31
0.0
  0
LINE
  5
8D57
  8
0
 10
51.04436071078962
 20
217.1012408001856
 30
0.0
 11
51.04436071078962
 21
218.9137408001858
 31
0.0
  0
LINE
  5
8D58
  8
0
 10
51.55186071078978
 20
217.1012408001856
 30
0.0
 11
51.55186071078978
 21
217.6812408001855
 31
0.0
  0
ARC
  5
8D59
  8
0
 10
51.33436071078958
 20
217.6812408001855
 30
0.0
 40
0.2175
 50
0.0
 51
90.0
  0
ARC
  5
8D5A
  8
0
 10
51.33436071078958
 20
217.6812408001855
 30
0.0
 40
1.015
 50
0.0
 51
30.66296328368622
  0
LINE
  5
8D5B
  8
0
 10
50.24686071078949
 20
219.6387408001862
 30
0.0
 11
51.40686071078935
 21
219.6387408001862
 31
0.0
  0
LINE
  5
8D5C
  8
0
 10
51.04436071078962
 20
218.9137408001858
 30
0.0
 11
51.33436071078958
 21
218.9137408001858
 31
0.0
  0
LINE
  5
8D5D
  8
0
 10
51.55186071078978
 20
217.1012408001856
 30
0.0
 11
52.34936071078945
 21
217.1012408001856
 31
0.0
  0
ARC
  5
8D5E
  8
0
 10
51.33436071078958
 20
218.6962408001858
 30
0.0
 40
0.2175
 50
270.0
 51
90.0
  0
ARC
  5
8D5F
  8
0
 10
51.40686071078935
 20
218.6962408001858
 30
0.0
 40
0.9425
 50
328.1493895340843
 51
90.0
  0
LINE
  5
8D60
  8
0
 10
51.1893607107896
 20
218.4787408001861
 30
0.0
 11
51.1893607107896
 21
217.8987408001857
 31
0.0
  0
LINE
  5
8D61
  8
0
 10
52.56686071078965
 20
217.1012408001856
 30
0.0
 11
52.56686071078965
 21
219.6387408001862
 31
0.0
  0
LINE
  5
8D62
  8
0
 10
53.36436071078978
 20
217.1012408001856
 30
0.0
 11
53.36436071078978
 21
219.6387408001862
 31
0.0
  0
LINE
  5
8D63
  8
0
 10
56.26436071078942
 20
217.1374908001857
 30
0.0
 11
56.26436071078942
 21
218.5874908001855
 31
0.0
  0
LINE
  5
8D64
  8
0
 10
52.56686071078965
 20
219.6387408001862
 30
0.0
 11
53.36436071078978
 21
219.6387408001862
 31
0.0
  0
LINE
  5
8D65
  8
0
 10
52.56686071078965
 20
217.1012408001856
 30
0.0
 11
53.36436071078978
 21
217.1012408001856
 31
0.0
  0
ARC
  5
8D66
  8
0
 10
55.53936071078951
 20
218.3699908001857
 30
0.0
 40
1.305
 50
84.27518954777628
 51
281.4211862750073
  0
ARC
  5
8D67
  8
0
 10
55.53936071078951
 20
218.3699908001857
 30
0.0
 40
0.5075000000000001
 50
84.27518954777645
 51
270.0
  0
CIRCLE
  5
8D68
  8
0
 10
57.78686071078945
 20
218.3699908001857
 30
0.0
 40
1.305
  0
CIRCLE
  5
8D69
  8
0
 10
57.78686071078945
 20
218.3699908001857
 30
0.0
 40
0.5075000000000001
  0
LINE
  5
8D6A
  8
0
 10
55.53936071078951
 20
217.862490800186
 30
0.0
 11
55.53936071078951
 21
218.5874908001855
 31
0.0
  0
LINE
  5
8D6B
  8
0
 10
55.53936071078951
 20
218.5874908001855
 30
0.0
 11
56.26436071078942
 21
218.5874908001855
 31
0.0
  0
LINE
  5
8D6C
  8
0
 10
55.79777655237385
 20
217.0908323843445
 30
0.0
 11
56.26436071078942
 21
217.1374908001857
 31
0.0
  0
LINE
  5
8D6D
  8
0
 10
55.66953527438054
 20
219.6684820720062
 30
0.0
 11
56.26436071078942
 21
219.6387408001862
 31
0.0
  0
LINE
  5
8D6E
  8
0
 10
56.26436071078942
 20
219.6387408001862
 30
0.0
 11
56.26436071078942
 21
218.8412408001856
 31
0.0
  0
LINE
  5
8D6F
  8
0
 10
56.26436071078942
 20
218.8412408001856
 30
0.0
 11
55.58998415218602
 21
218.8749596281165
 31
0.0
  0
LINE
  5
8D70
  8
0
 10
59.30936071078949
 20
217.1012408001856
 30
0.0
 11
59.30936071078949
 21
219.6387408001862
 31
0.0
  0
LINE
  5
8D71
  8
0
 10
61.41186071078945
 20
217.1012408001856
 30
0.0
 11
61.41186071078945
 21
217.6812408001855
 31
0.0
  0
LINE
  5
8D72
  8
0
 10
61.41186071078945
 20
219.0587408001862
 30
0.0
 11
61.41186071078945
 21
219.6387408001862
 31
0.0
  0
LINE
  5
8D73
  8
0
 10
59.30936071078949
 20
217.1012408001856
 30
0.0
 11
60.10686071078962
 21
217.1012408001856
 31
0.0
  0
LINE
  5
8D74
  8
0
 10
59.30936071078949
 20
219.6387408001862
 30
0.0
 11
60.10686071078962
 21
219.6387408001862
 31
0.0
  0
LINE
  5
8D75
  8
0
 10
60.10686071078962
 20
219.6387408001862
 30
0.0
 11
60.10686071078962
 21
218.768740800186
 31
0.0
  0
LINE
  5
8D76
  8
0
 10
60.61436071078978
 20
219.6387408001862
 30
0.0
 11
60.61436071078978
 21
219.0587408001862
 31
0.0
  0
LINE
  5
8D77
  8
0
 10
60.10686071078962
 20
217.1012408001856
 30
0.0
 11
60.10686071078962
 21
217.9712408001855
 31
0.0
  0
LINE
  5
8D78
  8
0
 10
60.61436071078978
 20
217.1012408001856
 30
0.0
 11
60.61436071078978
 21
217.6812408001855
 31
0.0
  0
ARC
  5
8D79
  8
0
 10
60.32436071078936
 20
217.6812408001855
 30
0.0
 40
0.29
 50
0.0
 51
90.0
  0
ARC
  5
8D7A
  8
0
 10
60.32436071078936
 20
217.6812408001855
 30
0.0
 40
1.0875
 50
0.0
 51
39.29648023919341
  0
LINE
  5
8D7B
  8
0
 10
60.61436071078978
 20
219.6387408001862
 30
0.0
 11
61.41186071078945
 21
219.6387408001862
 31
0.0
  0
LINE
  5
8D7C
  8
0
 10
60.61436071078978
 20
217.1012408001856
 30
0.0
 11
61.41186071078945
 21
217.1012408001856
 31
0.0
  0
LINE
  5
8D7D
  8
0
 10
60.10686071078962
 20
218.768740800186
 30
0.0
 11
60.32436071078936
 21
218.768740800186
 31
0.0
  0
ARC
  5
8D7E
  8
0
 10
60.32436071078936
 20
219.0587408001862
 30
0.0
 40
0.29
 50
270.0
 51
0.0
  0
ARC
  5
8D7F
  8
0
 10
60.32436071078936
 20
219.0587408001862
 30
0.0
 40
1.0875
 50
320.7035197608225
 51
0.0
  0
LINE
  5
8D80
  8
0
 10
60.10686071078962
 20
217.9712408001855
 30
0.0
 11
60.32436071078936
 21
217.9712408001855
 31
0.0
  0
LINE
  5
8D81
  8
0
 10
61.62936071078965
 20
217.1012408001856
 30
0.0
 11
61.62936071078965
 21
219.6387408001862
 31
0.0
  0
LINE
  5
8D82
  8
0
 10
62.42686071078978
 20
217.1012408001856
 30
0.0
 11
62.42686071078978
 21
219.6387408001862
 31
0.0
  0
LINE
  5
8D83
  8
0
 10
61.62936071078965
 20
219.6387408001862
 30
0.0
 11
62.42686071078978
 21
219.6387408001862
 31
0.0
  0
LINE
  5
8D84
  8
0
 10
61.62936071078965
 20
217.1012408001856
 30
0.0
 11
62.42686071078978
 21
217.1012408001856
 31
0.0
  0
LINE
  5
8D85
  8
0
 10
62.64436071078953
 20
217.1012408001856
 30
0.0
 11
62.64436071078953
 21
218.5874908001855
 31
0.0
  0
LINE
  5
8D86
  8
0
 10
64.74686071078949
 20
217.1012408001856
 30
0.0
 11
64.74686071078949
 21
218.5874908001855
 31
0.0
  0
LINE
  5
8D87
  8
0
 10
62.64436071078953
 20
217.1012408001856
 30
0.0
 11
63.44186071078965
 21
217.1012408001856
 31
0.0
  0
LINE
  5
8D88
  8
0
 10
63.44186071078965
 20
217.1012408001856
 30
0.0
 11
63.44186071078965
 21
218.5874908001855
 31
0.0
  0
LINE
  5
8D89
  8
0
 10
63.94936071078936
 20
217.1012408001856
 30
0.0
 11
63.94936071078936
 21
218.5874908001855
 31
0.0
  0
LINE
  5
8D8A
  8
0
 10
63.94936071078936
 20
217.1012408001856
 30
0.0
 11
64.74686071078949
 21
217.1012408001856
 31
0.0
  0
ARC
  5
8D8B
  8
0
 10
63.69561071078951
 20
218.5874908001855
 30
0.0
 40
1.05125
 50
0.0
 51
180.0
  0
ARC
  5
8D8C
  8
0
 10
63.69561071078951
 20
218.5874908001855
 30
0.0
 40
0.25375
 50
0.0
 51
180.0
  0
LINE
  5
8D8D
  8
0
 10
56.52186071078958
 20
212.8911326928804
 30
0.0
 11
64.52186071078958
 21
212.8911326928804
 31
0.0
  0
ARC
  5
8D8E
  8
0
 10
64.52186071078958
 20
210.8911326928804
 30
0.0
 40
2.0
 50
0.0
 51
90.0
  0
ARC
  5
8D8F
  8
0
 10
56.52186071078958
 20
210.8911326928804
 30
0.0
 40
2.0
 50
90.0
 51
180.0
  0
ARC
  5
8D90
  8
0
 10
64.52186071078958
 20
203.89113269288
 30
0.0
 40
2.0
 50
270.0
 51
0.0
  0
LINE
  5
8D91
  8
0
 10
66.52186071078958
 20
203.89113269288
 30
0.0
 11
66.52186071078958
 21
210.8911326928804
 31
0.0
  0
LINE
  5
8D92
  8
0
 10
56.52186071078958
 20
201.89113269288
 30
0.0
 11
64.52186071078958
 21
201.89113269288
 31
0.0
  0
ARC
  5
8D93
  8
0
 10
56.52186071078958
 20
203.89113269288
 30
0.0
 40
2.0
 50
180.0
 51
270.0
  0
LINE
  5
8D94
  8
0
 10
54.52186071078958
 20
203.89113269288
 30
0.0
 11
54.52186071078958
 21
210.8911326928804
 31
0.0
  0
CIRCLE
  5
8D95
  8
0
 10
95.52186071078958
 20
209.8911326928804
 30
0.0
 40
7.499999999999949
  0
CIRCLE
  5
8D96
  8
0
 10
95.52186071078958
 20
209.8911326928804
 30
0.0
 40
8.20000000000001
  0
CIRCLE
  5
8D97
  8
0
 10
95.52186071078958
 20
209.8911326928804
 30
0.0
 40
8.499999999999963
  0
LINE
  5
8D98
  8
0
 10
68.27186071078958
 20
203.89113269288
 30
0.0
 11
68.27186071078958
 21
215.8911326928804
 31
0.0
  0
LINE
  5
8D99
  8
0
 10
68.57186071078954
 20
203.89113269288
 30
0.0
 11
68.57186071078954
 21
209.89113269288
 31
0.0
  0
ARC
  5
8D9A
  8
0
 10
70.27186071078958
 20
203.89113269288
 30
0.0
 40
2.0
 50
180.0
 51
270.0
1001
GENIUS_GENOBJ-N-FIL_13
1002
{
1000
OWNER
1000
GEN
1002
}
1001
GENIUS_GENODEF_13
1002
{
1000
HIER
1070
     0
1002
}
1002
{
1000
MANEDIT
1070
     0
1002
}
1002
{
1000
NOSEL
1070
     0
1002
}
1002
{
1000
BEHIND
1070
     0
1002
}
1002
{
1000
OTHER
1070
     0
1002
}
1002
{
1000
REACTOR
1002
}
  0
ARC
  5
8D9B
  8
0
 10
70.27186071078958
 20
203.89113269288
 30
0.0
 40
1.7
 50
180.0
 51
270.0
1001
GENIUS_GENOBJ-N-FIL_13
1002
{
1000
OWNER
1000
GEN
1002
}
1001
GENIUS_GENODEF_13
1002
{
1000
HIER
1070
     0
1002
}
1002
{
1000
MANEDIT
1070
     0
1002
}
1002
{
1000
NOSEL
1070
     0
1002
}
1002
{
1000
BEHIND
1070
     0
1002
}
1002
{
1000
OTHER
1070
     0
1002
}
1002
{
1000
REACTOR
1002
}
  0
LINE
  5
8D9C
  8
0
 10
86.27186071078867
 20
203.89113269288
 30
0.0
 11
86.27186071078867
 21
215.8911326928795
 31
0.0
  0
LINE
  5
8D9D
  8
0
 10
85.97186071078872
 20
203.89113269288
 30
0.0
 11
85.97186071078872
 21
209.89113269288
 31
0.0
  0
ARC
  5
8D9E
  8
0
 10
84.27186071078867
 20
215.8911326928795
 30
0.0
 40
2.0
 50
0.0
 51
90.0
1001
GENIUS_GENODEF_13
1002
{
1000
HIER
1070
     0
1002
}
1002
{
1000
MANEDIT
1070
     0
1002
}
1002
{
1000
NOSEL
1070
     0
1002
}
1002
{
1000
BEHIND
1070
     0
1002
}
1002
{
1000
OTHER
1070
     0
1002
}
1002
{
1000
REACTOR
1002
}
1001
GENIUS_GENOBJ-N-FIL_13
1002
{
1000
OWNER
1000
GEN
1002
}
  0
INSERT
  5
8D9F
  8
0
  2
*X14
 10
0.0
 20
0.0
 30
0.0
  0
LINE
  5
8DA0
  8
0
 10
86.27186071078867
 20
209.89113269288
 30
0.0
 11
68.27186071078958
 21
209.89113269288
 31
0.0
  0
CIRCLE
  5
8DA1
  8
0
 10
77.4734742502047
 20
213.8911326928804
 30
0.0
 40
2.0
  0
LINE
  5
8DA2
  8
0
 10
84.27186071078867
 20
217.8911326928795
 30
0.0
 11
70.27186071078958
 21
217.8911326928804
 31
0.0
  0
ARC
  5
8DA3
  8
0
 10
70.27186071078958
 20
215.8911326928804
 30
0.0
 40
2.0
 50
90.0
 51
180.0
1001
GENIUS_GENOBJ-N-FIL_13
1002
{
1000
OWNER
1000
GEN
1002
}
1001
GENIUS_GENODEF_13
1002
{
1000
HIER
1070
     0
1002
}
1002
{
1000
MANEDIT
1070
     0
1002
}
1002
{
1000
NOSEL
1070
     0
1002
}
1002
{
1000
BEHIND
1070
     0
1002
}
1002
{
1000
OTHER
1070
     0
1002
}
1002
{
1000
REACTOR
1002
}
  0
LINE
  5
8DA4
  8
0
 10
84.27186071078867
 20
201.89113269288
 30
0.0
 11
70.27186071078958
 21
201.89113269288
 31
0.0
  0
LINE
  5
8DA5
  8
0
 10
84.27186071078867
 20
202.1911326928799
 30
0.0
 11
70.27186071078958
 21
202.1911326928799
 31
0.0
  0
ARC
  5
8DA6
  8
0
 10
84.27186071078867
 20
203.89113269288
 30
0.0
 40
2.0
 50
270.0
 51
0.0
1001
GENIUS_GENODEF_13
1002
{
1000
HIER
1070
     0
1002
}
1002
{
1000
MANEDIT
1070
     0
1002
}
1002
{
1000
NOSEL
1070
     0
1002
}
1002
{
1000
BEHIND
1070
     0
1002
}
1002
{
1000
OTHER
1070
     0
1002
}
1002
{
1000
REACTOR
1002
}
1001
GENIUS_GENOBJ-N-FIL_13
1002
{
1000
OWNER
1000
GEN
1002
}
  0
ARC
  5
8DA7
  8
0
 10
84.27186071078867
 20
203.89113269288
 30
0.0
 40
1.7
 50
270.0
 51
0.0
1001
GENIUS_GENODEF_13
1002
{
1000
HIER
1070
     0
1002
}
1002
{
1000
MANEDIT
1070
     0
1002
}
1002
{
1000
NOSEL
1070
     0
1002
}
1002
{
1000
BEHIND
1070
     0
1002
}
1002
{
1000
OTHER
1070
     0
1002
}
1002
{
1000
REACTOR
1002
}
1001
GENIUS_GENOBJ-N-FIL_13
1002
{
1000
OWNER
1000
GEN
1002
}
  0
TEXT
  5
8DA8
  8
0
 10
69.34773150036412
 20
212.9769706644327
 30
0.0
 40
1.9
  1
給水
  0
TEXT
  5
8DA9
  8
0
 10
89.34301098908271
 20
207.971528487562
 30
0.0
 40
4.0
  1
PUSH
 41
1.2
  0
TEXT
  5
8DAA
  8
0
 10
42.15052490373949
 20
220.3458351956485
 30
0.0
 40
1.8
  1
電動水抜操作盤
  0
TEXT
  5
8DAB
  8
0
 10
42.07371599835916
 20
214.4935160861863
 30
0.0
 40
1.8
  1
ER2000SQ-A
  0
TEXT
  5
8DAD
  8
0
 10
44.47302753709982
 20
198.5567154792365
 30
0.0
 40
1.3
  1
冬期以外(凍結の心配がない期間)や長期間使用しないときは電源をOFFにしてください
  0
CIRCLE
  5
8DB0
  8
0
 10
42.83879638719449
 20
198.5903670206766
 30
0.0
 40
0.1
  0
LINE
  5
8DB1
  8
0
 10
42.73879638719458
 20
199.5903670206766
 30
0.0
 11
42.78923886507059
 21
198.8337298525361
 31
0.0
  0
LINE
  5
8DB2
  8
0
 10
42.93879638719486
 20
199.5903670206766
 30
0.0
 11
42.8883539093184
 21
198.8337298525342
 31
0.0
  0
ARC
  5
8DB3
  8
0
 10
42.83879638719449
 20
199.5903670206766
 30
0.0
 40
0.1
 50
0.0
 51
180.0
  0
ARC
  5
8DB4
  8
0
 10
42.83879638719449
 20
198.8403670206766
 30
0.0
 40
0.05
 50
187.6281496672678
 51
352.3718503306272
  0
TEXT
  5
8DB8
  8
0
 10
55.65609498313664
 20
203.1068520865666
 30
0.0
 40
1.9
  1
点検
  0
CIRCLE
  5
8DB9
  8
0
 10
82.52186071079004
 20
205.8911326928803
 30
0.0
 40
2.0
  0
CIRCLE
  5
8DBA
  8
0
 10
82.52186071079004
 20
205.8911326928803
 30
0.0
 40
1.5
  0
CIRCLE
  5
8DBB
  8
0
 10
82.52186071079004
 20
213.8911326928803
 30
0.0
 40
2.0
  0
CIRCLE
  5
8DBC
  8
0
 10
82.52186071079004
 20
213.8911326928803
 30
0.0
 40
1.5
  0
ARC
  5
8DBD
  8
0
 10
64.27349690451774
 20
204.458448458303
 30
0.0
 40
0.9999999999999992
 50
233.0491207032591
 51
57.32628399712536
  0
LINE
  5
8DBE
  8
0
 10
63.67236678704717
 20
203.6592972949618
 30
0.0
 11
58.96523257543257
 21
207.2000543774447
 31
0.0
  0
LINE
  5
8DBF
  8
0
 10
59.85525242607736
 20
208.4800388069135
 30
0.0
 11
64.81335113157988
 21
205.3002069827763
 31
0.0
  0
ARC
  5
8DC0
  8
0
 10
57.40560133188031
 20
209.2339466995874
 30
0.0
 40
1.99079584716086
 50
1.683229077249547
 51
160.7903378653509
  0
ARC
  5
8DC1
  8
0
 10
60.39510665313992
 20
209.3217973313867
 30
0.0
 40
0.9999999999999992
 50
181.6832290772424
 51
237.3262839971245
1001
GENIUS_GENODEF_13
1002
{
1000
HIER
1070
     0
1002
}
1002
{
1000
MANEDIT
1070
     0
1002
}
1002
{
1000
NOSEL
1070
     0
1002
}
1002
{
1000
BEHIND
1070
     0
1002
}
1002
{
1000
OTHER
1070
     0
1002
}
1002
{
1000
REACTOR
1002
}
1001
GENIUS_GENOBJ-N-FIL_13
1002
{
1000
OWNER
1000
GEN
1002
}
  0
ARC
  5
8DC2
  8
0
 10
57.40560133188031
 20
209.2339466995874
 30
0.0
 40
1.99079584716086
 50
219.5850668351124
 51
288.6921756231421
  0
ARC
  5
8DC3
  8
0
 10
58.36410245796236
 20
206.4009032141033
 30
0.0
 40
0.9999999999999992
 50
53.04912070325908
 51
108.6921756231398
1001
GENIUS_GENOBJ-N-FIL_13
1002
{
1000
OWNER
1000
GEN
1002
}
1001
GENIUS_GENODEF_13
1002
{
1000
HIER
1070
     0
1002
}
1002
{
1000
MANEDIT
1070
     0
1002
}
1002
{
1000
NOSEL
1070
     0
1002
}
1002
{
1000
BEHIND
1070
     0
1002
}
1002
{
1000
OTHER
1070
     0
1002
}
1002
{
1000
REACTOR
1002
}
  0
LINE
  5
8DC4
  8
0
 10
57.96654585710496
 20
209.3347522590639
 30
0.0
 11
57.58409148041193
 21
208.2731593390241
 31
0.0
  0
LINE
  5
8DC5
  8
0
 10
57.58409148041193
 20
208.2731593390241
 30
0.0
 11
55.87133608188205
 21
207.9653655048188
 31
0.0
  0
LINE
  5
8DC6
  8
0
 10
57.96654585710485
 20
209.3347522590645
 30
0.0
 11
57.23840660821811
 21
210.196763925089
 31
0.0
  0
LINE
  5
8DC7
  8
0
 10
57.23840660821811
 20
210.196763925089
 30
0.0
 11
55.52565120968799
 21
209.8889700908834
 31
0.0
  0
CIRCLE
  5
8DC8
  8
0
 10
64.27349690451774
 20
204.458448458303
 30
0.0
 40
0.4999999999999996
  0
LINE
  5
8DC9
  8
0
 10
42.53437110525473
 20
212.57226769288
 30
0.0
 11
44.87115260525476
 21
212.57226769288
 31
0.0
  0
LINE
  5
8DCA
  8
0
 10
44.87115260525476
 20
212.57226769288
 30
0.0
 11
44.87115260525476
 21
212.90625159288
 31
0.0
  0
LINE
  5
8DCB
  8
0
 10
44.87115260525476
 20
212.90625159288
 30
0.0
 11
42.53437110525473
 21
212.90625159288
 31
0.0
  0
LINE
  5
8DCC
  8
0
 10
42.53437110525473
 20
212.90625159288
 30
0.0
 11
42.53437110525473
 21
212.57226769288
 31
0.0
  0
LINE
  5
8DCD
  8
0
 10
45.53874610525475
 20
212.57226769288
 30
0.0
 11
46.53996060525473
 21
212.57226769288
 31
0.0
  0
LINE
  5
8DCE
  8
0
 10
46.53996060525473
 20
212.57226769288
 30
0.0
 11
46.53996060525473
 21
212.90625159288
 31
0.0
  0
LINE
  5
8DCF
  8
0
 10
46.53996060525473
 20
212.90625159288
 30
0.0
 11
45.53874610525475
 21
212.90625159288
 31
0.0
  0
LINE
  5
8DD0
  8
0
 10
45.53874610525475
 20
212.90625159288
 30
0.0
 11
45.53874610525475
 21
212.57226769288
 31
0.0
  0
LINE
  5
8DD1
  8
0
 10
47.20751610525475
 20
212.57226769288
 30
0.0
 11
47.54150000525475
 21
212.57226769288
 31
0.0
  0
LINE
  5
8DD2
  8
0
 10
47.54150000525475
 20
212.57226769288
 30
0.0
 11
47.54150000525475
 21
212.90625159288
 31
0.0
  0
LINE
  5
8DD3
  8
0
 10
47.54150000525475
 20
212.90625159288
 30
0.0
 11
47.20751610525475
 21
212.90625159288
 31
0.0
  0
LINE
  5
8DD4
  8
0
 10
47.20751610525475
 20
212.90625159288
 30
0.0
 11
47.20751610525475
 21
212.57226769288
 31
0.0
  0
LINE
  5
8DD5
  8
0
 10
47.87508110525474
 20
212.57226769288
 30
0.0
 11
48.20906595525474
 21
212.57226769288
 31
0.0
  0
LINE
  5
8DD6
  8
0
 10
48.20906595525474
 20
212.57226769288
 30
0.0
 11
48.20906595525474
 21
212.90625159288
 31
0.0
  0
LINE
  5
8DD7
  8
0
 10
48.20906595525474
 20
212.90625159288
 30
0.0
 11
47.87508110525474
 21
212.90625159288
 31
0.0
  0
LINE
  5
8DD8
  8
0
 10
47.87508110525474
 20
212.90625159288
 30
0.0
 11
47.87508110525474
 21
212.57226769288
 31
0.0
  0
LINE
  5
8DD9
  8
0
 10
48.54274110525473
 20
212.57226769288
 30
0.0
 11
48.87672595525474
 21
212.57226769288
 31
0.0
  0
LINE
  5
8DDA
  8
0
 10
48.87672595525474
 20
212.57226769288
 30
0.0
 11
48.87672595525474
 21
212.90625159288
 31
0.0
  0
LINE
  5
8DDB
  8
0
 10
48.87672595525474
 20
212.90625159288
 30
0.0
 11
48.54274110525473
 21
212.90625159288
 31
0.0
  0
LINE
  5
8DDC
  8
0
 10
48.54274110525473
 20
212.90625159288
 30
0.0
 11
48.54274110525473
 21
212.57226769288
 31
0.0
  0
LINE
  5
8DDD
  8
0
 10
49.87749110525473
 20
212.57226769288
 30
0.0
 11
50.21147500525474
 21
212.57226769288
 31
0.0
  0
LINE
  5
8DDE
  8
0
 10
50.21147500525474
 20
212.57226769288
 30
0.0
 11
50.21147500525474
 21
212.90625159288
 31
0.0
  0
LINE
  5
8DDF
  8
0
 10
50.21147500525474
 20
212.90625159288
 30
0.0
 11
49.87749110525473
 21
212.90625159288
 31
0.0
  0
LINE
  5
8DE0
  8
0
 10
49.87749110525473
 20
212.90625159288
 30
0.0
 11
49.87749110525473
 21
212.57226769288
 31
0.0
  0
LINE
  5
8DE2
  8
0
 10
51.54708000525474
 20
212.57226769288
 30
0.0
 11
53.21550610525475
 21
212.57226769288
 31
0.0
  0
LINE
  5
8DE3
  8
0
 10
53.54987760525474
 20
210.56909769288
 30
0.0
 11
53.54987760525474
 21
212.90625159288
 31
0.0
  0
LINE
  5
8DE4
  8
0
 10
53.54987760525474
 20
212.90625159288
 30
0.0
 11
51.21309610525475
 21
212.90625159288
 31
0.0
  0
LINE
  5
8DE5
  8
0
 10
51.21309610525475
 20
212.90625159288
 30
0.0
 11
51.21309610525475
 21
210.56909769288
 31
0.0
  0
LINE
  5
8DE6
  8
0
 10
42.53437110525473
 20
212.23834269288
 30
0.0
 11
42.86872645525474
 21
212.23834269288
 31
0.0
  0
LINE
  5
8DE7
  8
0
 10
42.86872645525474
 20
212.23834269288
 30
0.0
 11
42.86872645525474
 21
212.57232754288
 31
0.0
  0
LINE
  5
8DE8
  8
0
 10
42.86872645525474
 20
212.57232754288
 30
0.0
 11
42.53437110525473
 21
212.57232754288
 31
0.0
  0
LINE
  5
8DE9
  8
0
 10
42.53437110525473
 20
212.57232754288
 30
0.0
 11
42.53437110525473
 21
212.23834269288
 31
0.0
  0
LINE
  5
8DEA
  8
0
 10
44.53744610525473
 20
212.23834269288
 30
0.0
 11
44.87143000525472
 21
212.23834269288
 31
0.0
  0
LINE
  5
8DEB
  8
0
 10
44.87143000525472
 20
212.23834269288
 30
0.0
 11
44.87143000525472
 21
212.57232754288
 31
0.0
  0
LINE
  5
8DEC
  8
0
 10
44.87143000525472
 20
212.57232754288
 30
0.0
 11
44.53744610525473
 21
212.57232754288
 31
0.0
  0
LINE
  5
8DED
  8
0
 10
44.53744610525473
 20
212.57232754288
 30
0.0
 11
44.53744610525473
 21
212.23834269288
 31
0.0
  0
LINE
  5
8DEE
  8
0
 10
45.20510610525474
 20
212.23834269288
 30
0.0
 11
46.20669110525472
 21
212.23834269288
 31
0.0
  0
LINE
  5
8DEF
  8
0
 10
46.20669110525472
 20
212.23834269288
 30
0.0
 11
46.20669110525472
 21
212.57232754288
 31
0.0
  0
LINE
  5
8DF0
  8
0
 10
46.20669110525472
 20
212.57232754288
 30
0.0
 11
45.20510610525474
 21
212.57232754288
 31
0.0
  0
LINE
  5
8DF1
  8
0
 10
45.20510610525474
 20
212.57232754288
 30
0.0
 11
45.20510610525474
 21
212.23834269288
 31
0.0
  0
LINE
  5
8DF2
  8
0
 10
46.54033110525475
 20
212.23834269288
 30
0.0
 11
47.54154560525474
 21
212.23834269288
 31
0.0
  0
LINE
  5
8DF3
  8
0
 10
47.54154560525474
 20
212.23834269288
 30
0.0
 11
47.54154560525474
 21
212.57232754288
 31
0.0
  0
LINE
  5
8DF4
  8
0
 10
47.54154560525474
 20
212.57232754288
 30
0.0
 11
46.54033110525475
 21
212.57232754288
 31
0.0
  0
LINE
  5
8DF5
  8
0
 10
46.54033110525475
 20
212.57232754288
 30
0.0
 11
46.54033110525475
 21
212.23834269288
 31
0.0
  0
LINE
  5
8DF6
  8
0
 10
48.20910110525475
 20
212.23834269288
 30
0.0
 11
48.54308500525474
 21
212.23834269288
 31
0.0
  0
LINE
  5
8DF7
  8
0
 10
48.54308500525474
 20
212.23834269288
 30
0.0
 11
48.54308500525474
 21
212.57232754288
 31
0.0
  0
LINE
  5
8DF8
  8
0
 10
48.54308500525474
 20
212.57232754288
 30
0.0
 11
48.20910110525475
 21
212.57232754288
 31
0.0
  0
LINE
  5
8DF9
  8
0
 10
48.20910110525475
 20
212.57232754288
 30
0.0
 11
48.20910110525475
 21
212.23834269288
 31
0.0
  0
LINE
  5
8DFA
  8
0
 10
49.20992610525475
 20
212.23834269288
 30
0.0
 11
49.54428145525475
 21
212.23834269288
 31
0.0
  0
LINE
  5
8DFB
  8
0
 10
49.54428145525475
 20
212.23834269288
 30
0.0
 11
49.54428145525475
 21
212.57232754288
 31
0.0
  0
LINE
  5
8DFC
  8
0
 10
49.54428145525475
 20
212.57232754288
 30
0.0
 11
49.20992610525475
 21
212.57232754288
 31
0.0
  0
LINE
  5
8DFD
  8
0
 10
49.20992610525475
 20
212.57232754288
 30
0.0
 11
49.20992610525475
 21
212.23834269288
 31
0.0
  0
LINE
  5
8DFE
  8
0
 10
49.87749110525473
 20
212.23834269288
 30
0.0
 11
50.21147500525474
 21
212.23834269288
 31
0.0
  0
LINE
  5
8DFF
  8
0
 10
50.21147500525474
 20
212.23834269288
 30
0.0
 11
50.21147500525474
 21
212.57232754288
 31
0.0
  0
LINE
  5
8E00
  8
0
 10
50.21147500525474
 20
212.57232754288
 30
0.0
 11
49.87749110525473
 21
212.57232754288
 31
0.0
  0
LINE
  5
8E01
  8
0
 10
49.87749110525473
 20
212.57232754288
 30
0.0
 11
49.87749110525473
 21
212.23834269288
 31
0.0
  0
LINE
  5
8E02
  8
0
 10
50.54591110525473
 20
212.23834269288
 30
0.0
 11
50.87989595525474
 21
212.23834269288
 31
0.0
  0
LINE
  5
8E04
  8
0
 10
50.87989595525474
 20
212.23829804288
 30
0.0
 11
50.87989595525474
 21
212.57232754288
 31
0.0
  0
LINE
  5
8E05
  8
0
 10
50.87989595525474
 20
212.57232754288
 30
0.0
 11
50.54591110525473
 21
212.57232754288
 31
0.0
  0
LINE
  5
8E06
  8
0
 10
50.54591110525473
 20
212.57232754288
 30
0.0
 11
50.54591110525473
 21
212.23829804288
 31
0.0
  0
LINE
  5
8E07
  8
0
 10
42.53437110525473
 20
211.90394269288
 30
0.0
 11
42.86872645525474
 21
211.90394269288
 31
0.0
  0
LINE
  5
8E08
  8
0
 10
42.86872645525474
 20
211.90394269288
 30
0.0
 11
42.86872645525474
 21
212.23829804288
 31
0.0
  0
LINE
  5
8E09
  8
0
 10
42.86872645525474
 20
212.23829804288
 30
0.0
 11
42.53437110525473
 21
212.23829804288
 31
0.0
  0
LINE
  5
8E0A
  8
0
 10
42.53437110525473
 20
212.23829804288
 30
0.0
 11
42.53437110525473
 21
211.90394269288
 31
0.0
  0
LINE
  5
8E0B
  8
0
 10
43.20193610525473
 20
211.90394269288
 30
0.0
 11
44.20352110525474
 21
211.90394269288
 31
0.0
  0
LINE
  5
8E0C
  8
0
 10
44.20352110525474
 20
211.90394269288
 30
0.0
 11
44.20352110525474
 21
212.23829804288
 31
0.0
  0
LINE
  5
8E0D
  8
0
 10
44.20352110525474
 20
212.23829804288
 30
0.0
 11
43.20193610525473
 21
212.23829804288
 31
0.0
  0
LINE
  5
8E0E
  8
0
 10
43.20193610525473
 20
212.23829804288
 30
0.0
 11
43.20193610525473
 21
211.90394269288
 31
0.0
  0
LINE
  5
8E0F
  8
0
 10
44.53744610525473
 20
211.90394269288
 30
0.0
 11
44.87143000525472
 21
211.90394269288
 31
0.0
  0
LINE
  5
8E10
  8
0
 10
44.87143000525472
 20
211.90394269288
 30
0.0
 11
44.87143000525472
 21
212.23829804288
 31
0.0
  0
LINE
  5
8E11
  8
0
 10
44.87143000525472
 20
212.23829804288
 30
0.0
 11
44.53744610525473
 21
212.23829804288
 31
0.0
  0
LINE
  5
8E12
  8
0
 10
44.53744610525473
 20
212.23829804288
 30
0.0
 11
44.53744610525473
 21
211.90394269288
 31
0.0
  0
LINE
  5
8E13
  8
0
 10
45.20510610525474
 20
211.90394269288
 30
0.0
 11
46.20669110525472
 21
211.90394269288
 31
0.0
  0
LINE
  5
8E14
  8
0
 10
46.20669110525472
 20
211.90394269288
 30
0.0
 11
46.20669110525472
 21
212.23829804288
 31
0.0
  0
LINE
  5
8E15
  8
0
 10
46.20669110525472
 20
212.23829804288
 30
0.0
 11
45.20510610525474
 21
212.23829804288
 31
0.0
  0
LINE
  5
8E16
  8
0
 10
45.20510610525474
 20
212.23829804288
 30
0.0
 11
45.20510610525474
 21
211.90394269288
 31
0.0
  0
LINE
  5
8E17
  8
0
 10
46.54033110525475
 20
211.90394269288
 30
0.0
 11
47.20755790525473
 21
211.90394269288
 31
0.0
  0
LINE
  5
8E18
  8
0
 10
47.20755790525473
 20
211.90394269288
 30
0.0
 11
47.20755790525473
 21
212.23829804288
 31
0.0
  0
LINE
  5
8E19
  8
0
 10
47.20755790525473
 20
212.23829804288
 30
0.0
 11
46.54033110525475
 21
212.23829804288
 31
0.0
  0
LINE
  5
8E1A
  8
0
 10
46.54033110525475
 20
212.23829804288
 30
0.0
 11
46.54033110525475
 21
211.90394269288
 31
0.0
  0
LINE
  5
8E1B
  8
0
 10
47.54153610525474
 20
211.90394269288
 30
0.0
 11
47.87589145525475
 21
211.90394269288
 31
0.0
  0
LINE
  5
8E1C
  8
0
 10
47.87589145525475
 20
211.90394269288
 30
0.0
 11
47.87589145525475
 21
212.23829804288
 31
0.0
  0
LINE
  5
8E1D
  8
0
 10
47.87589145525475
 20
212.23829804288
 30
0.0
 11
47.54153610525474
 21
212.23829804288
 31
0.0
  0
LINE
  5
8E1E
  8
0
 10
47.54153610525474
 20
212.23829804288
 30
0.0
 11
47.54153610525474
 21
211.90394269288
 31
0.0
  0
LINE
  5
8E1F
  8
0
 10
48.20910110525475
 20
211.90394269288
 30
0.0
 11
49.21068610525475
 21
211.90394269288
 31
0.0
  0
LINE
  5
8E20
  8
0
 10
49.21068610525475
 20
211.90394269288
 30
0.0
 11
49.21068610525475
 21
212.23829804288
 31
0.0
  0
LINE
  5
8E21
  8
0
 10
49.21068610525475
 20
212.23829804288
 30
0.0
 11
48.20910110525475
 21
212.23829804288
 31
0.0
  0
LINE
  5
8E22
  8
0
 10
48.20910110525475
 20
212.23829804288
 30
0.0
 11
48.20910110525475
 21
211.90394269288
 31
0.0
  0
LINE
  5
8E23
  8
0
 10
49.54432610525474
 20
211.90394269288
 30
0.0
 11
49.87831095525473
 21
211.90394269288
 31
0.0
  0
LINE
  5
8E24
  8
0
 10
49.87831095525473
 20
211.90394269288
 30
0.0
 11
49.87831095525473
 21
212.23829804288
 31
0.0
  0
LINE
  5
8E25
  8
0
 10
49.87831095525473
 20
212.23829804288
 30
0.0
 11
49.54432610525474
 21
212.23829804288
 31
0.0
  0
LINE
  5
8E26
  8
0
 10
49.54432610525474
 20
212.23829804288
 30
0.0
 11
49.54432610525474
 21
211.90394269288
 31
0.0
  0
LINE
  5
8E27
  8
0
 10
50.54591110525473
 20
211.90394269288
 30
0.0
 11
50.87989595525474
 21
211.90394269288
 31
0.0
  0
LINE
  5
8E28
  8
0
 10
50.87989595525474
 20
211.90394269288
 30
0.0
 11
50.87989595525474
 21
212.23829804288
 31
0.0
  0
LINE
  5
8E29
  8
0
 10
50.87989595525474
 20
212.23829804288
 30
0.0
 11
50.54591110525473
 21
212.23829804288
 31
0.0
  0
LINE
  5
8E2A
  8
0
 10
50.54591110525473
 20
212.23829804288
 30
0.0
 11
50.54591110525473
 21
211.90394269288
 31
0.0
  0
LINE
  5
8E2C
  8
0
 10
52.88224610525474
 20
211.23675769288
 30
0.0
 11
52.88224610525474
 21
212.23829804288
 31
0.0
  0
LINE
  5
8E2D
  8
0
 10
52.88224610525474
 20
212.23829804288
 30
0.0
 11
51.88066110525473
 21
212.23829804288
 31
0.0
  0
LINE
  5
8E2E
  8
0
 10
51.88066110525473
 20
212.23829804288
 30
0.0
 11
51.88066110525473
 21
211.23675769288
 31
0.0
  0
LINE
  5
8E2F
  8
0
 10
42.53437110525473
 20
211.57068269288
 30
0.0
 11
42.86872645525474
 21
211.57068269288
 31
0.0
  0
LINE
  5
8E30
  8
0
 10
42.86872645525474
 20
211.57068269288
 30
0.0
 11
42.86872645525474
 21
211.90466659288
 31
0.0
  0
LINE
  5
8E31
  8
0
 10
42.86872645525474
 20
211.90466659288
 30
0.0
 11
42.53437110525473
 21
211.90466659288
 31
0.0
  0
LINE
  5
8E32
  8
0
 10
42.53437110525473
 20
211.90466659288
 30
0.0
 11
42.53437110525473
 21
211.57068269288
 31
0.0
  0
LINE
  5
8E33
  8
0
 10
43.20193610525473
 20
211.57068269288
 30
0.0
 11
44.20352110525474
 21
211.57068269288
 31
0.0
  0
LINE
  5
8E34
  8
0
 10
44.20352110525474
 20
211.57068269288
 30
0.0
 11
44.20352110525474
 21
211.90466659288
 31
0.0
  0
LINE
  5
8E35
  8
0
 10
44.20352110525474
 20
211.90466659288
 30
0.0
 11
43.20193610525473
 21
211.90466659288
 31
0.0
  0
LINE
  5
8E36
  8
0
 10
43.20193610525473
 20
211.90466659288
 30
0.0
 11
43.20193610525473
 21
211.57068269288
 31
0.0
  0
LINE
  5
8E37
  8
0
 10
44.53744610525473
 20
211.57068269288
 30
0.0
 11
44.87143000525472
 21
211.57068269288
 31
0.0
  0
LINE
  5
8E38
  8
0
 10
44.87143000525472
 20
211.57068269288
 30
0.0
 11
44.87143000525472
 21
211.90466659288
 31
0.0
  0
LINE
  5
8E39
  8
0
 10
44.87143000525472
 20
211.90466659288
 30
0.0
 11
44.53744610525473
 21
211.90466659288
 31
0.0
  0
LINE
  5
8E3A
  8
0
 10
44.53744610525473
 20
211.90466659288
 30
0.0
 11
44.53744610525473
 21
211.57068269288
 31
0.0
  0
LINE
  5
8E3B
  8
0
 10
45.20510610525474
 20
211.57068269288
 30
0.0
 11
45.53909095525475
 21
211.57068269288
 31
0.0
  0
LINE
  5
8E3C
  8
0
 10
45.53909095525475
 20
211.57068269288
 30
0.0
 11
45.53909095525475
 21
211.90466659288
 31
0.0
  0
LINE
  5
8E3D
  8
0
 10
45.53909095525475
 20
211.90466659288
 30
0.0
 11
45.20510610525474
 21
211.90466659288
 31
0.0
  0
LINE
  5
8E3E
  8
0
 10
45.20510610525474
 20
211.90466659288
 30
0.0
 11
45.20510610525474
 21
211.57068269288
 31
0.0
  0
LINE
  5
8E3F
  8
0
 10
48.87666610525474
 20
211.57068269288
 30
0.0
 11
49.21065000525473
 21
211.57068269288
 31
0.0
  0
LINE
  5
8E40
  8
0
 10
49.21065000525473
 20
211.57068269288
 30
0.0
 11
49.21065000525473
 21
211.90466659288
 31
0.0
  0
LINE
  5
8E41
  8
0
 10
49.21065000525473
 20
211.90466659288
 30
0.0
 11
48.87666610525474
 21
211.90466659288
 31
0.0
  0
LINE
  5
8E42
  8
0
 10
48.87666610525474
 20
211.90466659288
 30
0.0
 11
48.87666610525474
 21
211.57068269288
 31
0.0
  0
LINE
  5
8E43
  8
0
 10
49.54432610525474
 20
211.57068269288
 30
0.0
 11
50.87915210525473
 21
211.57068269288
 31
0.0
  0
LINE
  5
8E44
  8
0
 10
50.87915210525473
 20
211.57068269288
 30
0.0
 11
50.87915210525473
 21
211.90466659288
 31
0.0
  0
LINE
  5
8E45
  8
0
 10
50.87915210525473
 20
211.90466659288
 30
0.0
 11
49.54432610525474
 21
211.90466659288
 31
0.0
  0
LINE
  5
8E46
  8
0
 10
49.54432610525474
 20
211.90466659288
 30
0.0
 11
49.54432610525474
 21
211.57068269288
 31
0.0
  0
LINE
  5
8E47
  8
0
 10
42.53437110525473
 20
211.23675769288
 30
0.0
 11
42.86872645525474
 21
211.23675769288
 31
0.0
  0
LINE
  5
8E48
  8
0
 10
42.86872645525474
 20
211.23675769288
 30
0.0
 11
42.86872645525474
 21
211.57074254288
 31
0.0
  0
LINE
  5
8E49
  8
0
 10
42.86872645525474
 20
211.57074254288
 30
0.0
 11
42.53437110525473
 21
211.57074254288
 31
0.0
  0
LINE
  5
8E4A
  8
0
 10
42.53437110525473
 20
211.57074254288
 30
0.0
 11
42.53437110525473
 21
211.23675769288
 31
0.0
  0
LINE
  5
8E4B
  8
0
 10
43.20193610525473
 20
211.23675769288
 30
0.0
 11
44.20352110525474
 21
211.23675769288
 31
0.0
  0
LINE
  5
8E4C
  8
0
 10
44.20352110525474
 20
211.23675769288
 30
0.0
 11
44.20352110525474
 21
211.57074254288
 31
0.0
  0
LINE
  5
8E4D
  8
0
 10
44.20352110525474
 20
211.57074254288
 30
0.0
 11
43.20193610525473
 21
211.57074254288
 31
0.0
  0
LINE
  5
8E4E
  8
0
 10
43.20193610525473
 20
211.57074254288
 30
0.0
 11
43.20193610525473
 21
211.23675769288
 31
0.0
  0
LINE
  5
8E4F
  8
0
 10
44.53744610525473
 20
211.23675769288
 30
0.0
 11
44.87143000525472
 21
211.23675769288
 31
0.0
  0
LINE
  5
8E50
  8
0
 10
44.87143000525472
 20
211.23675769288
 30
0.0
 11
44.87143000525472
 21
211.57074254288
 31
0.0
  0
LINE
  5
8E51
  8
0
 10
44.87143000525472
 20
211.57074254288
 30
0.0
 11
44.53744610525473
 21
211.57074254288
 31
0.0
  0
LINE
  5
8E52
  8
0
 10
44.53744610525473
 20
211.57074254288
 30
0.0
 11
44.53744610525473
 21
211.23675769288
 31
0.0
  0
LINE
  5
8E53
  8
0
 10
45.53874610525475
 20
211.23675769288
 30
0.0
 11
45.87273095525472
 21
211.23675769288
 31
0.0
  0
LINE
  5
8E54
  8
0
 10
45.87273095525472
 20
211.23675769288
 30
0.0
 11
45.87273095525472
 21
211.57074254288
 31
0.0
  0
LINE
  5
8E55
  8
0
 10
45.87273095525472
 20
211.57074254288
 30
0.0
 11
45.53874610525475
 21
211.57074254288
 31
0.0
  0
LINE
  5
8E56
  8
0
 10
45.53874610525475
 20
211.57074254288
 30
0.0
 11
45.53874610525475
 21
211.23675769288
 31
0.0
  0
LINE
  5
8E57
  8
0
 10
46.20593110525473
 20
211.23675769288
 30
0.0
 11
47.20751610525475
 21
211.23675769288
 31
0.0
  0
LINE
  5
8E58
  8
0
 10
47.20751610525475
 20
211.23675769288
 30
0.0
 11
47.20751610525475
 21
211.57074254288
 31
0.0
  0
LINE
  5
8E59
  8
0
 10
47.20751610525475
 20
211.57074254288
 30
0.0
 11
46.20593110525473
 21
211.57074254288
 31
0.0
  0
LINE
  5
8E5A
  8
0
 10
46.20593110525473
 20
211.57074254288
 30
0.0
 11
46.20593110525473
 21
211.23675769288
 31
0.0
  0
LINE
  5
8E5B
  8
0
 10
47.54153610525474
 20
211.23675769288
 30
0.0
 11
47.87589145525475
 21
211.23675769288
 31
0.0
  0
LINE
  5
8E5C
  8
0
 10
47.87589145525475
 20
211.23675769288
 30
0.0
 11
47.87589145525475
 21
211.57074254288
 31
0.0
  0
LINE
  5
8E5D
  8
0
 10
47.87589145525475
 20
211.57074254288
 30
0.0
 11
47.54153610525474
 21
211.57074254288
 31
0.0
  0
LINE
  5
8E5E
  8
0
 10
47.54153610525474
 20
211.57074254288
 30
0.0
 11
47.54153610525474
 21
211.23675769288
 31
0.0
  0
LINE
  5
8E5F
  8
0
 10
48.20910110525475
 20
211.23675769288
 30
0.0
 11
48.87669840525474
 21
211.23675769288
 31
0.0
  0
LINE
  5
8E60
  8
0
 10
48.87669840525474
 20
211.23675769288
 30
0.0
 11
48.87669840525474
 21
211.57074254288
 31
0.0
  0
LINE
  5
8E61
  8
0
 10
48.87669840525474
 20
211.57074254288
 30
0.0
 11
48.20910110525475
 21
211.57074254288
 31
0.0
  0
LINE
  5
8E62
  8
0
 10
48.20910110525475
 20
211.57074254288
 30
0.0
 11
48.20910110525475
 21
211.23675769288
 31
0.0
  0
LINE
  5
8E63
  8
0
 10
50.21151110525474
 20
211.23675769288
 30
0.0
 11
50.54586645525474
 21
211.23675769288
 31
0.0
  0
LINE
  5
8E64
  8
0
 10
50.54586645525474
 20
211.23675769288
 30
0.0
 11
50.54586645525474
 21
211.57074254288
 31
0.0
  0
LINE
  5
8E65
  8
0
 10
50.54586645525474
 20
211.57074254288
 30
0.0
 11
50.21151110525474
 21
211.57074254288
 31
0.0
  0
LINE
  5
8E66
  8
0
 10
50.21151110525474
 20
211.57074254288
 30
0.0
 11
50.21151110525474
 21
211.23675769288
 31
0.0
  0
LINE
  5
8E67
  8
0
 10
51.88066110525473
 20
211.23675769288
 30
0.0
 11
52.88224610525474
 21
211.23675769288
 31
0.0
  0
LINE
  5
8E68
  8
0
 10
42.53437110525473
 20
210.90311769288
 30
0.0
 11
42.86872645525474
 21
210.90311769288
 31
0.0
  0
LINE
  5
8E69
  8
0
 10
42.86872645525474
 20
210.90311769288
 30
0.0
 11
42.86872645525474
 21
211.23710254288
 31
0.0
  0
LINE
  5
8E6A
  8
0
 10
42.86872645525474
 20
211.23710254288
 30
0.0
 11
42.53437110525473
 21
211.23710254288
 31
0.0
  0
LINE
  5
8E6B
  8
0
 10
42.53437110525473
 20
211.23710254288
 30
0.0
 11
42.53437110525473
 21
210.90311769288
 31
0.0
  0
LINE
  5
8E6C
  8
0
 10
44.53744610525473
 20
210.90311769288
 30
0.0
 11
44.87143000525472
 21
210.90311769288
 31
0.0
  0
LINE
  5
8E6D
  8
0
 10
44.87143000525472
 20
210.90311769288
 30
0.0
 11
44.87143000525472
 21
211.23710254288
 31
0.0
  0
LINE
  5
8E6E
  8
0
 10
44.87143000525472
 20
211.23710254288
 30
0.0
 11
44.53744610525473
 21
211.23710254288
 31
0.0
  0
LINE
  5
8E6F
  8
0
 10
44.53744610525473
 20
211.23710254288
 30
0.0
 11
44.53744610525473
 21
210.90311769288
 31
0.0
  0
LINE
  5
8E70
  8
0
 10
46.87349610525473
 20
210.90311769288
 30
0.0
 11
47.54109435525476
 21
210.90311769288
 31
0.0
  0
LINE
  5
8E71
  8
0
 10
47.54109435525476
 20
210.90311769288
 30
0.0
 11
47.54109435525476
 21
211.23710254288
 31
0.0
  0
LINE
  5
8E72
  8
0
 10
47.54109435525476
 20
211.23710254288
 30
0.0
 11
46.87349610525473
 21
211.23710254288
 31
0.0
  0
LINE
  5
8E73
  8
0
 10
46.87349610525473
 20
211.23710254288
 30
0.0
 11
46.87349610525473
 21
210.90311769288
 31
0.0
  0
LINE
  5
8E74
  8
0
 10
47.87508110525474
 20
210.90311769288
 30
0.0
 11
48.20906595525474
 21
210.90311769288
 31
0.0
  0
LINE
  5
8E75
  8
0
 10
48.20906595525474
 20
210.90311769288
 30
0.0
 11
48.20906595525474
 21
211.23710254288
 31
0.0
  0
LINE
  5
8E76
  8
0
 10
48.20906595525474
 20
211.23710254288
 30
0.0
 11
47.87508110525474
 21
211.23710254288
 31
0.0
  0
LINE
  5
8E77
  8
0
 10
47.87508110525474
 20
211.23710254288
 30
0.0
 11
47.87508110525474
 21
210.90311769288
 31
0.0
  0
LINE
  5
8E78
  8
0
 10
48.54274110525473
 20
210.90311769288
 30
0.0
 11
48.87672595525474
 21
210.90311769288
 31
0.0
  0
LINE
  5
8E79
  8
0
 10
48.87672595525474
 20
210.90311769288
 30
0.0
 11
48.87672595525474
 21
211.23710254288
 31
0.0
  0
LINE
  5
8E7A
  8
0
 10
48.87672595525474
 20
211.23710254288
 30
0.0
 11
48.54274110525473
 21
211.23710254288
 31
0.0
  0
LINE
  5
8E7B
  8
0
 10
48.54274110525473
 20
211.23710254288
 30
0.0
 11
48.54274110525473
 21
210.90311769288
 31
0.0
  0
LINE
  5
8E7C
  8
0
 10
49.20992610525475
 20
210.90311769288
 30
0.0
 11
49.54428145525475
 21
210.90311769288
 31
0.0
  0
LINE
  5
8E7D
  8
0
 10
49.54428145525475
 20
210.90311769288
 30
0.0
 11
49.54428145525475
 21
211.23710254288
 31
0.0
  0
LINE
  5
8E7E
  8
0
 10
49.54428145525475
 20
211.23710254288
 30
0.0
 11
49.20992610525475
 21
211.23710254288
 31
0.0
  0
LINE
  5
8E7F
  8
0
 10
49.20992610525475
 20
211.23710254288
 30
0.0
 11
49.20992610525475
 21
210.90311769288
 31
0.0
  0
LINE
  5
8E80
  8
0
 10
51.54708000525474
 20
210.90308159288
 30
0.0
 11
51.54708000525474
 21
212.57226769288
 31
0.0
  0
LINE
  5
8E81
  8
0
 10
53.21550610525475
 20
212.57226769288
 30
0.0
 11
53.21550610525475
 21
210.90308159288
 31
0.0
  0
LINE
  5
8E82
  8
0
 10
42.53437110525473
 20
210.56909769288
 30
0.0
 11
44.87115260525476
 21
210.56909769288
 31
0.0
  0
LINE
  5
8E83
  8
0
 10
44.87115260525476
 20
210.56909769288
 30
0.0
 11
44.87115260525476
 21
210.90308159288
 31
0.0
  0
LINE
  5
8E84
  8
0
 10
44.87115260525476
 20
210.90308159288
 30
0.0
 11
42.53437110525473
 21
210.90308159288
 31
0.0
  0
LINE
  5
8E85
  8
0
 10
42.53437110525473
 20
210.90308159288
 30
0.0
 11
42.53437110525473
 21
210.56909769288
 31
0.0
  0
LINE
  5
8E86
  8
0
 10
45.20510610525474
 20
210.56909769288
 30
0.0
 11
45.53909095525475
 21
210.56909769288
 31
0.0
  0
LINE
  5
8E87
  8
0
 10
45.53909095525475
 20
210.56909769288
 30
0.0
 11
45.53909095525475
 21
210.90308159288
 31
0.0
  0
LINE
  5
8E88
  8
0
 10
45.53909095525475
 20
210.90308159288
 30
0.0
 11
45.20510610525474
 21
210.90308159288
 31
0.0
  0
LINE
  5
8E89
  8
0
 10
45.20510610525474
 20
210.90308159288
 30
0.0
 11
45.20510610525474
 21
210.56909769288
 31
0.0
  0
LINE
  5
8E8A
  8
0
 10
45.87267110525474
 20
210.56909769288
 30
0.0
 11
46.20665500525473
 21
210.56909769288
 31
0.0
  0
LINE
  5
8E8B
  8
0
 10
46.20665500525473
 20
210.56909769288
 30
0.0
 11
46.20665500525473
 21
210.90308159288
 31
0.0
  0
LINE
  5
8E8C
  8
0
 10
46.20665500525473
 20
210.90308159288
 30
0.0
 11
45.87267110525474
 21
210.90308159288
 31
0.0
  0
LINE
  5
8E8D
  8
0
 10
45.87267110525474
 20
210.90308159288
 30
0.0
 11
45.87267110525474
 21
210.56909769288
 31
0.0
  0
LINE
  5
8E8E
  8
0
 10
46.54033110525475
 20
210.56909769288
 30
0.0
 11
46.87431500525474
 21
210.56909769288
 31
0.0
  0
LINE
  5
8E8F
  8
0
 10
46.87431500525474
 20
210.56909769288
 30
0.0
 11
46.87431500525474
 21
210.90308159288
 31
0.0
  0
LINE
  5
8E90
  8
0
 10
46.87431500525474
 20
210.90308159288
 30
0.0
 11
46.54033110525475
 21
210.90308159288
 31
0.0
  0
LINE
  5
8E91
  8
0
 10
46.54033110525475
 20
210.90308159288
 30
0.0
 11
46.54033110525475
 21
210.56909769288
 31
0.0
  0
LINE
  5
8E92
  8
0
 10
47.20751610525475
 20
210.56909769288
 30
0.0
 11
47.54150000525475
 21
210.56909769288
 31
0.0
  0
LINE
  5
8E93
  8
0
 10
47.54150000525475
 20
210.56909769288
 30
0.0
 11
47.54150000525475
 21
210.90308159288
 31
0.0
  0
LINE
  5
8E94
  8
0
 10
47.54150000525475
 20
210.90308159288
 30
0.0
 11
47.20751610525475
 21
210.90308159288
 31
0.0
  0
LINE
  5
8E95
  8
0
 10
47.20751610525475
 20
210.90308159288
 30
0.0
 11
47.20751610525475
 21
210.56909769288
 31
0.0
  0
LINE
  5
8E96
  8
0
 10
47.87508110525474
 20
210.56909769288
 30
0.0
 11
48.20906595525474
 21
210.56909769288
 31
0.0
  0
LINE
  5
8E97
  8
0
 10
48.20906595525474
 20
210.56909769288
 30
0.0
 11
48.20906595525474
 21
210.90308159288
 31
0.0
  0
LINE
  5
8E98
  8
0
 10
48.20906595525474
 20
210.90308159288
 30
0.0
 11
47.87508110525474
 21
210.90308159288
 31
0.0
  0
LINE
  5
8E99
  8
0
 10
47.87508110525474
 20
210.90308159288
 30
0.0
 11
47.87508110525474
 21
210.56909769288
 31
0.0
  0
LINE
  5
8E9A
  8
0
 10
48.54274110525473
 20
210.56909769288
 30
0.0
 11
48.87672595525474
 21
210.56909769288
 31
0.0
  0
LINE
  5
8E9B
  8
0
 10
48.87672595525474
 20
210.56909769288
 30
0.0
 11
48.87672595525474
 21
210.90308159288
 31
0.0
  0
LINE
  5
8E9C
  8
0
 10
48.87672595525474
 20
210.90308159288
 30
0.0
 11
48.54274110525473
 21
210.90308159288
 31
0.0
  0
LINE
  5
8E9D
  8
0
 10
48.54274110525473
 20
210.90308159288
 30
0.0
 11
48.54274110525473
 21
210.56909769288
 31
0.0
  0
LINE
  5
8E9E
  8
0
 10
49.20992610525475
 20
210.56909769288
 30
0.0
 11
49.54428145525475
 21
210.56909769288
 31
0.0
  0
LINE
  5
8E9F
  8
0
 10
49.54428145525475
 20
210.56909769288
 30
0.0
 11
49.54428145525475
 21
210.90308159288
 31
0.0
  0
LINE
  5
8EA0
  8
0
 10
49.54428145525475
 20
210.90308159288
 30
0.0
 11
49.20992610525475
 21
210.90308159288
 31
0.0
  0
LINE
  5
8EA1
  8
0
 10
49.20992610525475
 20
210.90308159288
 30
0.0
 11
49.20992610525475
 21
210.56909769288
 31
0.0
  0
LINE
  5
8EA2
  8
0
 10
49.87749110525473
 20
210.56909769288
 30
0.0
 11
50.21147500525474
 21
210.56909769288
 31
0.0
  0
LINE
  5
8EA3
  8
0
 10
50.21147500525474
 20
210.56909769288
 30
0.0
 11
50.21147500525474
 21
210.90308159288
 31
0.0
  0
LINE
  5
8EA4
  8
0
 10
50.21147500525474
 20
210.90308159288
 30
0.0
 11
49.87749110525473
 21
210.90308159288
 31
0.0
  0
LINE
  5
8EA5
  8
0
 10
49.87749110525473
 20
210.90308159288
 30
0.0
 11
49.87749110525473
 21
210.56909769288
 31
0.0
  0
LINE
  5
8EA6
  8
0
 10
50.54591110525473
 20
210.56909769288
 30
0.0
 11
50.87989595525474
 21
210.56909769288
 31
0.0
  0
LINE
  5
8EA7
  8
0
 10
50.87989595525474
 20
210.56909769288
 30
0.0
 11
50.87989595525474
 21
210.90308159288
 31
0.0
  0
LINE
  5
8EA8
  8
0
 10
50.87989595525474
 20
210.90308159288
 30
0.0
 11
50.54591110525473
 21
210.90308159288
 31
0.0
  0
LINE
  5
8EA9
  8
0
 10
50.54591110525473
 20
210.90308159288
 30
0.0
 11
50.54591110525473
 21
210.56909769288
 31
0.0
  0
LINE
  5
8EAA
  8
0
 10
51.21309610525475
 20
210.56909769288
 30
0.0
 11
53.54987760525474
 21
210.56909769288
 31
0.0
  0
LINE
  5
8EAB
  8
0
 10
53.21550610525475
 20
210.90308159288
 30
0.0
 11
51.54708000525474
 21
210.90308159288
 31
0.0
  0
LINE
  5
8EAC
  8
0
 10
45.20510610525474
 20
210.23593269288
 30
0.0
 11
45.53909095525475
 21
210.23593269288
 31
0.0
  0
LINE
  5
8EAD
  8
0
 10
45.53909095525475
 20
210.23593269288
 30
0.0
 11
45.53909095525475
 21
210.56991659288
 31
0.0
  0
LINE
  5
8EAE
  8
0
 10
45.53909095525475
 20
210.56991659288
 30
0.0
 11
45.20510610525474
 21
210.56991659288
 31
0.0
  0
LINE
  5
8EAF
  8
0
 10
45.20510610525474
 20
210.56991659288
 30
0.0
 11
45.20510610525474
 21
210.23593269288
 31
0.0
  0
LINE
  5
8EB0
  8
0
 10
46.54033110525475
 20
210.23593269288
 30
0.0
 11
46.87431500525474
 21
210.23593269288
 31
0.0
  0
LINE
  5
8EB1
  8
0
 10
46.87431500525474
 20
210.23593269288
 30
0.0
 11
46.87431500525474
 21
210.56991659288
 31
0.0
  0
LINE
  5
8EB2
  8
0
 10
46.87431500525474
 20
210.56991659288
 30
0.0
 11
46.54033110525475
 21
210.56991659288
 31
0.0
  0
LINE
  5
8EB3
  8
0
 10
46.54033110525475
 20
210.56991659288
 30
0.0
 11
46.54033110525475
 21
210.23593269288
 31
0.0
  0
LINE
  5
8EB4
  8
0
 10
47.20751610525475
 20
210.23593269288
 30
0.0
 11
47.54150000525475
 21
210.23593269288
 31
0.0
  0
LINE
  5
8EB5
  8
0
 10
47.54150000525475
 20
210.23593269288
 30
0.0
 11
47.54150000525475
 21
210.56991659288
 31
0.0
  0
LINE
  5
8EB6
  8
0
 10
47.54150000525475
 20
210.56991659288
 30
0.0
 11
47.20751610525475
 21
210.56991659288
 31
0.0
  0
LINE
  5
8EB7
  8
0
 10
47.20751610525475
 20
210.56991659288
 30
0.0
 11
47.20751610525475
 21
210.23593269288
 31
0.0
  0
LINE
  5
8EB8
  8
0
 10
49.87749110525473
 20
210.23593269288
 30
0.0
 11
50.21147500525474
 21
210.23593269288
 31
0.0
  0
LINE
  5
8EB9
  8
0
 10
50.21147500525474
 20
210.23593269288
 30
0.0
 11
50.21147500525474
 21
210.56991659288
 31
0.0
  0
LINE
  5
8EBA
  8
0
 10
50.21147500525474
 20
210.56991659288
 30
0.0
 11
49.87749110525473
 21
210.56991659288
 31
0.0
  0
LINE
  5
8EBB
  8
0
 10
49.87749110525473
 20
210.56991659288
 30
0.0
 11
49.87749110525473
 21
210.23593269288
 31
0.0
  0
LINE
  5
8EBC
  8
0
 10
50.54591110525473
 20
210.23593269288
 30
0.0
 11
50.87989595525474
 21
210.23593269288
 31
0.0
  0
LINE
  5
8EBD
  8
0
 10
50.87989595525474
 20
210.23593269288
 30
0.0
 11
50.87989595525474
 21
210.56991659288
 31
0.0
  0
LINE
  5
8EBE
  8
0
 10
50.87989595525474
 20
210.56991659288
 30
0.0
 11
50.54591110525473
 21
210.56991659288
 31
0.0
  0
LINE
  5
8EBF
  8
0
 10
50.54591110525473
 20
210.56991659288
 30
0.0
 11
50.54591110525473
 21
210.23593269288
 31
0.0
  0
LINE
  5
8EC0
  8
0
 10
42.53437110525473
 20
209.90153269288
 30
0.0
 11
42.86872645525474
 21
209.90153269288
 31
0.0
  0
LINE
  5
8EC1
  8
0
 10
42.86872645525474
 20
209.90153269288
 30
0.0
 11
42.86872645525474
 21
210.23588804288
 31
0.0
  0
LINE
  5
8EC2
  8
0
 10
42.86872645525474
 20
210.23588804288
 30
0.0
 11
42.53437110525473
 21
210.23588804288
 31
0.0
  0
LINE
  5
8EC3
  8
0
 10
42.53437110525473
 20
210.23588804288
 30
0.0
 11
42.53437110525473
 21
209.90153269288
 31
0.0
  0
LINE
  5
8EC4
  8
0
 10
44.53744610525473
 20
209.90153269288
 30
0.0
 11
44.87143000525472
 21
209.90153269288
 31
0.0
  0
LINE
  5
8EC5
  8
0
 10
44.87143000525472
 20
209.90153269288
 30
0.0
 11
44.87143000525472
 21
210.23588804288
 31
0.0
  0
LINE
  5
8EC6
  8
0
 10
44.87143000525472
 20
210.23588804288
 30
0.0
 11
44.53744610525473
 21
210.23588804288
 31
0.0
  0
LINE
  5
8EC7
  8
0
 10
44.53744610525473
 20
210.23588804288
 30
0.0
 11
44.53744610525473
 21
209.90153269288
 31
0.0
  0
LINE
  5
8EC8
  8
0
 10
45.20510610525474
 20
209.90153269288
 30
0.0
 11
46.20669110525472
 21
209.90153269288
 31
0.0
  0
LINE
  5
8EC9
  8
0
 10
46.20669110525472
 20
209.90153269288
 30
0.0
 11
46.20669110525472
 21
210.23588804288
 31
0.0
  0
LINE
  5
8ECA
  8
0
 10
46.20669110525472
 20
210.23588804288
 30
0.0
 11
45.20510610525474
 21
210.23588804288
 31
0.0
  0
LINE
  5
8ECB
  8
0
 10
45.20510610525474
 20
210.23588804288
 30
0.0
 11
45.20510610525474
 21
209.90153269288
 31
0.0
  0
LINE
  5
8ECC
  8
0
 10
46.87349610525473
 20
209.90153269288
 30
0.0
 11
48.54267460525475
 21
209.90153269288
 31
0.0
  0
LINE
  5
8ECD
  8
0
 10
48.54267460525475
 20
209.90153269288
 30
0.0
 11
48.54267460525475
 21
210.23588804288
 31
0.0
  0
LINE
  5
8ECE
  8
0
 10
48.54267460525475
 20
210.23588804288
 30
0.0
 11
46.87349610525473
 21
210.23588804288
 31
0.0
  0
LINE
  5
8ECF
  8
0
 10
46.87349610525473
 20
210.23588804288
 30
0.0
 11
46.87349610525473
 21
209.90153269288
 31
0.0
  0
LINE
  5
8ED0
  8
0
 10
49.87749110525473
 20
209.90153269288
 30
0.0
 11
50.21147500525474
 21
209.90153269288
 31
0.0
  0
LINE
  5
8ED1
  8
0
 10
50.21147500525474
 20
209.90153269288
 30
0.0
 11
50.21147500525474
 21
210.23588804288
 31
0.0
  0
LINE
  5
8ED2
  8
0
 10
50.21147500525474
 20
210.23588804288
 30
0.0
 11
49.87749110525473
 21
210.23588804288
 31
0.0
  0
LINE
  5
8ED3
  8
0
 10
49.87749110525473
 20
210.23588804288
 30
0.0
 11
49.87749110525473
 21
209.90153269288
 31
0.0
  0
LINE
  5
8ED4
  8
0
 10
50.54591110525473
 20
209.90153269288
 30
0.0
 11
51.54712560525473
 21
209.90153269288
 31
0.0
  0
LINE
  5
8ED5
  8
0
 10
51.54712560525473
 20
209.90153269288
 30
0.0
 11
51.54712560525473
 21
210.23588804288
 31
0.0
  0
LINE
  5
8ED6
  8
0
 10
51.54712560525473
 20
210.23588804288
 30
0.0
 11
50.54591110525473
 21
210.23588804288
 31
0.0
  0
LINE
  5
8ED7
  8
0
 10
50.54591110525473
 20
210.23588804288
 30
0.0
 11
50.54591110525473
 21
209.90153269288
 31
0.0
  0
LINE
  5
8ED8
  8
0
 10
52.21392110525474
 20
209.90153269288
 30
0.0
 11
53.21550610525475
 21
209.90153269288
 31
0.0
  0
LINE
  5
8ED9
  8
0
 10
53.21550610525475
 20
209.90153269288
 30
0.0
 11
53.21550610525475
 21
210.23588804288
 31
0.0
  0
LINE
  5
8EDA
  8
0
 10
53.21550610525475
 20
210.23588804288
 30
0.0
 11
52.21392110525474
 21
210.23588804288
 31
0.0
  0
LINE
  5
8EDB
  8
0
 10
52.21392110525474
 20
210.23588804288
 30
0.0
 11
52.21392110525474
 21
209.90153269288
 31
0.0
  0
LINE
  5
8EDC
  8
0
 10
42.53437110525473
 20
209.56827269288
 30
0.0
 11
42.86872645525474
 21
209.56827269288
 31
0.0
  0
LINE
  5
8EDD
  8
0
 10
42.86872645525474
 20
209.56827269288
 30
0.0
 11
42.86872645525474
 21
209.90225754288
 31
0.0
  0
LINE
  5
8EDE
  8
0
 10
42.86872645525474
 20
209.90225754288
 30
0.0
 11
42.53437110525473
 21
209.90225754288
 31
0.0
  0
LINE
  5
8EDF
  8
0
 10
42.53437110525473
 20
209.90225754288
 30
0.0
 11
42.53437110525473
 21
209.56827269288
 31
0.0
  0
LINE
  5
8EE0
  8
0
 10
44.20352110525474
 20
209.56827269288
 30
0.0
 11
44.53750595525474
 21
209.56827269288
 31
0.0
  0
LINE
  5
8EE1
  8
0
 10
44.53750595525474
 20
209.56827269288
 30
0.0
 11
44.53750595525474
 21
209.90225754288
 31
0.0
  0
LINE
  5
8EE2
  8
0
 10
44.53750595525474
 20
209.90225754288
 30
0.0
 11
44.20352110525474
 21
209.90225754288
 31
0.0
  0
LINE
  5
8EE3
  8
0
 10
44.20352110525474
 20
209.90225754288
 30
0.0
 11
44.20352110525474
 21
209.56827269288
 31
0.0
  0
LINE
  5
8EE4
  8
0
 10
45.20510610525474
 20
209.56827269288
 30
0.0
 11
45.53909095525475
 21
209.56827269288
 31
0.0
  0
LINE
  5
8EE5
  8
0
 10
45.53909095525475
 20
209.56827269288
 30
0.0
 11
45.53909095525475
 21
209.90225754288
 31
0.0
  0
LINE
  5
8EE6
  8
0
 10
45.53909095525475
 20
209.90225754288
 30
0.0
 11
45.20510610525474
 21
209.90225754288
 31
0.0
  0
LINE
  5
8EE7
  8
0
 10
45.20510610525474
 20
209.90225754288
 30
0.0
 11
45.20510610525474
 21
209.56827269288
 31
0.0
  0
LINE
  5
8EE8
  8
0
 10
45.87267110525474
 20
209.56827269288
 30
0.0
 11
46.87388560525474
 21
209.56827269288
 31
0.0
  0
LINE
  5
8EE9
  8
0
 10
46.87388560525474
 20
209.56827269288
 30
0.0
 11
46.87388560525474
 21
209.90225754288
 31
0.0
  0
LINE
  5
8EEA
  8
0
 10
46.87388560525474
 20
209.90225754288
 30
0.0
 11
45.87267110525474
 21
209.90225754288
 31
0.0
  0
LINE
  5
8EEB
  8
0
 10
45.87267110525474
 20
209.90225754288
 30
0.0
 11
45.87267110525474
 21
209.56827269288
 31
0.0
  0
LINE
  5
8EEC
  8
0
 10
47.54153610525474
 20
209.56827269288
 30
0.0
 11
47.87589145525475
 21
209.56827269288
 31
0.0
  0
LINE
  5
8EED
  8
0
 10
47.87589145525475
 20
209.56827269288
 30
0.0
 11
47.87589145525475
 21
209.90225754288
 31
0.0
  0
LINE
  5
8EEE
  8
0
 10
47.87589145525475
 20
209.90225754288
 30
0.0
 11
47.54153610525474
 21
209.90225754288
 31
0.0
  0
LINE
  5
8EEF
  8
0
 10
47.54153610525474
 20
209.90225754288
 30
0.0
 11
47.54153610525474
 21
209.56827269288
 31
0.0
  0
LINE
  5
8EF0
  8
0
 10
48.54274110525473
 20
209.56827269288
 30
0.0
 11
49.20996790525476
 21
209.56827269288
 31
0.0
  0
LINE
  5
8EF1
  8
0
 10
49.20996790525476
 20
209.56827269288
 30
0.0
 11
49.20996790525476
 21
209.90225754288
 31
0.0
  0
LINE
  5
8EF2
  8
0
 10
49.20996790525476
 20
209.90225754288
 30
0.0
 11
48.54274110525473
 21
209.90225754288
 31
0.0
  0
LINE
  5
8EF3
  8
0
 10
48.54274110525473
 20
209.90225754288
 30
0.0
 11
48.54274110525473
 21
209.56827269288
 31
0.0
  0
LINE
  5
8EF4
  8
0
 10
49.54432610525474
 20
209.56827269288
 30
0.0
 11
50.54591110525473
 21
209.56827269288
 31
0.0
  0
LINE
  5
8EF5
  8
0
 10
50.54591110525473
 20
209.56827269288
 30
0.0
 11
50.54591110525473
 21
209.90225754288
 31
0.0
  0
LINE
  5
8EF6
  8
0
 10
50.54591110525473
 20
209.90225754288
 30
0.0
 11
49.54432610525474
 21
209.90225754288
 31
0.0
  0
LINE
  5
8EF7
  8
0
 10
49.54432610525474
 20
209.90225754288
 30
0.0
 11
49.54432610525474
 21
209.56827269288
 31
0.0
  0
LINE
  5
8EF8
  8
0
 10
51.88066110525473
 20
209.56827269288
 30
0.0
 11
52.88224610525474
 21
209.56827269288
 31
0.0
  0
LINE
  5
8EF9
  8
0
 10
52.88224610525474
 20
209.56827269288
 30
0.0
 11
52.88224610525474
 21
209.90225754288
 31
0.0
  0
LINE
  5
8EFA
  8
0
 10
52.88224610525474
 20
209.90225754288
 30
0.0
 11
51.88066110525473
 21
209.90225754288
 31
0.0
  0
LINE
  5
8EFB
  8
0
 10
51.88066110525473
 20
209.90225754288
 30
0.0
 11
51.88066110525473
 21
209.56827269288
 31
0.0
  0
LINE
  5
8EFC
  8
0
 10
43.20193610525473
 20
209.23434769288
 30
0.0
 11
43.53629240525473
 21
209.23434769288
 31
0.0
  0
LINE
  5
8EFD
  8
0
 10
43.53629240525473
 20
209.23434769288
 30
0.0
 11
43.53629240525473
 21
209.56833159288
 31
0.0
  0
LINE
  5
8EFE
  8
0
 10
43.53629240525473
 20
209.56833159288
 30
0.0
 11
43.20193610525473
 21
209.56833159288
 31
0.0
  0
LINE
  5
8EFF
  8
0
 10
43.20193610525473
 20
209.56833159288
 30
0.0
 11
43.20193610525473
 21
209.23434769288
 31
0.0
  0
LINE
  5
8F00
  8
0
 10
43.86950110525476
 20
209.23434769288
 30
0.0
 11
45.20469760525472
 21
209.23434769288
 31
0.0
  0
LINE
  5
8F01
  8
0
 10
45.20469760525472
 20
209.23434769288
 30
0.0
 11
45.20469760525472
 21
209.56833159288
 31
0.0
  0
LINE
  5
8F02
  8
0
 10
45.20469760525472
 20
209.56833159288
 30
0.0
 11
43.86950110525476
 21
209.56833159288
 31
0.0
  0
LINE
  5
8F03
  8
0
 10
43.86950110525476
 20
209.56833159288
 30
0.0
 11
43.86950110525476
 21
209.23434769288
 31
0.0
  0
LINE
  5
8F04
  8
0
 10
45.53874610525475
 20
209.23434769288
 30
0.0
 11
46.20597290525473
 21
209.23434769288
 31
0.0
  0
LINE
  5
8F05
  8
0
 10
46.20597290525473
 20
209.23434769288
 30
0.0
 11
46.20597290525473
 21
209.56833159288
 31
0.0
  0
LINE
  5
8F06
  8
0
 10
46.20597290525473
 20
209.56833159288
 30
0.0
 11
45.53874610525475
 21
209.56833159288
 31
0.0
  0
LINE
  5
8F07
  8
0
 10
45.53874610525475
 20
209.56833159288
 30
0.0
 11
45.53874610525475
 21
209.23434769288
 31
0.0
  0
LINE
  5
8F08
  8
0
 10
46.54033110525475
 20
209.23434769288
 30
0.0
 11
46.87431500525474
 21
209.23434769288
 31
0.0
  0
LINE
  5
8F09
  8
0
 10
46.87431500525474
 20
209.23434769288
 30
0.0
 11
46.87431500525474
 21
209.56833159288
 31
0.0
  0
LINE
  5
8F0A
  8
0
 10
46.87431500525474
 20
209.56833159288
 30
0.0
 11
46.54033110525475
 21
209.56833159288
 31
0.0
  0
LINE
  5
8F0B
  8
0
 10
46.54033110525475
 20
209.56833159288
 30
0.0
 11
46.54033110525475
 21
209.23434769288
 31
0.0
  0
LINE
  5
8F0C
  8
0
 10
47.54153610525474
 20
209.23434769288
 30
0.0
 11
47.87589145525475
 21
209.23434769288
 31
0.0
  0
LINE
  5
8F0D
  8
0
 10
47.87589145525475
 20
209.23434769288
 30
0.0
 11
47.87589145525475
 21
209.56833159288
 31
0.0
  0
LINE
  5
8F0E
  8
0
 10
47.87589145525475
 20
209.56833159288
 30
0.0
 11
47.54153610525474
 21
209.56833159288
 31
0.0
  0
LINE
  5
8F0F
  8
0
 10
47.54153610525474
 20
209.56833159288
 30
0.0
 11
47.54153610525474
 21
209.23434769288
 31
0.0
  0
LINE
  5
8F10
  8
0
 10
48.54274110525473
 20
209.23434769288
 30
0.0
 11
48.87672595525474
 21
209.23434769288
 31
0.0
  0
LINE
  5
8F11
  8
0
 10
48.87672595525474
 20
209.23434769288
 30
0.0
 11
48.87672595525474
 21
209.56833159288
 31
0.0
  0
LINE
  5
8F12
  8
0
 10
48.87672595525474
 20
209.56833159288
 30
0.0
 11
48.54274110525473
 21
209.56833159288
 31
0.0
  0
LINE
  5
8F13
  8
0
 10
48.54274110525473
 20
209.56833159288
 30
0.0
 11
48.54274110525473
 21
209.23434769288
 31
0.0
  0
LINE
  5
8F14
  8
0
 10
49.20992610525475
 20
209.23434769288
 30
0.0
 11
49.54428145525475
 21
209.23434769288
 31
0.0
  0
LINE
  5
8F15
  8
0
 10
49.54428145525475
 20
209.23434769288
 30
0.0
 11
49.54428145525475
 21
209.56833159288
 31
0.0
  0
LINE
  5
8F16
  8
0
 10
49.54428145525475
 20
209.56833159288
 30
0.0
 11
49.20992610525475
 21
209.56833159288
 31
0.0
  0
LINE
  5
8F17
  8
0
 10
49.20992610525475
 20
209.56833159288
 30
0.0
 11
49.20992610525475
 21
209.23434769288
 31
0.0
  0
LINE
  5
8F18
  8
0
 10
49.87749110525473
 20
209.23434769288
 30
0.0
 11
50.21147500525474
 21
209.23434769288
 31
0.0
  0
LINE
  5
8F19
  8
0
 10
50.21147500525474
 20
209.23434769288
 30
0.0
 11
50.21147500525474
 21
209.56833159288
 31
0.0
  0
LINE
  5
8F1A
  8
0
 10
50.21147500525474
 20
209.56833159288
 30
0.0
 11
49.87749110525473
 21
209.56833159288
 31
0.0
  0
LINE
  5
8F1B
  8
0
 10
49.87749110525473
 20
209.56833159288
 30
0.0
 11
49.87749110525473
 21
209.23434769288
 31
0.0
  0
LINE
  5
8F1C
  8
0
 10
50.54591110525473
 20
209.23434769288
 30
0.0
 11
51.54712560525473
 21
209.23434769288
 31
0.0
  0
LINE
  5
8F1D
  8
0
 10
51.54712560525473
 20
209.23434769288
 30
0.0
 11
51.54712560525473
 21
209.56833159288
 31
0.0
  0
LINE
  5
8F1E
  8
0
 10
51.54712560525473
 20
209.56833159288
 30
0.0
 11
50.54591110525473
 21
209.56833159288
 31
0.0
  0
LINE
  5
8F1F
  8
0
 10
50.54591110525473
 20
209.56833159288
 30
0.0
 11
50.54591110525473
 21
209.23434769288
 31
0.0
  0
LINE
  5
8F20
  8
0
 10
51.88066110525473
 20
209.23434769288
 30
0.0
 11
52.21464595525474
 21
209.23434769288
 31
0.0
  0
LINE
  5
8F21
  8
0
 10
52.21464595525474
 20
209.23434769288
 30
0.0
 11
52.21464595525474
 21
209.56833159288
 31
0.0
  0
LINE
  5
8F22
  8
0
 10
52.21464595525474
 20
209.56833159288
 30
0.0
 11
51.88066110525473
 21
209.56833159288
 31
0.0
  0
LINE
  5
8F23
  8
0
 10
51.88066110525473
 20
209.56833159288
 30
0.0
 11
51.88066110525473
 21
209.23434769288
 31
0.0
  0
LINE
  5
8F24
  8
0
 10
52.54832110525473
 20
209.23434769288
 30
0.0
 11
53.21554695525475
 21
209.23434769288
 31
0.0
  0
LINE
  5
8F25
  8
0
 10
53.21554695525475
 20
209.23434769288
 30
0.0
 11
53.21554695525475
 21
209.56833159288
 31
0.0
  0
LINE
  5
8F26
  8
0
 10
53.21554695525475
 20
209.56833159288
 30
0.0
 11
52.54832110525473
 21
209.56833159288
 31
0.0
  0
LINE
  5
8F27
  8
0
 10
52.54832110525473
 20
209.56833159288
 30
0.0
 11
52.54832110525473
 21
209.23434769288
 31
0.0
  0
LINE
  5
8F28
  8
0
 10
42.53437110525473
 20
208.89994769288
 30
0.0
 11
43.20196840525472
 21
208.89994769288
 31
0.0
  0
LINE
  5
8F29
  8
0
 10
43.20196840525472
 20
208.89994769288
 30
0.0
 11
43.20196840525472
 21
209.23430304288
 31
0.0
  0
LINE
  5
8F2A
  8
0
 10
43.20196840525472
 20
209.23430304288
 30
0.0
 11
42.53437110525473
 21
209.23430304288
 31
0.0
  0
LINE
  5
8F2B
  8
0
 10
42.53437110525473
 20
209.23430304288
 30
0.0
 11
42.53437110525473
 21
208.89994769288
 31
0.0
  0
LINE
  5
8F2C
  8
0
 10
43.53586110525475
 20
208.89994769288
 30
0.0
 11
44.20345840525474
 21
208.89994769288
 31
0.0
  0
LINE
  5
8F2D
  8
0
 10
44.20345840525474
 20
208.89994769288
 30
0.0
 11
44.20345840525474
 21
209.23430304288
 31
0.0
  0
LINE
  5
8F2E
  8
0
 10
44.20345840525474
 20
209.23430304288
 30
0.0
 11
43.53586110525475
 21
209.23430304288
 31
0.0
  0
LINE
  5
8F2F
  8
0
 10
43.53586110525475
 20
209.23430304288
 30
0.0
 11
43.53586110525475
 21
208.89994769288
 31
0.0
  0
LINE
  5
8F30
  8
0
 10
44.87108610525473
 20
208.89994769288
 30
0.0
 11
45.20507000525473
 21
208.89994769288
 31
0.0
  0
LINE
  5
8F31
  8
0
 10
45.20507000525473
 20
208.89994769288
 30
0.0
 11
45.20507000525473
 21
209.23430304288
 31
0.0
  0
LINE
  5
8F32
  8
0
 10
45.20507000525473
 20
209.23430304288
 30
0.0
 11
44.87108610525473
 21
209.23430304288
 31
0.0
  0
LINE
  5
8F33
  8
0
 10
44.87108610525473
 20
209.23430304288
 30
0.0
 11
44.87108610525473
 21
208.89994769288
 31
0.0
  0
LINE
  5
8F34
  8
0
 10
45.87267110525474
 20
208.89994769288
 30
0.0
 11
46.53989695525473
 21
208.89994769288
 31
0.0
  0
LINE
  5
8F35
  8
0
 10
46.53989695525473
 20
208.89994769288
 30
0.0
 11
46.53989695525473
 21
209.23430304288
 31
0.0
  0
LINE
  5
8F36
  8
0
 10
46.53989695525473
 20
209.23430304288
 30
0.0
 11
45.87267110525474
 21
209.23430304288
 31
0.0
  0
LINE
  5
8F37
  8
0
 10
45.87267110525474
 20
209.23430304288
 30
0.0
 11
45.87267110525474
 21
208.89994769288
 31
0.0
  0
LINE
  5
8F38
  8
0
 10
47.20751610525475
 20
208.89994769288
 30
0.0
 11
47.87511340525474
 21
208.89994769288
 31
0.0
  0
LINE
  5
8F39
  8
0
 10
47.87511340525474
 20
208.89994769288
 30
0.0
 11
47.87511340525474
 21
209.23430304288
 31
0.0
  0
LINE
  5
8F3A
  8
0
 10
47.87511340525474
 20
209.23430304288
 30
0.0
 11
47.20751610525475
 21
209.23430304288
 31
0.0
  0
LINE
  5
8F3B
  8
0
 10
47.20751610525475
 20
209.23430304288
 30
0.0
 11
47.20751610525475
 21
208.89994769288
 31
0.0
  0
LINE
  5
8F3C
  8
0
 10
48.87666610525474
 20
208.89994769288
 30
0.0
 11
49.54426340525472
 21
208.89994769288
 31
0.0
  0
LINE
  5
8F3D
  8
0
 10
49.54426340525472
 20
208.89994769288
 30
0.0
 11
49.54426340525472
 21
209.23430304288
 31
0.0
  0
LINE
  5
8F3E
  8
0
 10
49.54426340525472
 20
209.23430304288
 30
0.0
 11
48.87666610525474
 21
209.23430304288
 31
0.0
  0
LINE
  5
8F3F
  8
0
 10
48.87666610525474
 20
209.23430304288
 30
0.0
 11
48.87666610525474
 21
208.89994769288
 31
0.0
  0
LINE
  5
8F40
  8
0
 10
49.87749110525473
 20
208.89994769288
 30
0.0
 11
50.54508840525475
 21
208.89994769288
 31
0.0
  0
LINE
  5
8F41
  8
0
 10
50.54508840525475
 20
208.89994769288
 30
0.0
 11
50.54508840525475
 21
209.23430304288
 31
0.0
  0
LINE
  5
8F42
  8
0
 10
50.54508840525475
 20
209.23430304288
 30
0.0
 11
49.87749110525473
 21
209.23430304288
 31
0.0
  0
LINE
  5
8F43
  8
0
 10
49.87749110525473
 20
209.23430304288
 30
0.0
 11
49.87749110525473
 21
208.89994769288
 31
0.0
  0
LINE
  5
8F44
  8
0
 10
50.87907610525474
 20
208.89994769288
 30
0.0
 11
51.21306095525475
 21
208.89994769288
 31
0.0
  0
LINE
  5
8F45
  8
0
 10
51.21306095525475
 20
208.89994769288
 30
0.0
 11
51.21306095525475
 21
209.23430304288
 31
0.0
  0
LINE
  5
8F46
  8
0
 10
51.21306095525475
 20
209.23430304288
 30
0.0
 11
50.87907610525474
 21
209.23430304288
 31
0.0
  0
LINE
  5
8F47
  8
0
 10
50.87907610525474
 20
209.23430304288
 30
0.0
 11
50.87907610525474
 21
208.89994769288
 31
0.0
  0
LINE
  5
8F48
  8
0
 10
51.54673610525474
 20
208.89994769288
 30
0.0
 11
53.54915560525475
 21
208.89994769288
 31
0.0
  0
LINE
  5
8F49
  8
0
 10
53.54915560525475
 20
208.89994769288
 30
0.0
 11
53.54915560525475
 21
209.23430304288
 31
0.0
  0
LINE
  5
8F4A
  8
0
 10
53.54915560525475
 20
209.23430304288
 30
0.0
 11
51.54673610525474
 21
209.23430304288
 31
0.0
  0
LINE
  5
8F4B
  8
0
 10
51.54673610525474
 20
209.23430304288
 30
0.0
 11
51.54673610525474
 21
208.89994769288
 31
0.0
  0
LINE
  5
8F4C
  8
0
 10
42.86867610525474
 20
208.56668769288
 30
0.0
 11
43.20266095525474
 21
208.56668769288
 31
0.0
  0
LINE
  5
8F4D
  8
0
 10
43.20266095525474
 20
208.56668769288
 30
0.0
 11
43.20266095525474
 21
208.90067254288
 31
0.0
  0
LINE
  5
8F4E
  8
0
 10
43.20266095525474
 20
208.90067254288
 30
0.0
 11
42.86867610525474
 21
208.90067254288
 31
0.0
  0
LINE
  5
8F4F
  8
0
 10
42.86867610525474
 20
208.90067254288
 30
0.0
 11
42.86867610525474
 21
208.56668769288
 31
0.0
  0
LINE
  5
8F50
  8
0
 10
43.53586110525475
 20
208.56668769288
 30
0.0
 11
43.86984500525475
 21
208.56668769288
 31
0.0
  0
LINE
  5
8F51
  8
0
 10
43.86984500525475
 20
208.56668769288
 30
0.0
 11
43.86984500525475
 21
208.90067254288
 31
0.0
  0
LINE
  5
8F52
  8
0
 10
43.86984500525475
 20
208.90067254288
 30
0.0
 11
43.53586110525475
 21
208.90067254288
 31
0.0
  0
LINE
  5
8F53
  8
0
 10
43.53586110525475
 20
208.90067254288
 30
0.0
 11
43.53586110525475
 21
208.56668769288
 31
0.0
  0
LINE
  5
8F54
  8
0
 10
44.53744610525473
 20
208.56668769288
 30
0.0
 11
45.53903110525474
 21
208.56668769288
 31
0.0
  0
LINE
  5
8F55
  8
0
 10
45.53903110525474
 20
208.56668769288
 30
0.0
 11
45.53903110525474
 21
208.90067254288
 31
0.0
  0
LINE
  5
8F56
  8
0
 10
45.53903110525474
 20
208.90067254288
 30
0.0
 11
44.53744610525473
 21
208.90067254288
 31
0.0
  0
LINE
  5
8F57
  8
0
 10
44.53744610525473
 20
208.90067254288
 30
0.0
 11
44.53744610525473
 21
208.56668769288
 31
0.0
  0
LINE
  5
8F58
  8
0
 10
46.87349610525473
 20
208.56668769288
 30
0.0
 11
47.54109435525476
 21
208.56668769288
 31
0.0
  0
LINE
  5
8F59
  8
0
 10
47.54109435525476
 20
208.56668769288
 30
0.0
 11
47.54109435525476
 21
208.90067254288
 31
0.0
  0
LINE
  5
8F5A
  8
0
 10
47.54109435525476
 20
208.90067254288
 30
0.0
 11
46.87349610525473
 21
208.90067254288
 31
0.0
  0
LINE
  5
8F5B
  8
0
 10
46.87349610525473
 20
208.90067254288
 30
0.0
 11
46.87349610525473
 21
208.56668769288
 31
0.0
  0
LINE
  5
8F5C
  8
0
 10
47.87508110525474
 20
208.56668769288
 30
0.0
 11
48.87666610525474
 21
208.56668769288
 31
0.0
  0
LINE
  5
8F5D
  8
0
 10
48.87666610525474
 20
208.56668769288
 30
0.0
 11
48.87666610525474
 21
208.90067254288
 31
0.0
  0
LINE
  5
8F5E
  8
0
 10
48.87666610525474
 20
208.90067254288
 30
0.0
 11
47.87508110525474
 21
208.90067254288
 31
0.0
  0
LINE
  5
8F5F
  8
0
 10
47.87508110525474
 20
208.90067254288
 30
0.0
 11
47.87508110525474
 21
208.56668769288
 31
0.0
  0
LINE
  5
8F60
  8
0
 10
49.20992610525475
 20
208.56668769288
 30
0.0
 11
50.21151110525474
 21
208.56668769288
 31
0.0
  0
LINE
  5
8F61
  8
0
 10
50.21151110525474
 20
208.56668769288
 30
0.0
 11
50.21151110525474
 21
208.90067254288
 31
0.0
  0
LINE
  5
8F62
  8
0
 10
50.21151110525474
 20
208.90067254288
 30
0.0
 11
49.20992610525475
 21
208.90067254288
 31
0.0
  0
LINE
  5
8F63
  8
0
 10
49.20992610525475
 20
208.90067254288
 30
0.0
 11
49.20992610525475
 21
208.56668769288
 31
0.0
  0
LINE
  5
8F64
  8
0
 10
50.54591110525473
 20
208.56668769288
 30
0.0
 11
50.87989595525474
 21
208.56668769288
 31
0.0
  0
LINE
  5
8F65
  8
0
 10
50.87989595525474
 20
208.56668769288
 30
0.0
 11
50.87989595525474
 21
208.90067254288
 31
0.0
  0
LINE
  5
8F66
  8
0
 10
50.87989595525474
 20
208.90067254288
 30
0.0
 11
50.54591110525473
 21
208.90067254288
 31
0.0
  0
LINE
  5
8F67
  8
0
 10
50.54591110525473
 20
208.90067254288
 30
0.0
 11
50.54591110525473
 21
208.56668769288
 31
0.0
  0
LINE
  5
8F68
  8
0
 10
51.21309610525475
 20
208.56668769288
 30
0.0
 11
51.88069340525473
 21
208.56668769288
 31
0.0
  0
LINE
  5
8F69
  8
0
 10
51.88069340525473
 20
208.56668769288
 30
0.0
 11
51.88069340525473
 21
208.90067254288
 31
0.0
  0
LINE
  5
8F6A
  8
0
 10
51.88069340525473
 20
208.90067254288
 30
0.0
 11
51.21309610525475
 21
208.90067254288
 31
0.0
  0
LINE
  5
8F6B
  8
0
 10
51.21309610525475
 20
208.90067254288
 30
0.0
 11
51.21309610525475
 21
208.56668769288
 31
0.0
  0
LINE
  5
8F6C
  8
0
 10
42.53437110525473
 20
208.23276269288
 30
0.0
 11
43.20196840525472
 21
208.23276269288
 31
0.0
  0
LINE
  5
8F6D
  8
0
 10
43.20196840525472
 20
208.23276269288
 30
0.0
 11
43.20196840525472
 21
208.56674659288
 31
0.0
  0
LINE
  5
8F6E
  8
0
 10
43.20196840525472
 20
208.56674659288
 30
0.0
 11
42.53437110525473
 21
208.56674659288
 31
0.0
  0
LINE
  5
8F6F
  8
0
 10
42.53437110525473
 20
208.56674659288
 30
0.0
 11
42.53437110525473
 21
208.23276269288
 31
0.0
  0
LINE
  5
8F70
  8
0
 10
43.53586110525475
 20
208.23276269288
 30
0.0
 11
44.20345840525474
 21
208.23276269288
 31
0.0
  0
LINE
  5
8F71
  8
0
 10
44.20345840525474
 20
208.23276269288
 30
0.0
 11
44.20345840525474
 21
208.56674659288
 31
0.0
  0
LINE
  5
8F72
  8
0
 10
44.20345840525474
 20
208.56674659288
 30
0.0
 11
43.53586110525475
 21
208.56674659288
 31
0.0
  0
LINE
  5
8F73
  8
0
 10
43.53586110525475
 20
208.56674659288
 30
0.0
 11
43.53586110525475
 21
208.23276269288
 31
0.0
  0
LINE
  5
8F74
  8
0
 10
44.87108610525473
 20
208.23276269288
 30
0.0
 11
45.53868340525474
 21
208.23276269288
 31
0.0
  0
LINE
  5
8F75
  8
0
 10
45.53868340525474
 20
208.23276269288
 30
0.0
 11
45.53868340525474
 21
208.56674659288
 31
0.0
  0
LINE
  5
8F76
  8
0
 10
45.53868340525474
 20
208.56674659288
 30
0.0
 11
44.87108610525473
 21
208.56674659288
 31
0.0
  0
LINE
  5
8F77
  8
0
 10
44.87108610525473
 20
208.56674659288
 30
0.0
 11
44.87108610525473
 21
208.23276269288
 31
0.0
  0
LINE
  5
8F78
  8
0
 10
46.20593110525473
 20
208.23276269288
 30
0.0
 11
46.87352840525475
 21
208.23276269288
 31
0.0
  0
LINE
  5
8F79
  8
0
 10
46.87352840525475
 20
208.23276269288
 30
0.0
 11
46.87352840525475
 21
208.56674659288
 31
0.0
  0
LINE
  5
8F7A
  8
0
 10
46.87352840525475
 20
208.56674659288
 30
0.0
 11
46.20593110525473
 21
208.56674659288
 31
0.0
  0
LINE
  5
8F7B
  8
0
 10
46.20593110525473
 20
208.56674659288
 30
0.0
 11
46.20593110525473
 21
208.23276269288
 31
0.0
  0
LINE
  5
8F7C
  8
0
 10
47.20751610525475
 20
208.23276269288
 30
0.0
 11
47.54150000525475
 21
208.23276269288
 31
0.0
  0
LINE
  5
8F7D
  8
0
 10
47.54150000525475
 20
208.23276269288
 30
0.0
 11
47.54150000525475
 21
208.56674659288
 31
0.0
  0
LINE
  5
8F7E
  8
0
 10
47.54150000525475
 20
208.56674659288
 30
0.0
 11
47.20751610525475
 21
208.56674659288
 31
0.0
  0
LINE
  5
8F7F
  8
0
 10
47.20751610525475
 20
208.56674659288
 30
0.0
 11
47.20751610525475
 21
208.23276269288
 31
0.0
  0
LINE
  5
8F80
  8
0
 10
47.87508110525474
 20
208.23276269288
 30
0.0
 11
48.54267840525473
 21
208.23276269288
 31
0.0
  0
LINE
  5
8F81
  8
0
 10
48.54267840525473
 20
208.23276269288
 30
0.0
 11
48.54267840525473
 21
208.56674659288
 31
0.0
  0
LINE
  5
8F82
  8
0
 10
48.54267840525473
 20
208.56674659288
 30
0.0
 11
47.87508110525474
 21
208.56674659288
 31
0.0
  0
LINE
  5
8F83
  8
0
 10
47.87508110525474
 20
208.56674659288
 30
0.0
 11
47.87508110525474
 21
208.23276269288
 31
0.0
  0
LINE
  5
8F84
  8
0
 10
49.20992610525475
 20
208.23276269288
 30
0.0
 11
49.87752435525474
 21
208.23276269288
 31
0.0
  0
LINE
  5
8F85
  8
0
 10
49.87752435525474
 20
208.23276269288
 30
0.0
 11
49.87752435525474
 21
208.56674659288
 31
0.0
  0
LINE
  5
8F86
  8
0
 10
49.87752435525474
 20
208.56674659288
 30
0.0
 11
49.20992610525475
 21
208.56674659288
 31
0.0
  0
LINE
  5
8F87
  8
0
 10
49.20992610525475
 20
208.56674659288
 30
0.0
 11
49.20992610525475
 21
208.23276269288
 31
0.0
  0
LINE
  5
8F88
  8
0
 10
50.21151110525474
 20
208.23276269288
 30
0.0
 11
50.54586645525474
 21
208.23276269288
 31
0.0
  0
LINE
  5
8F89
  8
0
 10
50.54586645525474
 20
208.23276269288
 30
0.0
 11
50.54586645525474
 21
208.56674659288
 31
0.0
  0
LINE
  5
8F8A
  8
0
 10
50.54586645525474
 20
208.56674659288
 30
0.0
 11
50.21151110525474
 21
208.56674659288
 31
0.0
  0
LINE
  5
8F8B
  8
0
 10
50.21151110525474
 20
208.56674659288
 30
0.0
 11
50.21151110525474
 21
208.23276269288
 31
0.0
  0
LINE
  5
8F8C
  8
0
 10
51.21309610525475
 20
208.23276269288
 30
0.0
 11
51.54708000525474
 21
208.23276269288
 31
0.0
  0
LINE
  5
8F8D
  8
0
 10
51.54708000525474
 20
208.23276269288
 30
0.0
 11
51.54708000525474
 21
208.56674659288
 31
0.0
  0
LINE
  5
8F8E
  8
0
 10
51.54708000525474
 20
208.56674659288
 30
0.0
 11
51.21309610525475
 21
208.56674659288
 31
0.0
  0
LINE
  5
8F8F
  8
0
 10
51.21309610525475
 20
208.56674659288
 30
0.0
 11
51.21309610525475
 21
208.23276269288
 31
0.0
  0
LINE
  5
8F90
  8
0
 10
52.21392110525474
 20
208.23276269288
 30
0.0
 11
53.54911760525474
 21
208.23276269288
 31
0.0
  0
LINE
  5
8F91
  8
0
 10
53.54911760525474
 20
208.23276269288
 30
0.0
 11
53.54911760525474
 21
208.56674659288
 31
0.0
  0
LINE
  5
8F92
  8
0
 10
53.54911760525474
 20
208.56674659288
 30
0.0
 11
52.21392110525474
 21
208.56674659288
 31
0.0
  0
LINE
  5
8F93
  8
0
 10
52.21392110525474
 20
208.56674659288
 30
0.0
 11
52.21392110525474
 21
208.23276269288
 31
0.0
  0
LINE
  5
8F94
  8
0
 10
42.86867610525474
 20
207.89912269288
 30
0.0
 11
46.20666260525473
 21
207.89912269288
 31
0.0
  0
LINE
  5
8F95
  8
0
 10
46.20666260525473
 20
207.89912269288
 30
0.0
 11
46.20666260525473
 21
208.23310754288
 31
0.0
  0
LINE
  5
8F96
  8
0
 10
46.20666260525473
 20
208.23310754288
 30
0.0
 11
42.86867610525474
 21
208.23310754288
 31
0.0
  0
LINE
  5
8F97
  8
0
 10
42.86867610525474
 20
208.23310754288
 30
0.0
 11
42.86867610525474
 21
207.89912269288
 31
0.0
  0
LINE
  5
8F98
  8
0
 10
46.87349610525473
 20
207.89912269288
 30
0.0
 11
47.20748095525474
 21
207.89912269288
 31
0.0
  0
LINE
  5
8F99
  8
0
 10
47.20748095525474
 20
207.89912269288
 30
0.0
 11
47.20748095525474
 21
208.23310754288
 31
0.0
  0
LINE
  5
8F9A
  8
0
 10
47.20748095525474
 20
208.23310754288
 30
0.0
 11
46.87349610525473
 21
208.23310754288
 31
0.0
  0
LINE
  5
8F9B
  8
0
 10
46.87349610525473
 20
208.23310754288
 30
0.0
 11
46.87349610525473
 21
207.89912269288
 31
0.0
  0
LINE
  5
8F9C
  8
0
 10
48.20910110525475
 20
207.89912269288
 30
0.0
 11
48.54308500525474
 21
207.89912269288
 31
0.0
  0
LINE
  5
8F9D
  8
0
 10
48.54308500525474
 20
207.89912269288
 30
0.0
 11
48.54308500525474
 21
208.23310754288
 31
0.0
  0
LINE
  5
8F9E
  8
0
 10
48.54308500525474
 20
208.23310754288
 30
0.0
 11
48.20910110525475
 21
208.23310754288
 31
0.0
  0
LINE
  5
8F9F
  8
0
 10
48.20910110525475
 20
208.23310754288
 30
0.0
 11
48.20910110525475
 21
207.89912269288
 31
0.0
  0
LINE
  5
8FA0
  8
0
 10
48.87666610525474
 20
207.89912269288
 30
0.0
 11
49.21065000525473
 21
207.89912269288
 31
0.0
  0
LINE
  5
8FA1
  8
0
 10
49.21065000525473
 20
207.89912269288
 30
0.0
 11
49.21065000525473
 21
208.23310754288
 31
0.0
  0
LINE
  5
8FA2
  8
0
 10
49.21065000525473
 20
208.23310754288
 30
0.0
 11
48.87666610525474
 21
208.23310754288
 31
0.0
  0
LINE
  5
8FA3
  8
0
 10
48.87666610525474
 20
208.23310754288
 30
0.0
 11
48.87666610525474
 21
207.89912269288
 31
0.0
  0
LINE
  5
8FA4
  8
0
 10
50.87907610525474
 20
207.89912269288
 30
0.0
 11
51.54667435525474
 21
207.89912269288
 31
0.0
  0
LINE
  5
8FA5
  8
0
 10
51.54667435525474
 20
207.89912269288
 30
0.0
 11
51.54667435525474
 21
208.23310754288
 31
0.0
  0
LINE
  5
8FA6
  8
0
 10
51.54667435525474
 20
208.23310754288
 30
0.0
 11
50.87907610525474
 21
208.23310754288
 31
0.0
  0
LINE
  5
8FA7
  8
0
 10
50.87907610525474
 20
208.23310754288
 30
0.0
 11
50.87907610525474
 21
207.89912269288
 31
0.0
  0
LINE
  5
8FA8
  8
0
 10
51.88066110525473
 20
207.89912269288
 30
0.0
 11
52.21464595525474
 21
207.89912269288
 31
0.0
  0
LINE
  5
8FA9
  8
0
 10
52.21464595525474
 20
207.89912269288
 30
0.0
 11
52.21464595525474
 21
208.23310754288
 31
0.0
  0
LINE
  5
8FAA
  8
0
 10
52.21464595525474
 20
208.23310754288
 30
0.0
 11
51.88066110525473
 21
208.23310754288
 31
0.0
  0
LINE
  5
8FAB
  8
0
 10
51.88066110525473
 20
208.23310754288
 30
0.0
 11
51.88066110525473
 21
207.89912269288
 31
0.0
  0
LINE
  5
8FAC
  8
0
 10
52.54832110525473
 20
207.89912269288
 30
0.0
 11
53.21554695525475
 21
207.89912269288
 31
0.0
  0
LINE
  5
8FAD
  8
0
 10
53.21554695525475
 20
207.89912269288
 30
0.0
 11
53.21554695525475
 21
208.23310754288
 31
0.0
  0
LINE
  5
8FAE
  8
0
 10
53.21554695525475
 20
208.23310754288
 30
0.0
 11
52.54832110525473
 21
208.23310754288
 31
0.0
  0
LINE
  5
8FAF
  8
0
 10
52.54832110525473
 20
208.23310754288
 30
0.0
 11
52.54832110525473
 21
207.89912269288
 31
0.0
  0
LINE
  5
8FB0
  8
0
 10
42.53437110525473
 20
207.56510269288
 30
0.0
 11
43.20196840525472
 21
207.56510269288
 31
0.0
  0
LINE
  5
8FB1
  8
0
 10
43.20196840525472
 20
207.56510269288
 30
0.0
 11
43.20196840525472
 21
207.89912269288
 31
0.0
  0
LINE
  5
8FB2
  8
0
 10
43.20196840525472
 20
207.89912269288
 30
0.0
 11
42.53437110525473
 21
207.89912269288
 31
0.0
  0
LINE
  5
8FB3
  8
0
 10
42.53437110525473
 20
207.89912269288
 30
0.0
 11
42.53437110525473
 21
207.56510269288
 31
0.0
  0
LINE
  5
8FB4
  8
0
 10
43.53586110525475
 20
207.56510269288
 30
0.0
 11
44.20345840525474
 21
207.56510269288
 31
0.0
  0
LINE
  5
8FB5
  8
0
 10
44.20345840525474
 20
207.56510269288
 30
0.0
 11
44.20345840525474
 21
207.89912269288
 31
0.0
  0
LINE
  5
8FB6
  8
0
 10
44.20345840525474
 20
207.89912269288
 30
0.0
 11
43.53586110525475
 21
207.89912269288
 31
0.0
  0
LINE
  5
8FB7
  8
0
 10
43.53586110525475
 20
207.89912269288
 30
0.0
 11
43.53586110525475
 21
207.56510269288
 31
0.0
  0
LINE
  5
8FB8
  8
0
 10
45.53874610525475
 20
207.56510269288
 30
0.0
 11
45.87273095525472
 21
207.56510269288
 31
0.0
  0
LINE
  5
8FB9
  8
0
 10
45.87273095525472
 20
207.56510269288
 30
0.0
 11
45.87273095525472
 21
207.89912269288
 31
0.0
  0
LINE
  5
8FBA
  8
0
 10
45.87273095525472
 20
207.89912269288
 30
0.0
 11
45.53874610525475
 21
207.89912269288
 31
0.0
  0
LINE
  5
8FBB
  8
0
 10
45.53874610525475
 20
207.89912269288
 30
0.0
 11
45.53874610525475
 21
207.56510269288
 31
0.0
  0
LINE
  5
8FBC
  8
0
 10
46.54033110525475
 20
207.56510269288
 30
0.0
 11
46.87431500525474
 21
207.56510269288
 31
0.0
  0
LINE
  5
8FBD
  8
0
 10
46.87431500525474
 20
207.56510269288
 30
0.0
 11
46.87431500525474
 21
207.89912269288
 31
0.0
  0
LINE
  5
8FBE
  8
0
 10
46.87431500525474
 20
207.89912269288
 30
0.0
 11
46.54033110525475
 21
207.89912269288
 31
0.0
  0
LINE
  5
8FBF
  8
0
 10
46.54033110525475
 20
207.89912269288
 30
0.0
 11
46.54033110525475
 21
207.56510269288
 31
0.0
  0
LINE
  5
8FC0
  8
0
 10
47.20751610525475
 20
207.56510269288
 30
0.0
 11
47.87511340525474
 21
207.56510269288
 31
0.0
  0
LINE
  5
8FC1
  8
0
 10
47.87511340525474
 20
207.56510269288
 30
0.0
 11
47.87511340525474
 21
207.89912269288
 31
0.0
  0
LINE
  5
8FC2
  8
0
 10
47.87511340525474
 20
207.89912269288
 30
0.0
 11
47.20751610525475
 21
207.89912269288
 31
0.0
  0
LINE
  5
8FC3
  8
0
 10
47.20751610525475
 20
207.89912269288
 30
0.0
 11
47.20751610525475
 21
207.56510269288
 31
0.0
  0
LINE
  5
8FC4
  8
0
 10
48.54274110525473
 20
207.56510269288
 30
0.0
 11
49.20996790525476
 21
207.56510269288
 31
0.0
  0
LINE
  5
8FC5
  8
0
 10
49.20996790525476
 20
207.56510269288
 30
0.0
 11
49.20996790525476
 21
207.89912269288
 31
0.0
  0
LINE
  5
8FC6
  8
0
 10
49.20996790525476
 20
207.89912269288
 30
0.0
 11
48.54274110525473
 21
207.89912269288
 31
0.0
  0
LINE
  5
8FC7
  8
0
 10
48.54274110525473
 20
207.89912269288
 30
0.0
 11
48.54274110525473
 21
207.56510269288
 31
0.0
  0
LINE
  5
8FC8
  8
0
 10
50.87907610525474
 20
207.56510269288
 30
0.0
 11
51.21309610525475
 21
207.56510269288
 31
0.0
  0
LINE
  5
8FC9
  8
0
 10
51.21309610525475
 20
207.56510269288
 30
0.0
 11
51.21309610525475
 21
207.89912269288
 31
0.0
  0
LINE
  5
8FCA
  8
0
 10
51.21309610525475
 20
207.89912269288
 30
0.0
 11
50.87911125525474
 21
207.89912269288
 31
0.0
  0
LINE
  5
8FCB
  8
0
 10
50.87911125525474
 20
207.89912269288
 30
0.0
 11
50.87907610525474
 21
207.56510269288
 31
0.0
  0
LINE
  5
8FCC
  8
0
 10
51.88066110525473
 20
207.56510269288
 30
0.0
 11
52.88224610525474
 21
207.56510269288
 31
0.0
  0
LINE
  5
8FCD
  8
0
 10
52.88224610525474
 20
207.56510269288
 30
0.0
 11
52.88224610525474
 21
207.89912269288
 31
0.0
  0
LINE
  5
8FCE
  8
0
 10
52.88224610525474
 20
207.89912269288
 30
0.0
 11
51.88066110525473
 21
207.89912269288
 31
0.0
  0
LINE
  5
8FCF
  8
0
 10
51.88066110525473
 20
207.89912269288
 30
0.0
 11
51.88066110525473
 21
207.56510269288
 31
0.0
  0
LINE
  5
8FD0
  8
0
 10
53.21550610525475
 20
207.56510269288
 30
0.0
 11
53.54986240525474
 21
207.56510269288
 31
0.0
  0
LINE
  5
8FD1
  8
0
 10
53.54986240525474
 20
207.56510269288
 30
0.0
 11
53.54986240525474
 21
207.89912269288
 31
0.0
  0
LINE
  5
8FD2
  8
0
 10
53.54986240525474
 20
207.89912269288
 30
0.0
 11
53.21550610525475
 21
207.89912269288
 31
0.0
  0
LINE
  5
8FD3
  8
0
 10
53.21550610525475
 20
207.89912269288
 30
0.0
 11
53.21550610525475
 21
207.56510269288
 31
0.0
  0
LINE
  5
8FD4
  8
0
 10
42.86867610525474
 20
207.23155769288
 30
0.0
 11
43.20266095525474
 21
207.23155769288
 31
0.0
  0
LINE
  5
8FD5
  8
0
 10
43.20266095525474
 20
207.23155769288
 30
0.0
 11
43.20266095525474
 21
207.56591304288
 31
0.0
  0
LINE
  5
8FD6
  8
0
 10
43.20266095525474
 20
207.56591304288
 30
0.0
 11
42.86867610525474
 21
207.56591304288
 31
0.0
  0
LINE
  5
8FD7
  8
0
 10
42.86867610525474
 20
207.56591304288
 30
0.0
 11
42.86867610525474
 21
207.23155769288
 31
0.0
  0
LINE
  5
8FD8
  8
0
 10
44.53744610525473
 20
207.23155769288
 30
0.0
 11
44.87143000525472
 21
207.23155769288
 31
0.0
  0
LINE
  5
8FD9
  8
0
 10
44.87143000525472
 20
207.23155769288
 30
0.0
 11
44.87143000525472
 21
207.56591304288
 31
0.0
  0
LINE
  5
8FDA
  8
0
 10
44.87143000525472
 20
207.56591304288
 30
0.0
 11
44.53744610525473
 21
207.56591304288
 31
0.0
  0
LINE
  5
8FDB
  8
0
 10
44.53744610525473
 20
207.56591304288
 30
0.0
 11
44.53744610525473
 21
207.23155769288
 31
0.0
  0
LINE
  5
8FDC
  8
0
 10
45.53874610525475
 20
207.23155769288
 30
0.0
 11
46.20597290525473
 21
207.23155769288
 31
0.0
  0
LINE
  5
8FDD
  8
0
 10
46.20597290525473
 20
207.23155769288
 30
0.0
 11
46.20597290525473
 21
207.56591304288
 31
0.0
  0
LINE
  5
8FDE
  8
0
 10
46.20597290525473
 20
207.56591304288
 30
0.0
 11
45.53874610525475
 21
207.56591304288
 31
0.0
  0
LINE
  5
8FDF
  8
0
 10
45.53874610525475
 20
207.56591304288
 30
0.0
 11
45.53874610525475
 21
207.23155769288
 31
0.0
  0
LINE
  5
8FE0
  8
0
 10
46.54033110525475
 20
207.23155769288
 30
0.0
 11
47.20755790525473
 21
207.23155769288
 31
0.0
  0
LINE
  5
8FE1
  8
0
 10
47.20755790525473
 20
207.23155769288
 30
0.0
 11
47.20755790525473
 21
207.56591304288
 31
0.0
  0
LINE
  5
8FE2
  8
0
 10
47.20755790525473
 20
207.56591304288
 30
0.0
 11
46.54033110525475
 21
207.56591304288
 31
0.0
  0
LINE
  5
8FE3
  8
0
 10
46.54033110525475
 20
207.56591304288
 30
0.0
 11
46.54033110525475
 21
207.23155769288
 31
0.0
  0
LINE
  5
8FE4
  8
0
 10
48.20910110525475
 20
207.23155769288
 30
0.0
 11
49.21068610525475
 21
207.23155769288
 31
0.0
  0
LINE
  5
8FE5
  8
0
 10
49.21068610525475
 20
207.23155769288
 30
0.0
 11
49.21068610525475
 21
207.56591304288
 31
0.0
  0
LINE
  5
8FE6
  8
0
 10
49.21068610525475
 20
207.56591304288
 30
0.0
 11
48.20910110525475
 21
207.56591304288
 31
0.0
  0
LINE
  5
8FE7
  8
0
 10
48.20910110525475
 20
207.56591304288
 30
0.0
 11
48.20910110525475
 21
207.23155769288
 31
0.0
  0
LINE
  5
8FE8
  8
0
 10
49.87749110525473
 20
207.23155769288
 30
0.0
 11
50.21147500525474
 21
207.23155769288
 31
0.0
  0
LINE
  5
8FE9
  8
0
 10
50.21147500525474
 20
207.23155769288
 30
0.0
 11
50.21147500525474
 21
207.56591304288
 31
0.0
  0
LINE
  5
8FEA
  8
0
 10
50.21147500525474
 20
207.56591304288
 30
0.0
 11
49.87749110525473
 21
207.56591304288
 31
0.0
  0
LINE
  5
8FEB
  8
0
 10
49.87749110525473
 20
207.56591304288
 30
0.0
 11
49.87749110525473
 21
207.23155769288
 31
0.0
  0
LINE
  5
8FEC
  8
0
 10
50.54591110525473
 20
207.23155769288
 30
0.0
 11
51.21313790525474
 21
207.23155769288
 31
0.0
  0
LINE
  5
8FED
  8
0
 10
51.21313790525474
 20
207.23155769288
 30
0.0
 11
51.21313790525474
 21
207.56591304288
 31
0.0
  0
LINE
  5
8FEE
  8
0
 10
51.21313790525474
 20
207.56591304288
 30
0.0
 11
50.54591110525473
 21
207.56591304288
 31
0.0
  0
LINE
  5
8FEF
  8
0
 10
50.54591110525473
 20
207.56591304288
 30
0.0
 11
50.54591110525473
 21
207.23155769288
 31
0.0
  0
LINE
  5
8FF0
  8
0
 10
51.54673610525474
 20
207.23155769288
 30
0.0
 11
52.54832110525473
 21
207.23155769288
 31
0.0
  0
LINE
  5
8FF1
  8
0
 10
52.54832110525473
 20
207.23155769288
 30
0.0
 11
52.54832110525473
 21
207.56591304288
 31
0.0
  0
LINE
  5
8FF2
  8
0
 10
52.54832110525473
 20
207.56591304288
 30
0.0
 11
51.54673610525474
 21
207.56591304288
 31
0.0
  0
LINE
  5
8FF3
  8
0
 10
51.54673610525474
 20
207.56591304288
 30
0.0
 11
51.54673610525474
 21
207.23155769288
 31
0.0
  0
LINE
  5
8FF4
  8
0
 10
53.21550610525475
 20
207.23155769288
 30
0.0
 11
53.54986240525474
 21
207.23155769288
 31
0.0
  0
LINE
  5
8FF5
  8
0
 10
53.54986240525474
 20
207.23155769288
 30
0.0
 11
53.54986240525474
 21
207.56591304288
 31
0.0
  0
LINE
  5
8FF6
  8
0
 10
53.54986240525474
 20
207.56591304288
 30
0.0
 11
53.21550610525475
 21
207.56591304288
 31
0.0
  0
LINE
  5
8FF7
  8
0
 10
53.21550610525475
 20
207.56591304288
 30
0.0
 11
53.21550610525475
 21
207.23155769288
 31
0.0
  0
LINE
  5
8FF8
  8
0
 10
42.86867610525474
 20
206.89753769288
 30
0.0
 11
43.53590290525474
 21
206.89753769288
 31
0.0
  0
LINE
  5
8FF9
  8
0
 10
43.53590290525474
 20
206.89753769288
 30
0.0
 11
43.53590290525474
 21
207.23152254288
 31
0.0
  0
LINE
  5
8FFA
  8
0
 10
43.53590290525474
 20
207.23152254288
 30
0.0
 11
42.86867610525474
 21
207.23152254288
 31
0.0
  0
LINE
  5
8FFB
  8
0
 10
42.86867610525474
 20
207.23152254288
 30
0.0
 11
42.86867610525474
 21
206.89753769288
 31
0.0
  0
LINE
  5
8FFC
  8
0
 10
43.86950110525476
 20
206.89753769288
 30
0.0
 11
44.20348500525475
 21
206.89753769288
 31
0.0
  0
LINE
  5
8FFD
  8
0
 10
44.20348500525475
 20
206.89753769288
 30
0.0
 11
44.20348500525475
 21
207.23152254288
 31
0.0
  0
LINE
  5
8FFE
  8
0
 10
44.20348500525475
 20
207.23152254288
 30
0.0
 11
43.86950110525476
 21
207.23152254288
 31
0.0
  0
LINE
  5
8FFF
  8
0
 10
43.86950110525476
 20
207.23152254288
 30
0.0
 11
43.86950110525476
 21
206.89753769288
 31
0.0
  0
LINE
  5
9000
  8
0
 10
46.20593110525473
 20
206.89753769288
 30
0.0
 11
46.53991500525474
 21
206.89753769288
 31
0.0
  0
LINE
  5
9001
  8
0
 10
46.53991500525474
 20
206.89753769288
 30
0.0
 11
46.53991500525474
 21
207.23152254288
 31
0.0
  0
LINE
  5
9002
  8
0
 10
46.53991500525474
 20
207.23152254288
 30
0.0
 11
46.20593110525473
 21
207.23152254288
 31
0.0
  0
LINE
  5
9003
  8
0
 10
46.20593110525473
 20
207.23152254288
 30
0.0
 11
46.20593110525473
 21
206.89753769288
 31
0.0
  0
LINE
  5
9004
  8
0
 10
46.87349610525473
 20
206.89753769288
 30
0.0
 11
49.87750060525474
 21
206.89753769288
 31
0.0
  0
LINE
  5
9005
  8
0
 10
49.87750060525474
 20
206.89753769288
 30
0.0
 11
49.87750060525474
 21
207.23152254288
 31
0.0
  0
LINE
  5
9006
  8
0
 10
49.87750060525474
 20
207.23152254288
 30
0.0
 11
46.87349610525473
 21
207.23152254288
 31
0.0
  0
LINE
  5
9007
  8
0
 10
46.87349610525473
 20
207.23152254288
 30
0.0
 11
46.87349610525473
 21
206.89753769288
 31
0.0
  0
LINE
  5
9008
  8
0
 10
50.21151110525474
 20
206.89753769288
 30
0.0
 11
51.54670760525474
 21
206.89753769288
 31
0.0
  0
LINE
  5
9009
  8
0
 10
51.54670760525474
 20
206.89753769288
 30
0.0
 11
51.54670760525474
 21
207.23152254288
 31
0.0
  0
LINE
  5
900A
  8
0
 10
51.54670760525474
 20
207.23152254288
 30
0.0
 11
50.21151110525474
 21
207.23152254288
 31
0.0
  0
LINE
  5
900B
  8
0
 10
50.21151110525474
 20
207.23152254288
 30
0.0
 11
50.21151110525474
 21
206.89753769288
 31
0.0
  0
LINE
  5
900C
  8
0
 10
52.21392110525474
 20
206.89753769288
 30
0.0
 11
52.88151840525474
 21
206.89753769288
 31
0.0
  0
LINE
  5
900D
  8
0
 10
52.88151840525474
 20
206.89753769288
 30
0.0
 11
52.88151840525474
 21
207.23152254288
 31
0.0
  0
LINE
  5
900E
  8
0
 10
52.88151840525474
 20
207.23152254288
 30
0.0
 11
52.21392110525474
 21
207.23152254288
 31
0.0
  0
LINE
  5
900F
  8
0
 10
52.21392110525474
 20
207.23152254288
 30
0.0
 11
52.21392110525474
 21
206.89753769288
 31
0.0
  0
LINE
  5
9010
  8
0
 10
53.21550610525475
 20
206.89753769288
 30
0.0
 11
53.54986240525474
 21
206.89753769288
 31
0.0
  0
LINE
  5
9011
  8
0
 10
53.54986240525474
 20
206.89753769288
 30
0.0
 11
53.54986240525474
 21
207.23152254288
 31
0.0
  0
LINE
  5
9012
  8
0
 10
53.54986240525474
 20
207.23152254288
 30
0.0
 11
53.21550610525475
 21
207.23152254288
 31
0.0
  0
LINE
  5
9013
  8
0
 10
53.21550610525475
 20
207.23152254288
 30
0.0
 11
53.21550610525475
 21
206.89753769288
 31
0.0
  0
LINE
  5
9014
  8
0
 10
43.20193610525473
 20
206.56427769288
 30
0.0
 11
43.53629240525473
 21
206.56427769288
 31
0.0
  0
LINE
  5
9015
  8
0
 10
43.53629240525473
 20
206.56427769288
 30
0.0
 11
43.53629240525473
 21
206.89826159288
 31
0.0
  0
LINE
  5
9016
  8
0
 10
43.53629240525473
 20
206.89826159288
 30
0.0
 11
43.20193610525473
 21
206.89826159288
 31
0.0
  0
LINE
  5
9017
  8
0
 10
43.20193610525473
 20
206.89826159288
 30
0.0
 11
43.20193610525473
 21
206.56427769288
 31
0.0
  0
LINE
  5
9018
  8
0
 10
43.86950110525476
 20
206.56427769288
 30
0.0
 11
44.20348500525475
 21
206.56427769288
 31
0.0
  0
LINE
  5
9019
  8
0
 10
44.20348500525475
 20
206.56427769288
 30
0.0
 11
44.20348500525475
 21
206.89826159288
 31
0.0
  0
LINE
  5
901A
  8
0
 10
44.20348500525475
 20
206.89826159288
 30
0.0
 11
43.86950110525476
 21
206.89826159288
 31
0.0
  0
LINE
  5
901B
  8
0
 10
43.86950110525476
 20
206.89826159288
 30
0.0
 11
43.86950110525476
 21
206.56427769288
 31
0.0
  0
LINE
  5
901C
  8
0
 10
44.53744610525473
 20
206.56427769288
 30
0.0
 11
46.54023610525473
 21
206.56427769288
 31
0.0
  0
LINE
  5
901D
  8
0
 10
46.54023610525473
 20
206.56427769288
 30
0.0
 11
46.54023610525473
 21
206.89826159288
 31
0.0
  0
LINE
  5
901E
  8
0
 10
46.54023610525473
 20
206.89826159288
 30
0.0
 11
44.53744610525473
 21
206.89826159288
 31
0.0
  0
LINE
  5
901F
  8
0
 10
44.53744610525473
 20
206.89826159288
 30
0.0
 11
44.53744610525473
 21
206.56427769288
 31
0.0
  0
LINE
  5
9020
  8
0
 10
46.87349610525473
 20
206.56427769288
 30
0.0
 11
47.20748095525474
 21
206.56427769288
 31
0.0
  0
LINE
  5
9021
  8
0
 10
47.20748095525474
 20
206.56427769288
 30
0.0
 11
47.20748095525474
 21
206.89826159288
 31
0.0
  0
LINE
  5
9022
  8
0
 10
47.20748095525474
 20
206.89826159288
 30
0.0
 11
46.87349610525473
 21
206.89826159288
 31
0.0
  0
LINE
  5
9023
  8
0
 10
46.87349610525473
 20
206.89826159288
 30
0.0
 11
46.87349610525473
 21
206.56427769288
 31
0.0
  0
LINE
  5
9024
  8
0
 10
47.54153610525474
 20
206.56427769288
 30
0.0
 11
48.20913435525473
 21
206.56427769288
 31
0.0
  0
LINE
  5
9025
  8
0
 10
48.20913435525473
 20
206.56427769288
 30
0.0
 11
48.20913435525473
 21
206.89826159288
 31
0.0
  0
LINE
  5
9026
  8
0
 10
48.20913435525473
 20
206.89826159288
 30
0.0
 11
47.54153610525474
 21
206.89826159288
 31
0.0
  0
LINE
  5
9027
  8
0
 10
47.54153610525474
 20
206.89826159288
 30
0.0
 11
47.54153610525474
 21
206.56427769288
 31
0.0
  0
LINE
  5
9028
  8
0
 10
48.87666610525474
 20
206.56427769288
 30
0.0
 11
49.21065000525473
 21
206.56427769288
 31
0.0
  0
LINE
  5
9029
  8
0
 10
49.21065000525473
 20
206.56427769288
 30
0.0
 11
49.21065000525473
 21
206.89826159288
 31
0.0
  0
LINE
  5
902A
  8
0
 10
49.21065000525473
 20
206.89826159288
 30
0.0
 11
48.87666610525474
 21
206.89826159288
 31
0.0
  0
LINE
  5
902B
  8
0
 10
48.87666610525474
 20
206.89826159288
 30
0.0
 11
48.87666610525474
 21
206.56427769288
 31
0.0
  0
LINE
  5
902C
  8
0
 10
50.21151110525474
 20
206.56427769288
 30
0.0
 11
50.54586645525474
 21
206.56427769288
 31
0.0
  0
LINE
  5
902D
  8
0
 10
50.54586645525474
 20
206.56427769288
 30
0.0
 11
50.54586645525474
 21
206.89826159288
 31
0.0
  0
LINE
  5
902E
  8
0
 10
50.54586645525474
 20
206.89826159288
 30
0.0
 11
50.21151110525474
 21
206.89826159288
 31
0.0
  0
LINE
  5
902F
  8
0
 10
50.21151110525474
 20
206.89826159288
 30
0.0
 11
50.21151110525474
 21
206.56427769288
 31
0.0
  0
LINE
  5
9030
  8
0
 10
51.54673610525474
 20
206.56427769288
 30
0.0
 11
51.88072000525474
 21
206.56427769288
 31
0.0
  0
LINE
  5
9031
  8
0
 10
51.88072000525474
 20
206.56427769288
 30
0.0
 11
51.88072000525474
 21
206.89826159288
 31
0.0
  0
LINE
  5
9032
  8
0
 10
51.88072000525474
 20
206.89826159288
 30
0.0
 11
51.54673610525474
 21
206.89826159288
 31
0.0
  0
LINE
  5
9033
  8
0
 10
51.54673610525474
 20
206.89826159288
 30
0.0
 11
51.54673610525474
 21
206.56427769288
 31
0.0
  0
LINE
  5
9034
  8
0
 10
52.21392110525474
 20
206.56427769288
 30
0.0
 11
52.88151840525474
 21
206.56427769288
 31
0.0
  0
LINE
  5
9035
  8
0
 10
52.88151840525474
 20
206.56427769288
 30
0.0
 11
52.88151840525474
 21
206.89826159288
 31
0.0
  0
LINE
  5
9036
  8
0
 10
52.88151840525474
 20
206.89826159288
 30
0.0
 11
52.21392110525474
 21
206.89826159288
 31
0.0
  0
LINE
  5
9037
  8
0
 10
52.21392110525474
 20
206.89826159288
 30
0.0
 11
52.21392110525474
 21
206.56427769288
 31
0.0
  0
LINE
  5
9038
  8
0
 10
53.21550610525475
 20
206.56427769288
 30
0.0
 11
53.54986240525474
 21
206.56427769288
 31
0.0
  0
LINE
  5
9039
  8
0
 10
53.54986240525474
 20
206.56427769288
 30
0.0
 11
53.54986240525474
 21
206.89826159288
 31
0.0
  0
LINE
  5
903A
  8
0
 10
53.54986240525474
 20
206.89826159288
 30
0.0
 11
53.21550610525475
 21
206.89826159288
 31
0.0
  0
LINE
  5
903B
  8
0
 10
53.21550610525475
 20
206.89826159288
 30
0.0
 11
53.21550610525475
 21
206.56427769288
 31
0.0
  0
LINE
  5
903C
  8
0
 10
42.86867610525474
 20
206.23035269288
 30
0.0
 11
43.20266095525474
 21
206.23035269288
 31
0.0
  0
LINE
  5
903D
  8
0
 10
43.20266095525474
 20
206.23035269288
 30
0.0
 11
43.20266095525474
 21
206.56433754288
 31
0.0
  0
LINE
  5
903E
  8
0
 10
43.20266095525474
 20
206.56433754288
 30
0.0
 11
42.86867610525474
 21
206.56433754288
 31
0.0
  0
LINE
  5
903F
  8
0
 10
42.86867610525474
 20
206.56433754288
 30
0.0
 11
42.86867610525474
 21
206.23035269288
 31
0.0
  0
LINE
  5
9040
  8
0
 10
43.53586110525475
 20
206.23035269288
 30
0.0
 11
44.53744610525473
 21
206.23035269288
 31
0.0
  0
LINE
  5
9041
  8
0
 10
44.53744610525473
 20
206.23035269288
 30
0.0
 11
44.53744610525473
 21
206.56433754288
 31
0.0
  0
LINE
  5
9042
  8
0
 10
44.53744610525473
 20
206.56433754288
 30
0.0
 11
43.53586110525475
 21
206.56433754288
 31
0.0
  0
LINE
  5
9043
  8
0
 10
43.53586110525475
 20
206.56433754288
 30
0.0
 11
43.53586110525475
 21
206.23035269288
 31
0.0
  0
LINE
  5
9044
  8
0
 10
44.87108610525473
 20
206.23035269288
 30
0.0
 11
45.53868340525474
 21
206.23035269288
 31
0.0
  0
LINE
  5
9045
  8
0
 10
45.53868340525474
 20
206.23035269288
 30
0.0
 11
45.53868340525474
 21
206.56433754288
 31
0.0
  0
LINE
  5
9046
  8
0
 10
45.53868340525474
 20
206.56433754288
 30
0.0
 11
44.87108610525473
 21
206.56433754288
 31
0.0
  0
LINE
  5
9047
  8
0
 10
44.87108610525473
 20
206.56433754288
 30
0.0
 11
44.87108610525473
 21
206.23035269288
 31
0.0
  0
LINE
  5
9048
  8
0
 10
45.87267110525474
 20
206.23035269288
 30
0.0
 11
46.20665500525473
 21
206.23035269288
 31
0.0
  0
LINE
  5
9049
  8
0
 10
46.20665500525473
 20
206.23035269288
 30
0.0
 11
46.20665500525473
 21
206.56433754288
 31
0.0
  0
LINE
  5
904A
  8
0
 10
46.20665500525473
 20
206.56433754288
 30
0.0
 11
45.87267110525474
 21
206.56433754288
 31
0.0
  0
LINE
  5
904B
  8
0
 10
45.87267110525474
 20
206.56433754288
 30
0.0
 11
45.87267110525474
 21
206.23035269288
 31
0.0
  0
LINE
  5
904C
  8
0
 10
47.54153610525474
 20
206.23035269288
 30
0.0
 11
49.87831760525475
 21
206.23035269288
 31
0.0
  0
LINE
  5
904D
  8
0
 10
49.87831760525475
 20
206.23035269288
 30
0.0
 11
49.87831760525475
 21
206.56433754288
 31
0.0
  0
LINE
  5
904E
  8
0
 10
49.87831760525475
 20
206.56433754288
 30
0.0
 11
47.54153610525474
 21
206.56433754288
 31
0.0
  0
LINE
  5
904F
  8
0
 10
47.54153610525474
 20
206.56433754288
 30
0.0
 11
47.54153610525474
 21
206.23035269288
 31
0.0
  0
LINE
  5
9050
  8
0
 10
50.21151110525474
 20
206.23035269288
 30
0.0
 11
50.54586645525474
 21
206.23035269288
 31
0.0
  0
LINE
  5
9051
  8
0
 10
50.54586645525474
 20
206.23035269288
 30
0.0
 11
50.54586645525474
 21
206.56433754288
 31
0.0
  0
LINE
  5
9052
  8
0
 10
50.54586645525474
 20
206.56433754288
 30
0.0
 11
50.21151110525474
 21
206.56433754288
 31
0.0
  0
LINE
  5
9053
  8
0
 10
50.21151110525474
 20
206.56433754288
 30
0.0
 11
50.21151110525474
 21
206.23035269288
 31
0.0
  0
LINE
  5
9054
  8
0
 10
50.87907610525474
 20
206.23035269288
 30
0.0
 11
51.21306095525475
 21
206.23035269288
 31
0.0
  0
LINE
  5
9055
  8
0
 10
51.21306095525475
 20
206.23035269288
 30
0.0
 11
51.21306095525475
 21
206.56433754288
 31
0.0
  0
LINE
  5
9056
  8
0
 10
51.21306095525475
 20
206.56433754288
 30
0.0
 11
50.87907610525474
 21
206.56433754288
 31
0.0
  0
LINE
  5
9057
  8
0
 10
50.87907610525474
 20
206.56433754288
 30
0.0
 11
50.87907610525474
 21
206.23035269288
 31
0.0
  0
LINE
  5
9058
  8
0
 10
51.88066110525473
 20
206.23035269288
 30
0.0
 11
52.88224610525474
 21
206.23035269288
 31
0.0
  0
LINE
  5
9059
  8
0
 10
52.88224610525474
 20
206.23035269288
 30
0.0
 11
52.88224610525474
 21
206.56433754288
 31
0.0
  0
LINE
  5
905A
  8
0
 10
52.88224610525474
 20
206.56433754288
 30
0.0
 11
51.88066110525473
 21
206.56433754288
 31
0.0
  0
LINE
  5
905B
  8
0
 10
51.88066110525473
 20
206.56433754288
 30
0.0
 11
51.88066110525473
 21
206.23035269288
 31
0.0
  0
LINE
  5
905C
  8
0
 10
53.21550610525475
 20
206.23035269288
 30
0.0
 11
53.54986240525474
 21
206.23035269288
 31
0.0
  0
LINE
  5
905D
  8
0
 10
53.54986240525474
 20
206.23035269288
 30
0.0
 11
53.54986240525474
 21
206.56433754288
 31
0.0
  0
LINE
  5
905E
  8
0
 10
53.54986240525474
 20
206.56433754288
 30
0.0
 11
53.21550610525475
 21
206.56433754288
 31
0.0
  0
LINE
  5
905F
  8
0
 10
53.21550610525475
 20
206.56433754288
 30
0.0
 11
53.21550610525475
 21
206.23035269288
 31
0.0
  0
LINE
  5
9060
  8
0
 10
42.53437110525473
 20
205.89595269288
 30
0.0
 11
43.86956760525476
 21
205.89595269288
 31
0.0
  0
LINE
  5
9061
  8
0
 10
43.86956760525476
 20
205.89595269288
 30
0.0
 11
43.86956760525476
 21
206.23030804288
 31
0.0
  0
LINE
  5
9062
  8
0
 10
43.86956760525476
 20
206.23030804288
 30
0.0
 11
42.53437110525473
 21
206.23030804288
 31
0.0
  0
LINE
  5
9063
  8
0
 10
42.53437110525473
 20
206.23030804288
 30
0.0
 11
42.53437110525473
 21
205.89595269288
 31
0.0
  0
LINE
  5
9064
  8
0
 10
44.53744610525473
 20
205.89595269288
 30
0.0
 11
44.87143000525472
 21
205.89595269288
 31
0.0
  0
LINE
  5
9065
  8
0
 10
44.87143000525472
 20
205.89595269288
 30
0.0
 11
44.87143000525472
 21
206.23030804288
 31
0.0
  0
LINE
  5
9066
  8
0
 10
44.87143000525472
 20
206.23030804288
 30
0.0
 11
44.53744610525473
 21
206.23030804288
 31
0.0
  0
LINE
  5
9067
  8
0
 10
44.53744610525473
 20
206.23030804288
 30
0.0
 11
44.53744610525473
 21
205.89595269288
 31
0.0
  0
LINE
  5
9068
  8
0
 10
45.20510610525474
 20
205.89595269288
 30
0.0
 11
45.53909095525475
 21
205.89595269288
 31
0.0
  0
LINE
  5
9069
  8
0
 10
45.53909095525475
 20
205.89595269288
 30
0.0
 11
45.53909095525475
 21
206.23030804288
 31
0.0
  0
LINE
  5
906A
  8
0
 10
45.53909095525475
 20
206.23030804288
 30
0.0
 11
45.20510610525474
 21
206.23030804288
 31
0.0
  0
LINE
  5
906B
  8
0
 10
45.20510610525474
 20
206.23030804288
 30
0.0
 11
45.20510610525474
 21
205.89595269288
 31
0.0
  0
LINE
  5
906C
  8
0
 10
45.87267110525474
 20
205.89595269288
 30
0.0
 11
46.20665500525473
 21
205.89595269288
 31
0.0
  0
LINE
  5
906D
  8
0
 10
46.20665500525473
 20
205.89595269288
 30
0.0
 11
46.20665500525473
 21
206.23030804288
 31
0.0
  0
LINE
  5
906E
  8
0
 10
46.20665500525473
 20
206.23030804288
 30
0.0
 11
45.87267110525474
 21
206.23030804288
 31
0.0
  0
LINE
  5
906F
  8
0
 10
45.87267110525474
 20
206.23030804288
 30
0.0
 11
45.87267110525474
 21
205.89595269288
 31
0.0
  0
LINE
  5
9070
  8
0
 10
46.54033110525475
 20
205.89595269288
 30
0.0
 11
47.54154560525474
 21
205.89595269288
 31
0.0
  0
LINE
  5
9071
  8
0
 10
47.54154560525474
 20
205.89595269288
 30
0.0
 11
47.54154560525474
 21
206.23030804288
 31
0.0
  0
LINE
  5
9072
  8
0
 10
47.54154560525474
 20
206.23030804288
 30
0.0
 11
46.54033110525475
 21
206.23030804288
 31
0.0
  0
LINE
  5
9073
  8
0
 10
46.54033110525475
 20
206.23030804288
 30
0.0
 11
46.54033110525475
 21
205.89595269288
 31
0.0
  0
LINE
  5
9074
  8
0
 10
47.87508110525474
 20
205.89595269288
 30
0.0
 11
48.20906595525474
 21
205.89595269288
 31
0.0
  0
LINE
  5
9075
  8
0
 10
48.20906595525474
 20
205.89595269288
 30
0.0
 11
48.20906595525474
 21
206.23030804288
 31
0.0
  0
LINE
  5
9076
  8
0
 10
48.20906595525474
 20
206.23030804288
 30
0.0
 11
47.87508110525474
 21
206.23030804288
 31
0.0
  0
LINE
  5
9077
  8
0
 10
47.87508110525474
 20
206.23030804288
 30
0.0
 11
47.87508110525474
 21
205.89595269288
 31
0.0
  0
LINE
  5
9078
  8
0
 10
49.20992610525475
 20
205.89595269288
 30
0.0
 11
50.21151110525474
 21
205.89595269288
 31
0.0
  0
LINE
  5
9079
  8
0
 10
50.21151110525474
 20
205.89595269288
 30
0.0
 11
50.21151110525474
 21
206.23030804288
 31
0.0
  0
LINE
  5
907A
  8
0
 10
50.21151110525474
 20
206.23030804288
 30
0.0
 11
49.20992610525475
 21
206.23030804288
 31
0.0
  0
LINE
  5
907B
  8
0
 10
49.20992610525475
 20
206.23030804288
 30
0.0
 11
49.20992610525475
 21
205.89595269288
 31
0.0
  0
LINE
  5
907C
  8
0
 10
50.87907610525474
 20
205.89595269288
 30
0.0
 11
51.21306095525475
 21
205.89595269288
 31
0.0
  0
LINE
  5
907D
  8
0
 10
51.21306095525475
 20
205.89595269288
 30
0.0
 11
51.21306095525475
 21
206.23030804288
 31
0.0
  0
LINE
  5
907E
  8
0
 10
51.21306095525475
 20
206.23030804288
 30
0.0
 11
50.87907610525474
 21
206.23030804288
 31
0.0
  0
LINE
  5
907F
  8
0
 10
50.87907610525474
 20
206.23030804288
 30
0.0
 11
50.87907610525474
 21
205.89595269288
 31
0.0
  0
LINE
  5
9080
  8
0
 10
51.88066110525473
 20
205.89595269288
 30
0.0
 11
52.54788790525475
 21
205.89595269288
 31
0.0
  0
LINE
  5
9081
  8
0
 10
52.54788790525475
 20
205.89595269288
 30
0.0
 11
52.54788790525475
 21
206.23030804288
 31
0.0
  0
LINE
  5
9082
  8
0
 10
52.54788790525475
 20
206.23030804288
 30
0.0
 11
51.88066110525473
 21
206.23030804288
 31
0.0
  0
LINE
  5
9083
  8
0
 10
51.88066110525473
 20
206.23030804288
 30
0.0
 11
51.88066110525473
 21
205.89595269288
 31
0.0
  0
LINE
  5
9084
  8
0
 10
42.53437110525473
 20
205.56269269288
 30
0.0
 11
43.20196840525472
 21
205.56269269288
 31
0.0
  0
LINE
  5
9085
  8
0
 10
43.20196840525472
 20
205.56269269288
 30
0.0
 11
43.20196840525472
 21
205.89667754288
 31
0.0
  0
LINE
  5
9086
  8
0
 10
43.20196840525472
 20
205.89667754288
 30
0.0
 11
42.53437110525473
 21
205.89667754288
 31
0.0
  0
LINE
  5
9087
  8
0
 10
42.53437110525473
 20
205.89667754288
 30
0.0
 11
42.53437110525473
 21
205.56269269288
 31
0.0
  0
LINE
  5
9088
  8
0
 10
43.53586110525475
 20
205.56269269288
 30
0.0
 11
43.86984500525475
 21
205.56269269288
 31
0.0
  0
LINE
  5
9089
  8
0
 10
43.86984500525475
 20
205.56269269288
 30
0.0
 11
43.86984500525475
 21
205.89667754288
 31
0.0
  0
LINE
  5
908A
  8
0
 10
43.86984500525475
 20
205.89667754288
 30
0.0
 11
43.53586110525475
 21
205.89667754288
 31
0.0
  0
LINE
  5
908B
  8
0
 10
43.53586110525475
 20
205.89667754288
 30
0.0
 11
43.53586110525475
 21
205.56269269288
 31
0.0
  0
LINE
  5
908C
  8
0
 10
44.20352110525474
 20
205.56269269288
 30
0.0
 11
44.53750595525474
 21
205.56269269288
 31
0.0
  0
LINE
  5
908D
  8
0
 10
44.53750595525474
 20
205.56269269288
 30
0.0
 11
44.53750595525474
 21
205.89667754288
 31
0.0
  0
LINE
  5
908E
  8
0
 10
44.53750595525474
 20
205.89667754288
 30
0.0
 11
44.20352110525474
 21
205.89667754288
 31
0.0
  0
LINE
  5
908F
  8
0
 10
44.20352110525474
 20
205.89667754288
 30
0.0
 11
44.20352110525474
 21
205.56269269288
 31
0.0
  0
LINE
  5
9090
  8
0
 10
45.20510610525474
 20
205.56269269288
 30
0.0
 11
45.53909095525475
 21
205.56269269288
 31
0.0
  0
LINE
  5
9091
  8
0
 10
45.53909095525475
 20
205.56269269288
 30
0.0
 11
45.53909095525475
 21
205.89667754288
 31
0.0
  0
LINE
  5
9092
  8
0
 10
45.53909095525475
 20
205.89667754288
 30
0.0
 11
45.20510610525474
 21
205.89667754288
 31
0.0
  0
LINE
  5
9093
  8
0
 10
45.20510610525474
 20
205.89667754288
 30
0.0
 11
45.20510610525474
 21
205.56269269288
 31
0.0
  0
LINE
  5
9094
  8
0
 10
45.87267110525474
 20
205.56269269288
 30
0.0
 11
46.87388560525474
 21
205.56269269288
 31
0.0
  0
LINE
  5
9095
  8
0
 10
46.87388560525474
 20
205.56269269288
 30
0.0
 11
46.87388560525474
 21
205.89667754288
 31
0.0
  0
LINE
  5
9096
  8
0
 10
46.87388560525474
 20
205.89667754288
 30
0.0
 11
45.87267110525474
 21
205.89667754288
 31
0.0
  0
LINE
  5
9097
  8
0
 10
45.87267110525474
 20
205.89667754288
 30
0.0
 11
45.87267110525474
 21
205.56269269288
 31
0.0
  0
LINE
  5
9098
  8
0
 10
47.20751610525475
 20
205.56269269288
 30
0.0
 11
47.54150000525475
 21
205.56269269288
 31
0.0
  0
LINE
  5
9099
  8
0
 10
47.54150000525475
 20
205.56269269288
 30
0.0
 11
47.54150000525475
 21
205.89667754288
 31
0.0
  0
LINE
  5
909A
  8
0
 10
47.54150000525475
 20
205.89667754288
 30
0.0
 11
47.20751610525475
 21
205.89667754288
 31
0.0
  0
LINE
  5
909B
  8
0
 10
47.20751610525475
 20
205.89667754288
 30
0.0
 11
47.20751610525475
 21
205.56269269288
 31
0.0
  0
LINE
  5
909C
  8
0
 10
47.87508110525474
 20
205.56269269288
 30
0.0
 11
48.87666610525474
 21
205.56269269288
 31
0.0
  0
LINE
  5
909D
  8
0
 10
48.87666610525474
 20
205.56269269288
 30
0.0
 11
48.87666610525474
 21
205.89667754288
 31
0.0
  0
LINE
  5
909E
  8
0
 10
48.87666610525474
 20
205.89667754288
 30
0.0
 11
47.87508110525474
 21
205.89667754288
 31
0.0
  0
LINE
  5
909F
  8
0
 10
47.87508110525474
 20
205.89667754288
 30
0.0
 11
47.87508110525474
 21
205.56269269288
 31
0.0
  0
LINE
  5
90A0
  8
0
 10
49.20992610525475
 20
205.56269269288
 30
0.0
 11
49.54428145525475
 21
205.56269269288
 31
0.0
  0
LINE
  5
90A1
  8
0
 10
49.54428145525475
 20
205.56269269288
 30
0.0
 11
49.54428145525475
 21
205.89667754288
 31
0.0
  0
LINE
  5
90A2
  8
0
 10
49.54428145525475
 20
205.89667754288
 30
0.0
 11
49.20992610525475
 21
205.89667754288
 31
0.0
  0
LINE
  5
90A3
  8
0
 10
49.20992610525475
 20
205.89667754288
 30
0.0
 11
49.20992610525475
 21
205.56269269288
 31
0.0
  0
LINE
  5
90A4
  8
0
 10
49.87749110525473
 20
205.56269269288
 30
0.0
 11
50.54508840525475
 21
205.56269269288
 31
0.0
  0
LINE
  5
90A5
  8
0
 10
50.54508840525475
 20
205.56269269288
 30
0.0
 11
50.54508840525475
 21
205.89667754288
 31
0.0
  0
LINE
  5
90A6
  8
0
 10
50.54508840525475
 20
205.89667754288
 30
0.0
 11
49.87749110525473
 21
205.89667754288
 31
0.0
  0
LINE
  5
90A7
  8
0
 10
49.87749110525473
 20
205.89667754288
 30
0.0
 11
49.87749110525473
 21
205.56269269288
 31
0.0
  0
LINE
  5
90A8
  8
0
 10
51.54673610525474
 20
205.56269269288
 30
0.0
 11
52.88156210525473
 21
205.56269269288
 31
0.0
  0
LINE
  5
90A9
  8
0
 10
52.88156210525473
 20
205.56269269288
 30
0.0
 11
52.88156210525473
 21
205.89667754288
 31
0.0
  0
LINE
  5
90AA
  8
0
 10
52.88156210525473
 20
205.89667754288
 30
0.0
 11
51.54673610525474
 21
205.89667754288
 31
0.0
  0
LINE
  5
90AB
  8
0
 10
51.54673610525474
 20
205.89667754288
 30
0.0
 11
51.54673610525474
 21
205.56269269288
 31
0.0
  0
LINE
  5
90AC
  8
0
 10
42.53437110525473
 20
205.22876769288
 30
0.0
 11
42.86872645525474
 21
205.22876769288
 31
0.0
  0
LINE
  5
90AD
  8
0
 10
42.86872645525474
 20
205.22876769288
 30
0.0
 11
42.86872645525474
 21
205.56275159288
 31
0.0
  0
LINE
  5
90AE
  8
0
 10
42.86872645525474
 20
205.56275159288
 30
0.0
 11
42.53437110525473
 21
205.56275159288
 31
0.0
  0
LINE
  5
90AF
  8
0
 10
42.53437110525473
 20
205.56275159288
 30
0.0
 11
42.53437110525473
 21
205.22876769288
 31
0.0
  0
LINE
  5
90B0
  8
0
 10
43.20193610525473
 20
205.22876769288
 30
0.0
 11
43.53629240525473
 21
205.22876769288
 31
0.0
  0
LINE
  5
90B1
  8
0
 10
43.53629240525473
 20
205.22876769288
 30
0.0
 11
43.53629240525473
 21
205.56275159288
 31
0.0
  0
LINE
  5
90B2
  8
0
 10
43.53629240525473
 20
205.56275159288
 30
0.0
 11
43.20193610525473
 21
205.56275159288
 31
0.0
  0
LINE
  5
90B3
  8
0
 10
43.20193610525473
 20
205.56275159288
 30
0.0
 11
43.20193610525473
 21
205.22876769288
 31
0.0
  0
LINE
  5
90B4
  8
0
 10
43.86950110525476
 20
205.22876769288
 30
0.0
 11
44.87108610525473
 21
205.22876769288
 31
0.0
  0
LINE
  5
90B5
  8
0
 10
44.87108610525473
 20
205.22876769288
 30
0.0
 11
44.87108610525473
 21
205.56275159288
 31
0.0
  0
LINE
  5
90B6
  8
0
 10
44.87108610525473
 20
205.56275159288
 30
0.0
 11
43.86950110525476
 21
205.56275159288
 31
0.0
  0
LINE
  5
90B7
  8
0
 10
43.86950110525476
 20
205.56275159288
 30
0.0
 11
43.86950110525476
 21
205.22876769288
 31
0.0
  0
LINE
  5
90B8
  8
0
 10
45.53874610525475
 20
205.22876769288
 30
0.0
 11
45.87273095525472
 21
205.22876769288
 31
0.0
  0
LINE
  5
90B9
  8
0
 10
45.87273095525472
 20
205.22876769288
 30
0.0
 11
45.87273095525472
 21
205.56275159288
 31
0.0
  0
LINE
  5
90BA
  8
0
 10
45.87273095525472
 20
205.56275159288
 30
0.0
 11
45.53874610525475
 21
205.56275159288
 31
0.0
  0
LINE
  5
90BB
  8
0
 10
45.53874610525475
 20
205.56275159288
 30
0.0
 11
45.53874610525475
 21
205.22876769288
 31
0.0
  0
LINE
  5
90BC
  8
0
 10
46.20593110525473
 20
205.22876769288
 30
0.0
 11
46.53991500525474
 21
205.22876769288
 31
0.0
  0
LINE
  5
90BD
  8
0
 10
46.53991500525474
 20
205.22876769288
 30
0.0
 11
46.53991500525474
 21
205.56275159288
 31
0.0
  0
LINE
  5
90BE
  8
0
 10
46.53991500525474
 20
205.56275159288
 30
0.0
 11
46.20593110525473
 21
205.56275159288
 31
0.0
  0
LINE
  5
90BF
  8
0
 10
46.20593110525473
 20
205.56275159288
 30
0.0
 11
46.20593110525473
 21
205.22876769288
 31
0.0
  0
LINE
  5
90C0
  8
0
 10
47.54153610525474
 20
205.22876769288
 30
0.0
 11
48.54312110525474
 21
205.22876769288
 31
0.0
  0
LINE
  5
90C1
  8
0
 10
48.54312110525474
 20
205.22876769288
 30
0.0
 11
48.54312110525474
 21
205.56275159288
 31
0.0
  0
LINE
  5
90C2
  8
0
 10
48.54312110525474
 20
205.56275159288
 30
0.0
 11
47.54153610525474
 21
205.56275159288
 31
0.0
  0
LINE
  5
90C3
  8
0
 10
47.54153610525474
 20
205.56275159288
 30
0.0
 11
47.54153610525474
 21
205.22876769288
 31
0.0
  0
LINE
  5
90C4
  8
0
 10
49.20992610525475
 20
205.22876769288
 30
0.0
 11
49.87752435525474
 21
205.22876769288
 31
0.0
  0
LINE
  5
90C5
  8
0
 10
49.87752435525474
 20
205.22876769288
 30
0.0
 11
49.87752435525474
 21
205.56275159288
 31
0.0
  0
LINE
  5
90C6
  8
0
 10
49.87752435525474
 20
205.56275159288
 30
0.0
 11
49.20992610525475
 21
205.56275159288
 31
0.0
  0
LINE
  5
90C7
  8
0
 10
49.20992610525475
 20
205.56275159288
 30
0.0
 11
49.20992610525475
 21
205.22876769288
 31
0.0
  0
LINE
  5
90C8
  8
0
 10
50.54591110525473
 20
205.22876769288
 30
0.0
 11
51.21313790525474
 21
205.22876769288
 31
0.0
  0
LINE
  5
90C9
  8
0
 10
51.21313790525474
 20
205.22876769288
 30
0.0
 11
51.21313790525474
 21
205.56275159288
 31
0.0
  0
LINE
  5
90CA
  8
0
 10
51.21313790525474
 20
205.56275159288
 30
0.0
 11
50.54591110525473
 21
205.56275159288
 31
0.0
  0
LINE
  5
90CB
  8
0
 10
50.54591110525473
 20
205.56275159288
 30
0.0
 11
50.54591110525473
 21
205.22876769288
 31
0.0
  0
LINE
  5
90CC
  8
0
 10
51.54673610525474
 20
205.22876769288
 30
0.0
 11
51.88072000525474
 21
205.22876769288
 31
0.0
  0
LINE
  5
90CD
  8
0
 10
51.88072000525474
 20
205.22876769288
 30
0.0
 11
51.88072000525474
 21
205.56275159288
 31
0.0
  0
LINE
  5
90CE
  8
0
 10
51.88072000525474
 20
205.56275159288
 30
0.0
 11
51.54673610525474
 21
205.56275159288
 31
0.0
  0
LINE
  5
90CF
  8
0
 10
51.54673610525474
 20
205.56275159288
 30
0.0
 11
51.54673610525474
 21
205.22876769288
 31
0.0
  0
LINE
  5
90D0
  8
0
 10
52.21392110525474
 20
205.22876769288
 30
0.0
 11
53.21550610525475
 21
205.22876769288
 31
0.0
  0
LINE
  5
90D1
  8
0
 10
53.21550610525475
 20
205.22876769288
 30
0.0
 11
53.21550610525475
 21
205.56275159288
 31
0.0
  0
LINE
  5
90D2
  8
0
 10
53.21550610525475
 20
205.56275159288
 30
0.0
 11
52.21392110525474
 21
205.56275159288
 31
0.0
  0
LINE
  5
90D3
  8
0
 10
52.21392110525474
 20
205.56275159288
 30
0.0
 11
52.21392110525474
 21
205.22876769288
 31
0.0
  0
LINE
  5
90D4
  8
0
 10
42.53437110525473
 20
204.89512769288
 30
0.0
 11
42.86872645525474
 21
204.89512769288
 31
0.0
  0
LINE
  5
90D5
  8
0
 10
42.86872645525474
 20
204.89512769288
 30
0.0
 11
42.86872645525474
 21
205.22911159288
 31
0.0
  0
LINE
  5
90D6
  8
0
 10
42.86872645525474
 20
205.22911159288
 30
0.0
 11
42.53437110525473
 21
205.22911159288
 31
0.0
  0
LINE
  5
90D7
  8
0
 10
42.53437110525473
 20
205.22911159288
 30
0.0
 11
42.53437110525473
 21
204.89512769288
 31
0.0
  0
LINE
  5
90D8
  8
0
 10
43.86950110525476
 20
204.89512769288
 30
0.0
 11
44.53709840525474
 21
204.89512769288
 31
0.0
  0
LINE
  5
90D9
  8
0
 10
44.53709840525474
 20
204.89512769288
 30
0.0
 11
44.53709840525474
 21
205.22911159288
 31
0.0
  0
LINE
  5
90DA
  8
0
 10
44.53709840525474
 20
205.22911159288
 30
0.0
 11
43.86950110525476
 21
205.22911159288
 31
0.0
  0
LINE
  5
90DB
  8
0
 10
43.86950110525476
 20
205.22911159288
 30
0.0
 11
43.86950110525476
 21
204.89512769288
 31
0.0
  0
LINE
  5
90DC
  8
0
 10
44.87108610525473
 20
204.89512769288
 30
0.0
 11
46.87350560525475
 21
204.89512769288
 31
0.0
  0
LINE
  5
90DD
  8
0
 10
46.87350560525475
 20
204.89512769288
 30
0.0
 11
46.87350560525475
 21
205.22911159288
 31
0.0
  0
LINE
  5
90DE
  8
0
 10
46.87350560525475
 20
205.22911159288
 30
0.0
 11
44.87108610525473
 21
205.22911159288
 31
0.0
  0
LINE
  5
90DF
  8
0
 10
44.87108610525473
 20
205.22911159288
 30
0.0
 11
44.87108610525473
 21
204.89512769288
 31
0.0
  0
LINE
  5
90E0
  8
0
 10
48.54274110525473
 20
204.89512769288
 30
0.0
 11
48.87672595525474
 21
204.89512769288
 31
0.0
  0
LINE
  5
90E1
  8
0
 10
48.87672595525474
 20
204.89512769288
 30
0.0
 11
48.87672595525474
 21
205.22911159288
 31
0.0
  0
LINE
  5
90E2
  8
0
 10
48.87672595525474
 20
205.22911159288
 30
0.0
 11
48.54274110525473
 21
205.22911159288
 31
0.0
  0
LINE
  5
90E3
  8
0
 10
48.54274110525473
 20
205.22911159288
 30
0.0
 11
48.54274110525473
 21
204.89512769288
 31
0.0
  0
LINE
  5
90E4
  8
0
 10
49.87749110525473
 20
204.89512769288
 30
0.0
 11
50.54508840525475
 21
204.89512769288
 31
0.0
  0
LINE
  5
90E5
  8
0
 10
50.54508840525475
 20
204.89512769288
 30
0.0
 11
50.54508840525475
 21
205.22911159288
 31
0.0
  0
LINE
  5
90E6
  8
0
 10
50.54508840525475
 20
205.22911159288
 30
0.0
 11
49.87749110525473
 21
205.22911159288
 31
0.0
  0
LINE
  5
90E7
  8
0
 10
49.87749110525473
 20
205.22911159288
 30
0.0
 11
49.87749110525473
 21
204.89512769288
 31
0.0
  0
LINE
  5
90E8
  8
0
 10
50.87907610525474
 20
204.89512769288
 30
0.0
 11
51.88066110525473
 21
204.89512769288
 31
0.0
  0
LINE
  5
90E9
  8
0
 10
51.88066110525473
 20
204.89512769288
 30
0.0
 11
51.88066110525473
 21
205.22911159288
 31
0.0
  0
LINE
  5
90EA
  8
0
 10
51.88066110525473
 20
205.22911159288
 30
0.0
 11
50.87907610525474
 21
205.22911159288
 31
0.0
  0
LINE
  5
90EB
  8
0
 10
50.87907610525474
 20
205.22911159288
 30
0.0
 11
50.87907610525474
 21
204.89512769288
 31
0.0
  0
LINE
  5
90EC
  8
0
 10
52.21392110525474
 20
204.89512769288
 30
0.0
 11
52.88151840525474
 21
204.89512769288
 31
0.0
  0
LINE
  5
90ED
  8
0
 10
52.88151840525474
 20
204.89512769288
 30
0.0
 11
52.88151840525474
 21
205.22911159288
 31
0.0
  0
LINE
  5
90EE
  8
0
 10
52.88151840525474
 20
205.22911159288
 30
0.0
 11
52.21392110525474
 21
205.22911159288
 31
0.0
  0
LINE
  5
90EF
  8
0
 10
52.21392110525474
 20
205.22911159288
 30
0.0
 11
52.21392110525474
 21
204.89512769288
 31
0.0
  0
LINE
  5
90F0
  8
0
 10
53.21550610525475
 20
204.89512769288
 30
0.0
 11
53.54986240525474
 21
204.89512769288
 31
0.0
  0
LINE
  5
90F1
  8
0
 10
53.54986240525474
 20
204.89512769288
 30
0.0
 11
53.54986240525474
 21
205.22911159288
 31
0.0
  0
LINE
  5
90F2
  8
0
 10
53.54986240525474
 20
205.22911159288
 30
0.0
 11
53.21550610525475
 21
205.22911159288
 31
0.0
  0
LINE
  5
90F3
  8
0
 10
53.21550610525475
 20
205.22911159288
 30
0.0
 11
53.21550610525475
 21
204.89512769288
 31
0.0
  0
LINE
  5
90F4
  8
0
 10
42.53437110525473
 20
204.56110769288
 30
0.0
 11
43.20196840525472
 21
204.56110769288
 31
0.0
  0
LINE
  5
90F5
  8
0
 10
43.20196840525472
 20
204.56110769288
 30
0.0
 11
43.20196840525472
 21
204.89509254288
 31
0.0
  0
LINE
  5
90F6
  8
0
 10
43.20196840525472
 20
204.89509254288
 30
0.0
 11
42.53437110525473
 21
204.89509254288
 31
0.0
  0
LINE
  5
90F7
  8
0
 10
42.53437110525473
 20
204.89509254288
 30
0.0
 11
42.53437110525473
 21
204.56110769288
 31
0.0
  0
LINE
  5
90F8
  8
0
 10
43.53586110525475
 20
204.56110769288
 30
0.0
 11
43.86984500525475
 21
204.56110769288
 31
0.0
  0
LINE
  5
90F9
  8
0
 10
43.86984500525475
 20
204.56110769288
 30
0.0
 11
43.86984500525475
 21
204.89509254288
 31
0.0
  0
LINE
  5
90FA
  8
0
 10
43.86984500525475
 20
204.89509254288
 30
0.0
 11
43.53586110525475
 21
204.89509254288
 31
0.0
  0
LINE
  5
90FB
  8
0
 10
43.53586110525475
 20
204.89509254288
 30
0.0
 11
43.53586110525475
 21
204.56110769288
 31
0.0
  0
LINE
  5
90FC
  8
0
 10
44.20352110525474
 20
204.56110769288
 30
0.0
 11
46.20594060525474
 21
204.56110769288
 31
0.0
  0
LINE
  5
90FD
  8
0
 10
46.20594060525474
 20
204.56110769288
 30
0.0
 11
46.20594060525474
 21
204.89509254288
 31
0.0
  0
LINE
  5
90FE
  8
0
 10
46.20594060525474
 20
204.89509254288
 30
0.0
 11
44.20352110525474
 21
204.89509254288
 31
0.0
  0
LINE
  5
90FF
  8
0
 10
44.20352110525474
 20
204.89509254288
 30
0.0
 11
44.20352110525474
 21
204.56110769288
 31
0.0
  0
LINE
  5
9100
  8
0
 10
47.54153610525474
 20
204.56110769288
 30
0.0
 11
48.20913435525473
 21
204.56110769288
 31
0.0
  0
LINE
  5
9101
  8
0
 10
48.20913435525473
 20
204.56110769288
 30
0.0
 11
48.20913435525473
 21
204.89509254288
 31
0.0
  0
LINE
  5
9102
  8
0
 10
48.20913435525473
 20
204.89509254288
 30
0.0
 11
47.54153610525474
 21
204.89509254288
 31
0.0
  0
LINE
  5
9103
  8
0
 10
47.54153610525474
 20
204.89509254288
 30
0.0
 11
47.54153610525474
 21
204.56110769288
 31
0.0
  0
LINE
  5
9104
  8
0
 10
48.87666610525474
 20
204.56110769288
 30
0.0
 11
49.54426340525472
 21
204.56110769288
 31
0.0
  0
LINE
  5
9105
  8
0
 10
49.54426340525472
 20
204.56110769288
 30
0.0
 11
49.54426340525472
 21
204.89509254288
 31
0.0
  0
LINE
  5
9106
  8
0
 10
49.54426340525472
 20
204.89509254288
 30
0.0
 11
48.87666610525474
 21
204.89509254288
 31
0.0
  0
LINE
  5
9107
  8
0
 10
48.87666610525474
 20
204.89509254288
 30
0.0
 11
48.87666610525474
 21
204.56110769288
 31
0.0
  0
LINE
  5
9108
  8
0
 10
50.54591110525473
 20
204.56110769288
 30
0.0
 11
52.54833060525473
 21
204.56110769288
 31
0.0
  0
LINE
  5
9109
  8
0
 10
52.54833060525473
 20
204.56110769288
 30
0.0
 11
52.54833060525473
 21
204.89509254288
 31
0.0
  0
LINE
  5
910A
  8
0
 10
52.54833060525473
 20
204.89509254288
 30
0.0
 11
50.54591110525473
 21
204.89509254288
 31
0.0
  0
LINE
  5
910B
  8
0
 10
50.54591110525473
 20
204.89509254288
 30
0.0
 11
50.54591110525473
 21
204.56110769288
 31
0.0
  0
LINE
  5
910C
  8
0
 10
45.20510610525474
 20
204.22756269288
 30
0.0
 11
45.53909095525475
 21
204.22756269288
 31
0.0
  0
LINE
  5
910D
  8
0
 10
45.53909095525475
 20
204.22756269288
 30
0.0
 11
45.53909095525475
 21
204.56154754288
 31
0.0
  0
LINE
  5
910E
  8
0
 10
45.53909095525475
 20
204.56154754288
 30
0.0
 11
45.20510610525474
 21
204.56154754288
 31
0.0
  0
LINE
  5
910F
  8
0
 10
45.20510610525474
 20
204.56154754288
 30
0.0
 11
45.20510610525474
 21
204.22756269288
 31
0.0
  0
LINE
  5
9110
  8
0
 10
46.20593110525473
 20
204.22756269288
 30
0.0
 11
46.53991500525474
 21
204.22756269288
 31
0.0
  0
LINE
  5
9111
  8
0
 10
46.53991500525474
 20
204.22756269288
 30
0.0
 11
46.53991500525474
 21
204.56154754288
 31
0.0
  0
LINE
  5
9112
  8
0
 10
46.53991500525474
 20
204.56154754288
 30
0.0
 11
46.20593110525473
 21
204.56154754288
 31
0.0
  0
LINE
  5
9113
  8
0
 10
46.20593110525473
 20
204.56154754288
 30
0.0
 11
46.20593110525473
 21
204.22756269288
 31
0.0
  0
LINE
  5
9114
  8
0
 10
46.87349610525473
 20
204.22756269288
 30
0.0
 11
47.20748095525474
 21
204.22756269288
 31
0.0
  0
LINE
  5
9115
  8
0
 10
47.20748095525474
 20
204.22756269288
 30
0.0
 11
47.20748095525474
 21
204.56154754288
 31
0.0
  0
LINE
  5
9116
  8
0
 10
47.20748095525474
 20
204.56154754288
 30
0.0
 11
46.87349610525473
 21
204.56154754288
 31
0.0
  0
LINE
  5
9117
  8
0
 10
46.87349610525473
 20
204.56154754288
 30
0.0
 11
46.87349610525473
 21
204.22756269288
 31
0.0
  0
LINE
  5
9118
  8
0
 10
47.54153610525474
 20
204.22756269288
 30
0.0
 11
47.87589145525475
 21
204.22756269288
 31
0.0
  0
LINE
  5
9119
  8
0
 10
47.87589145525475
 20
204.22756269288
 30
0.0
 11
47.87589145525475
 21
204.56154754288
 31
0.0
  0
LINE
  5
911A
  8
0
 10
47.87589145525475
 20
204.56154754288
 30
0.0
 11
47.54153610525474
 21
204.56154754288
 31
0.0
  0
LINE
  5
911B
  8
0
 10
47.54153610525474
 20
204.56154754288
 30
0.0
 11
47.54153610525474
 21
204.22756269288
 31
0.0
  0
LINE
  5
911C
  8
0
 10
48.54274110525473
 20
204.22756269288
 30
0.0
 11
49.54395560525474
 21
204.22756269288
 31
0.0
  0
LINE
  5
911D
  8
0
 10
49.54395560525474
 20
204.22756269288
 30
0.0
 11
49.54395560525474
 21
204.56154754288
 31
0.0
  0
LINE
  5
911E
  8
0
 10
49.54395560525474
 20
204.56154754288
 30
0.0
 11
48.54274110525473
 21
204.56154754288
 31
0.0
  0
LINE
  5
911F
  8
0
 10
48.54274110525473
 20
204.56154754288
 30
0.0
 11
48.54274110525473
 21
204.22756269288
 31
0.0
  0
LINE
  5
9120
  8
0
 10
49.87749110525473
 20
204.22756269288
 30
0.0
 11
50.87907610525474
 21
204.22756269288
 31
0.0
  0
LINE
  5
9121
  8
0
 10
50.87907610525474
 20
204.22756269288
 30
0.0
 11
50.87907610525474
 21
204.56154754288
 31
0.0
  0
LINE
  5
9122
  8
0
 10
50.87907610525474
 20
204.56154754288
 30
0.0
 11
49.87749110525473
 21
204.56154754288
 31
0.0
  0
LINE
  5
9123
  8
0
 10
49.87749110525473
 20
204.56154754288
 30
0.0
 11
49.87749110525473
 21
204.22756269288
 31
0.0
  0
LINE
  5
9124
  8
0
 10
51.88066110525473
 20
204.22756269288
 30
0.0
 11
52.21464595525474
 21
204.22756269288
 31
0.0
  0
LINE
  5
9125
  8
0
 10
52.21464595525474
 20
204.22756269288
 30
0.0
 11
52.21464595525474
 21
204.56154754288
 31
0.0
  0
LINE
  5
9126
  8
0
 10
52.21464595525474
 20
204.56154754288
 30
0.0
 11
51.88066110525473
 21
204.56154754288
 31
0.0
  0
LINE
  5
9127
  8
0
 10
51.88066110525473
 20
204.56154754288
 30
0.0
 11
51.88066110525473
 21
204.22756269288
 31
0.0
  0
LINE
  5
9128
  8
0
 10
52.54832110525473
 20
204.22756269288
 30
0.0
 11
53.54990610525475
 21
204.22756269288
 31
0.0
  0
LINE
  5
9129
  8
0
 10
53.54990610525475
 20
204.22756269288
 30
0.0
 11
53.54990610525475
 21
204.56154754288
 31
0.0
  0
LINE
  5
912A
  8
0
 10
53.54990610525475
 20
204.56154754288
 30
0.0
 11
52.54832110525473
 21
204.56154754288
 31
0.0
  0
LINE
  5
912B
  8
0
 10
52.54832110525473
 20
204.56154754288
 30
0.0
 11
52.54832110525473
 21
204.22756269288
 31
0.0
  0
LINE
  5
912C
  8
0
 10
42.53437110525473
 20
203.89354269288
 30
0.0
 11
44.87115260525476
 21
203.89354269288
 31
0.0
  0
LINE
  5
912D
  8
0
 10
44.87115260525476
 20
203.89354269288
 30
0.0
 11
44.87115260525476
 21
204.22752659288
 31
0.0
  0
LINE
  5
912E
  8
0
 10
44.87115260525476
 20
204.22752659288
 30
0.0
 11
42.53437110525473
 21
204.22752659288
 31
0.0
  0
LINE
  5
912F
  8
0
 10
42.53437110525473
 20
204.22752659288
 30
0.0
 11
42.53437110525473
 21
203.89354269288
 31
0.0
  0
LINE
  5
9130
  8
0
 10
46.20593110525473
 20
203.89354269288
 30
0.0
 11
47.20751610525475
 21
203.89354269288
 31
0.0
  0
LINE
  5
9131
  8
0
 10
47.20751610525475
 20
203.89354269288
 30
0.0
 11
47.20751610525475
 21
204.22752659288
 31
0.0
  0
LINE
  5
9132
  8
0
 10
47.20751610525475
 20
204.22752659288
 30
0.0
 11
46.20593110525473
 21
204.22752659288
 31
0.0
  0
LINE
  5
9133
  8
0
 10
46.20593110525473
 20
204.22752659288
 30
0.0
 11
46.20593110525473
 21
203.89354269288
 31
0.0
  0
LINE
  5
9134
  8
0
 10
47.54153610525474
 20
203.89354269288
 30
0.0
 11
48.20913435525473
 21
203.89354269288
 31
0.0
  0
LINE
  5
9135
  8
0
 10
48.20913435525473
 20
203.89354269288
 30
0.0
 11
48.20913435525473
 21
204.22752659288
 31
0.0
  0
LINE
  5
9136
  8
0
 10
48.20913435525473
 20
204.22752659288
 30
0.0
 11
47.54153610525474
 21
204.22752659288
 31
0.0
  0
LINE
  5
9137
  8
0
 10
47.54153610525474
 20
204.22752659288
 30
0.0
 11
47.54153610525474
 21
203.89354269288
 31
0.0
  0
LINE
  5
9138
  8
0
 10
48.54274110525473
 20
203.89354269288
 30
0.0
 11
48.87672595525474
 21
203.89354269288
 31
0.0
  0
LINE
  5
9139
  8
0
 10
48.87672595525474
 20
203.89354269288
 30
0.0
 11
48.87672595525474
 21
204.22752659288
 31
0.0
  0
LINE
  5
913A
  8
0
 10
48.87672595525474
 20
204.22752659288
 30
0.0
 11
48.54274110525473
 21
204.22752659288
 31
0.0
  0
LINE
  5
913B
  8
0
 10
48.54274110525473
 20
204.22752659288
 30
0.0
 11
48.54274110525473
 21
203.89354269288
 31
0.0
  0
LINE
  5
913C
  8
0
 10
49.20992610525475
 20
203.89354269288
 30
0.0
 11
49.87752435525474
 21
203.89354269288
 31
0.0
  0
LINE
  5
913D
  8
0
 10
49.87752435525474
 20
203.89354269288
 30
0.0
 11
49.87752435525474
 21
204.22752659288
 31
0.0
  0
LINE
  5
913E
  8
0
 10
49.87752435525474
 20
204.22752659288
 30
0.0
 11
49.20992610525475
 21
204.22752659288
 31
0.0
  0
LINE
  5
913F
  8
0
 10
49.20992610525475
 20
204.22752659288
 30
0.0
 11
49.20992610525475
 21
203.89354269288
 31
0.0
  0
LINE
  5
9140
  8
0
 10
50.21151110525474
 20
203.89354269288
 30
0.0
 11
50.87910840525474
 21
203.89354269288
 31
0.0
  0
LINE
  5
9141
  8
0
 10
50.87910840525474
 20
203.89354269288
 30
0.0
 11
50.87910840525474
 21
204.22752659288
 31
0.0
  0
LINE
  5
9142
  8
0
 10
50.87910840525474
 20
204.22752659288
 30
0.0
 11
50.21151110525474
 21
204.22752659288
 31
0.0
  0
LINE
  5
9143
  8
0
 10
50.21151110525474
 20
204.22752659288
 30
0.0
 11
50.21151110525474
 21
203.89354269288
 31
0.0
  0
LINE
  5
9144
  8
0
 10
51.21309610525475
 20
203.89354269288
 30
0.0
 11
51.54708000525474
 21
203.89354269288
 31
0.0
  0
LINE
  5
9145
  8
0
 10
51.54708000525474
 20
203.89354269288
 30
0.0
 11
51.54708000525474
 21
204.22752659288
 31
0.0
  0
LINE
  5
9146
  8
0
 10
51.54708000525474
 20
204.22752659288
 30
0.0
 11
51.21309610525475
 21
204.22752659288
 31
0.0
  0
LINE
  5
9147
  8
0
 10
51.21309610525475
 20
204.22752659288
 30
0.0
 11
51.21309610525475
 21
203.89354269288
 31
0.0
  0
LINE
  5
9148
  8
0
 10
51.88066110525473
 20
203.89354269288
 30
0.0
 11
52.21464595525474
 21
203.89354269288
 31
0.0
  0
LINE
  5
9149
  8
0
 10
52.21464595525474
 20
203.89354269288
 30
0.0
 11
52.21464595525474
 21
204.22752659288
 31
0.0
  0
LINE
  5
914A
  8
0
 10
52.21464595525474
 20
204.22752659288
 30
0.0
 11
51.88066110525473
 21
204.22752659288
 31
0.0
  0
LINE
  5
914B
  8
0
 10
51.88066110525473
 20
204.22752659288
 30
0.0
 11
51.88066110525473
 21
203.89354269288
 31
0.0
  0
LINE
  5
914C
  8
0
 10
52.54832110525473
 20
203.89354269288
 30
0.0
 11
53.21554695525475
 21
203.89354269288
 31
0.0
  0
LINE
  5
914D
  8
0
 10
53.21554695525475
 20
203.89354269288
 30
0.0
 11
53.21554695525475
 21
204.22752659288
 31
0.0
  0
LINE
  5
914E
  8
0
 10
53.21554695525475
 20
204.22752659288
 30
0.0
 11
52.54832110525473
 21
204.22752659288
 31
0.0
  0
LINE
  5
914F
  8
0
 10
52.54832110525473
 20
204.22752659288
 30
0.0
 11
52.54832110525473
 21
203.89354269288
 31
0.0
  0
LINE
  5
9150
  8
0
 10
42.53437110525473
 20
203.56028269288
 30
0.0
 11
42.86872645525474
 21
203.56028269288
 31
0.0
  0
LINE
  5
9151
  8
0
 10
42.86872645525474
 20
203.56028269288
 30
0.0
 11
42.86872645525474
 21
203.89426659288
 31
0.0
  0
LINE
  5
9152
  8
0
 10
42.86872645525474
 20
203.89426659288
 30
0.0
 11
42.53437110525473
 21
203.89426659288
 31
0.0
  0
LINE
  5
9153
  8
0
 10
42.53437110525473
 20
203.89426659288
 30
0.0
 11
42.53437110525473
 21
203.56028269288
 31
0.0
  0
LINE
  5
9154
  8
0
 10
44.53744610525473
 20
203.56028269288
 30
0.0
 11
44.87143000525472
 21
203.56028269288
 31
0.0
  0
LINE
  5
9155
  8
0
 10
44.87143000525472
 20
203.56028269288
 30
0.0
 11
44.87143000525472
 21
203.89426659288
 31
0.0
  0
LINE
  5
9156
  8
0
 10
44.87143000525472
 20
203.89426659288
 30
0.0
 11
44.53744610525473
 21
203.89426659288
 31
0.0
  0
LINE
  5
9157
  8
0
 10
44.53744610525473
 20
203.89426659288
 30
0.0
 11
44.53744610525473
 21
203.56028269288
 31
0.0
  0
LINE
  5
9158
  8
0
 10
45.53874610525475
 20
203.56028269288
 30
0.0
 11
46.53996060525473
 21
203.56028269288
 31
0.0
  0
LINE
  5
9159
  8
0
 10
46.53996060525473
 20
203.56028269288
 30
0.0
 11
46.53996060525473
 21
203.89426659288
 31
0.0
  0
LINE
  5
915A
  8
0
 10
46.53996060525473
 20
203.89426659288
 30
0.0
 11
45.53874610525475
 21
203.89426659288
 31
0.0
  0
LINE
  5
915B
  8
0
 10
45.53874610525475
 20
203.89426659288
 30
0.0
 11
45.53874610525475
 21
203.56028269288
 31
0.0
  0
LINE
  5
915C
  8
0
 10
47.54153610525474
 20
203.56028269288
 30
0.0
 11
47.87589145525475
 21
203.56028269288
 31
0.0
  0
LINE
  5
915D
  8
0
 10
47.87589145525475
 20
203.56028269288
 30
0.0
 11
47.87589145525475
 21
203.89426659288
 31
0.0
  0
LINE
  5
915E
  8
0
 10
47.87589145525475
 20
203.89426659288
 30
0.0
 11
47.54153610525474
 21
203.89426659288
 31
0.0
  0
LINE
  5
915F
  8
0
 10
47.54153610525474
 20
203.89426659288
 30
0.0
 11
47.54153610525474
 21
203.56028269288
 31
0.0
  0
LINE
  5
9160
  8
0
 10
49.20992610525475
 20
203.56028269288
 30
0.0
 11
49.54428145525475
 21
203.56028269288
 31
0.0
  0
LINE
  5
9161
  8
0
 10
49.54428145525475
 20
203.56028269288
 30
0.0
 11
49.54428145525475
 21
203.89426659288
 31
0.0
  0
LINE
  5
9162
  8
0
 10
49.54428145525475
 20
203.89426659288
 30
0.0
 11
49.20992610525475
 21
203.89426659288
 31
0.0
  0
LINE
  5
9163
  8
0
 10
49.20992610525475
 20
203.89426659288
 30
0.0
 11
49.20992610525475
 21
203.56028269288
 31
0.0
  0
LINE
  5
9164
  8
0
 10
50.21151110525474
 20
203.56028269288
 30
0.0
 11
50.87910840525474
 21
203.56028269288
 31
0.0
  0
LINE
  5
9165
  8
0
 10
50.87910840525474
 20
203.56028269288
 30
0.0
 11
50.87910840525474
 21
203.89426659288
 31
0.0
  0
LINE
  5
9166
  8
0
 10
50.87910840525474
 20
203.89426659288
 30
0.0
 11
50.21151110525474
 21
203.89426659288
 31
0.0
  0
LINE
  5
9167
  8
0
 10
50.21151110525474
 20
203.89426659288
 30
0.0
 11
50.21151110525474
 21
203.56028269288
 31
0.0
  0
LINE
  5
9168
  8
0
 10
51.88066110525473
 20
203.56028269288
 30
0.0
 11
52.88224610525474
 21
203.56028269288
 31
0.0
  0
LINE
  5
9169
  8
0
 10
52.88224610525474
 20
203.56028269288
 30
0.0
 11
52.88224610525474
 21
203.89426659288
 31
0.0
  0
LINE
  5
916A
  8
0
 10
52.88224610525474
 20
203.89426659288
 30
0.0
 11
51.88066110525473
 21
203.89426659288
 31
0.0
  0
LINE
  5
916B
  8
0
 10
51.88066110525473
 20
203.89426659288
 30
0.0
 11
51.88066110525473
 21
203.56028269288
 31
0.0
  0
LINE
  5
916C
  8
0
 10
53.21550610525475
 20
203.56028269288
 30
0.0
 11
53.54986240525474
 21
203.56028269288
 31
0.0
  0
LINE
  5
916D
  8
0
 10
53.54986240525474
 20
203.56028269288
 30
0.0
 11
53.54986240525474
 21
203.89426659288
 31
0.0
  0
LINE
  5
916E
  8
0
 10
53.54986240525474
 20
203.89426659288
 30
0.0
 11
53.21550610525475
 21
203.89426659288
 31
0.0
  0
LINE
  5
916F
  8
0
 10
53.21550610525475
 20
203.89426659288
 30
0.0
 11
53.21550610525475
 21
203.56028269288
 31
0.0
  0
LINE
  5
9170
  8
0
 10
42.53437110525473
 20
203.22626269288
 30
0.0
 11
42.86872645525474
 21
203.22626269288
 31
0.0
  0
LINE
  5
9171
  8
0
 10
42.86872645525474
 20
203.22626269288
 30
0.0
 11
42.86872645525474
 21
203.56024754288
 31
0.0
  0
LINE
  5
9172
  8
0
 10
42.86872645525474
 20
203.56024754288
 30
0.0
 11
42.53437110525473
 21
203.56024754288
 31
0.0
  0
LINE
  5
9173
  8
0
 10
42.53437110525473
 20
203.56024754288
 30
0.0
 11
42.53437110525473
 21
203.22626269288
 31
0.0
  0
LINE
  5
9174
  8
0
 10
43.20193610525473
 20
203.22626269288
 30
0.0
 11
44.20352110525474
 21
203.22626269288
 31
0.0
  0
LINE
  5
9175
  8
0
 10
44.20352110525474
 20
203.22626269288
 30
0.0
 11
44.20352110525474
 21
203.56024754288
 31
0.0
  0
LINE
  5
9176
  8
0
 10
44.20352110525474
 20
203.56024754288
 30
0.0
 11
43.20193610525473
 21
203.56024754288
 31
0.0
  0
LINE
  5
9177
  8
0
 10
43.20193610525473
 20
203.56024754288
 30
0.0
 11
43.20193610525473
 21
203.22626269288
 31
0.0
  0
LINE
  5
9178
  8
0
 10
44.53744610525473
 20
203.22626269288
 30
0.0
 11
44.87143000525472
 21
203.22626269288
 31
0.0
  0
LINE
  5
9179
  8
0
 10
44.87143000525472
 20
203.22626269288
 30
0.0
 11
44.87143000525472
 21
203.56024754288
 31
0.0
  0
LINE
  5
917A
  8
0
 10
44.87143000525472
 20
203.56024754288
 30
0.0
 11
44.53744610525473
 21
203.56024754288
 31
0.0
  0
LINE
  5
917B
  8
0
 10
44.53744610525473
 20
203.56024754288
 30
0.0
 11
44.53744610525473
 21
203.22626269288
 31
0.0
  0
LINE
  5
917C
  8
0
 10
45.87267110525474
 20
203.22626269288
 30
0.0
 11
46.53989695525473
 21
203.22626269288
 31
0.0
  0
LINE
  5
917D
  8
0
 10
46.53989695525473
 20
203.22626269288
 30
0.0
 11
46.53989695525473
 21
203.56024754288
 31
0.0
  0
LINE
  5
917E
  8
0
 10
46.53989695525473
 20
203.56024754288
 30
0.0
 11
45.87267110525474
 21
203.56024754288
 31
0.0
  0
LINE
  5
917F
  8
0
 10
45.87267110525474
 20
203.56024754288
 30
0.0
 11
45.87267110525474
 21
203.22626269288
 31
0.0
  0
LINE
  5
9180
  8
0
 10
46.87349610525473
 20
203.22626269288
 30
0.0
 11
47.54109435525476
 21
203.22626269288
 31
0.0
  0
LINE
  5
9181
  8
0
 10
47.54109435525476
 20
203.22626269288
 30
0.0
 11
47.54109435525476
 21
203.56024754288
 31
0.0
  0
LINE
  5
9182
  8
0
 10
47.54109435525476
 20
203.56024754288
 30
0.0
 11
46.87349610525473
 21
203.56024754288
 31
0.0
  0
LINE
  5
9183
  8
0
 10
46.87349610525473
 20
203.56024754288
 30
0.0
 11
46.87349610525473
 21
203.22626269288
 31
0.0
  0
LINE
  5
9184
  8
0
 10
48.54274110525473
 20
203.22626269288
 30
0.0
 11
49.20996790525476
 21
203.22626269288
 31
0.0
  0
LINE
  5
9185
  8
0
 10
49.20996790525476
 20
203.22626269288
 30
0.0
 11
49.20996790525476
 21
203.56024754288
 31
0.0
  0
LINE
  5
9186
  8
0
 10
49.20996790525476
 20
203.56024754288
 30
0.0
 11
48.54274110525473
 21
203.56024754288
 31
0.0
  0
LINE
  5
9187
  8
0
 10
48.54274110525473
 20
203.56024754288
 30
0.0
 11
48.54274110525473
 21
203.22626269288
 31
0.0
  0
LINE
  5
9188
  8
0
 10
49.54432610525474
 20
203.22626269288
 30
0.0
 11
49.87831095525473
 21
203.22626269288
 31
0.0
  0
LINE
  5
9189
  8
0
 10
49.87831095525473
 20
203.22626269288
 30
0.0
 11
49.87831095525473
 21
203.56024754288
 31
0.0
  0
LINE
  5
918A
  8
0
 10
49.87831095525473
 20
203.56024754288
 30
0.0
 11
49.54432610525474
 21
203.56024754288
 31
0.0
  0
LINE
  5
918B
  8
0
 10
49.54432610525474
 20
203.56024754288
 30
0.0
 11
49.54432610525474
 21
203.22626269288
 31
0.0
  0
LINE
  5
918C
  8
0
 10
50.54591110525473
 20
203.22626269288
 30
0.0
 11
52.54833060525473
 21
203.22626269288
 31
0.0
  0
LINE
  5
918D
  8
0
 10
52.54833060525473
 20
203.22626269288
 30
0.0
 11
52.54833060525473
 21
203.56024754288
 31
0.0
  0
LINE
  5
918E
  8
0
 10
52.54833060525473
 20
203.56024754288
 30
0.0
 11
50.54591110525473
 21
203.56024754288
 31
0.0
  0
LINE
  5
918F
  8
0
 10
50.54591110525473
 20
203.56024754288
 30
0.0
 11
50.54591110525473
 21
203.22626269288
 31
0.0
  0
LINE
  5
9190
  8
0
 10
42.53437110525473
 20
202.89195769288
 30
0.0
 11
42.86872645525474
 21
202.89195769288
 31
0.0
  0
LINE
  5
9191
  8
0
 10
42.86872645525474
 20
202.89195769288
 30
0.0
 11
42.86872645525474
 21
203.22631304288
 31
0.0
  0
LINE
  5
9192
  8
0
 10
42.86872645525474
 20
203.22631304288
 30
0.0
 11
42.53437110525473
 21
203.22631304288
 31
0.0
  0
LINE
  5
9193
  8
0
 10
42.53437110525473
 20
203.22631304288
 30
0.0
 11
42.53437110525473
 21
202.89195769288
 31
0.0
  0
LINE
  5
9194
  8
0
 10
43.20193610525473
 20
202.89195769288
 30
0.0
 11
44.20352110525474
 21
202.89195769288
 31
0.0
  0
LINE
  5
9195
  8
0
 10
44.20352110525474
 20
202.89195769288
 30
0.0
 11
44.20352110525474
 21
203.22631304288
 31
0.0
  0
LINE
  5
9196
  8
0
 10
44.20352110525474
 20
203.22631304288
 30
0.0
 11
43.20193610525473
 21
203.22631304288
 31
0.0
  0
LINE
  5
9197
  8
0
 10
43.20193610525473
 20
203.22631304288
 30
0.0
 11
43.20193610525473
 21
202.89195769288
 31
0.0
  0
LINE
  5
9198
  8
0
 10
44.53744610525473
 20
202.89195769288
 30
0.0
 11
44.87143000525472
 21
202.89195769288
 31
0.0
  0
LINE
  5
9199
  8
0
 10
44.87143000525472
 20
202.89195769288
 30
0.0
 11
44.87143000525472
 21
203.22631304288
 31
0.0
  0
LINE
  5
919A
  8
0
 10
44.87143000525472
 20
203.22631304288
 30
0.0
 11
44.53744610525473
 21
203.22631304288
 31
0.0
  0
LINE
  5
919B
  8
0
 10
44.53744610525473
 20
203.22631304288
 30
0.0
 11
44.53744610525473
 21
202.89195769288
 31
0.0
  0
LINE
  5
919C
  8
0
 10
45.53874610525475
 20
202.89195769288
 30
0.0
 11
46.87357210525474
 21
202.89195769288
 31
0.0
  0
LINE
  5
919D
  8
0
 10
46.87357210525474
 20
202.89195769288
 30
0.0
 11
46.87357210525474
 21
203.22631304288
 31
0.0
  0
LINE
  5
919E
  8
0
 10
46.87357210525474
 20
203.22631304288
 30
0.0
 11
45.53874610525475
 21
203.22631304288
 31
0.0
  0
LINE
  5
919F
  8
0
 10
45.53874610525475
 20
203.22631304288
 30
0.0
 11
45.53874610525475
 21
202.89195769288
 31
0.0
  0
LINE
  5
91A0
  8
0
 10
47.20751610525475
 20
202.89195769288
 30
0.0
 11
47.54150000525475
 21
202.89195769288
 31
0.0
  0
LINE
  5
91A1
  8
0
 10
47.54150000525475
 20
202.89195769288
 30
0.0
 11
47.54150000525475
 21
203.22631304288
 31
0.0
  0
LINE
  5
91A2
  8
0
 10
47.54150000525475
 20
203.22631304288
 30
0.0
 11
47.20751610525475
 21
203.22631304288
 31
0.0
  0
LINE
  5
91A3
  8
0
 10
47.20751610525475
 20
203.22631304288
 30
0.0
 11
47.20751610525475
 21
202.89195769288
 31
0.0
  0
LINE
  5
91A4
  8
0
 10
47.87508110525474
 20
202.89195769288
 30
0.0
 11
48.20906595525474
 21
202.89195769288
 31
0.0
  0
LINE
  5
91A5
  8
0
 10
48.20906595525474
 20
202.89195769288
 30
0.0
 11
48.20906595525474
 21
203.22631304288
 31
0.0
  0
LINE
  5
91A6
  8
0
 10
48.20906595525474
 20
203.22631304288
 30
0.0
 11
47.87508110525474
 21
203.22631304288
 31
0.0
  0
LINE
  5
91A7
  8
0
 10
47.87508110525474
 20
203.22631304288
 30
0.0
 11
47.87508110525474
 21
202.89195769288
 31
0.0
  0
LINE
  5
91A8
  8
0
 10
49.20992610525475
 20
202.89195769288
 30
0.0
 11
49.54428145525475
 21
202.89195769288
 31
0.0
  0
LINE
  5
91A9
  8
0
 10
49.54428145525475
 20
202.89195769288
 30
0.0
 11
49.54428145525475
 21
203.22631304288
 31
0.0
  0
LINE
  5
91AA
  8
0
 10
49.54428145525475
 20
203.22631304288
 30
0.0
 11
49.20992610525475
 21
203.22631304288
 31
0.0
  0
LINE
  5
91AB
  8
0
 10
49.20992610525475
 20
203.22631304288
 30
0.0
 11
49.20992610525475
 21
202.89195769288
 31
0.0
  0
LINE
  5
91AC
  8
0
 10
49.87749110525473
 20
202.89195769288
 30
0.0
 11
50.54508840525475
 21
202.89195769288
 31
0.0
  0
LINE
  5
91AD
  8
0
 10
50.54508840525475
 20
202.89195769288
 30
0.0
 11
50.54508840525475
 21
203.22631304288
 31
0.0
  0
LINE
  5
91AE
  8
0
 10
50.54508840525475
 20
203.22631304288
 30
0.0
 11
49.87749110525473
 21
203.22631304288
 31
0.0
  0
LINE
  5
91AF
  8
0
 10
49.87749110525473
 20
203.22631304288
 30
0.0
 11
49.87749110525473
 21
202.89195769288
 31
0.0
  0
LINE
  5
91B0
  8
0
 10
50.87907610525474
 20
202.89195769288
 30
0.0
 11
51.21306095525475
 21
202.89195769288
 31
0.0
  0
LINE
  5
91B1
  8
0
 10
51.21306095525475
 20
202.89195769288
 30
0.0
 11
51.21306095525475
 21
203.22631304288
 31
0.0
  0
LINE
  5
91B2
  8
0
 10
51.21306095525475
 20
203.22631304288
 30
0.0
 11
50.87907610525474
 21
203.22631304288
 31
0.0
  0
LINE
  5
91B3
  8
0
 10
50.87907610525474
 20
203.22631304288
 30
0.0
 11
50.87907610525474
 21
202.89195769288
 31
0.0
  0
LINE
  5
91B4
  8
0
 10
51.54673610525474
 20
202.89195769288
 30
0.0
 11
52.21396290525475
 21
202.89195769288
 31
0.0
  0
LINE
  5
91B5
  8
0
 10
52.21396290525475
 20
202.89195769288
 30
0.0
 11
52.21396290525475
 21
203.22631304288
 31
0.0
  0
LINE
  5
91B6
  8
0
 10
52.21396290525475
 20
203.22631304288
 30
0.0
 11
51.54673610525474
 21
203.22631304288
 31
0.0
  0
LINE
  5
91B7
  8
0
 10
51.54673610525474
 20
203.22631304288
 30
0.0
 11
51.54673610525474
 21
202.89195769288
 31
0.0
  0
LINE
  5
91B8
  8
0
 10
52.54832110525473
 20
202.89195769288
 30
0.0
 11
52.88230500525474
 21
202.89195769288
 31
0.0
  0
LINE
  5
91B9
  8
0
 10
52.88230500525474
 20
202.89195769288
 30
0.0
 11
52.88230500525474
 21
203.22631304288
 31
0.0
  0
LINE
  5
91BA
  8
0
 10
52.88230500525474
 20
203.22631304288
 30
0.0
 11
52.54832110525473
 21
203.22631304288
 31
0.0
  0
LINE
  5
91BB
  8
0
 10
52.54832110525473
 20
203.22631304288
 30
0.0
 11
52.54832110525473
 21
202.89195769288
 31
0.0
  0
LINE
  5
91BC
  8
0
 10
53.21550610525475
 20
202.89195769288
 30
0.0
 11
53.54986240525474
 21
202.89195769288
 31
0.0
  0
LINE
  5
91BD
  8
0
 10
53.54986240525474
 20
202.89195769288
 30
0.0
 11
53.54986240525474
 21
203.22631304288
 31
0.0
  0
LINE
  5
91BE
  8
0
 10
53.54986240525474
 20
203.22631304288
 30
0.0
 11
53.21550610525475
 21
203.22631304288
 31
0.0
  0
LINE
  5
91BF
  8
0
 10
53.21550610525475
 20
203.22631304288
 30
0.0
 11
53.21550610525475
 21
202.89195769288
 31
0.0
  0
LINE
  5
91C0
  8
0
 10
42.53437110525473
 20
202.55869769288
 30
0.0
 11
42.86872645525474
 21
202.55869769288
 31
0.0
  0
LINE
  5
91C1
  8
0
 10
42.86872645525474
 20
202.55869769288
 30
0.0
 11
42.86872645525474
 21
202.89268159288
 31
0.0
  0
LINE
  5
91C2
  8
0
 10
42.86872645525474
 20
202.89268159288
 30
0.0
 11
42.53437110525473
 21
202.89268159288
 31
0.0
  0
LINE
  5
91C3
  8
0
 10
42.53437110525473
 20
202.89268159288
 30
0.0
 11
42.53437110525473
 21
202.55869769288
 31
0.0
  0
LINE
  5
91C4
  8
0
 10
43.20193610525473
 20
202.55869769288
 30
0.0
 11
44.20352110525474
 21
202.55869769288
 31
0.0
  0
LINE
  5
91C5
  8
0
 10
44.20352110525474
 20
202.55869769288
 30
0.0
 11
44.20352110525474
 21
202.89268159288
 31
0.0
  0
LINE
  5
91C6
  8
0
 10
44.20352110525474
 20
202.89268159288
 30
0.0
 11
43.20193610525473
 21
202.89268159288
 31
0.0
  0
LINE
  5
91C7
  8
0
 10
43.20193610525473
 20
202.89268159288
 30
0.0
 11
43.20193610525473
 21
202.55869769288
 31
0.0
  0
LINE
  5
91C8
  8
0
 10
44.53744610525473
 20
202.55869769288
 30
0.0
 11
44.87143000525472
 21
202.55869769288
 31
0.0
  0
LINE
  5
91C9
  8
0
 10
44.87143000525472
 20
202.55869769288
 30
0.0
 11
44.87143000525472
 21
202.89268159288
 31
0.0
  0
LINE
  5
91CA
  8
0
 10
44.87143000525472
 20
202.89268159288
 30
0.0
 11
44.53744610525473
 21
202.89268159288
 31
0.0
  0
LINE
  5
91CB
  8
0
 10
44.53744610525473
 20
202.89268159288
 30
0.0
 11
44.53744610525473
 21
202.55869769288
 31
0.0
  0
LINE
  5
91CC
  8
0
 10
45.87267110525474
 20
202.55869769288
 30
0.0
 11
47.20749710525475
 21
202.55869769288
 31
0.0
  0
LINE
  5
91CD
  8
0
 10
47.20749710525475
 20
202.55869769288
 30
0.0
 11
47.20749710525475
 21
202.89268159288
 31
0.0
  0
LINE
  5
91CE
  8
0
 10
47.20749710525475
 20
202.89268159288
 30
0.0
 11
45.87267110525474
 21
202.89268159288
 31
0.0
  0
LINE
  5
91CF
  8
0
 10
45.87267110525474
 20
202.89268159288
 30
0.0
 11
45.87267110525474
 21
202.55869769288
 31
0.0
  0
LINE
  5
91D0
  8
0
 10
47.87508110525474
 20
202.55869769288
 30
0.0
 11
48.20906595525474
 21
202.55869769288
 31
0.0
  0
LINE
  5
91D1
  8
0
 10
48.20906595525474
 20
202.55869769288
 30
0.0
 11
48.20906595525474
 21
202.89268159288
 31
0.0
  0
LINE
  5
91D2
  8
0
 10
48.20906595525474
 20
202.89268159288
 30
0.0
 11
47.87508110525474
 21
202.89268159288
 31
0.0
  0
LINE
  5
91D3
  8
0
 10
47.87508110525474
 20
202.89268159288
 30
0.0
 11
47.87508110525474
 21
202.55869769288
 31
0.0
  0
LINE
  5
91D4
  8
0
 10
48.54274110525473
 20
202.55869769288
 30
0.0
 11
48.87672595525474
 21
202.55869769288
 31
0.0
  0
LINE
  5
91D5
  8
0
 10
48.87672595525474
 20
202.55869769288
 30
0.0
 11
48.87672595525474
 21
202.89268159288
 31
0.0
  0
LINE
  5
91D6
  8
0
 10
48.87672595525474
 20
202.89268159288
 30
0.0
 11
48.54274110525473
 21
202.89268159288
 31
0.0
  0
LINE
  5
91D7
  8
0
 10
48.54274110525473
 20
202.89268159288
 30
0.0
 11
48.54274110525473
 21
202.55869769288
 31
0.0
  0
LINE
  5
91D8
  8
0
 10
49.20992610525475
 20
202.55869769288
 30
0.0
 11
49.54428145525475
 21
202.55869769288
 31
0.0
  0
LINE
  5
91D9
  8
0
 10
49.54428145525475
 20
202.55869769288
 30
0.0
 11
49.54428145525475
 21
202.89268159288
 31
0.0
  0
LINE
  5
91DA
  8
0
 10
49.54428145525475
 20
202.89268159288
 30
0.0
 11
49.20992610525475
 21
202.89268159288
 31
0.0
  0
LINE
  5
91DB
  8
0
 10
49.20992610525475
 20
202.89268159288
 30
0.0
 11
49.20992610525475
 21
202.55869769288
 31
0.0
  0
LINE
  5
91DC
  8
0
 10
49.87749110525473
 20
202.55869769288
 30
0.0
 11
50.21147500525474
 21
202.55869769288
 31
0.0
  0
LINE
  5
91DD
  8
0
 10
50.21147500525474
 20
202.55869769288
 30
0.0
 11
50.21147500525474
 21
202.89268159288
 31
0.0
  0
LINE
  5
91DE
  8
0
 10
50.21147500525474
 20
202.89268159288
 30
0.0
 11
49.87749110525473
 21
202.89268159288
 31
0.0
  0
LINE
  5
91DF
  8
0
 10
49.87749110525473
 20
202.89268159288
 30
0.0
 11
49.87749110525473
 21
202.55869769288
 31
0.0
  0
LINE
  5
91E0
  8
0
 10
50.54591110525473
 20
202.55869769288
 30
0.0
 11
50.87989595525474
 21
202.55869769288
 31
0.0
  0
LINE
  5
91E1
  8
0
 10
50.87989595525474
 20
202.55869769288
 30
0.0
 11
50.87989595525474
 21
202.89268159288
 31
0.0
  0
LINE
  5
91E2
  8
0
 10
50.87989595525474
 20
202.89268159288
 30
0.0
 11
50.54591110525473
 21
202.89268159288
 31
0.0
  0
LINE
  5
91E3
  8
0
 10
50.54591110525473
 20
202.89268159288
 30
0.0
 11
50.54591110525473
 21
202.55869769288
 31
0.0
  0
LINE
  5
91E4
  8
0
 10
51.54673610525474
 20
202.55869769288
 30
0.0
 11
52.21396290525475
 21
202.55869769288
 31
0.0
  0
LINE
  5
91E5
  8
0
 10
52.21396290525475
 20
202.55869769288
 30
0.0
 11
52.21396290525475
 21
202.89268159288
 31
0.0
  0
LINE
  5
91E6
  8
0
 10
52.21396290525475
 20
202.89268159288
 30
0.0
 11
51.54673610525474
 21
202.89268159288
 31
0.0
  0
LINE
  5
91E7
  8
0
 10
51.54673610525474
 20
202.89268159288
 30
0.0
 11
51.54673610525474
 21
202.55869769288
 31
0.0
  0
LINE
  5
91E8
  8
0
 10
52.88158110525474
 20
202.55869769288
 30
0.0
 11
53.54917840525475
 21
202.55869769288
 31
0.0
  0
LINE
  5
91E9
  8
0
 10
53.54917840525475
 20
202.55869769288
 30
0.0
 11
53.54917840525475
 21
202.89268159288
 31
0.0
  0
LINE
  5
91EA
  8
0
 10
53.54917840525475
 20
202.89268159288
 30
0.0
 11
52.88158110525474
 21
202.89268159288
 31
0.0
  0
LINE
  5
91EB
  8
0
 10
52.88158110525474
 20
202.89268159288
 30
0.0
 11
52.88158110525474
 21
202.55869769288
 31
0.0
  0
LINE
  5
91EC
  8
0
 10
42.53437110525473
 20
202.22477269288
 30
0.0
 11
42.86872645525474
 21
202.22477269288
 31
0.0
  0
LINE
  5
91ED
  8
0
 10
42.86872645525474
 20
202.22477269288
 30
0.0
 11
42.86872645525474
 21
202.55875754288
 31
0.0
  0
LINE
  5
91EE
  8
0
 10
42.86872645525474
 20
202.55875754288
 30
0.0
 11
42.53437110525473
 21
202.55875754288
 31
0.0
  0
LINE
  5
91EF
  8
0
 10
42.53437110525473
 20
202.55875754288
 30
0.0
 11
42.53437110525473
 21
202.22477269288
 31
0.0
  0
LINE
  5
91F0
  8
0
 10
44.53744610525473
 20
202.22477269288
 30
0.0
 11
44.87143000525472
 21
202.22477269288
 31
0.0
  0
LINE
  5
91F1
  8
0
 10
44.87143000525472
 20
202.22477269288
 30
0.0
 11
44.87143000525472
 21
202.55875754288
 31
0.0
  0
LINE
  5
91F2
  8
0
 10
44.87143000525472
 20
202.55875754288
 30
0.0
 11
44.53744610525473
 21
202.55875754288
 31
0.0
  0
LINE
  5
91F3
  8
0
 10
44.53744610525473
 20
202.55875754288
 30
0.0
 11
44.53744610525473
 21
202.22477269288
 31
0.0
  0
LINE
  5
91F4
  8
0
 10
45.87267110525474
 20
202.22477269288
 30
0.0
 11
46.53989695525473
 21
202.22477269288
 31
0.0
  0
LINE
  5
91F5
  8
0
 10
46.53989695525473
 20
202.22477269288
 30
0.0
 11
46.53989695525473
 21
202.55875754288
 31
0.0
  0
LINE
  5
91F6
  8
0
 10
46.53989695525473
 20
202.55875754288
 30
0.0
 11
45.87267110525474
 21
202.55875754288
 31
0.0
  0
LINE
  5
91F7
  8
0
 10
45.87267110525474
 20
202.55875754288
 30
0.0
 11
45.87267110525474
 21
202.22477269288
 31
0.0
  0
LINE
  5
91F8
  8
0
 10
47.20751610525475
 20
202.22477269288
 30
0.0
 11
48.20910110525475
 21
202.22477269288
 31
0.0
  0
LINE
  5
91F9
  8
0
 10
48.20910110525475
 20
202.22477269288
 30
0.0
 11
48.20910110525475
 21
202.55875754288
 31
0.0
  0
LINE
  5
91FA
  8
0
 10
48.20910110525475
 20
202.55875754288
 30
0.0
 11
47.20751610525475
 21
202.55875754288
 31
0.0
  0
LINE
  5
91FB
  8
0
 10
47.20751610525475
 20
202.55875754288
 30
0.0
 11
47.20751610525475
 21
202.22477269288
 31
0.0
  0
LINE
  5
91FC
  8
0
 10
48.87666610525474
 20
202.22477269288
 30
0.0
 11
49.54426340525472
 21
202.22477269288
 31
0.0
  0
LINE
  5
91FD
  8
0
 10
49.54426340525472
 20
202.22477269288
 30
0.0
 11
49.54426340525472
 21
202.55875754288
 31
0.0
  0
LINE
  5
91FE
  8
0
 10
49.54426340525472
 20
202.55875754288
 30
0.0
 11
48.87666610525474
 21
202.55875754288
 31
0.0
  0
LINE
  5
91FF
  8
0
 10
48.87666610525474
 20
202.55875754288
 30
0.0
 11
48.87666610525474
 21
202.22477269288
 31
0.0
  0
LINE
  5
9200
  8
0
 10
51.54673610525474
 20
202.22477269288
 30
0.0
 11
52.88156210525473
 21
202.22477269288
 31
0.0
  0
LINE
  5
9201
  8
0
 10
52.88156210525473
 20
202.22477269288
 30
0.0
 11
52.88156210525473
 21
202.55875754288
 31
0.0
  0
LINE
  5
9202
  8
0
 10
52.88156210525473
 20
202.55875754288
 30
0.0
 11
51.54673610525474
 21
202.55875754288
 31
0.0
  0
LINE
  5
9203
  8
0
 10
51.54673610525474
 20
202.55875754288
 30
0.0
 11
51.54673610525474
 21
202.22477269288
 31
0.0
  0
LINE
  5
9204
  8
0
 10
42.53437110525473
 20
201.89113269288
 30
0.0
 11
44.87115260525476
 21
201.89113269288
 31
0.0
  0
LINE
  5
9205
  8
0
 10
44.87115260525476
 20
201.89113269288
 30
0.0
 11
44.87115260525476
 21
202.22511754288
 31
0.0
  0
LINE
  5
9206
  8
0
 10
44.87115260525476
 20
202.22511754288
 30
0.0
 11
42.53437110525473
 21
202.22511754288
 31
0.0
  0
LINE
  5
9207
  8
0
 10
42.53437110525473
 20
202.22511754288
 30
0.0
 11
42.53437110525473
 21
201.89113269288
 31
0.0
  0
LINE
  5
9208
  8
0
 10
45.20510610525474
 20
201.89113269288
 30
0.0
 11
45.53909095525475
 21
201.89113269288
 31
0.0
  0
LINE
  5
9209
  8
0
 10
45.53909095525475
 20
201.89113269288
 30
0.0
 11
45.53909095525475
 21
202.22511754288
 31
0.0
  0
LINE
  5
920A
  8
0
 10
45.53909095525475
 20
202.22511754288
 30
0.0
 11
45.20510610525474
 21
202.22511754288
 31
0.0
  0
LINE
  5
920B
  8
0
 10
45.20510610525474
 20
202.22511754288
 30
0.0
 11
45.20510610525474
 21
201.89113269288
 31
0.0
  0
LINE
  5
920C
  8
0
 10
46.20593110525473
 20
201.89113269288
 30
0.0
 11
46.53991500525474
 21
201.89113269288
 31
0.0
  0
LINE
  5
920D
  8
0
 10
46.53991500525474
 20
201.89113269288
 30
0.0
 11
46.53991500525474
 21
202.22511754288
 31
0.0
  0
LINE
  5
920E
  8
0
 10
46.53991500525474
 20
202.22511754288
 30
0.0
 11
46.20593110525473
 21
202.22511754288
 31
0.0
  0
LINE
  5
920F
  8
0
 10
46.20593110525473
 20
202.22511754288
 30
0.0
 11
46.20593110525473
 21
201.89113269288
 31
0.0
  0
LINE
  5
9210
  8
0
 10
47.20751610525475
 20
201.89113269288
 30
0.0
 11
47.54150000525475
 21
201.89113269288
 31
0.0
  0
LINE
  5
9211
  8
0
 10
47.54150000525475
 20
201.89113269288
 30
0.0
 11
47.54150000525475
 21
202.22511754288
 31
0.0
  0
LINE
  5
9212
  8
0
 10
47.54150000525475
 20
202.22511754288
 30
0.0
 11
47.20751610525475
 21
202.22511754288
 31
0.0
  0
LINE
  5
9213
  8
0
 10
47.20751610525475
 20
202.22511754288
 30
0.0
 11
47.20751610525475
 21
201.89113269288
 31
0.0
  0
LINE
  5
9214
  8
0
 10
48.20910110525475
 20
201.89113269288
 30
0.0
 11
48.54308500525474
 21
201.89113269288
 31
0.0
  0
LINE
  5
9215
  8
0
 10
48.54308500525474
 20
201.89113269288
 30
0.0
 11
48.54308500525474
 21
202.22511754288
 31
0.0
  0
LINE
  5
9216
  8
0
 10
48.54308500525474
 20
202.22511754288
 30
0.0
 11
48.20910110525475
 21
202.22511754288
 31
0.0
  0
LINE
  5
9217
  8
0
 10
48.20910110525475
 20
202.22511754288
 30
0.0
 11
48.20910110525475
 21
201.89113269288
 31
0.0
  0
LINE
  5
9218
  8
0
 10
48.87666610525474
 20
201.89113269288
 30
0.0
 11
49.21065000525473
 21
201.89113269288
 31
0.0
  0
LINE
  5
9219
  8
0
 10
49.21065000525473
 20
201.89113269288
 30
0.0
 11
49.21065000525473
 21
202.22511754288
 31
0.0
  0
LINE
  5
921A
  8
0
 10
49.21065000525473
 20
202.22511754288
 30
0.0
 11
48.87666610525474
 21
202.22511754288
 31
0.0
  0
LINE
  5
921B
  8
0
 10
48.87666610525474
 20
202.22511754288
 30
0.0
 11
48.87666610525474
 21
201.89113269288
 31
0.0
  0
LINE
  5
921C
  8
0
 10
49.87749110525473
 20
201.89113269288
 30
0.0
 11
51.21231710525474
 21
201.89113269288
 31
0.0
  0
LINE
  5
921D
  8
0
 10
51.21231710525474
 20
201.89113269288
 30
0.0
 11
51.21231710525474
 21
202.22511754288
 31
0.0
  0
LINE
  5
921E
  8
0
 10
51.21231710525474
 20
202.22511754288
 30
0.0
 11
49.87749110525473
 21
202.22511754288
 31
0.0
  0
LINE
  5
921F
  8
0
 10
49.87749110525473
 20
202.22511754288
 30
0.0
 11
49.87749110525473
 21
201.89113269288
 31
0.0
  0
LINE
  5
9220
  8
0
 10
51.54673610525474
 20
201.89113269288
 30
0.0
 11
51.88072000525474
 21
201.89113269288
 31
0.0
  0
LINE
  5
9221
  8
0
 10
51.88072000525474
 20
201.89113269288
 30
0.0
 11
51.88072000525474
 21
202.22511754288
 31
0.0
  0
LINE
  5
9222
  8
0
 10
51.88072000525474
 20
202.22511754288
 30
0.0
 11
51.54673610525474
 21
202.22511754288
 31
0.0
  0
LINE
  5
9223
  8
0
 10
51.54673610525474
 20
202.22511754288
 30
0.0
 11
51.54673610525474
 21
201.89113269288
 31
0.0
  0
LINE
  5
9224
  8
0
 10
52.21392110525474
 20
201.89113269288
 30
0.0
 11
52.54827645525474
 21
201.89113269288
 31
0.0
  0
LINE
  5
9225
  8
0
 10
52.54827645525474
 20
201.89113269288
 30
0.0
 11
52.54827645525474
 21
202.22511754288
 31
0.0
  0
LINE
  5
9226
  8
0
 10
52.54827645525474
 20
202.22511754288
 30
0.0
 11
52.21392110525474
 21
202.22511754288
 31
0.0
  0
LINE
  5
9227
  8
0
 10
52.21392110525474
 20
202.22511754288
 30
0.0
 11
52.21392110525474
 21
201.89113269288
 31
0.0
  0
LINE
  5
9228
  8
0
 10
52.88158110525474
 20
201.89113269288
 30
0.0
 11
53.21556500525475
 21
201.89113269288
 31
0.0
  0
LINE
  5
9229
  8
0
 10
53.21556500525475
 20
201.89113269288
 30
0.0
 11
53.21556500525475
 21
202.22511754288
 31
0.0
  0
LINE
  5
922A
  8
0
 10
53.21556500525475
 20
202.22511754288
 30
0.0
 11
52.88158110525474
 21
202.22511754288
 31
0.0
  0
LINE
  5
922B
  8
0
 10
52.88158110525474
 20
202.22511754288
 30
0.0
 11
52.88158110525474
 21
201.89113269288
 31
0.0
  0
CIRCLE
  5
9401
  8
0
 10
63.52186071078958
 20
209.8911326928802
 30
0.0
 40
1.5
  0
CIRCLE
  5
9402
  8
0
 10
95.52186071078958
 20
229.8911326928808
 30
0.0
 40
7.499999999999949
  0
CIRCLE
  5
9403
  8
0
 10
95.52186071078958
 20
229.8911326928808
 30
0.0
 40
8.20000000000001
  0
CIRCLE
  5
9404
  8
0
 10
95.52186071078958
 20
229.8911326928808
 30
0.0
 40
8.499999999999963
  0
LINE
  5
9405
  8
0
 10
68.27186071078958
 20
223.8911326928803
 30
0.0
 11
68.27186071078958
 21
235.8911326928808
 31
0.0
  0
LINE
  5
9406
  8
0
 10
68.57186071078954
 20
223.8911326928803
 30
0.0
 11
68.57186071078954
 21
229.8911326928803
 31
0.0
  0
ARC
  5
9407
  8
0
 10
70.27186071078958
 20
223.8911326928803
 30
0.0
 40
2.0
 50
180.0
 51
270.0
1001
GENIUS_GENOBJ-N-FIL_13
1002
{
1000
OWNER
1000
GEN
1002
}
1001
GENIUS_GENODEF_13
1002
{
1000
HIER
1070
     0
1002
}
1002
{
1000
MANEDIT
1070
     0
1002
}
1002
{
1000
NOSEL
1070
     0
1002
}
1002
{
1000
BEHIND
1070
     0
1002
}
1002
{
1000
OTHER
1070
     0
1002
}
1002
{
1000
REACTOR
1002
}
  0
ARC
  5
9408
  8
0
 10
70.27186071078958
 20
223.8911326928803
 30
0.0
 40
1.7
 50
180.0
 51
270.0
1001
GENIUS_GENOBJ-N-FIL_13
1002
{
1000
OWNER
1000
GEN
1002
}
1001
GENIUS_GENODEF_13
1002
{
1000
HIER
1070
     0
1002
}
1002
{
1000
MANEDIT
1070
     0
1002
}
1002
{
1000
NOSEL
1070
     0
1002
}
1002
{
1000
BEHIND
1070
     0
1002
}
1002
{
1000
OTHER
1070
     0
1002
}
1002
{
1000
REACTOR
1002
}
  0
LINE
  5
9409
  8
0
 10
86.27186071078867
 20
223.8911326928803
 30
0.0
 11
86.27186071078867
 21
235.8911326928799
 31
0.0
  0
LINE
  5
940A
  8
0
 10
85.97186071078872
 20
223.8911326928803
 30
0.0
 11
85.97186071078872
 21
229.8911326928803
 31
0.0
  0
ARC
  5
940B
  8
0
 10
84.27186071078867
 20
235.8911326928799
 30
0.0
 40
2.0
 50
0.0
 51
89.99999999999919
1001
GENIUS_GENODEF_13
1002
{
1000
HIER
1070
     0
1002
}
1002
{
1000
MANEDIT
1070
     0
1002
}
1002
{
1000
NOSEL
1070
     0
1002
}
1002
{
1000
BEHIND
1070
     0
1002
}
1002
{
1000
OTHER
1070
     0
1002
}
1002
{
1000
REACTOR
1002
}
1001
GENIUS_GENOBJ-N-FIL_13
1002
{
1000
OWNER
1000
GEN
1002
}
  0
INSERT
  5
940C
  8
0
  2
*X15
 10
0.0
 20
0.0
 30
0.0
  0
LINE
  5
940D
  8
0
 10
86.27186071078867
 20
229.8911326928803
 30
0.0
 11
68.27186071078958
 21
229.8911326928803
 31
0.0
  0
CIRCLE
  5
940E
  8
0
 10
77.4734742502047
 20
233.8911326928808
 30
0.0
 40
2.0
  0
LINE
  5
940F
  8
0
 10
84.27186071078867
 20
237.8911326928799
 30
0.0
 11
70.27186071078958
 21
237.8911326928808
 31
0.0
  0
ARC
  5
9410
  8
0
 10
70.27186071078958
 20
235.8911326928808
 30
0.0
 40
2.0
 50
90.0
 51
180.0
1001
GENIUS_GENOBJ-N-FIL_13
1002
{
1000
OWNER
1000
GEN
1002
}
1001
GENIUS_GENODEF_13
1002
{
1000
HIER
1070
     0
1002
}
1002
{
1000
MANEDIT
1070
     0
1002
}
1002
{
1000
NOSEL
1070
     0
1002
}
1002
{
1000
BEHIND
1070
     0
1002
}
1002
{
1000
OTHER
1070
     0
1002
}
1002
{
1000
REACTOR
1002
}
  0
LINE
  5
9411
  8
0
 10
84.27186071078867
 20
221.8911326928803
 30
0.0
 11
70.27186071078958
 21
221.8911326928803
 31
0.0
  0
LINE
  5
9412
  8
0
 10
84.27186071078867
 20
222.1911326928803
 30
0.0
 11
70.27186071078958
 21
222.1911326928803
 31
0.0
  0
ARC
  5
9413
  8
0
 10
84.27186071078867
 20
223.8911326928803
 30
0.0
 40
2.0
 50
270.0
 51
0.0
1001
GENIUS_GENODEF_13
1002
{
1000
HIER
1070
     0
1002
}
1002
{
1000
MANEDIT
1070
     0
1002
}
1002
{
1000
NOSEL
1070
     0
1002
}
1002
{
1000
BEHIND
1070
     0
1002
}
1002
{
1000
OTHER
1070
     0
1002
}
1002
{
1000
REACTOR
1002
}
1001
GENIUS_GENOBJ-N-FIL_13
1002
{
1000
OWNER
1000
GEN
1002
}
  0
ARC
  5
9414
  8
0
 10
84.27186071078867
 20
223.8911326928803
 30
0.0
 40
1.7
 50
270.0
 51
0.0
1001
GENIUS_GENODEF_13
1002
{
1000
HIER
1070
     0
1002
}
1002
{
1000
MANEDIT
1070
     0
1002
}
1002
{
1000
NOSEL
1070
     0
1002
}
1002
{
1000
BEHIND
1070
     0
1002
}
1002
{
1000
OTHER
1070
     0
1002
}
1002
{
1000
REACTOR
1002
}
1001
GENIUS_GENOBJ-N-FIL_13
1002
{
1000
OWNER
1000
GEN
1002
}
  0
TEXT
  5
9415
  8
0
 10
69.34773150036412
 20
232.976970664433
 30
0.0
 40
1.9
  1
給水
  0
TEXT
  5
9416
  8
0
 10
89.34301098908271
 20
227.9715284875623
 30
0.0
 40
4.0
  1
PUSH
 41
1.2
  0
CIRCLE
  5
9418
  8
0
 10
82.52186071079004
 20
225.8911326928807
 30
0.0
 40
2.0
  0
CIRCLE
  5
9419
  8
0
 10
82.52186071079004
 20
225.8911326928807
 30
0.0
 40
1.5
  0
CIRCLE
  5
941A
  8
0
 10
82.52186071079004
 20
233.8911326928807
 30
0.0
 40
2.0
  0
CIRCLE
  5
941B
  8
0
 10
82.52186071079004
 20
233.8911326928807
 30
0.0
 40
1.5
  0
LINE
  5
9C4E
  8
0
 10
50.98249511685671
 20
232.0632836402061
 30
0.0
 11
52.12611815685668
 21
232.0632836402061
 31
0.0
  0
LINE
  5
9C4F
  8
0
 10
52.12611815685668
 20
232.0632836402061
 30
0.0
 11
52.12611815685668
 21
226.1082638002059
 31
0.0
  0
LINE
  5
9C50
  8
0
 10
52.12611815685668
 20
226.1082638002059
 30
0.0
 11
50.98249511685671
 21
226.1082638002059
 31
0.0
  0
LINE
  5
9C51
  8
0
 10
50.98249511685671
 20
226.1082638002059
 30
0.0
 11
50.98249511685671
 21
232.0632836402061
 31
0.0
  0
LINE
  5
9C52
  8
0
 10
59.90707287685709
 20
230.4253015602059
 30
0.0
 11
61.05049879685666
 21
230.4253015602059
 31
0.0
  0
LINE
  5
9C53
  8
0
 10
61.05049879685666
 20
230.4253015602059
 30
0.0
 11
61.05049879685666
 21
226.1082638002059
 31
0.0
  0
LINE
  5
9C54
  8
0
 10
61.05049879685666
 20
226.1082638002059
 30
0.0
 11
59.90707287685709
 21
226.1082638002059
 31
0.0
  0
LINE
  5
9C55
  8
0
 10
59.90707287685709
 20
226.1082638002059
 30
0.0
 11
59.90707287685709
 21
230.4253015602059
 31
0.0
  0
LINE
  5
9C56
  8
0
 10
60.13497527795889
 20
230.9231344617025
 30
0.0
 11
60.04352135685676
 21
230.8550567602061
 31
0.0
  0
LINE
  5
9C57
  8
0
 10
60.04352135685676
 20
230.8550567602061
 30
0.0
 11
60.06822017909107
 21
230.9527510509084
 31
0.0
  0
LINE
  5
9C58
  8
0
 10
59.87502185810453
 20
231.9529126636077
 30
0.0
 11
59.80713191685672
 21
232.0440532402059
 31
0.0
  0
LINE
  5
9C59
  8
0
 10
59.80713191685672
 20
232.0440532402059
 30
0.0
 11
59.90488425292969
 21
232.019377199431
 31
0.0
  0
LINE
  5
9C5A
  8
0
 10
60.90499310420645
 20
232.2126260636534
 30
0.0
 11
60.99606231685684
 21
232.2804438002064
 31
0.0
  0
LINE
  5
9C5B
  8
0
 10
60.99606231685684
 20
232.2804438002064
 30
0.0
 11
60.9713971344614
 21
232.1825635471047
 31
0.0
  0
LINE
  5
9C5C
  8
0
 10
61.16516338733126
 20
231.1824839057523
 30
0.0
 11
61.23277767685667
 21
231.0916422002061
 31
0.0
  0
LINE
  5
9C5D
  8
0
 10
61.23277767685667
 20
231.0916422002061
 30
0.0
 11
61.13502475627783
 21
231.116292341018
 31
0.0
  0
LINE
  5
9C5E
  8
0
 10
60.70367401377379
 20
230.8393305535025
 30
0.0
 11
60.68724023685681
 21
230.7270183602064
 31
0.0
  0
LINE
  5
9C5F
  8
0
 10
60.68724023685681
 20
230.7270183602064
 30
0.0
 11
60.63559066998104
 21
230.813584788201
 31
0.0
  0
LINE
  5
9C60
  8
0
 10
59.79194143583445
 20
231.384193235666
 30
0.0
 11
59.67922007685647
 21
231.4006602802061
 31
0.0
  0
LINE
  5
9C61
  8
0
 10
59.67922007685647
 20
231.4006602802061
 30
0.0
 11
59.76559718205053
 21
231.452199928152
 31
0.0
  0
LINE
  5
9C62
  8
0
 10
60.3361876644968
 20
232.2960509058063
 30
0.0
 11
60.35266935685658
 21
232.4084844402065
 31
0.0
  0
LINE
  5
9C63
  8
0
 10
60.35266935685658
 20
232.4084844402065
 30
0.0
 11
60.40441033803617
 21
232.3218456288611
 31
0.0
  0
LINE
  5
9C64
  8
0
 10
61.24847395617243
 20
231.7516322187327
 30
0.0
 11
61.36068615685699
 21
231.7351684402062
 31
0.0
  0
LINE
  5
9C65
  8
0
 10
61.36068615685699
 20
231.7351684402062
 30
0.0
 11
61.27399198498878
 21
231.6834125387719
 31
0.0
  0
LINE
  5
9C66
  8
0
 10
60.41087208845383
 20
230.8244856903754
 30
0.0
 11
60.35266935685658
 21
230.7270183602064
 31
0.0
  0
LINE
  5
9C67
  8
0
 10
60.35266935685658
 20
230.7270183602064
 30
0.0
 11
60.33810185698039
 21
230.8264204620224
 31
0.0
  0
LINE
  5
9C68
  8
0
 10
59.77699738429519
 20
231.6767491336101
 30
0.0
 11
59.67909015685663
 21
231.7351684402062
 31
0.0
  0
LINE
  5
9C69
  8
0
 10
59.67909015685663
 20
231.7351684402062
 30
0.0
 11
59.77881582015388
 21
231.749735130839
 31
0.0
  0
LINE
  5
9C6A
  8
0
 10
60.62891590188346
 20
232.3108992487975
 30
0.0
 11
60.6871763968571
 21
232.4084844402065
 31
0.0
  0
LINE
  5
9C6B
  8
0
 10
60.6871763968571
 20
232.4084844402065
 30
0.0
 11
60.70177459553187
 21
232.3088068027943
 31
0.0
  0
LINE
  5
9C6C
  8
0
 10
61.26303994635973
 20
231.4587411266417
 30
0.0
 11
61.36068615685699
 21
231.4003982002065
 31
0.0
  0
LINE
  5
9C6D
  8
0
 10
60.96847517643855
 20
230.9651913228105
 30
0.0
 11
60.9962583168568
 21
230.8550567602061
 31
0.0
  0
LINE
  5
9C6E
  8
0
 10
60.9962583168568
 20
230.8550567602061
 30
0.0
 11
60.9154391013827
 21
230.9152651635474
 31
0.0
  0
LINE
  5
9C6F
  8
0
 10
59.91749508680149
 20
231.11951395587
 30
0.0
 11
59.80713191685672
 21
231.0916422002061
 31
0.0
  0
LINE
  5
9C70
  8
0
 10
59.80713191685672
 20
231.0916422002061
 30
0.0
 11
59.86718926716284
 21
231.1722950918389
 31
0.0
  0
LINE
  5
9C71
  8
0
 10
60.07131278011101
 20
232.170440713158
 30
0.0
 11
60.04352135685676
 21
232.2804438002064
 31
0.0
  0
LINE
  5
9C72
  8
0
 10
60.04352135685676
 20
232.2804438002064
 30
0.0
 11
60.12454461489014
 21
232.220184676799
 31
0.0
  0
LINE
  5
9C73
  8
0
 10
61.12278772418594
 20
232.0163258776762
 30
0.0
 11
61.23277767685667
 21
232.0440532402059
 31
0.0
  0
LINE
  5
9C74
  8
0
 10
61.23277767685667
 20
232.0440532402059
 30
0.0
 11
61.17248734306949
 21
231.9631241202811
 31
0.0
  0
LINE
  5
9C75
  8
0
 10
60.20212488052093
 20
230.8870387859566
 30
0.0
 11
60.1184280768567
 21
230.8103990002061
 31
0.0
  0
LINE
  5
9C76
  8
0
 10
60.1184280768567
 20
230.8103990002061
 30
0.0
 11
60.13497527795889
 21
230.9231344617025
 31
0.0
  0
LINE
  5
9C77
  8
0
 10
59.83937154461509
 20
231.8856360568367
 30
0.0
 11
59.76266679685668
 21
231.9694052402061
 31
0.0
  0
LINE
  5
9C78
  8
0
 10
59.76266679685668
 20
231.9694052402061
 30
0.0
 11
59.87502185810453
 21
231.9529126636077
 31
0.0
  0
LINE
  5
9C79
  8
0
 10
60.8378803946799
 20
232.2484612754853
 30
0.0
 11
60.92148039685671
 21
232.3250377202063
 31
0.0
  0
LINE
  5
9C7A
  8
0
 10
60.92148039685671
 20
232.3250377202063
 30
0.0
 11
60.90499310420645
 21
232.2126260636534
 31
0.0
  0
LINE
  5
9C7B
  8
0
 10
61.20051978715091
 20
231.2499253191496
 30
0.0
 11
61.27737159685657
 21
231.1659642802057
 31
0.0
  0
LINE
  5
9C7C
  8
0
 10
60.7764312530272
 20
230.8618893828221
 30
0.0
 11
60.77139815685686
 21
230.7482054002063
 31
0.0
  0
LINE
  5
9C7D
  8
0
 10
60.77139815685686
 20
230.7482054002063
 30
0.0
 11
60.70367401377379
 21
230.8393305535025
 31
0.0
  0
LINE
  5
9C7E
  8
0
 10
59.81396389748951
 20
231.3112457261719
 30
0.0
 11
59.70053367685668
 21
231.3161607602061
 31
0.0
  0
LINE
  5
9C7F
  8
0
 10
59.70053367685668
 20
231.3161607602061
 30
0.0
 11
59.79194143583445
 21
231.384193235666
 31
0.0
  0
LINE
  5
9C80
  8
0
 10
60.26338708585135
 20
232.2738038347103
 30
0.0
 11
60.2683781568563
 21
232.3871551602061
 31
0.0
  0
LINE
  5
9C81
  8
0
 10
60.2683781568563
 20
232.3871551602061
 30
0.0
 11
60.3361876644968
 21
232.2960509058063
 31
0.0
  0
LINE
  5
9C82
  8
0
 10
61.22605328535528
 20
231.8243841453374
 30
0.0
 11
61.33950135685663
 21
231.8193778802062
 31
0.0
  0
LINE
  5
9C83
  8
0
 10
61.33950135685663
 20
231.8193778802062
 30
0.0
 11
61.24847395617243
 21
231.7516322187327
 31
0.0
  0
LINE
  5
9C84
  8
0
 10
60.48672052814581
 20
230.8175333979403
 30
0.0
 11
60.43852855685654
 21
230.7144351602061
 31
0.0
  0
LINE
  5
9C85
  8
0
 10
60.43852855685654
 20
230.7144351602061
 30
0.0
 11
60.41087208845383
 21
230.8244856903754
 31
0.0
  0
LINE
  5
9C86
  8
0
 10
59.76945545452972
 20
231.6010080131824
 30
0.0
 11
59.666639116857
 21
231.6489172402058
 31
0.0
  0
LINE
  5
9C87
  8
0
 10
59.666639116857
 20
231.6489172402058
 30
0.0
 11
59.77699738429519
 21
231.6767491336101
 31
0.0
  0
LINE
  5
9C88
  8
0
 10
60.55304512097618
 20
232.3182460148706
 30
0.0
 11
60.60105511685705
 21
232.4211314802061
 31
0.0
  0
LINE
  5
9C89
  8
0
 10
60.60105511685705
 20
232.4211314802061
 30
0.0
 11
60.62891590188346
 21
232.3108992487975
 31
0.0
  0
LINE
  5
9C8A
  8
0
 10
61.27050992567692
 20
231.5345256453871
 30
0.0
 11
61.37333655685651
 21
231.4865194802065
 31
0.0
  0
LINE
  5
9C8B
  8
0
 10
61.37333655685651
 20
231.4865194802065
 30
0.0
 11
61.26303994635973
 21
231.4587411266417
 31
0.0
  0
LINE
  5
9C8C
  8
0
 10
61.02714387091564
 20
231.0136066888905
 30
0.0
 11
61.06588311685672
 21
230.9069519602059
 31
0.0
  0
LINE
  5
9C8D
  8
0
 10
59.96570042366201
 20
231.0605846311306
 30
0.0
 11
59.85908983685667
 21
231.0217676402059
 31
0.0
  0
LINE
  5
9C8E
  8
0
 10
59.85908983685667
 20
231.0217676402059
 30
0.0
 11
59.91749508680149
 21
231.11951395587
 31
0.0
  0
LINE
  5
9C8F
  8
0
 10
60.01288289015392
 20
232.1216546978472
 30
0.0
 11
59.97407351685669
 21
232.2284970802062
 31
0.0
  0
LINE
  5
9C90
  8
0
 10
59.97407351685669
 20
232.2284970802062
 30
0.0
 11
60.07131278011101
 21
232.170440713158
 31
0.0
  0
LINE
  5
9C91
  8
0
 10
61.07385674956376
 20
232.074644635523
 30
0.0
 11
61.18093287685642
 21
232.1134921202062
 31
0.0
  0
LINE
  5
9C92
  8
0
 10
61.18093287685642
 20
232.1134921202062
 30
0.0
 11
61.12278772418594
 21
232.0163258776762
 31
0.0
  0
LINE
  5
9C93
  8
0
 10
60.2726993465686
 20
230.8585829797499
 30
0.0
 11
60.19705207685692
 21
230.773761560206
 31
0.0
  0
LINE
  5
9C94
  8
0
 10
60.19705207685692
 20
230.773761560206
 30
0.0
 11
60.20212488052093
 21
230.8870387859566
 31
0.0
  0
LINE
  5
9C95
  8
0
 10
59.81084091319562
 20
231.8150854596857
 30
0.0
 11
59.72602935685663
 21
231.8906524402061
 31
0.0
  0
LINE
  5
9C96
  8
0
 10
59.72602935685663
 20
231.8906524402061
 30
0.0
 11
59.83937154461509
 21
231.8856360568367
 31
0.0
  0
LINE
  5
9C97
  8
0
 10
60.767197686711
 20
232.276708141807
 30
0.0
 11
60.84292359685659
 21
232.3616662002061
 31
0.0
  0
LINE
  5
9C98
  8
0
 10
60.84292359685659
 20
232.3616662002061
 30
0.0
 11
60.8378803946799
 21
232.2484612754853
 31
0.0
  0
LINE
  5
9C99
  8
0
 10
61.22923539242456
 20
231.3204986983343
 30
0.0
 11
61.31413559685697
 21
231.2448380402062
 31
0.0
  0
LINE
  5
9C9A
  8
0
 10
60.84664274330916
 20
230.8913222132284
 30
0.0
 11
60.85315815685644
 21
230.7780007602061
 31
0.0
  0
LINE
  5
9C9B
  8
0
 10
60.85315815685644
 20
230.7780007602061
 30
0.0
 11
60.7764312530272
 21
230.8618893828221
 31
0.0
  0
LINE
  5
9C9C
  8
0
 10
59.84367646117434
 20
231.2411554510837
 30
0.0
 11
59.73020135685701
 21
231.2345564402063
 31
0.0
  0
LINE
  5
9C9D
  8
0
 10
59.73020135685701
 20
231.2345564402063
 30
0.0
 11
59.81396389748951
 21
231.3112457261719
 31
0.0
  0
LINE
  5
9C9E
  8
0
 10
60.19333142915693
 20
232.2441068045447
 30
0.0
 11
60.18681415685668
 21
232.3574460402061
 31
0.0
  0
LINE
  5
9C9F
  8
0
 10
60.18681415685668
 20
232.3574460402061
 30
0.0
 11
60.26338708585135
 21
232.2738038347103
 31
0.0
  0
LINE
  5
9CA0
  8
0
 10
61.19674338518789
 20
231.8945265419558
 30
0.0
 11
61.30983367685675
 21
231.901029240206
 31
0.0
  0
LINE
  5
9CA1
  8
0
 10
61.30983367685675
 20
231.901029240206
 30
0.0
 11
61.22605328535528
 21
231.8243841453374
 31
0.0
  0
LINE
  5
9CA2
  8
0
 10
60.56288158759216
 20
230.8177173654282
 30
0.0
 11
60.52556039685678
 21
230.7104580402062
 31
0.0
  0
LINE
  5
9CA3
  8
0
 10
60.52556039685678
 20
230.7104580402062
 30
0.0
 11
60.48672052814581
 21
230.8175333979403
 31
0.0
  0
LINE
  5
9CA4
  8
0
 10
59.77009028473239
 20
231.5249211196448
 30
0.0
 11
59.66272583685677
 21
231.5622740402065
 31
0.0
  0
LINE
  5
9CA5
  8
0
 10
59.66272583685677
 20
231.5622740402065
 30
0.0
 11
59.76945545452972
 21
231.6010080131824
 31
0.0
  0
LINE
  5
9CA6
  8
0
 10
60.47702819435708
 20
232.3177985578137
 30
0.0
 11
60.51428199685697
 21
232.4248487602059
 31
0.0
  0
LINE
  5
9CA7
  8
0
 10
60.51428199685697
 20
232.4248487602059
 30
0.0
 11
60.55304512097618
 21
232.3182460148706
 31
0.0
  0
LINE
  5
9CA8
  8
0
 10
61.2697725973463
 20
231.6106195045446
 30
0.0
 11
61.37711655685652
 21
231.5731626802059
 31
0.0
  0
LINE
  5
9CA9
  8
0
 10
61.08069536869752
 20
231.0677972779573
 30
0.0
 11
61.13009943685674
 21
230.965494360206
 31
0.0
  0
LINE
  5
9CAA
  8
0
 10
61.13009943685674
 20
230.965494360206
 30
0.0
 11
61.02714387091564
 21
231.0136066888905
 31
0.0
  0
LINE
  5
9CAB
  8
0
 10
60.01987561762107
 20
231.0071602989643
 30
0.0
 11
59.91763335685673
 21
230.9577417202059
 31
0.0
  0
LINE
  5
9CAC
  8
0
 10
59.91763335685673
 20
230.9577417202059
 30
0.0
 11
59.96570042366201
 21
231.0605846311306
 31
0.0
  0
LINE
  5
9CAD
  8
0
 10
59.95915664469803
 20
232.0676976610372
 30
0.0
 11
59.90987623685677
 21
232.1696825202058
 31
0.0
  0
LINE
  5
9CAE
  8
0
 10
59.90987623685677
 20
232.1696825202058
 30
0.0
 11
60.01288289015392
 21
232.1216546978472
 31
0.0
  0
LINE
  5
9CAF
  8
0
 10
61.02014616936921
 20
232.1287777813637
 30
0.0
 11
61.1222123968565
 21
232.1780903602063
 31
0.0
  0
LINE
  5
9CB0
  8
0
 10
61.1222123968565
 20
232.1780903602063
 30
0.0
 11
61.07385674956376
 21
232.074644635523
 31
0.0
  0
LINE
  5
9CB1
  8
0
 10
60.33810185698039
 20
230.8264204620224
 30
0.0
 11
60.27919399685706
 21
230.7450761202059
 31
0.0
  0
LINE
  5
9CB2
  8
0
 10
60.27919399685706
 20
230.7450761202059
 30
0.0
 11
60.2726993465686
 21
230.8585829797499
 31
0.0
  0
LINE
  5
9CB3
  8
0
 10
59.77881582015297
 20
231.749735130839
 30
0.0
 11
59.69740439685629
 21
231.8086393202062
 31
0.0
  0
LINE
  5
9CB4
  8
0
 10
59.69740439685629
 20
231.8086393202062
 30
0.0
 11
59.81084091319562
 21
231.8150854596857
 31
0.0
  0
LINE
  5
9CB5
  8
0
 10
60.70177459553187
 20
232.3088068027943
 30
0.0
 11
60.76070887685691
 21
232.3903068402057
 31
0.0
  0
LINE
  5
9CB6
  8
0
 10
60.76070887685691
 20
232.3903068402057
 30
0.0
 11
60.767197686711
 21
232.276708141807
 31
0.0
  0
LINE
  5
9CB7
  8
0
 10
61.26134601064049
 20
231.3859169679178
 30
0.0
 11
61.34282663685653
 21
231.3269396402062
 31
0.0
  0
LINE
  5
9CB8
  8
0
 10
61.34282663685653
 20
231.3269396402062
 30
0.0
 11
61.22923539242456
 21
231.3204986983343
 31
0.0
  0
LINE
  5
9CB9
  8
0
 10
60.9154391013827
 20
230.9152651635474
 30
0.0
 11
60.93139015685674
 21
230.8156809202061
 31
0.0
  0
LINE
  5
9CBA
  8
0
 10
60.93139015685674
 20
230.8156809202061
 30
0.0
 11
60.84664274330916
 21
230.8913222132284
 31
0.0
  0
LINE
  5
9CBB
  8
0
 10
59.86718926716284
 20
231.1722950918389
 30
0.0
 11
59.76807863685653
 21
231.1563804402064
 31
0.0
  0
LINE
  5
9CBC
  8
0
 10
59.76807863685653
 20
231.1563804402064
 30
0.0
 11
59.84367646117434
 21
231.2411554510837
 31
0.0
  0
LINE
  5
9CBD
  8
0
 10
60.12454461489014
 20
232.220184676799
 30
0.0
 11
60.10864823685651
 21
232.319625880206
 31
0.0
  0
LINE
  5
9CBE
  8
0
 10
60.10864823685651
 20
232.319625880206
 30
0.0
 11
60.19333142915693
 21
232.2441068045447
 31
0.0
  0
LINE
  5
9CBF
  8
0
 10
61.17248734306949
 20
231.9631241202811
 30
0.0
 11
61.27221959685639
 21
231.979056280206
 31
0.0
  0
LINE
  5
9CC0
  8
0
 10
61.27221959685639
 20
231.979056280206
 30
0.0
 11
61.19674338518789
 21
231.8945265419558
 31
0.0
  0
LINE
  5
9CC1
  8
0
 10
60.63559066998104
 20
230.813584788201
 30
0.0
 11
60.61220359685657
 21
230.7154151602059
 31
0.0
  0
LINE
  5
9CC2
  8
0
 10
59.76559718205053
 20
231.452199928152
 30
0.0
 11
59.66761575685686
 21
231.4755009202059
 31
0.0
  0
LINE
  5
9CC3
  8
0
 10
59.66761575685686
 20
231.4755009202059
 30
0.0
 11
59.77009028473239
 21
231.5249211196448
 31
0.0
  0
LINE
  5
9CC4
  8
0
 10
60.40441033803617
 20
232.3218456288611
 30
0.0
 11
60.42777207685648
 21
232.4198289202064
 31
0.0
  0
LINE
  5
9CC5
  8
0
 10
60.42777207685648
 20
232.4198289202064
 30
0.0
 11
60.47702819435708
 21
232.3177985578137
 31
0.0
  0
LINE
  5
9CC6
  8
0
 10
61.27399198498878
 20
231.6834125387719
 30
0.0
 11
61.37216391685669
 21
231.6599985202062
 31
0.0
  0
LINE
  5
9CC7
  8
0
 10
61.37216391685669
 20
231.6599985202062
 30
0.0
 11
61.2697725973463
 21
231.6106195045446
 31
0.0
  0
LINE
  5
9CC8
  8
0
 10
61.13502475627783
 20
231.116292341018
 30
0.0
 11
61.18786119685691
 21
231.0303625202065
 31
0.0
  0
LINE
  5
9CC9
  8
0
 10
60.06822017909107
 20
230.9527510509084
 30
0.0
 11
59.98243431685714
 21
230.8999754802059
 31
0.0
  0
LINE
  5
9CCA
  8
0
 10
59.98243431685714
 20
230.8999754802059
 30
0.0
 11
60.01987561762107
 21
231.0071602989643
 31
0.0
  0
LINE
  5
9CCB
  8
0
 10
59.90488425292969
 20
232.019377199431
 30
0.0
 11
59.85224327685646
 21
232.104944280206
 31
0.0
  0
LINE
  5
9CCC
  8
0
 10
59.85224327685646
 20
232.104944280206
 30
0.0
 11
59.95915664469803
 21
232.0676976610372
 31
0.0
  0
LINE
  5
9CCD
  8
0
 10
60.9713971344614
 20
232.1825635471047
 30
0.0
 11
61.0574080768566
 21
232.2354612402061
 31
0.0
  0
LINE
  5
9CCE
  8
0
 10
55.26074279685653
 20
228.1705926002061
 30
0.0
 11
55.26074279685653
 21
227.9443044402061
 31
0.0
  0
LINE
  5
9CCF
  8
0
 10
52.69116487685696
 20
229.2818756402063
 30
0.0
 11
53.79990663685621
 21
229.2818756402063
 31
0.0
  0
LINE
  5
9CD0
  8
0
 10
55.49193319685682
 20
226.1082638002059
 30
0.0
 11
56.62251719685636
 21
226.1082638002059
 31
0.0
  0
LINE
  5
9CD1
  8
0
 10
58.09508983685654
 20
229.8122886002062
 30
0.0
 11
58.09508983685654
 21
230.4253015602059
 31
0.0
  0
LINE
  5
9CD2
  8
0
 10
58.09508983685654
 20
230.4253015602059
 30
0.0
 11
57.03530663685669
 21
230.4253015602059
 31
0.0
  0
LINE
  5
9CD3
  8
0
 10
57.03530663685669
 20
230.4253015602059
 30
0.0
 11
57.03530663685669
 21
226.1082638002059
 31
0.0
  0
LINE
  5
9CD4
  8
0
 10
57.03530663685669
 20
226.1082638002059
 30
0.0
 11
58.17866647685659
 21
226.1082638002059
 31
0.0
  0
LINE
  5
9CD5
  8
0
 10
58.17866647685659
 20
226.1082638002059
 30
0.0
 11
58.17866647685659
 21
227.439709720206
 31
0.0
  0
LINE
  5
9CD6
  8
0
 10
59.47960023685673
 20
229.3071719602063
 30
0.0
 11
59.47960023685673
 21
230.4555516402057
 31
0.0
  0
LINE
  5
9CD7
  8
0
 10
64.11745191685677
 20
229.3719102002057
 30
0.0
 11
65.27750199685678
 21
229.3719102002057
 31
0.0
  0
LINE
  5
9CD8
  8
0
 10
62.59590503685658
 20
227.3287502002064
 30
0.0
 11
61.39726087685685
 21
227.3287502002064
 31
0.0
  0
LINE
  5
9CD9
  8
0
 10
44.87127447685688
 20
233.6954663602061
 30
0.0
 11
45.39836215685645
 21
233.6954663602061
 31
0.0
  0
LINE
  5
9CDA
  8
0
 10
45.43636823685674
 20
229.3110818802057
 30
0.0
 11
44.9345107968571
 21
229.3110818802057
 31
0.0
  0
LINE
  5
9CDB
  8
0
 10
44.67165127685675
 20
229.6024969202059
 30
0.0
 11
44.67165127685675
 21
233.2240538802058
 31
0.0
  0
LINE
  5
9CDC
  8
0
 10
44.72243767685686
 20
228.8267614002058
 30
0.0
 11
45.25786935685673
 21
228.8267614002058
 31
0.0
  0
LINE
  5
9CDD
  8
0
 10
45.70398775685689
 20
234.1801788402059
 30
0.0
 11
42.03314631685643
 21
234.1801788402059
 31
0.0
  0
LINE
  5
9CDE
  8
0
 10
42.03314631685643
 20
234.1801788402059
 30
0.0
 11
42.03314631685643
 21
233.7337983602062
 31
0.0
  0
LINE
  5
9CDF
  8
0
 10
42.03314631685643
 20
233.7337983602062
 30
0.0
 11
42.34776887685675
 21
233.7337983602062
 31
0.0
  0
LINE
  5
9CE0
  8
0
 10
43.11659511685647
 20
232.8588386802063
 30
0.0
 11
43.11659511685647
 21
227.2732698802062
 31
0.0
  0
LINE
  5
9CE1
  8
0
 10
42.08419143685668
 20
226.354175480206
 30
0.0
 11
42.08419143685668
 21
225.9081858802061
 31
0.0
  0
LINE
  5
9CE2
  8
0
 10
42.08419143685668
 20
225.9081858802061
 30
0.0
 11
46.02917079685639
 21
225.9081858802061
 31
0.0
  0
LINE
  5
9CE3
  8
0
 10
46.02917079685639
 20
225.9081858802061
 30
0.0
 11
46.02917079685639
 21
226.3543042802063
 31
0.0
  0
LINE
  5
9CE4
  8
0
 10
44.67165127685675
 20
227.3208598002062
 30
0.0
 11
44.67165127685675
 21
228.623099480206
 31
0.0
  0
LINE
  5
9CE5
  8
0
  6
CONTINUOUS
 10
60.56288158759216
 20
230.8177173654282
 30
0.0
 11
60.61220359685657
 21
230.7154151602059
 31
0.0
  0
LINE
  5
9CE6
  8
0
  6
CONTINUOUS
 10
60.96847517643855
 20
230.9651913228105
 30
0.0
 11
61.06588311685672
 21
230.9069519602059
 31
0.0
  0
LINE
  5
9CE7
  8
0
  6
CONTINUOUS
 10
61.08069536869752
 20
231.0677972779573
 30
0.0
 11
61.18786119685691
 21
231.0303625202065
 31
0.0
  0
LINE
  5
9CE8
  8
0
  6
CONTINUOUS
 10
61.16516338733126
 20
231.1824839057523
 30
0.0
 11
61.27737159685657
 21
231.1659642802057
 31
0.0
  0
LINE
  5
9CE9
  8
0
  6
CONTINUOUS
 10
61.20051978715091
 20
231.2499253191496
 30
0.0
 11
61.31413559685697
 21
231.2448380402062
 31
0.0
  0
LINE
  5
9CEA
  8
0
  6
CONTINUOUS
 10
61.26134601064049
 20
231.3859169679178
 30
0.0
 11
61.36068615685699
 21
231.4003982002065
 31
0.0
  0
LINE
  5
9CEB
  8
0
  6
CONTINUOUS
 10
61.27050992567692
 20
231.5345256453871
 30
0.0
 11
61.37711655685652
 21
231.5731626802059
 31
0.0
  0
LINE
  5
9CEC
  8
0
  6
CONTINUOUS
 10
61.0574080768566
 20
232.2354612402061
 30
0.0
 11
61.02014616936921
 21
232.1287777813637
 31
0.0
  0
LINE
  5
9CED
  8
0
 10
54.6033025479679
 20
238.2779636579841
 30
0.0
 11
56.88752193996797
 21
238.7501699939836
 31
0.0
  0
LINE
  5
9CEE
  8
0
 10
56.88752193996797
 20
238.7501699939836
 30
0.0
 11
54.60338184396787
 21
239.222145161984
 31
0.0
  0
LINE
  5
9CEF
  8
0
 10
54.60338184396787
 20
239.222145161984
 30
0.0
 11
55.88873505996852
 21
241.006069961985
 31
0.0
  0
LINE
  5
9CF0
  8
0
 10
55.88873505996852
 20
241.006069961985
 30
0.0
 11
54.10465435596788
 21
239.7207960419838
 31
0.0
  0
LINE
  5
9CF1
  8
0
 10
54.10465435596788
 20
239.7207960419838
 30
0.0
 11
53.8258998404427
 21
241.0698825812802
 31
0.0
  0
LINE
  5
9CF2
  8
0
 10
53.41422135681077
 20
240.9476338623332
 30
0.0
 11
53.16078465996733
 21
239.7209519459835
 31
0.0
  0
LINE
  5
9CF3
  8
0
 10
53.16078465996733
 20
239.7209519459835
 30
0.0
 11
52.31630278512066
 21
240.3292002392224
 31
0.0
  0
LINE
  5
9CF4
  8
0
 10
52.04114494434825
 20
240.083681794567
 30
0.0
 11
52.66189723596753
 21
239.222145161984
 31
0.0
  0
LINE
  5
9CF5
  8
0
 10
52.66189723596753
 20
239.222145161984
 30
0.0
 11
51.60073220244212
 21
239.0027224917882
 31
0.0
  0
LINE
  5
9CF6
  8
0
 10
51.62145527260972
 20
238.4931180190785
 30
0.0
 11
52.66213243596812
 21
238.2782741219841
 31
0.0
  0
LINE
  5
9CF7
  8
0
 10
52.66213243596812
 20
238.2782741219841
 30
0.0
 11
52.04907205628396
 21
237.4273174445703
 31
0.0
  0
LINE
  5
9CF8
  8
0
 10
52.28871939702466
 20
237.1510248976143
 30
0.0
 11
53.16078465996733
 21
237.7792321379835
 31
0.0
  0
LINE
  5
9CF9
  8
0
 10
53.16078465996733
 20
237.7792321379835
 30
0.0
 11
53.4667071036707
 21
236.2986094023996
 31
0.0
  0
LINE
  5
9CFA
  8
0
 10
53.77137802213255
 20
236.1665650313067
 30
0.0
 11
54.10465435596788
 21
237.7794673379836
 31
0.0
  0
LINE
  5
9CFB
  8
0
 10
54.10465435596788
 20
237.7794673379836
 30
0.0
 11
55.88889096396733
 21
236.494038857984
 31
0.0
  0
LINE
  5
9CFC
  8
0
 10
55.88889096396733
 20
236.494038857984
 30
0.0
 11
54.6033025479679
 21
238.2779636579841
 31
0.0
  0
LINE
  5
9CFD
  8
0
 10
58.36152477018967
 20
224.9475059266994
 30
0.0
 11
58.36152477018967
 21
225.4104081024285
 31
0.0
  0
LINE
  5
9CFE
  8
0
 10
57.58389194420178
 20
224.7931980408817
 30
0.0
 11
57.58389194420178
 21
224.9475059266994
 31
0.0
  0
LINE
  5
9CFF
  8
0
 10
58.36152477018967
 20
224.9475059266994
 30
0.0
 11
57.58389194420178
 21
224.9475059266994
 31
0.0
  0
LINE
  5
9D00
  8
0
 10
58.35782365944405
 20
224.7931980408817
 30
0.0
 11
57.58389194420178
 21
224.7931980408817
 31
0.0
  0
LINE
  5
9D01
  8
0
 10
58.75008906553384
 20
225.4104081024285
 30
0.0
 11
58.36152477018967
 21
225.4104081024285
 31
0.0
  0
LINE
  5
9D02
  8
0
 10
58.75008906553384
 20
225.4104081024285
 30
0.0
 11
58.75008906553384
 21
224.9401358887795
 31
0.0
  0
LINE
  5
9D03
  8
0
 10
59.49780749571673
 20
224.9401358887795
 30
0.0
 11
58.75008906553384
 21
224.9401358887795
 31
0.0
  0
LINE
  5
9D04
  8
0
 10
59.49780749571673
 20
224.7907520894324
 30
0.0
 11
59.49780749571673
 21
224.9401358887795
 31
0.0
  0
LINE
  5
9D05
  8
0
 10
58.7449879694187
 20
224.7907520894324
 30
0.0
 11
59.49780749571673
 21
224.7907520894324
 31
0.0
  0
ARC
  5
9D06
  8
0
 10
56.51468731447912
 20
225.6007310711881
 30
0.0
 40
1.78373366193507
 50
310.0456923729903
 51
327.1738262384467
  0
ARC
  5
9D07
  8
0
 10
56.25651791752679
 20
224.9441334525605
 30
0.0
 40
1.92069235163314
 50
325.4885178757464
 51
349.9185299046333
  0
LINE
  5
9D08
  8
0
 10
58.01359269708936
 20
224.6337830732579
 30
0.0
 11
58.14755447859042
 21
224.6079194814916
 31
0.0
  0
LINE
  5
9D09
  8
0
 10
57.45980943199683
 20
224.0921775050543
 30
0.0
 11
57.83919273847786
 21
223.855924134116
 31
0.0
  0
ARC
  5
9D0A
  8
0
 10
56.22875497254753
 20
226.0500010766833
 30
0.0
 40
2.312697174244312
 50
302.1611570594345
 51
308.3070197817706
  0
LINE
  5
9D0B
  8
0
 10
58.35782365944405
 20
224.7931980408817
 30
0.0
 11
58.35782365944405
 21
223.9044454704132
 31
0.0
  0
LINE
  5
9D0C
  8
0
 10
58.02107968023265
 20
223.9118337599926
 30
0.0
 11
58.02107968023265
 21
223.7651303730933
 31
0.0
  0
LINE
  5
9D0D
  8
0
 10
58.02107968023265
 20
223.9118337599926
 30
0.0
 11
58.2598841330815
 21
223.8334984118925
 31
0.0
  0
ARC
  5
9D0E
  8
0
 10
58.28315699277718
 20
223.9044454704132
 30
0.0
 40
0.0746666666666667
 50
251.8388875732299
 51
0.0
  0
LINE
  5
9D0F
  8
0
 10
58.7449879694187
 20
223.8773318447862
 30
0.0
 11
58.7449879694187
 21
224.7907520894324
 31
0.0
  0
LINE
  5
9D10
  8
0
 10
58.3678903094993
 20
223.6237982699701
 30
0.0
 11
58.02107968023265
 21
223.7651303730933
 31
0.0
  0
ARC
  5
9D11
  8
0
 10
58.47121019164078
 20
223.8773318447862
 30
0.0
 40
0.2737777777777778
 50
247.8281449539039
 51
0.0
  0
LINE
  5
9D12
  8
0
 10
59.05427140421952
 20
224.6443690217926
 30
0.0
 11
59.16637915675992
 21
224.539108661356
 31
0.0
  0
LINE
  5
9D13
  8
0
 10
58.93140859331524
 20
224.6028514062328
 30
0.0
 11
59.05427140421952
 21
224.6443690217926
 31
0.0
  0
LINE
  5
9D14
  8
0
 10
59.56812368847667
 20
224.0461897885785
 30
0.0
 11
59.13668292439715
 21
223.8598197962066
 31
0.0
  0
ARC
  5
9D15
  8
0
 10
56.54297614292645
 20
223.5431378957811
 30
0.0
 40
2.61296810051403
 50
6.961145816582685
 51
23.92618042379387
  0
ARC
  5
9D16
  8
0
 10
57.49391840801363
 20
222.7841870360181
 30
0.0
 40
2.4279576794027
 50
31.31746538013244
 51
50.00949102187557
  0
LINE
  5
9D17
  8
0
 10
61.34510914602433
 20
225.2716713632514
 30
0.0
 11
61.34510914602433
 21
225.1173634774333
 31
0.0
  0
LINE
  5
9D18
  8
0
 10
61.34510914602433
 20
225.2716713632514
 30
0.0
 11
59.85344299742437
 21
225.2716713632514
 31
0.0
  0
LINE
  5
9D19
  8
0
 10
59.85344299742437
 20
225.1173634774333
 30
0.0
 11
59.85344299742437
 21
225.2716713632514
 31
0.0
  0
LINE
  5
9D1A
  8
0
 10
61.34510914602433
 20
225.1173634774333
 30
0.0
 11
59.85344299742437
 21
225.1173634774333
 31
0.0
  0
LINE
  5
9D1B
  8
0
 10
61.48553528862212
 20
224.7953701978782
 30
0.0
 11
59.69599721336553
 21
224.7953701978782
 31
0.0
  0
LINE
  5
9D1C
  8
0
 10
59.69599721336553
 20
224.634244862829
 30
0.0
 11
59.69599721336553
 21
224.7953701978782
 31
0.0
  0
LINE
  5
9D1D
  8
0
 10
60.99630183440976
 20
224.634244862829
 30
0.0
 11
59.69599721336553
 21
224.634244862829
 31
0.0
  0
LINE
  5
9D1E
  8
0
 10
61.48553528862212
 20
224.6564149820639
 30
0.0
 11
61.48553528862212
 21
224.7953701978782
 31
0.0
  0
LINE
  5
9D1F
  8
0
 10
59.85514070973213
 20
223.7357053827419
 30
0.0
 11
59.90345790072942
 21
223.6109459383039
 31
0.0
  0
ARC
  5
9D20
  8
0
 10
59.38489231898129
 20
225.7243541534505
 30
0.0
 40
2.043491493068839
 50
283.3041404476269
 51
312.187984758957
  0
ARC
  5
9D21
  8
0
 10
59.72960287778196
 20
225.0690578674399
 30
0.0
 40
1.33924926570833
 50
320.1134675612499
 51
341.0544644537726
  0
ARC
  5
9D22
  8
0
 10
60.28015248987785
 20
224.9681553088354
 30
0.0
 40
1.245042056656759
 50
284.1440925346391
 51
345.4996819276624
  0
ARC
  5
9D23
  8
0
 10
59.86880951040675
 20
225.3897670187167
 30
0.0
 40
1.77915849408482
 50
271.1158826182763
 51
293.7159784209443
  0
LINE
  5
9D24
  8
0
 10
62.14129556700581
 20
224.2933867763792
 30
0.0
 11
62.14129556700581
 21
225.3337205872155
 31
0.0
  0
LINE
  5
9D25
  8
0
 10
62.14129556700581
 20
225.3337205872155
 30
0.0
 11
61.73249874100074
 21
225.3337205872155
 31
0.0
  0
LINE
  5
9D26
  8
0
 10
61.73249874100074
 20
224.2933867763792
 30
0.0
 11
61.73249874100074
 21
225.3337205872155
 31
0.0
  0
LINE
  5
9D27
  8
0
 10
62.14129556700581
 20
224.2933867763792
 30
0.0
 11
61.73249874100074
 21
224.2933867763792
 31
0.0
  0
LINE
  5
9D28
  8
0
 10
63.07892191309392
 20
224.5884800116615
 30
0.0
 11
63.07892191309392
 21
225.3337205872155
 31
0.0
  0
LINE
  5
9D29
  8
0
 10
62.68049882099294
 20
224.6430905778258
 30
0.0
 11
62.68049882099294
 21
225.3337205872155
 31
0.0
  0
LINE
  5
9D2A
  8
0
 10
62.68049882099294
 20
225.3337205872155
 30
0.0
 11
63.07892191309392
 21
225.3337205872155
 31
0.0
  0
LINE
  5
9D2B
  8
0
 10
61.84759125682203
 20
223.6730442065306
 30
0.0
 11
61.93138877212922
 21
223.5654779474222
 31
0.0
  0
ARC
  5
9D2C
  8
0
 10
61.73526096789109
 20
224.6120954320692
 30
0.0
 40
0.9457458950466363
 50
276.8213681552839
 51
1.878103949386534
  0
ARC
  5
9D2D
  8
0
 10
61.87426527407351
 20
224.9016229771929
 30
0.0
 40
1.337365557583815
 50
272.4480452339944
 51
323.9127955890404
  0
ARC
  5
9D2E
  8
0
 10
62.03129566426614
 20
224.6085220761557
 30
0.0
 40
1.047817942956835
 50
331.8321656005633
 51
358.9040121443402
  0
LINE
  5
9D2F
  8
0
 10
64.71642104433803
 20
225.0632360997625
 30
0.0
 11
64.71642104433803
 21
225.1826683979849
 31
0.0
  0
LINE
  5
9D30
  8
0
 10
63.36816650495766
 20
225.0438621358186
 30
0.0
 11
63.36816650495766
 21
225.1826683979849
 31
0.0
  0
LINE
  5
9D31
  8
0
 10
64.71642104433803
 20
225.1826683979849
 30
0.0
 11
63.36816650495766
 21
225.1826683979849
 31
0.0
  0
LINE
  5
9D32
  8
0
 10
64.23955169759628
 20
225.0438621358186
 30
0.0
 11
63.36816650495766
 21
225.0438621358186
 31
0.0
  0
LINE
  5
9D33
  8
0
 10
62.98337905088474
 20
223.72543525608
 30
0.0
 11
63.06039726727167
 21
223.6054681245502
 31
0.0
  0
ARC
  5
9D34
  8
0
 10
62.37740299873084
 20
225.5604404097518
 30
0.0
 40
1.932472739726369
 50
288.2748377643809
 51
344.4954648401278
  0
ARC
  5
9D35
  8
0
 10
62.39068372267238
 20
226.1655439437355
 30
0.0
 40
2.646224561861322
 50
284.6600032593546
 51
312.5396667739578
  0
LINE
  5
9D36
  8
0
 10
64.81691565058426
 20
223.5841554423265
 30
0.0
 11
65.12240321401222
 21
223.9279841618687
 31
0.0
  0
ARC
  5
9D37
  8
0
 10
62.78856148968734
 20
222.175303673716
 30
0.0
 40
2.469632342666266
 50
34.78302390875149
 51
55.71309290050228
  0
ARC
  5
9D38
  8
0
 10
62.96248485210171
 20
225.6001386955946
 30
0.0
 40
1.834272761572525
 50
316.4306178633717
 51
342.9799715932805
  0
ARC
  5
9D39
  8
0
 10
62.71363163530268
 20
220.0715953509922
 30
0.0
 40
4.546857725842939
 50
58.01034014976546
 51
69.6947510335346
  0
ARC
  5
A244
  8
0
 10
53.62970639697363
 20
238.7350813168137
 30
0.0
 40
5.33214218313847
 50
74.3144994222587
 51
104.1724498576074
  0
ARC
  5
A245
  8
0
 10
53.63719310871346
 20
238.7456106464522
 30
0.0
 40
5.323775476131433
 50
104.2783165563116
 51
166.1870765708273
  0
ARC
  5
A246
  8
0
 10
53.6413319137059
 20
238.7525363098446
 30
0.0
 40
5.326146654840227
 50
166.270054507626
 51
215.0482339935348
  0
ARC
  5
A247
  8
0
 10
53.62940012956003
 20
238.7439050481374
 30
0.0
 40
5.311421839969246
 50
215.0459241187441
 51
273.2408824576858
  0
ARC
  5
A248
  8
0
 10
53.63143619020704
 20
238.7515040690011
 30
0.0
 40
5.318894171081752
 50
273.2143571100679
 51
346.1779060677009
  0
ARC
  5
A249
  8
0
 10
53.64154207740791
 20
238.7440228735339
 30
0.0
 40
5.307295827239366
 50
346.2302669880834
 51
43.78488871851552
  0
ARC
  5
A24A
  8
0
 10
55.7042978843202
 20
238.3225583229277
 30
0.0
 40
4.459640505811445
 50
66.63259795322786
 51
109.905871685035
  0
ARC
  5
A24B
  8
0
 10
55.48614554150345
 20
238.842790168026
 30
0.0
 40
3.896315762598357
 50
109.4942419685547
 51
167.6530237580676
  0
ARC
  5
A24C
  8
0
 10
54.74744579647211
 20
237.322441269956
 30
0.0
 40
3.866330758866939
 50
121.49327701854
 51
142.503166897339
  0
ARC
  5
A24D
  8
0
 10
54.6957598031006
 20
237.3858924941716
 30
0.0
 40
3.78524088928143
 50
91.77940320266768
 51
121.3278955587065
  0
ARC
  5
A24E
  8
0
 10
54.68348645526385
 20
237.268227254377
 30
0.0
 40
3.90250076108918
 50
65.20023754136542
 51
91.54565188015083
  0
ARC
  5
A24F
  8
0
 10
54.50975541463981
 20
236.9088385848037
 30
0.0
 40
4.301623157105358
 50
30.14973546883468
 51
65.10747394303505
  0
ARC
  5
A250
  8
0
 10
54.29351862566176
 20
236.7694598533786
 30
0.0
 40
4.558626665475829
 50
8.9769926527231
 51
30.2994981683211
  0
ARC
  5
A251
  8
0
 10
55.40717092376011
 20
240.2892971111468
 30
0.0
 40
4.401593171265135
 50
288.3388974970104
 51
320.3520397443187
  0
ARC
  5
A252
  8
0
 10
55.35629633250591
 20
240.3478064705662
 30
0.0
 40
4.473237795108389
 50
252.8403059470309
 51
288.7216405446108
  0
ARC
  5
A253
  8
0
 10
55.20805891152548
 20
239.9192612954065
 30
0.0
 40
4.020062191481092
 50
209.1938724537275
 51
253.0569803949627
  0
ARC
  5
A254
  8
0
 10
55.02000816794097
 20
239.7659917607059
 30
0.0
 40
3.781373116886767
 50
175.5970978715927
 51
208.5563260925432
  0
ARC
  5
A255
  8
0
 10
55.24427287128486
 20
239.7234421079522
 30
0.0
 40
4.008321764107
 50
141.0080554268093
 51
175.2367758980932
  0
ARC
  5
A256
  8
0
 10
55.58905229317247
 20
239.4514690854594
 30
0.0
 40
4.447428119007347
 50
96.68547469604036
 51
141.0795845301959
  0
ARC
  5
A257
  8
0
 10
55.3895423654368
 20
238.9015709006573
 30
0.0
 40
3.790160167539093
 50
178.4707117364453
 51
186.1865889351898
  0
ARC
  5
A258
  8
0
 10
42.35595743418997
 20
231.6312863839069
 30
0.0
 40
2.102527922038834
 50
84.95619996680482
 51
90.22314612645769
  0
ARC
  5
A259
  8
0
 10
42.48802372906363
 20
232.8785607153528
 30
0.0
 40
0.848754935304436
 50
65.19337763183492
 51
86.43460068621052
  0
ARC
  5
A25A
  8
0
 10
42.64724748005952
 20
233.2638805626816
 30
0.0
 40
0.432524910680116
 50
13.9863879207907
 51
62.92338893732329
  0
ARC
  5
A25B
  8
0
 10
41.97679210851953
 20
233.0598738632538
 30
0.0
 40
1.132979464242894
 50
3.904131892889081
 51
15.80295944671843
  0
ARC
  5
A25C
  8
0
 10
39.91717572266293
 20
232.8893675695779
 30
0.0
 40
3.199565044350259
 50
359.4532997353156
 51
4.439158366316591
  0
ARC
  5
A25D
  8
0
 10
42.09848132486894
 20
228.3160038436555
 30
0.0
 40
1.961880406277173
 50
269.5826669607686
 51
281.2467372863051
  0
ARC
  5
A25E
  8
0
 10
42.3256857985966
 20
227.2422123543477
 30
0.0
 40
0.8645009778283242
 50
280.3576091429006
 51
308.9726038906425
  0
ARC
  5
A25F
  8
0
 10
42.39730952214268
 20
227.0954520624687
 30
0.0
 40
0.7063050293075379
 50
311.9446536813427
 51
353.5803040312001
  0
ARC
  5
A260
  8
0
 10
41.45875165978418
 20
227.2566802913244
 30
0.0
 40
1.657926458748007
 50
351.6696629683137
 51
0.5733241568768106
  0
ARC
  5
A261
  8
0
 10
46.7403340145263
 20
232.2628591820844
 30
0.0
 40
5.95119938757511
 50
257.5813101393114
 51
263.136802496719
  0
ARC
  5
A262
  8
0
 10
45.75063144462843
 20
227.818931775588
 30
0.0
 40
1.398452974297173
 50
235.2289453505774
 51
258.0263291625699
  0
ARC
  5
A263
  8
0
 10
45.40572338769647
 20
227.2440337456338
 30
0.0
 40
0.7308682337771808
 50
181.3642075179843
 51
231.7348554842791
  0
ARC
  5
A264
  8
0
 10
45.95041944077488
 20
227.3199768976331
 30
0.0
 40
1.278768468710234
 50
179.9604411616191
 51
184.1860155147163
  0
ARC
  5
A265
  8
0
 10
33.22875335713425
 20
228.4535408653364
 30
0.0
 40
11.44415409390602
 50
0.848935483152986
 51
1.690006264274332
  0
ARC
  5
A266
  8
0
 10
44.7034254774178
 20
228.7937728529275
 30
0.0
 40
0.0356002396173115
 50
132.0995794755948
 51
184.3854082312399
  0
ARC
  5
A267
  8
0
 10
44.71173765960572
 20
228.7534227741069
 30
0.0
 40
0.0741150757083008
 50
81.69918243476886
 51
115.7331729843349
  0
ARC
  5
A268
  8
0
 10
44.9183102906585
 20
229.5833993331799
 30
0.0
 40
0.2727989215437704
 50
229.3422064805707
 51
273.4045849244121
  0
ARC
  5
A269
  8
0
 10
44.94464848448197
 20
229.5524820057474
 30
0.0
 40
0.2695085644996453
 50
184.8442539947764
 51
220.7801867736532
  0
ARC
  5
A26A
  8
0
 10
45.23608322764125
 20
229.6004980004959
 30
0.0
 40
0.5644354903320787
 50
179.7970894737595
 51
187.2033550483905
  0
ARC
  5
A26B
  8
0
 10
45.24423008002896
 20
234.4519791014102
 30
0.0
 40
5.625234236528772
 50
270.1389228840426
 51
282.5749638804127
  0
ARC
  5
A26C
  8
0
 10
45.70357304034968
 20
232.7862919735444
 30
0.0
 40
3.900438044695806
 50
281.31631568977
 51
306.6736079669237
  0
ARC
  5
A26D
  8
0
 10
46.06753711661798
 20
232.0841849566245
 30
0.0
 40
3.122533740917625
 50
309.0122993056879
 51
333.1868714432047
  0
ARC
  5
A26E
  8
0
 10
46.78214621315973
 20
231.641836628832
 30
0.0
 40
2.286370135056757
 50
335.0025208531055
 51
3.132350940942409
  0
ARC
  5
A26F
  8
0
 10
46.673989016517
 20
231.5562956096253
 30
0.0
 40
2.400356917899017
 50
5.030415615660186
 51
45.8801555680425
  0
ARC
  5
A270
  8
0
 10
46.02389455579993
 20
230.613533866438
 30
0.0
 40
3.534812041936091
 50
48.95520224166617
 51
77.68716474380085
  0
ARC
  5
A271
  8
0
 10
45.74608315557902
 20
229.4284085074673
 30
0.0
 40
4.751956788280896
 50
77.46176455392263
 51
90.50756358638267
  0
ARC
  5
A272
  8
0
 10
44.8691434581819
 20
233.5626260471734
 30
0.0
 40
0.1328574047888303
 50
89.08094236461791
 51
124.4007292599872
  0
ARC
  5
A273
  8
0
 10
44.92148369101272
 20
233.5016279510706
 30
0.0
 40
0.2129371461418388
 50
126.7487054586328
 51
162.0338218173676
  0
ARC
  5
A274
  8
0
 10
45.42921822193563
 20
233.3135077204722
 30
0.0
 40
0.7542713589800576
 50
160.3370642577249
 51
177.7002884087945
  0
ARC
  5
A275
  8
0
 10
46.36590144124074
 20
233.2287423232323
 30
0.0
 40
1.69425665145904
 50
176.1068976128699
 51
180.1585523306186
  0
ARC
  5
A276
  8
0
 10
45.37356275037314
 20
231.5295013395806
 30
0.0
 40
2.219308321722258
 50
271.6216628224755
 51
290.5180238120268
  0
ARC
  5
A277
  8
0
 10
45.55354670475748
 20
230.9596560061381
 30
0.0
 40
1.622827402472289
 50
291.6184361004774
 51
329.2928533987833
  0
ARC
  5
A278
  8
0
 10
44.62443842257289
 20
231.4712999497728
 30
0.0
 40
2.683157532333741
 50
330.0305147082963
 51
359.7069691972517
  0
ARC
  5
A279
  8
0
 10
44.49651675808985
 20
231.5819248113473
 30
0.0
 40
2.813793035039953
 50
357.4671544818835
 51
18.09389103936943
  0
ARC
  5
A27A
  8
0
 10
45.34875832821618
 20
231.8783542065202
 30
0.0
 40
1.911708557628758
 50
17.58181129013311
 51
44.10613559949745
  0
ARC
  5
A27B
  8
0
 10
45.60837962687495
 20
232.0888206166464
 30
0.0
 40
1.579081423259486
 50
45.17904980442386
 51
71.36379322642686
  0
ARC
  5
A27C
  8
0
 10
45.43169608899944
 20
231.5424061928947
 30
0.0
 40
2.153318191790253
 50
71.55515292962627
 51
90.8869891698155
  0
ARC
  5
A27D
  8
0
 10
48.45918952960557
 20
228.6333846014708
 30
0.0
 40
0.9504697930117868
 50
45.647846390803
 51
90.95907175324457
  0
ARC
  5
A27E
  8
0
 10
48.19057423128965
 20
228.4027601621565
 30
0.0
 40
1.303524477208397
 50
356.286618042267
 51
44.29157541670886
  0
ARC
  5
A27F
  8
0
 10
47.74044742681954
 20
228.2344267937276
 30
0.0
 40
1.752924040513615
 50
332.8282653512692
 51
2.743720271344923
  0
ARC
  5
A280
  8
0
 10
48.43247162729932
 20
227.9488144795323
 30
0.0
 40
1.008745565207887
 50
281.1029522262585
 51
329.3086861457625
  0
ARC
  5
A281
  8
0
 10
48.44503473972429
 20
228.0210951778001
 30
0.0
 40
1.077573765673208
 50
254.373585711482
 51
279.7072195183877
  0
ARC
  5
A282
  8
0
 10
48.45865623713573
 20
227.9612172109034
 30
0.0
 40
1.023995873514749
 50
198.078198350464
 51
252.7369026576817
  0
ARC
  5
A283
  8
0
 10
49.50470998084256
 20
228.2674988461033
 30
0.0
 40
2.113718303506307
 50
164.6942276189751
 51
197.1716014617761
  0
ARC
  5
A284
  8
0
 10
48.50065069068069
 20
228.5323193499972
 30
0.0
 40
1.07541041250608
 50
123.3084104466157
 51
164.1819940011187
  0
ARC
  5
A285
  8
0
 10
48.42975451827675
 20
228.623478911252
 30
0.0
 40
0.9603375863241239
 50
89.19299068101529
 51
122.7601092117228
  0
ARC
  5
A286
  8
0
 10
48.74599718647397
 20
228.2713798413292
 30
0.0
 40
2.529168051565525
 50
164.9665044400625
 51
190.6145490228779
  0
ARC
  5
A287
  8
0
 10
48.37943253112851
 20
228.0951960232046
 30
0.0
 40
2.13903317801624
 50
187.7835408718215
 51
220.8538282758054
  0
ARC
  5
A288
  8
0
 10
48.36290865327183
 20
228.2577192672319
 30
0.0
 40
2.23684800464541
 50
224.28151327257
 51
262.3352180838968
  0
ARC
  5
A289
  8
0
 10
48.44410295745786
 20
228.4258834791128
 30
0.0
 40
2.415036709056927
 50
260.9581187463501
 51
295.9617934482585
  0
ARC
  5
A28A
  8
0
 10
48.46881443093596
 20
228.1923717295135
 30
0.0
 40
2.195729658493223
 50
298.0499757225368
 51
338.9010076102918
  0
ARC
  5
A28B
  8
0
 10
48.07925792781018
 20
228.2778074882259
 30
0.0
 40
2.590632549888452
 50
340.2397223934027
 51
12.59603457387198
  0
ARC
  5
A28C
  8
0
 10
48.55389651119862
 20
228.3963465113493
 30
0.0
 40
2.101602444292964
 50
12.26400142418705
 51
42.00204460106953
  0
ARC
  5
A28D
  8
0
 10
48.5534054065557
 20
228.4238323597401
 30
0.0
 40
2.083678402800012
 50
41.43135548057312
 51
84.31090183999093
  0
ARC
  5
A28E
  8
0
 10
54.44238830636203
 20
228.9527689899433
 30
0.0
 40
0.7218683279506627
 50
130.1010359850342
 51
152.8765297157266
  0
ARC
  5
A28F
  8
0
 10
54.38442435428126
 20
228.9390531550274
 30
0.0
 40
0.6970539232955045
 50
93.6216075869979
 51
125.7261982466873
  0
ARC
  5
A290
  8
0
 10
54.49550482082105
 20
227.9945771934042
 30
0.0
 40
1.647456117640462
 50
86.1442592668663
 51
95.40251107253543
  0
ARC
  5
A291
  8
0
 10
54.54423721877021
 20
228.166371927206
 30
0.0
 40
1.473239699002557
 50
75.78444603343868
 51
87.58609443775997
  0
ARC
  5
A292
  8
0
 10
54.80892063113754
 20
229.1636019271419
 30
0.0
 40
0.4417023764257507
 50
38.65642909797035
 51
77.30076056537806
  0
ARC
  5
A293
  8
0
 10
54.63722881674153
 20
229.0930940313332
 30
0.0
 40
0.622013293909289
 50
359.8735965182385
 51
33.84363804094146
  0
ARC
  5
A294
  8
0
 10
51.67911811270645
 20
228.9728278802058
 30
0.0
 40
3.582096140528945
 50
359.0859929973961
 51
1.902062204167362
  0
ARC
  5
A295
  8
0
 10
54.32177715937533
 20
231.2426105657439
 30
0.0
 40
2.509234634269819
 50
284.9657500733399
 51
291.97550982172
  0
ARC
  5
A296
  8
0
 10
52.64245385887477
 20
237.390448079437
 30
0.0
 40
8.882278806531481
 50
280.2043110183695
 51
285.1898042810342
  0
ARC
  5
A297
  8
0
 10
55.10755945142208
 20
223.4910514895851
 30
0.0
 40
5.234101951295329
 50
99.80708673503382
 51
108.9029002183753
  0
ARC
  5
A298
  8
0
 10
53.80234854898916
 20
227.2414479743024
 30
0.0
 40
1.263280702218469
 50
108.0038789458568
 51
139.5346921255566
  0
ARC
  5
A299
  8
0
 10
53.74244764032562
 20
227.3252847639837
 30
0.0
 40
1.163565746446632
 50
140.7612947780745
 51
168.9659435881561
  0
ARC
  5
A29A
  8
0
 10
53.9768152382901
 20
227.2835838253349
 30
0.0
 40
1.401587473098195
 50
169.1264415873884
 51
196.8129880402175
  0
ARC
  5
A29B
  8
0
 10
53.77683507748731
 20
227.2500647618869
 30
0.0
 40
1.200736629503124
 50
198.0421705376476
 51
235.7348582477584
  0
ARC
  5
A29C
  8
0
 10
53.933694722436
 20
227.5481109804203
 30
0.0
 40
1.535844315416191
 50
237.1590292494215
 51
270.7198132743666
  0
ARC
  5
A29D
  8
0
 10
54.01363110535334
 20
227.8221232659565
 30
0.0
 40
1.810751131158588
 50
268.0808101764746
 51
292.8635926074776
  0
ARC
  5
A29E
  8
0
 10
53.88282183575745
 20
228.0491293856035
 30
0.0
 40
2.070998767971581
 50
293.7580989581123
 51
314.7899657835182
  0
ARC
  5
A29F
  8
0
 10
58.8620047300009
 20
227.2175723386935
 30
0.0
 40
2.499173832420186
 50
192.2727471956715
 51
206.3510707099188
  0
ARC
  5
A2A0
  8
0
 10
60.82763071078571
 20
227.392391441823
 30
0.0
 40
4.463878389973498
 50
178.3054146575074
 51
189.1007693226514
  0
ARC
  5
A2A1
  8
0
 10
-122.3404779120986
 20
230.4452560942569
 30
0.0
 40
178.7300508439498
 50
359.0636135939208
 51
359.5331222948618
  0
ARC
  5
A2A2
  8
0
 10
53.30452549634907
 20
228.9884382504238
 30
0.0
 40
3.07911375910394
 50
0.0082366020401114
 51
13.70501902078777
  0
ARC
  5
A2A3
  8
0
 10
55.44388379996929
 20
229.4575693887712
 30
0.0
 40
0.8909843556742496
 50
16.99219239725965
 51
58.15468777164725
  0
ARC
  5
A2A4
  8
0
 10
54.97608523618609
 20
228.7980004509718
 30
0.0
 40
1.698813368729804
 50
56.4891308086457
 51
88.52476597508146
  0
ARC
  5
A2A5
  8
0
 10
54.61316639129561
 20
226.2210015179092
 30
0.0
 40
4.294545824498953
 50
84.56646884241289
 51
99.63736677787178
  0
ARC
  5
A2A6
  8
0
 10
54.13967752931245
 20
229.0003000065394
 30
0.0
 40
1.475204576717583
 50
99.5783577095598
 51
133.4108128523484
  0
ARC
  5
A2A7
  8
0
 10
54.39336012037575
 20
228.8599312972039
 30
0.0
 40
1.753711970549818
 50
136.2812462218209
 51
166.0780026216429
  0
ARC
  5
A2A8
  8
0
 10
53.27121216602623
 20
234.629503022607
 30
0.0
 40
6.758384124597473
 50
280.6962555586759
 51
287.1203411217375
  0
ARC
  5
A2A9
  8
0
 10
55.23844411769088
 20
224.5367731253513
 30
0.0
 40
3.524614443440088
 50
101.6686696910115
 51
109.1101391117779
  0
ARC
  5
A2AA
  8
0
 10
54.24780114577186
 20
227.3431141358506
 30
0.0
 40
0.5488788980844314
 50
107.304431562489
 51
142.6785974978667
  0
ARC
  5
A2AB
  8
0
 10
54.16061746956549
 20
227.4055061943491
 30
0.0
 40
0.4417308257590526
 50
142.258199201179
 51
180.7216068092584
  0
ARC
  5
A2AC
  8
0
 10
54.26475672049054
 20
227.3946872122642
 30
0.0
 40
0.5458603467606972
 50
179.4483220443287
 51
220.6412737198986
  0
ARC
  5
A2AD
  8
0
 10
54.31853279352936
 20
227.4229280752443
 30
0.0
 40
0.6052123636331186
 50
219.3540008203597
 51
262.049369939488
  0
ARC
  5
A2AE
  8
0
 10
54.35795008110853
 20
227.7219484804106
 30
0.0
 40
0.9068136346841665
 50
262.1960849641753
 51
288.4736708280099
  0
ARC
  5
A2AF
  8
0
 10
54.31018420135027
 20
227.8652776464691
 30
0.0
 40
1.057892482791887
 50
288.4676009339713
 51
313.9760865401699
  0
ARC
  5
A2B0
  8
0
 10
54.56843688096319
 20
227.5823903868954
 30
0.0
 40
0.6750814753682137
 50
314.873968361606
 51
353.3371743964237
  0
ARC
  5
A2B1
  8
0
 10
51.80432293624364
 20
227.8946740726606
 30
0.0
 40
3.456776160850171
 50
353.5117984853132
 51
0.8226475095749395
  0
ARC
  5
A2B2
  8
0
 10
62.41484515251648
 20
228.5731011578855
 30
0.0
 40
7.34861436909221
 50
195.7421928264704
 51
199.597791318071
  0
ARC
  5
A2B3
  8
0
 10
75.18631218033335
 20
227.4760631597132
 30
0.0
 40
17.00768455573995
 50
177.5431527159517
 51
180.1224681839423
  0
ARC
  5
A2B4
  8
0
 10
62.17308935800017
 20
228.0814573909748
 30
0.0
 40
3.98074969577439
 50
168.3575610519279
 51
178.2196605600729
  0
ARC
  5
A2B5
  8
0
 10
59.26394801097683
 20
228.6605480226751
 30
0.0
 40
1.014793522696064
 50
138.3863021467757
 51
167.2340218536034
  0
ARC
  5
A2B6
  8
0
 10
58.90834637183784
 20
228.8937674251743
 30
0.0
 40
0.5972547683434593
 50
96.77586538956423
 51
132.447773558299
  0
ARC
  5
A2B7
  8
0
 10
58.93913971537421
 20
228.7418676360608
 30
0.0
 40
0.7518332906437697
 50
71.72267914677889
 51
97.74042030460187
  0
ARC
  5
A2B8
  8
0
 10
58.76568800754001
 20
228.2300685669175
 30
0.0
 40
1.29221607752043
 50
56.46328333653608
 51
71.5367949068469
  0
ARC
  5
A2B9
  8
0
 10
60.69935289574343
 20
228.2080407885722
 30
0.0
 40
3.058724754046294
 50
139.5470247594357
 51
148.3665835328131
  0
ARC
  5
A2BA
  8
0
 10
59.04756343606115
 20
229.6400059693653
 30
0.0
 40
0.8729050829687197
 50
109.5979517564685
 51
140.7231812093455
  0
ARC
  5
A2BB
  8
0
 10
59.07795105936688
 20
229.5124926515147
 30
0.0
 40
1.003323721815536
 50
86.36469047660621
 51
108.7902753767986
  0
ARC
  5
A2BC
  8
0
 10
59.07698552933516
 20
229.1373144666979
 30
0.0
 40
1.377997254265745
 50
78.84643697971657
 51
87.31376656527279
  0
ARC
  5
A2BD
  8
0
 10
59.06326719858239
 20
229.0675850947604
 30
0.0
 40
1.449063259500479
 50
73.30291166206497
 51
78.8475905402678
  0
ARC
  5
A2BE
  8
0
 10
63.66424728098914
 20
228.9259238235931
 30
0.0
 40
1.673766598535952
 50
15.45353000298215
 51
35.65921843237705
  0
ARC
  5
A2BF
  8
0
 10
63.94936654552882
 20
229.115631609043
 30
0.0
 40
1.331569712949468
 50
36.17886961743995
 51
65.18032133965713
  0
ARC
  5
A2C0
  8
0
 10
63.5660837597957
 20
228.0470237270227
 30
0.0
 40
2.464419661937123
 50
67.52176510600175
 51
89.95176516883794
  0
ARC
  5
A2C1
  8
0
 10
63.38651319318038
 20
226.7855011510691
 30
0.0
 40
3.730366476747655
 50
87.208954205559
 51
101.0994306540248
  0
ARC
  5
A2C2
  8
0
 10
62.94850651561228
 20
228.9845527376345
 30
0.0
 40
1.488141506149253
 50
100.8503522773502
 51
133.1120733601343
  0
ARC
  5
A2C3
  8
0
 10
62.7614570774476
 20
229.1943270952314
 30
0.0
 40
1.207186880999289
 50
133.4355814373259
 51
160.5403057677102
  0
ARC
  5
A2C4
  8
0
 10
62.85913337287172
 20
229.1871491817345
 30
0.0
 40
1.30192991328094
 50
161.6745785399147
 51
192.4880693726293
  0
ARC
  5
A2C5
  8
0
 10
62.6254391311889
 20
229.1332135005052
 30
0.0
 40
1.06210390647494
 50
192.3733574320922
 51
226.4953370670944
  0
ARC
  5
A2C6
  8
0
 10
62.78676830254699
 20
229.2884800520034
 30
0.0
 40
1.285822665205259
 50
226.0440591685035
 51
249.5155775654873
  0
ARC
  5
A2C7
  8
0
 10
64.7335790577373
 20
234.189236183197
 30
0.0
 40
6.558883186265355
 50
248.5661847695234
 51
256.364882331747
  0
ARC
  5
A2C8
  8
0
 10
73.4859980123208
 20
269.2980419168896
 30
0.0
 40
42.74209767946007
 50
256.0575388595495
 51
257.0500330678841
  0
ARC
  5
A2C9
  8
0
 10
63.76554476188178
 20
226.9182225642747
 30
0.0
 40
0.738586693301286
 50
53.94494987543574
 51
78.91973275289719
  0
ARC
  5
A2CA
  8
0
 10
63.97533764177848
 20
227.3050324217683
 30
0.0
 40
0.3079156393342173
 50
351.7054337157878
 51
43.07738885190844
  0
ARC
  5
A2CB
  8
0
 10
63.92301508296151
 20
227.2876841702759
 30
0.0
 40
0.3580422081846633
 50
305.5545895016557
 51
355.6635972446031
  0
ARC
  5
A2CC
  8
0
 10
63.60152364599213
 20
227.8083915754061
 30
0.0
 40
0.9694871848616392
 50
270.6346537603557
 51
303.1173831021145
  0
ARC
  5
A2CD
  8
0
 10
63.47389066174804
 20
228.3682938936763
 30
0.0
 40
1.535577099296554
 50
255.0528385911238
 51
275.1699625266891
  0
ARC
  5
A2CE
  8
0
 10
63.27465533834271
 20
227.5786297974542
 30
0.0
 40
0.72133028502093
 50
220.3482025964622
 51
254.1645624218323
  0
ARC
  5
A2CF
  8
0
 10
63.35127921402275
 20
227.630659119264
 30
0.0
 40
0.8134735047535518
 50
201.7856653156537
 51
219.6469566048348
  0
ARC
  5
A2D0
  8
0
 10
63.02558367137098
 20
227.7411004461708
 30
0.0
 40
1.679722551042641
 50
194.210622631723
 51
218.9435761559325
  0
ARC
  5
A2D1
  8
0
 10
63.03591206439521
 20
227.7783803564695
 30
0.0
 40
1.711336039747307
 50
219.6970036238806
 51
248.5406571485441
  0
ARC
  5
A2D2
  8
0
 10
63.33653074007503
 20
228.633862368389
 30
0.0
 40
2.617702860846573
 50
249.2671616286075
 51
267.747025064058
  0
ARC
  5
A2D3
  8
0
 10
63.46981174030472
 20
229.161814112078
 30
0.0
 40
3.152491240768179
 50
265.7033250605309
 51
289.3905439589275
  0
ARC
  5
A2D4
  8
0
 10
63.94426730960427
 20
227.6043236155461
 30
0.0
 40
1.527408099999837
 50
292.0004687572242
 51
331.7243378576275
  0
ARC
  5
A2D5
  8
0
 10
64.1336025560156
 20
227.4613619313477
 30
0.0
 40
1.293448633509429
 50
333.3286501185839
 51
10.01278361973784
  0
ARC
  5
A2D6
  8
0
 10
64.43045511397321
 20
227.5489695994468
 30
0.0
 40
0.9864943557164728
 50
7.999299177210515
 51
56.09544702440798
  0
ARC
  5
A2D7
  8
0
 10
63.41324836749413
 20
225.8489965245353
 30
0.0
 40
2.966650730685512
 50
58.1047262069082
 51
77.57165611660318
  0
ARC
  5
A2D8
  8
0
 10
69.64394504281992
 20
253.1738848585603
 30
0.0
 40
25.05969444260865
 50
254.9920383624129
 51
257.1055378385226
  0
ARC
  5
A2D9
  8
0
 10
63.57116716342517
 20
230.7082760987251
 30
0.0
 40
1.788471967299355
 50
241.9968666432906
 51
256.5329008491028
  0
ARC
  5
A2DA
  8
0
 10
62.87463969629837
 20
229.3424957473458
 30
0.0
 40
0.2569089219111538
 50
181.4229295114256
 51
236.1252737546306
  0
ARC
  5
A2DB
  8
0
 10
62.88986033395861
 20
229.336989361279
 30
0.0
 40
0.272051738584831
 50
114.9382961617164
 51
180.1839102890763
  0
ARC
  5
A2DC
  8
0
 10
63.29184761236081
 20
228.4278850768655
 30
0.0
 40
1.266027764923893
 50
87.40586972974698
 51
114.0870118917362
  0
ARC
  5
A2DD
  8
0
 10
63.39235586872039
 20
228.1086653075497
 30
0.0
 40
1.584539315298479
 50
81.26152734193053
 51
91.56252783870202
  0
ARC
  5
A2DE
  8
0
 10
63.52585264114884
 20
228.9144523497856
 30
0.0
 40
0.767883455285971
 50
58.63150134670214
 51
81.97250411125933
  0
ARC
  5
A2DF
  8
0
 10
63.58578561950705
 20
229.0491418287912
 30
0.0
 40
0.6219714409278794
 50
31.26144626097709
 51
56.88664282448718
  0
ARC
  5
A2E0
  8
0
 10
59.23256996357833
 20
225.2464516449654
 30
0.0
 40
0.1450093835969383
 50
152.3324835633369
 51
201.6883497501618
  0
ARC
  5
A2E1
  8
0
 10
59.28284993014142
 20
225.2134674226601
 30
0.0
 40
0.2049400430791757
 50
94.26849177823954
 51
150.6923636878295
  0
ARC
  5
A2E2
  8
0
 10
59.29528997282733
 20
225.1758575188881
 30
0.0
 40
0.2435610534233947
 50
65.67526895000145
 51
96.52886377923876
  0
ARC
  5
A2E3
  8
0
 10
59.32619666219077
 20
225.2323545021537
 30
0.0
 40
0.1794155440342952
 50
15.00501194484098
 51
67.2375225199484
  0
ARC
  5
A2E4
  8
0
 10
59.35879971028913
 20
225.2461996766744
 30
0.0
 40
0.1444238304842776
 50
334.5475718261126
 51
13.04798857661176
  0
ARC
  5
A2E5
  8
0
 10
59.31704976757635
 20
225.2690710137749
 30
0.0
 40
0.1919699607925253
 50
283.3392084596457
 51
333.7390166514077
  0
ARC
  5
A2E6
  8
0
 10
59.29549833912466
 20
225.3182119791553
 30
0.0
 40
0.2449468824808138
 50
249.2475068279205
 51
285.5929160340207
  0
ARC
  5
A2E7
  8
0
 10
59.27216905525677
 20
225.2681390895238
 30
0.0
 40
0.1899001165681578
 50
203.3534454850997
 51
250.4765665943434
  0
ARC
  5
A2E8
  8
0
 10
59.23345617450275
 20
225.2463899638414
 30
0.0
 40
0.220563220518459
 50
149.5924277991477
 51
208.5026443066654
  0
ARC
  5
A2E9
  8
0
 10
59.28313473185256
 20
225.2113961726595
 30
0.0
 40
0.2811654578303905
 50
99.15226556107618
 51
148.5662219609118
  0
ARC
  5
A2EA
  8
0
 10
59.29525052237452
 20
225.1742810734432
 30
0.0
 40
0.3197925578412533
 50
69.2643536209876
 51
100.2377265552896
  0
ARC
  5
A2EB
  8
0
 10
59.31447537002504
 20
225.2179436106945
 30
0.0
 40
0.2721632922277281
 50
34.33047436698014
 51
69.79498100628884
  0
ARC
  5
A2EC
  8
0
 10
59.35674565701993
 20
225.2465108048115
 30
0.0
 40
0.2211457863352724
 50
330.8904082426623
 51
34.39478799471744
  0
ARC
  5
A2ED
  8
0
 10
59.31254421196303
 20
225.2747270822786
 30
0.0
 40
0.2735090128067355
 50
281.5278040705555
 51
330.2307053142199
  0
ARC
  5
A2EE
  8
0
 10
59.29551632932058
 20
225.3182168968044
 30
0.0
 40
0.3196244185618837
 50
249.2057013607624
 51
282.9608191978189
  0
ARC
  5
A2EF
  8
0
 10
59.27496521886653
 20
225.272307508387
 30
0.0
 40
0.2694253491506349
 50
209.133855782525
 51
249.8253936421853
  0
LINE
  5
A37D
  8
D002
 10
77.32347425020461
 20
222.7911326928808
 30
0.0
 11
77.32347425020461
 21
223.3375793022875
 31
0.0
1001
GENIUS_GENODEF_13
1002
{
1000
HIER
1070
     0
1002
}
1002
{
1000
MANEDIT
1070
     0
1002
}
1002
{
1000
NOSEL
1070
     0
1002
}
1002
{
1000
BEHIND
1070
     0
1002
}
1002
{
1000
OTHER
1070
     0
1002
}
1002
{
1000
REACTOR
1002
}
1001
GENIUS_GENOBJ-N-CEN_13
1002
{
1000
OWNER
1000
GEN
1002
}
1001
GENIUS_GENCEN_19
1002
{
1040
3.0
1002
}
  0
LINE
  5
A37E
  8
D002
 10
77.6234742502048
 20
222.7911326928808
 30
0.0
 11
77.6234742502048
 21
223.3375793022875
 31
0.0
1001
GENIUS_GENODEF_13
1002
{
1000
HIER
1070
     0
1002
}
1002
{
1000
MANEDIT
1070
     0
1002
}
1002
{
1000
NOSEL
1070
     0
1002
}
1002
{
1000
BEHIND
1070
     0
1002
}
1002
{
1000
OTHER
1070
     0
1002
}
1002
{
1000
REACTOR
1002
}
1001
GENIUS_GENOBJ-N-CEN_13
1002
{
1000
OWNER
1000
GEN
1002
}
1001
GENIUS_GENCEN_19
1002
{
1040
3.0
1002
}
  0
LINE
  5
A37F
  8
D002
 10
77.6234742502048
 20
226.8911326928809
 30
0.0
 11
78.26930105515166
 21
227.5369594978279
 31
0.0
  0
LINE
  5
A380
  8
D002
 10
77.6234742502048
 20
227.3911326928809
 30
0.0
 11
78.01930105515166
 21
227.7869594978279
 31
0.0
  0
ARC
  5
A381
  8
D002
 10
77.4734742502047
 20
228.9911326928808
 30
0.0
 40
0.1499999999999773
 50
0.0
 51
180.0
  0
ARC
  5
A382
  8
D002
 10
78.14430105515166
 20
227.6619594978279
 30
0.0
 40
0.1767766952966168
 50
315.0000000000228
 51
134.9999999999967
  0
LINE
  5
A383
  8
D002
 10
77.32347425020461
 20
226.8911326928809
 30
0.0
 11
76.67764744525775
 21
227.5369594978279
 31
0.0
  0
LINE
  5
A384
  8
D002
 10
77.32347425020461
 20
227.3911326928809
 30
0.0
 11
76.92764744525775
 21
227.7869594978279
 31
0.0
  0
ARC
  5
A385
  8
D002
 10
76.80264744525775
 20
227.6619594978279
 30
0.0
 40
0.1767766952966168
 50
45.00000000000327
 51
224.9999999999772
  0
LINE
  5
A386
  8
D002
 10
77.6234742502048
 20
228.0911326928808
 30
0.0
 11
78.02226014742618
 21
228.4899185901022
 31
0.0
  0
LINE
  5
A387
  8
D002
 10
77.6234742502048
 20
228.444686083474
 30
0.0
 11
77.84548345212951
 21
228.6666952853988
 31
0.0
  0
ARC
  5
A388
  8
D002
 10
77.93387179977762
 20
228.5783069377507
 30
0.0
 40
0.1249999999999206
 50
314.9999999998848
 51
134.9999999999217
  0
LINE
  5
A389
  8
D002
 10
79.30373013853054
 20
224.6612288823133
 30
0.0
 11
79.44969590758441
 21
224.1164772160379
 31
0.0
  0
LINE
  5
A38A
  8
D002
 10
79.60991635637842
 20
224.4844521870166
 30
0.0
 11
79.69117736415669
 21
224.1811819773136
 31
0.0
  0
ARC
  5
A38B
  8
D002
 10
80.0308341854437
 20
224.9462615442163
 30
0.0
 40
0.1249999999999206
 50
285.0000000000046
 51
105.0000000000046
  0
LINE
  5
A38C
  8
D002
 10
77.6234742502048
 20
224.8911326928809
 30
0.0
 11
77.6234742502048
 21
225.2836158574916
 31
0.0
1001
GENIUS_GENODEF_13
1002
{
1000
HIER
1070
     0
1002
}
1002
{
1000
MANEDIT
1070
     0
1002
}
1002
{
1000
NOSEL
1070
     0
1002
}
1002
{
1000
BEHIND
1070
     0
1002
}
1002
{
1000
OTHER
1070
     0
1002
}
1002
{
1000
REACTOR
1002
}
1001
GENIUS_GENOBJ-N-CEN_13
1002
{
1000
OWNER
1000
GEN
1002
}
1001
GENIUS_GENCEN_19
1002
{
1040
3.0
1002
}
  0
LINE
  5
A38D
  8
D002
 10
79.75991635637828
 20
224.7442598081519
 30
0.0
 11
80.0631865660815
 21
224.8255208159303
 31
0.0
  0
ARC
  5
A38E
  8
D002
 10
79.57043663587078
 20
224.1488295966757
 30
0.0
 40
0.1249999999999206
 50
194.9999999999509
 51
15.00000000000457
  0
LINE
  5
A38F
  8
D002
 10
79.4537301385304
 20
224.9210365034486
 30
0.0
 11
79.99848180480589
 21
225.0670022725026
 31
0.0
  0
LINE
  5
A390
  8
D002
 10
77.6234742502048
 20
223.6911326928808
 30
0.0
 11
77.6234742502048
 21
224.3911326928809
 31
0.0
1001
GENIUS_GENODEF_13
1002
{
1000
HIER
1070
     0
1002
}
1002
{
1000
MANEDIT
1070
     0
1002
}
1002
{
1000
NOSEL
1070
     0
1002
}
1002
{
1000
BEHIND
1070
     0
1002
}
1002
{
1000
OTHER
1070
     0
1002
}
1002
{
1000
REACTOR
1002
}
1001
GENIUS_GENOBJ-N-CEN_13
1002
{
1000
OWNER
1000
GEN
1002
}
1001
GENIUS_GENCEN_19
1002
{
1040
3.0
1002
}
  0
LINE
  5
A391
  8
D002
 10
77.32347425020461
 20
223.6911326928808
 30
0.0
 11
77.32347425020461
 21
224.3911326928809
 31
0.0
1001
GENIUS_GENODEF_13
1002
{
1000
HIER
1070
     0
1002
}
1002
{
1000
MANEDIT
1070
     0
1002
}
1002
{
1000
NOSEL
1070
     0
1002
}
1002
{
1000
BEHIND
1070
     0
1002
}
1002
{
1000
OTHER
1070
     0
1002
}
1002
{
1000
REACTOR
1002
}
1001
GENIUS_GENOBJ-N-CEN_13
1002
{
1000
OWNER
1000
GEN
1002
}
1001
GENIUS_GENCEN_19
1002
{
1040
3.0
1002
}
  0
LINE
  5
A392
  8
D002
 10
77.32347425020461
 20
228.444686083474
 30
0.0
 11
77.32347425020461
 21
228.9911326928808
 31
0.0
1001
GENIUS_GENODEF_13
1002
{
1000
HIER
1070
     0
1002
}
1002
{
1000
MANEDIT
1070
     0
1002
}
1002
{
1000
NOSEL
1070
     0
1002
}
1002
{
1000
BEHIND
1070
     0
1002
}
1002
{
1000
OTHER
1070
     0
1002
}
1002
{
1000
REACTOR
1002
}
1001
GENIUS_GENOBJ-N-CEN_13
1002
{
1000
OWNER
1000
GEN
1002
}
1001
GENIUS_GENCEN_19
1002
{
1040
3.0
1002
}
  0
LINE
  5
A393
  8
D002
 10
77.6234742502048
 20
228.444686083474
 30
0.0
 11
77.6234742502048
 21
228.9911326928808
 31
0.0
1001
GENIUS_GENODEF_13
1002
{
1000
HIER
1070
     0
1002
}
1002
{
1000
MANEDIT
1070
     0
1002
}
1002
{
1000
NOSEL
1070
     0
1002
}
1002
{
1000
BEHIND
1070
     0
1002
}
1002
{
1000
OTHER
1070
     0
1002
}
1002
{
1000
REACTOR
1002
}
1001
GENIUS_GENOBJ-N-CEN_13
1002
{
1000
OWNER
1000
GEN
1002
}
1001
GENIUS_GENCEN_19
1002
{
1040
3.0
1002
}
  0
ARC
  5
A394
  8
D002
 10
77.01307670063179
 20
228.5783069377507
 30
0.0
 40
0.1249999999999206
 50
45.00000000007829
 51
224.9999999999677
  0
LINE
  5
A395
  8
D002
 10
77.32347425020461
 20
228.444686083474
 30
0.0
 11
77.10146504827989
 21
228.6666952853988
 31
0.0
  0
LINE
  5
A396
  8
D002
 10
77.32347425020461
 20
228.0911326928808
 30
0.0
 11
76.92468835298322
 21
228.4899185901022
 31
0.0
  0
LINE
  5
A397
  8
D002
 10
77.6234742502048
 20
227.3911326928809
 30
0.0
 11
77.6234742502048
 21
228.0911326928808
 31
0.0
1001
GENIUS_GENODEF_13
1002
{
1000
HIER
1070
     0
1002
}
1002
{
1000
MANEDIT
1070
     0
1002
}
1002
{
1000
NOSEL
1070
     0
1002
}
1002
{
1000
BEHIND
1070
     0
1002
}
1002
{
1000
OTHER
1070
     0
1002
}
1002
{
1000
REACTOR
1002
}
1001
GENIUS_GENOBJ-N-CEN_13
1002
{
1000
OWNER
1000
GEN
1002
}
1001
GENIUS_GENCEN_19
1002
{
1040
3.0
1002
}
  0
LINE
  5
A398
  8
D002
 10
77.32347425020461
 20
227.3911326928809
 30
0.0
 11
77.32347425020461
 21
228.0911326928808
 31
0.0
1001
GENIUS_GENODEF_13
1002
{
1000
HIER
1070
     0
1002
}
1002
{
1000
MANEDIT
1070
     0
1002
}
1002
{
1000
NOSEL
1070
     0
1002
}
1002
{
1000
BEHIND
1070
     0
1002
}
1002
{
1000
OTHER
1070
     0
1002
}
1002
{
1000
REACTOR
1002
}
1001
GENIUS_GENOBJ-N-CEN_13
1002
{
1000
OWNER
1000
GEN
1002
}
1001
GENIUS_GENCEN_19
1002
{
1040
3.0
1002
}
  0
LINE
  5
A399
  8
D002
 10
77.6234742502048
 20
223.3375793022875
 30
0.0
 11
77.84548345212951
 21
223.1155701003628
 31
0.0
  0
LINE
  5
A39A
  8
D002
 10
77.32347425020461
 20
224.3911326928809
 30
0.0
 11
76.92764744525775
 21
223.9953058879338
 31
0.0
  0
ARC
  5
A39B
  8
D002
 10
77.4734742502047
 20
222.7911326928808
 30
0.0
 40
0.1499999999999773
 50
180.0
 51
0.0
  0
ARC
  5
A39C
  8
D002
 10
78.14430105515166
 20
224.1203058879338
 30
0.0
 40
0.1767766952966168
 50
225.0000000000032
 51
45.00000000000327
  0
ARC
  5
A39D
  8
D002
 10
76.80264744525775
 20
224.1203058879338
 30
0.0
 40
0.1767766952966168
 50
134.9999999999967
 51
314.9999999999968
  0
LINE
  5
A39E
  8
D002
 10
77.6234742502048
 20
224.3911326928809
 30
0.0
 11
78.01930105515166
 21
223.9953058879338
 31
0.0
  0
LINE
  5
A39F
  8
D002
 10
77.32347425020461
 20
224.8911326928809
 30
0.0
 11
76.67764744525775
 21
224.2453058879338
 31
0.0
  0
ARC
  5
A3A0
  8
D002
 10
77.93387179977762
 20
223.203958448011
 30
0.0
 40
0.1249999999999206
 50
225.0000000000783
 51
44.99999999996776
  0
LINE
  5
A3A1
  8
D002
 10
77.32347425020461
 20
223.6911326928808
 30
0.0
 11
76.92468835298322
 21
223.2923467956595
 31
0.0
  0
LINE
  5
A3A2
  8
D002
 10
77.6234742502048
 20
223.6911326928808
 30
0.0
 11
78.02226014742618
 21
223.2923467956595
 31
0.0
  0
LINE
  5
A3A3
  8
D002
 10
77.6234742502048
 20
224.8911326928809
 30
0.0
 11
78.26930105515166
 21
224.2453058879338
 31
0.0
  0
ARC
  5
A3A4
  8
D002
 10
77.01307670063179
 20
223.203958448011
 30
0.0
 40
0.1249999999999206
 50
134.9999999998849
 51
314.9999999998848
  0
LINE
  5
A3A5
  8
D002
 10
77.32347425020461
 20
223.3375793022875
 30
0.0
 11
77.10146504827989
 21
223.1155701003628
 31
0.0
  0
LINE
  5
A3A6
  8
D002
 10
78.69751235588146
 20
226.7710365034485
 30
0.0
 11
78.84239502199088
 21
227.3117459745049
 31
0.0
  0
ARC
  5
A3A7
  8
D002
 10
78.67164184651787
 20
227.357499149978
 30
0.0
 40
0.1767766952966168
 50
344.9999999999747
 51
164.9999999999747
  0
LINE
  5
A3A8
  8
D002
 10
75.33703214403099
 20
224.4844521870166
 30
0.0
 11
74.86379549847297
 21
224.2112288823132
 31
0.0
1001
GENIUS_GENODEF_13
1002
{
1000
HIER
1070
     0
1002
}
1002
{
1000
MANEDIT
1070
     0
1002
}
1002
{
1000
NOSEL
1070
     0
1002
}
1002
{
1000
BEHIND
1070
     0
1002
}
1002
{
1000
OTHER
1070
     0
1002
}
1002
{
1000
REACTOR
1002
}
1001
GENIUS_GENOBJ-N-CEN_13
1002
{
1000
OWNER
1000
GEN
1002
}
1001
GENIUS_GENCEN_19
1002
{
1040
3.0
1002
}
  0
LINE
  5
A3A9
  8
D002
 10
78.41449965398905
 20
226.2612288823132
 30
0.0
 11
79.29671547599182
 21
226.0248398652576
 31
0.0
  0
LINE
  5
A3AA
  8
D002
 10
79.4537301385304
 20
226.8612288823132
 30
0.0
 11
79.99848180480589
 21
226.7152631132592
 31
0.0
  0
LINE
  5
A3AB
  8
D002
 10
79.75991635637828
 20
227.0380055776099
 30
0.0
 11
80.0631865660815
 21
226.9567445698315
 31
0.0
  0
ARC
  5
A3AC
  8
D002
 10
80.0308341854437
 20
226.8360038415454
 30
0.0
 40
0.1249999999999206
 50
254.9999999999954
 51
74.99999999999544
  0
LINE
  5
A3AD
  8
D002
 10
79.30373013853054
 20
227.1210365034485
 30
0.0
 11
79.44969590758441
 21
227.6657881697239
 31
0.0
  0
LINE
  5
A3AE
  8
D002
 10
76.09943614452808
 20
225.2710365034485
 30
0.0
 11
75.493218361879
 21
224.9210365034485
 31
0.0
1001
GENIUS_GENODEF_13
1002
{
1000
HIER
1070
     0
1002
}
1002
{
1000
MANEDIT
1070
     0
1002
}
1002
{
1000
NOSEL
1070
     0
1002
}
1002
{
1000
BEHIND
1070
     0
1002
}
1002
{
1000
OTHER
1070
     0
1002
}
1002
{
1000
REACTOR
1002
}
1001
GENIUS_GENOBJ-N-CEN_13
1002
{
1000
OWNER
1000
GEN
1002
}
1001
GENIUS_GENCEN_19
1002
{
1040
3.0
1002
}
  0
ARC
  5
A3AF
  8
D002
 10
76.27530665389153
 20
224.4247662357836
 30
0.0
 40
0.1767766952966168
 50
164.9999999999747
 51
345.0000000000139
  0
LINE
  5
A3B0
  8
D002
 10
76.09943614452808
 20
225.2710365034485
 30
0.0
 11
75.55872667347157
 21
225.4159191695579
 31
0.0
  0
ARC
  5
A3B1
  8
D002
 10
80.15815300193648
 20
227.4411326928808
 30
0.0
 40
0.1499999999999773
 50
300.0000000000254
 51
120.0000000000254
  0
LINE
  5
A3B2
  8
D002
 10
78.41449965398905
 20
226.2612288823132
 30
0.0
 11
78.07459926287842
 21
226.0649873000077
 31
0.0
1001
GENIUS_GENODEF_13
1002
{
1000
HIER
1070
     0
1002
}
1002
{
1000
MANEDIT
1070
     0
1002
}
1002
{
1000
NOSEL
1070
     0
1002
}
1002
{
1000
BEHIND
1070
     0
1002
}
1002
{
1000
OTHER
1070
     0
1002
}
1002
{
1000
REACTOR
1002
}
1001
GENIUS_GENOBJ-N-CEN_13
1002
{
1000
OWNER
1000
GEN
1002
}
1001
GENIUS_GENCEN_19
1002
{
1040
3.0
1002
}
  0
LINE
  5
A3B3
  8
D002
 10
78.26449965398919
 20
226.5210365034485
 30
0.0
 11
77.92459926287856
 21
226.3247949211431
 31
0.0
1001
GENIUS_GENODEF_13
1002
{
1000
HIER
1070
     0
1002
}
1002
{
1000
MANEDIT
1070
     0
1002
}
1002
{
1000
NOSEL
1070
     0
1002
}
1002
{
1000
BEHIND
1070
     0
1002
}
1002
{
1000
OTHER
1070
     0
1002
}
1002
{
1000
REACTOR
1002
}
1001
GENIUS_GENOBJ-N-CEN_13
1002
{
1000
OWNER
1000
GEN
1002
}
1001
GENIUS_GENCEN_19
1002
{
1040
3.0
1002
}
  0
LINE
  5
A3B4
  8
D002
 10
76.24943614452795
 20
225.0112288823132
 30
0.0
 11
76.10455347841852
 21
224.4705194112568
 31
0.0
  0
LINE
  5
A3B5
  8
D002
 10
76.68244884642021
 20
225.2612288823132
 30
0.0
 11
76.44605982936477
 21
224.3790130603106
 31
0.0
  0
LINE
  5
A3B6
  8
D002
 10
80.23315300193653
 20
227.3112288823132
 30
0.0
 11
79.75991635637828
 21
227.0380055776099
 31
0.0
1001
GENIUS_GENODEF_13
1002
{
1000
HIER
1070
     0
1002
}
1002
{
1000
MANEDIT
1070
     0
1002
}
1002
{
1000
NOSEL
1070
     0
1002
}
1002
{
1000
BEHIND
1070
     0
1002
}
1002
{
1000
OTHER
1070
     0
1002
}
1002
{
1000
REACTOR
1002
}
1001
GENIUS_GENOBJ-N-CEN_13
1002
{
1000
OWNER
1000
GEN
1002
}
1001
GENIUS_GENCEN_19
1002
{
1040
3.0
1002
}
  0
ARC
  5
A3B7
  8
D002
 10
74.78879549847292
 20
224.3411326928808
 30
0.0
 40
0.1499999999999773
 50
120.0000000000254
 51
300.0000000000254
  0
ARC
  5
A3B8
  8
D002
 10
75.60447984894458
 20
225.5866723450309
 30
0.0
 40
0.1767766952966168
 50
75.0000000000127
 51
255.0000000000127
  0
LINE
  5
A3B9
  8
D002
 10
80.08315300193644
 20
227.5710365034486
 30
0.0
 11
79.60991635637842
 21
227.2978131987452
 31
0.0
1001
GENIUS_GENODEF_13
1002
{
1000
HIER
1070
     0
1002
}
1002
{
1000
MANEDIT
1070
     0
1002
}
1002
{
1000
NOSEL
1070
     0
1002
}
1002
{
1000
BEHIND
1070
     0
1002
}
1002
{
1000
OTHER
1070
     0
1002
}
1002
{
1000
REACTOR
1002
}
1001
GENIUS_GENOBJ-N-CEN_13
1002
{
1000
OWNER
1000
GEN
1002
}
1001
GENIUS_GENCEN_19
1002
{
1040
3.0
1002
}
  0
LINE
  5
A3BA
  8
D002
 10
79.30373013853054
 20
227.1210365034485
 30
0.0
 11
78.69751235588146
 21
226.7710365034485
 31
0.0
1001
GENIUS_GENODEF_13
1002
{
1000
HIER
1070
     0
1002
}
1002
{
1000
MANEDIT
1070
     0
1002
}
1002
{
1000
NOSEL
1070
     0
1002
}
1002
{
1000
BEHIND
1070
     0
1002
}
1002
{
1000
OTHER
1070
     0
1002
}
1002
{
1000
REACTOR
1002
}
1001
GENIUS_GENOBJ-N-CEN_13
1002
{
1000
OWNER
1000
GEN
1002
}
1001
GENIUS_GENCEN_19
1002
{
1040
3.0
1002
}
  0
LINE
  5
A3BB
  8
D002
 10
75.18703214403112
 20
224.7442598081519
 30
0.0
 11
74.71379549847288
 21
224.4710365034485
 31
0.0
1001
GENIUS_GENODEF_13
1002
{
1000
HIER
1070
     0
1002
}
1002
{
1000
MANEDIT
1070
     0
1002
}
1002
{
1000
NOSEL
1070
     0
1002
}
1002
{
1000
BEHIND
1070
     0
1002
}
1002
{
1000
OTHER
1070
     0
1002
}
1002
{
1000
REACTOR
1002
}
1001
GENIUS_GENOBJ-N-CEN_13
1002
{
1000
OWNER
1000
GEN
1002
}
1001
GENIUS_GENCEN_19
1002
{
1040
3.0
1002
}
  0
LINE
  5
A3BC
  8
D002
 10
79.4537301385304
 20
226.8612288823132
 30
0.0
 11
78.84751235588132
 21
226.5112288823132
 31
0.0
1001
GENIUS_GENODEF_13
1002
{
1000
HIER
1070
     0
1002
}
1002
{
1000
MANEDIT
1070
     0
1002
}
1002
{
1000
NOSEL
1070
     0
1002
}
1002
{
1000
BEHIND
1070
     0
1002
}
1002
{
1000
OTHER
1070
     0
1002
}
1002
{
1000
REACTOR
1002
}
1001
GENIUS_GENOBJ-N-CEN_13
1002
{
1000
OWNER
1000
GEN
1002
}
1001
GENIUS_GENCEN_19
1002
{
1040
3.0
1002
}
  0
LINE
  5
A3BD
  8
D002
 10
75.64321836187887
 20
224.6612288823131
 30
0.0
 11
75.49725259282499
 21
224.1164772160378
 31
0.0
  0
LINE
  5
A3BE
  8
D002
 10
75.33703214403099
 20
224.4844521870166
 30
0.0
 11
75.25577113625272
 21
224.1811819773135
 31
0.0
  0
ARC
  5
A3BF
  8
D002
 10
75.37651186453863
 20
224.1488295966756
 30
0.0
 40
0.1249999999999206
 50
164.9999999999954
 51
345.0000000001045
  0
LINE
  5
A3C0
  8
D002
 10
75.493218361879
 20
224.9210365034485
 30
0.0
 11
74.94846669560351
 21
225.0670022725025
 31
0.0
  0
LINE
  5
A3C1
  8
D002
 10
75.18703214403112
 20
224.7442598081519
 30
0.0
 11
74.88376193432791
 21
224.8255208159302
 31
0.0
  0
LINE
  5
A3C2
  8
D002
 10
76.24943614452795
 20
225.0112288823132
 30
0.0
 11
75.64321836187887
 21
224.6612288823131
 31
0.0
1001
GENIUS_GENODEF_13
1002
{
1000
HIER
1070
     0
1002
}
1002
{
1000
MANEDIT
1070
     0
1002
}
1002
{
1000
NOSEL
1070
     0
1002
}
1002
{
1000
BEHIND
1070
     0
1002
}
1002
{
1000
OTHER
1070
     0
1002
}
1002
{
1000
REACTOR
1002
}
1001
GENIUS_GENOBJ-N-CEN_13
1002
{
1000
OWNER
1000
GEN
1002
}
1001
GENIUS_GENCEN_19
1002
{
1040
3.0
1002
}
  0
LINE
  5
A3C3
  8
D002
 10
76.53244884642035
 20
225.5210365034485
 30
0.0
 11
75.65023302441759
 21
225.7574255205041
 31
0.0
  0
ARC
  5
A3C4
  8
D002
 10
74.91611431496571
 20
224.9462615442162
 30
0.0
 40
0.1249999999999206
 50
74.99999999999544
 51
254.9999999999954
  0
LINE
  5
A3C5
  8
D002
 10
78.84751235588132
 20
226.5112288823132
 30
0.0
 11
79.38822182693784
 21
226.3663462162037
 31
0.0
  0
ARC
  5
A3C6
  8
D002
 10
79.34246865146483
 20
226.1955930407307
 30
0.0
 40
0.1767766952966168
 50
255.0000000000127
 51
75.0000000000127
  0
LINE
  5
A3C7
  8
D002
 10
78.26449965398919
 20
226.5210365034485
 30
0.0
 11
78.50088867104486
 21
227.403252325451
 31
0.0
  0
LINE
  5
A3C8
  8
D002
 10
77.32347425020461
 20
224.8911326928809
 30
0.0
 11
77.32347425020461
 21
225.2836158574916
 31
0.0
1001
GENIUS_GENODEF_13
1002
{
1000
HIER
1070
     0
1002
}
1002
{
1000
MANEDIT
1070
     0
1002
}
1002
{
1000
NOSEL
1070
     0
1002
}
1002
{
1000
BEHIND
1070
     0
1002
}
1002
{
1000
OTHER
1070
     0
1002
}
1002
{
1000
REACTOR
1002
}
1001
GENIUS_GENOBJ-N-CEN_13
1002
{
1000
OWNER
1000
GEN
1002
}
1001
GENIUS_GENCEN_19
1002
{
1040
3.0
1002
}
  0
LINE
  5
A3C9
  8
D002
 10
79.60991635637842
 20
227.2978131987452
 30
0.0
 11
79.69117736415669
 21
227.6010834084482
 31
0.0
  0
ARC
  5
A3CA
  8
D002
 10
79.57043663587078
 20
227.6334357890861
 30
0.0
 40
0.1249999999999206
 50
344.9999999999954
 51
165.0000000001046
  0
LINE
  5
A3CB
  8
D002
 10
75.33703214403099
 20
227.2978131987452
 30
0.0
 11
75.25577113625272
 21
227.6010834084483
 31
0.0
  0
LINE
  5
A3CC
  8
D002
 10
75.493218361879
 20
226.8612288823132
 30
0.0
 11
74.94846669560351
 21
226.7152631132592
 31
0.0
  0
LINE
  5
A3CD
  8
D002
 10
75.18703214403112
 20
227.0380055776099
 30
0.0
 11
74.88376193432791
 21
226.9567445698316
 31
0.0
  0
LINE
  5
A3CE
  8
D002
 10
79.30373013853054
 20
224.6612288823133
 30
0.0
 11
78.69751235588146
 21
225.0112288823133
 31
0.0
1001
GENIUS_GENODEF_13
1002
{
1000
HIER
1070
     0
1002
}
1002
{
1000
MANEDIT
1070
     0
1002
}
1002
{
1000
NOSEL
1070
     0
1002
}
1002
{
1000
BEHIND
1070
     0
1002
}
1002
{
1000
OTHER
1070
     0
1002
}
1002
{
1000
REACTOR
1002
}
1001
GENIUS_GENOBJ-N-CEN_13
1002
{
1000
OWNER
1000
GEN
1002
}
1001
GENIUS_GENCEN_19
1002
{
1040
3.0
1002
}
  0
LINE
  5
A3CF
  8
D002
 10
79.4537301385304
 20
224.9210365034486
 30
0.0
 11
78.84751235588132
 21
225.2710365034486
 31
0.0
1001
GENIUS_GENODEF_13
1002
{
1000
HIER
1070
     0
1002
}
1002
{
1000
MANEDIT
1070
     0
1002
}
1002
{
1000
NOSEL
1070
     0
1002
}
1002
{
1000
BEHIND
1070
     0
1002
}
1002
{
1000
OTHER
1070
     0
1002
}
1002
{
1000
REACTOR
1002
}
1001
GENIUS_GENOBJ-N-CEN_13
1002
{
1000
OWNER
1000
GEN
1002
}
1001
GENIUS_GENCEN_19
1002
{
1040
3.0
1002
}
  0
ARC
  5
A3D0
  8
D002
 10
75.37651186453863
 20
227.6334357890861
 30
0.0
 40
0.1249999999999206
 50
14.99999999995087
 51
194.9999999999509
  0
ARC
  5
A3D1
  8
D002
 10
74.91611431496571
 20
226.8360038415454
 30
0.0
 40
0.1249999999999206
 50
105.0000000000046
 51
285.0000000000046
  0
LINE
  5
A3D2
  8
D002
 10
78.26449965398919
 20
225.2612288823133
 30
0.0
 11
77.92459926287856
 21
225.4574704646186
 31
0.0
1001
GENIUS_GENODEF_13
1002
{
1000
HIER
1070
     0
1002
}
1002
{
1000
MANEDIT
1070
     0
1002
}
1002
{
1000
NOSEL
1070
     0
1002
}
1002
{
1000
BEHIND
1070
     0
1002
}
1002
{
1000
OTHER
1070
     0
1002
}
1002
{
1000
REACTOR
1002
}
1001
GENIUS_GENOBJ-N-CEN_13
1002
{
1000
OWNER
1000
GEN
1002
}
1001
GENIUS_GENCEN_19
1002
{
1040
3.0
1002
}
  0
LINE
  5
A3D3
  8
D002
 10
75.33703214403099
 20
227.2978131987452
 30
0.0
 11
74.86379549847297
 21
227.5710365034486
 31
0.0
1001
GENIUS_GENODEF_13
1002
{
1000
HIER
1070
     0
1002
}
1002
{
1000
MANEDIT
1070
     0
1002
}
1002
{
1000
NOSEL
1070
     0
1002
}
1002
{
1000
BEHIND
1070
     0
1002
}
1002
{
1000
OTHER
1070
     0
1002
}
1002
{
1000
REACTOR
1002
}
1001
GENIUS_GENOBJ-N-CEN_13
1002
{
1000
OWNER
1000
GEN
1002
}
1001
GENIUS_GENCEN_19
1002
{
1040
3.0
1002
}
  0
LINE
  5
A3D4
  8
D002
 10
76.24943614452795
 20
226.7710365034486
 30
0.0
 11
76.10455347841852
 21
227.311745974505
 31
0.0
  0
LINE
  5
A3D5
  8
D002
 10
78.41449965398905
 20
225.5210365034486
 30
0.0
 11
79.29671547599182
 21
225.7574255205041
 31
0.0
  0
ARC
  5
A3D6
  8
D002
 10
76.27530665389153
 20
227.357499149978
 30
0.0
 40
0.1767766952966168
 50
15.00000000002528
 51
194.9999999999861
  0
LINE
  5
A3D7
  8
D002
 10
80.08315300193644
 20
224.2112288823132
 30
0.0
 11
79.60991635637842
 21
224.4844521870166
 31
0.0
1001
GENIUS_GENODEF_13
1002
{
1000
HIER
1070
     0
1002
}
1002
{
1000
MANEDIT
1070
     0
1002
}
1002
{
1000
NOSEL
1070
     0
1002
}
1002
{
1000
BEHIND
1070
     0
1002
}
1002
{
1000
OTHER
1070
     0
1002
}
1002
{
1000
REACTOR
1002
}
1001
GENIUS_GENOBJ-N-CEN_13
1002
{
1000
OWNER
1000
GEN
1002
}
1001
GENIUS_GENCEN_19
1002
{
1040
3.0
1002
}
  0
LINE
  5
A3D8
  8
D002
 10
76.53244884642035
 20
226.2612288823133
 30
0.0
 11
75.65023302441759
 21
226.0248398652577
 31
0.0
  0
LINE
  5
A3D9
  8
D002
 10
78.41449965398905
 20
225.5210365034486
 30
0.0
 11
78.07459926287842
 21
225.7172780857539
 31
0.0
1001
GENIUS_GENODEF_13
1002
{
1000
HIER
1070
     0
1002
}
1002
{
1000
MANEDIT
1070
     0
1002
}
1002
{
1000
NOSEL
1070
     0
1002
}
1002
{
1000
BEHIND
1070
     0
1002
}
1002
{
1000
OTHER
1070
     0
1002
}
1002
{
1000
REACTOR
1002
}
1001
GENIUS_GENOBJ-N-CEN_13
1002
{
1000
OWNER
1000
GEN
1002
}
1001
GENIUS_GENCEN_19
1002
{
1040
3.0
1002
}
  0
LINE
  5
A3DA
  8
D002
 10
80.23315300193653
 20
224.4710365034485
 30
0.0
 11
79.75991635637828
 21
224.7442598081519
 31
0.0
1001
GENIUS_GENODEF_13
1002
{
1000
HIER
1070
     0
1002
}
1002
{
1000
MANEDIT
1070
     0
1002
}
1002
{
1000
NOSEL
1070
     0
1002
}
1002
{
1000
BEHIND
1070
     0
1002
}
1002
{
1000
OTHER
1070
     0
1002
}
1002
{
1000
REACTOR
1002
}
1001
GENIUS_GENOBJ-N-CEN_13
1002
{
1000
OWNER
1000
GEN
1002
}
1001
GENIUS_GENCEN_19
1002
{
1040
3.0
1002
}
  0
LINE
  5
A3DB
  8
D002
 10
75.64321836187887
 20
227.1210365034485
 30
0.0
 11
75.49725259282499
 21
227.6657881697239
 31
0.0
  0
ARC
  5
A3DC
  8
D002
 10
75.60447984894458
 20
226.1955930407307
 30
0.0
 40
0.1767766952966168
 50
104.9999999999873
 51
284.9999999999873
  0
ARC
  5
A3DD
  8
D002
 10
74.78879549847292
 20
227.441132692881
 30
0.0
 40
0.1499999999999773
 50
59.99999999997465
 51
239.9999999999746
  0
LINE
  5
A3DE
  8
D002
 10
78.84751235588132
 20
225.2710365034486
 30
0.0
 11
79.38822182693784
 21
225.4159191695579
 31
0.0
  0
LINE
  5
A3DF
  8
D002
 10
76.24943614452795
 20
226.7710365034486
 30
0.0
 11
75.64321836187887
 21
227.1210365034485
 31
0.0
1001
GENIUS_GENODEF_13
1002
{
1000
HIER
1070
     0
1002
}
1002
{
1000
MANEDIT
1070
     0
1002
}
1002
{
1000
NOSEL
1070
     0
1002
}
1002
{
1000
BEHIND
1070
     0
1002
}
1002
{
1000
OTHER
1070
     0
1002
}
1002
{
1000
REACTOR
1002
}
1001
GENIUS_GENOBJ-N-CEN_13
1002
{
1000
OWNER
1000
GEN
1002
}
1001
GENIUS_GENCEN_19
1002
{
1040
3.0
1002
}
  0
ARC
  5
A3E0
  8
D002
 10
80.15815300193648
 20
224.3411326928809
 30
0.0
 40
0.1499999999999773
 50
239.9999999999746
 51
59.99999999997465
  0
ARC
  5
A3E1
  8
D002
 10
79.34246865146483
 20
225.586672345031
 30
0.0
 40
0.1767766952966168
 50
284.9999999999873
 51
104.9999999999873
  0
LINE
  5
A3E2
  8
D002
 10
78.26449965398919
 20
225.2612288823133
 30
0.0
 11
78.50088867104486
 21
224.3790130603106
 31
0.0
  0
LINE
  5
A3E3
  8
D002
 10
75.18703214403112
 20
227.0380055776099
 30
0.0
 11
74.71379549847288
 21
227.3112288823132
 31
0.0
1001
GENIUS_GENODEF_13
1002
{
1000
HIER
1070
     0
1002
}
1002
{
1000
MANEDIT
1070
     0
1002
}
1002
{
1000
NOSEL
1070
     0
1002
}
1002
{
1000
BEHIND
1070
     0
1002
}
1002
{
1000
OTHER
1070
     0
1002
}
1002
{
1000
REACTOR
1002
}
1001
GENIUS_GENOBJ-N-CEN_13
1002
{
1000
OWNER
1000
GEN
1002
}
1001
GENIUS_GENCEN_19
1002
{
1040
3.0
1002
}
  0
LINE
  5
A3E4
  8
D002
 10
78.69751235588146
 20
225.0112288823133
 30
0.0
 11
78.84239502199088
 21
224.4705194112568
 31
0.0
  0
LINE
  5
A3E5
  8
D002
 10
76.09943614452808
 20
226.5112288823133
 30
0.0
 11
75.55872667347157
 21
226.3663462162039
 31
0.0
  0
LINE
  5
A3E6
  8
D002
 10
76.68244884642021
 20
226.5210365034486
 30
0.0
 11
76.44605982936477
 21
227.4032523254511
 31
0.0
  0
ARC
  5
A3E7
  8
D002
 10
78.67164184651787
 20
224.4247662357837
 30
0.0
 40
0.1767766952966168
 50
195.0000000000253
 51
14.99999999998613
  0
LINE
  5
A3E8
  8
D002
 10
76.09943614452808
 20
226.5112288823133
 30
0.0
 11
75.493218361879
 21
226.8612288823132
 31
0.0
1001
GENIUS_GENODEF_13
1002
{
1000
HIER
1070
     0
1002
}
1002
{
1000
MANEDIT
1070
     0
1002
}
1002
{
1000
NOSEL
1070
     0
1002
}
1002
{
1000
BEHIND
1070
     0
1002
}
1002
{
1000
OTHER
1070
     0
1002
}
1002
{
1000
REACTOR
1002
}
1001
GENIUS_GENOBJ-N-CEN_13
1002
{
1000
OWNER
1000
GEN
1002
}
1001
GENIUS_GENCEN_19
1002
{
1040
3.0
1002
}
  0
LINE
  5
A3EE
  8
D002
 10
76.87234923753098
 20
226.0649873000078
 30
0.0
 11
76.53244884642035
 21
226.2612288823133
 31
0.0
1001
GENIUS_GENODEF_13
1002
{
1000
HIER
1070
     0
1002
}
1002
{
1000
MANEDIT
1070
     0
1002
}
1002
{
1000
NOSEL
1070
     0
1002
}
1002
{
1000
BEHIND
1070
     0
1002
}
1002
{
1000
OTHER
1070
     0
1002
}
1002
{
1000
REACTOR
1002
}
1001
GENIUS_GENOBJ-N-CEN_13
1002
{
1000
OWNER
1000
GEN
1002
}
1001
GENIUS_GENCEN_19
1002
{
1040
3.0
1002
}
  0
LINE
  5
A3EF
  8
D002
 10
77.02234923753085
 20
225.4574704646185
 30
0.0
 11
76.68244884642021
 21
225.2612288823132
 31
0.0
1001
GENIUS_GENODEF_13
1002
{
1000
HIER
1070
     0
1002
}
1002
{
1000
MANEDIT
1070
     0
1002
}
1002
{
1000
NOSEL
1070
     0
1002
}
1002
{
1000
BEHIND
1070
     0
1002
}
1002
{
1000
OTHER
1070
     0
1002
}
1002
{
1000
REACTOR
1002
}
1001
GENIUS_GENOBJ-N-CEN_13
1002
{
1000
OWNER
1000
GEN
1002
}
1001
GENIUS_GENCEN_19
1002
{
1040
3.0
1002
}
  0
LINE
  5
A3F0
  8
D002
 10
77.6234742502048
 20
226.4986495282701
 30
0.0
 11
77.6234742502048
 21
226.8911326928809
 31
0.0
1001
GENIUS_GENODEF_13
1002
{
1000
HIER
1070
     0
1002
}
1002
{
1000
MANEDIT
1070
     0
1002
}
1002
{
1000
NOSEL
1070
     0
1002
}
1002
{
1000
BEHIND
1070
     0
1002
}
1002
{
1000
OTHER
1070
     0
1002
}
1002
{
1000
REACTOR
1002
}
1001
GENIUS_GENOBJ-N-CEN_13
1002
{
1000
OWNER
1000
GEN
1002
}
1001
GENIUS_GENCEN_19
1002
{
1040
3.0
1002
}
  0
LINE
  5
A3F1
  8
D002
 10
76.87234923753098
 20
225.7172780857538
 30
0.0
 11
76.53244884642035
 21
225.5210365034485
 31
0.0
1001
GENIUS_GENODEF_13
1002
{
1000
HIER
1070
     0
1002
}
1002
{
1000
MANEDIT
1070
     0
1002
}
1002
{
1000
NOSEL
1070
     0
1002
}
1002
{
1000
BEHIND
1070
     0
1002
}
1002
{
1000
OTHER
1070
     0
1002
}
1002
{
1000
REACTOR
1002
}
1001
GENIUS_GENOBJ-N-CEN_13
1002
{
1000
OWNER
1000
GEN
1002
}
1001
GENIUS_GENCEN_19
1002
{
1040
3.0
1002
}
  0
LINE
  5
A3F2
  8
D002
 10
77.02234923753107
 20
226.3247949211432
 30
0.0
 11
76.68244884642021
 21
226.5210365034486
 31
0.0
1001
GENIUS_GENODEF_13
1002
{
1000
HIER
1070
     0
1002
}
1002
{
1000
MANEDIT
1070
     0
1002
}
1002
{
1000
NOSEL
1070
     0
1002
}
1002
{
1000
BEHIND
1070
     0
1002
}
1002
{
1000
OTHER
1070
     0
1002
}
1002
{
1000
REACTOR
1002
}
1001
GENIUS_GENOBJ-N-CEN_13
1002
{
1000
OWNER
1000
GEN
1002
}
1001
GENIUS_GENCEN_19
1002
{
1040
3.0
1002
}
  0
LINE
  5
A3F3
  8
D002
 10
77.32347425020461
 20
226.4986495282701
 30
0.0
 11
77.32347425020461
 21
226.8911326928809
 31
0.0
1001
GENIUS_GENODEF_13
1002
{
1000
HIER
1070
     0
1002
}
1002
{
1000
MANEDIT
1070
     0
1002
}
1002
{
1000
NOSEL
1070
     0
1002
}
1002
{
1000
BEHIND
1070
     0
1002
}
1002
{
1000
OTHER
1070
     0
1002
}
1002
{
1000
REACTOR
1002
}
1001
GENIUS_GENOBJ-N-CEN_13
1002
{
1000
OWNER
1000
GEN
1002
}
1001
GENIUS_GENCEN_19
1002
{
1040
3.0
1002
}
  0
POINT
  5
A3F4
  8
D002
 10
77.4734742502047
 20
225.8911326928809
 30
0.0
  0
LINE
  5
A3F8
  8
D002
 10
77.32347425020461
 20
202.7911326928804
 30
0.0
 11
77.32347425020461
 21
203.3375793022872
 31
0.0
1001
GENIUS_GENODEF_13
1002
{
1000
HIER
1070
     0
1002
}
1002
{
1000
MANEDIT
1070
     0
1002
}
1002
{
1000
NOSEL
1070
     0
1002
}
1002
{
1000
BEHIND
1070
     0
1002
}
1002
{
1000
OTHER
1070
     0
1002
}
1002
{
1000
REACTOR
1002
}
1001
GENIUS_GENOBJ-N-CEN_13
1002
{
1000
OWNER
1000
GEN
1002
}
1001
GENIUS_GENCEN_19
1002
{
1040
3.0
1002
}
  0
LINE
  5
A3F9
  8
D002
 10
77.6234742502048
 20
202.7911326928804
 30
0.0
 11
77.6234742502048
 21
203.3375793022872
 31
0.0
1001
GENIUS_GENODEF_13
1002
{
1000
HIER
1070
     0
1002
}
1002
{
1000
MANEDIT
1070
     0
1002
}
1002
{
1000
NOSEL
1070
     0
1002
}
1002
{
1000
BEHIND
1070
     0
1002
}
1002
{
1000
OTHER
1070
     0
1002
}
1002
{
1000
REACTOR
1002
}
1001
GENIUS_GENOBJ-N-CEN_13
1002
{
1000
OWNER
1000
GEN
1002
}
1001
GENIUS_GENCEN_19
1002
{
1040
3.0
1002
}
  0
LINE
  5
A3FA
  8
D002
 10
77.6234742502048
 20
206.8911326928805
 30
0.0
 11
78.26930105515166
 21
207.5369594978275
 31
0.0
  0
LINE
  5
A3FB
  8
D002
 10
77.6234742502048
 20
207.3911326928805
 30
0.0
 11
78.01930105515166
 21
207.7869594978275
 31
0.0
  0
ARC
  5
A3FC
  8
D002
 10
77.4734742502047
 20
208.9911326928805
 30
0.0
 40
0.1499999999999773
 50
0.0
 51
180.0
  0
ARC
  5
A3FD
  8
D002
 10
78.14430105515166
 20
207.6619594978275
 30
0.0
 40
0.1767766952966168
 50
315.0000000000228
 51
134.9999999999967
  0
LINE
  5
A3FE
  8
D002
 10
77.32347425020461
 20
206.8911326928805
 30
0.0
 11
76.67764744525775
 21
207.5369594978275
 31
0.0
  0
LINE
  5
A3FF
  8
D002
 10
77.32347425020461
 20
207.3911326928805
 30
0.0
 11
76.92764744525775
 21
207.7869594978275
 31
0.0
  0
ARC
  5
A400
  8
D002
 10
76.80264744525775
 20
207.6619594978275
 30
0.0
 40
0.1767766952966168
 50
45.00000000000327
 51
224.9999999999772
  0
LINE
  5
A401
  8
D002
 10
77.6234742502048
 20
208.0911326928805
 30
0.0
 11
78.02226014742618
 21
208.4899185901019
 31
0.0
  0
LINE
  5
A402
  8
D002
 10
77.6234742502048
 20
208.4446860834737
 30
0.0
 11
77.84548345212951
 21
208.6666952853984
 31
0.0
  0
ARC
  5
A403
  8
D002
 10
77.93387179977762
 20
208.5783069377503
 30
0.0
 40
0.1249999999999206
 50
314.9999999998848
 51
134.9999999999217
  0
LINE
  5
A404
  8
D002
 10
79.30373013853054
 20
204.6612288823129
 30
0.0
 11
79.44969590758441
 21
204.1164772160375
 31
0.0
  0
LINE
  5
A405
  8
D002
 10
79.60991635637842
 20
204.4844521870162
 30
0.0
 11
79.69117736415669
 21
204.1811819773133
 31
0.0
  0
ARC
  5
A406
  8
D002
 10
80.0308341854437
 20
204.946261544216
 30
0.0
 40
0.1249999999999206
 50
285.0000000000046
 51
105.0000000000046
  0
LINE
  5
A407
  8
D002
 10
77.6234742502048
 20
204.8911326928805
 30
0.0
 11
77.6234742502048
 21
205.2836158574912
 31
0.0
1001
GENIUS_GENODEF_13
1002
{
1000
HIER
1070
     0
1002
}
1002
{
1000
MANEDIT
1070
     0
1002
}
1002
{
1000
NOSEL
1070
     0
1002
}
1002
{
1000
BEHIND
1070
     0
1002
}
1002
{
1000
OTHER
1070
     0
1002
}
1002
{
1000
REACTOR
1002
}
1001
GENIUS_GENOBJ-N-CEN_13
1002
{
1000
OWNER
1000
GEN
1002
}
1001
GENIUS_GENCEN_19
1002
{
1040
3.0
1002
}
  0
LINE
  5
A408
  8
D002
 10
79.75991635637828
 20
204.7442598081516
 30
0.0
 11
80.0631865660815
 21
204.82552081593
 31
0.0
  0
ARC
  5
A409
  8
D002
 10
79.57043663587078
 20
204.1488295966753
 30
0.0
 40
0.1249999999999206
 50
194.9999999999509
 51
15.00000000000457
  0
LINE
  5
A40A
  8
D002
 10
79.4537301385304
 20
204.9210365034482
 30
0.0
 11
79.99848180480589
 21
205.0670022725022
 31
0.0
  0
LINE
  5
A40B
  8
D002
 10
77.6234742502048
 20
203.6911326928805
 30
0.0
 11
77.6234742502048
 21
204.3911326928805
 31
0.0
1001
GENIUS_GENODEF_13
1002
{
1000
HIER
1070
     0
1002
}
1002
{
1000
MANEDIT
1070
     0
1002
}
1002
{
1000
NOSEL
1070
     0
1002
}
1002
{
1000
BEHIND
1070
     0
1002
}
1002
{
1000
OTHER
1070
     0
1002
}
1002
{
1000
REACTOR
1002
}
1001
GENIUS_GENOBJ-N-CEN_13
1002
{
1000
OWNER
1000
GEN
1002
}
1001
GENIUS_GENCEN_19
1002
{
1040
3.0
1002
}
  0
LINE
  5
A40C
  8
D002
 10
77.32347425020461
 20
203.6911326928805
 30
0.0
 11
77.32347425020461
 21
204.3911326928805
 31
0.0
1001
GENIUS_GENODEF_13
1002
{
1000
HIER
1070
     0
1002
}
1002
{
1000
MANEDIT
1070
     0
1002
}
1002
{
1000
NOSEL
1070
     0
1002
}
1002
{
1000
BEHIND
1070
     0
1002
}
1002
{
1000
OTHER
1070
     0
1002
}
1002
{
1000
REACTOR
1002
}
1001
GENIUS_GENOBJ-N-CEN_13
1002
{
1000
OWNER
1000
GEN
1002
}
1001
GENIUS_GENCEN_19
1002
{
1040
3.0
1002
}
  0
LINE
  5
A40D
  8
D002
 10
77.32347425020461
 20
208.4446860834737
 30
0.0
 11
77.32347425020461
 21
208.9911326928805
 31
0.0
1001
GENIUS_GENODEF_13
1002
{
1000
HIER
1070
     0
1002
}
1002
{
1000
MANEDIT
1070
     0
1002
}
1002
{
1000
NOSEL
1070
     0
1002
}
1002
{
1000
BEHIND
1070
     0
1002
}
1002
{
1000
OTHER
1070
     0
1002
}
1002
{
1000
REACTOR
1002
}
1001
GENIUS_GENOBJ-N-CEN_13
1002
{
1000
OWNER
1000
GEN
1002
}
1001
GENIUS_GENCEN_19
1002
{
1040
3.0
1002
}
  0
LINE
  5
A40E
  8
D002
 10
77.6234742502048
 20
208.4446860834737
 30
0.0
 11
77.6234742502048
 21
208.9911326928805
 31
0.0
1001
GENIUS_GENODEF_13
1002
{
1000
HIER
1070
     0
1002
}
1002
{
1000
MANEDIT
1070
     0
1002
}
1002
{
1000
NOSEL
1070
     0
1002
}
1002
{
1000
BEHIND
1070
     0
1002
}
1002
{
1000
OTHER
1070
     0
1002
}
1002
{
1000
REACTOR
1002
}
1001
GENIUS_GENOBJ-N-CEN_13
1002
{
1000
OWNER
1000
GEN
1002
}
1001
GENIUS_GENCEN_19
1002
{
1040
3.0
1002
}
  0
ARC
  5
A40F
  8
D002
 10
77.01307670063179
 20
208.5783069377503
 30
0.0
 40
0.1249999999999206
 50
45.00000000007829
 51
224.9999999999677
  0
LINE
  5
A410
  8
D002
 10
77.32347425020461
 20
208.4446860834737
 30
0.0
 11
77.10146504827989
 21
208.6666952853984
 31
0.0
  0
LINE
  5
A411
  8
D002
 10
77.32347425020461
 20
208.0911326928805
 30
0.0
 11
76.92468835298322
 21
208.4899185901019
 31
0.0
  0
LINE
  5
A412
  8
D002
 10
77.6234742502048
 20
207.3911326928805
 30
0.0
 11
77.6234742502048
 21
208.0911326928805
 31
0.0
1001
GENIUS_GENODEF_13
1002
{
1000
HIER
1070
     0
1002
}
1002
{
1000
MANEDIT
1070
     0
1002
}
1002
{
1000
NOSEL
1070
     0
1002
}
1002
{
1000
BEHIND
1070
     0
1002
}
1002
{
1000
OTHER
1070
     0
1002
}
1002
{
1000
REACTOR
1002
}
1001
GENIUS_GENOBJ-N-CEN_13
1002
{
1000
OWNER
1000
GEN
1002
}
1001
GENIUS_GENCEN_19
1002
{
1040
3.0
1002
}
  0
LINE
  5
A413
  8
D002
 10
77.32347425020461
 20
207.3911326928805
 30
0.0
 11
77.32347425020461
 21
208.0911326928805
 31
0.0
1001
GENIUS_GENODEF_13
1002
{
1000
HIER
1070
     0
1002
}
1002
{
1000
MANEDIT
1070
     0
1002
}
1002
{
1000
NOSEL
1070
     0
1002
}
1002
{
1000
BEHIND
1070
     0
1002
}
1002
{
1000
OTHER
1070
     0
1002
}
1002
{
1000
REACTOR
1002
}
1001
GENIUS_GENOBJ-N-CEN_13
1002
{
1000
OWNER
1000
GEN
1002
}
1001
GENIUS_GENCEN_19
1002
{
1040
3.0
1002
}
  0
LINE
  5
A414
  8
D002
 10
77.6234742502048
 20
203.3375793022872
 30
0.0
 11
77.84548345212951
 21
203.1155701003624
 31
0.0
  0
LINE
  5
A415
  8
D002
 10
77.32347425020461
 20
204.3911326928805
 30
0.0
 11
76.92764744525775
 21
203.9953058879335
 31
0.0
  0
ARC
  5
A416
  8
D002
 10
77.4734742502047
 20
202.7911326928804
 30
0.0
 40
0.1499999999999773
 50
180.0
 51
0.0
  0
ARC
  5
A417
  8
D002
 10
78.14430105515166
 20
204.1203058879335
 30
0.0
 40
0.1767766952966168
 50
225.0000000000032
 51
45.00000000000327
  0
ARC
  5
A418
  8
D002
 10
76.80264744525775
 20
204.1203058879335
 30
0.0
 40
0.1767766952966168
 50
134.9999999999967
 51
314.9999999999968
  0
LINE
  5
A419
  8
D002
 10
77.6234742502048
 20
204.3911326928805
 30
0.0
 11
78.01930105515166
 21
203.9953058879335
 31
0.0
  0
LINE
  5
A41A
  8
D002
 10
77.32347425020461
 20
204.8911326928805
 30
0.0
 11
76.67764744525775
 21
204.2453058879335
 31
0.0
  0
ARC
  5
A41B
  8
D002
 10
77.93387179977762
 20
203.2039584480107
 30
0.0
 40
0.1249999999999206
 50
225.0000000000783
 51
44.99999999996776
  0
LINE
  5
A41C
  8
D002
 10
77.32347425020461
 20
203.6911326928805
 30
0.0
 11
76.92468835298322
 21
203.2923467956591
 31
0.0
  0
LINE
  5
A41D
  8
D002
 10
77.6234742502048
 20
203.6911326928805
 30
0.0
 11
78.02226014742618
 21
203.2923467956591
 31
0.0
  0
LINE
  5
A41E
  8
D002
 10
77.6234742502048
 20
204.8911326928805
 30
0.0
 11
78.26930105515166
 21
204.2453058879335
 31
0.0
  0
ARC
  5
A41F
  8
D002
 10
77.01307670063179
 20
203.2039584480107
 30
0.0
 40
0.1249999999999206
 50
134.9999999998849
 51
314.9999999998848
  0
LINE
  5
A420
  8
D002
 10
77.32347425020461
 20
203.3375793022872
 30
0.0
 11
77.10146504827989
 21
203.1155701003624
 31
0.0
  0
LINE
  5
A421
  8
D002
 10
78.69751235588146
 20
206.7710365034482
 30
0.0
 11
78.84239502199088
 21
207.3117459745046
 31
0.0
  0
ARC
  5
A422
  8
D002
 10
78.67164184651787
 20
207.3574991499777
 30
0.0
 40
0.1767766952966168
 50
344.9999999999747
 51
164.9999999999747
  0
LINE
  5
A423
  8
D002
 10
75.33703214403099
 20
204.4844521870162
 30
0.0
 11
74.86379549847297
 21
204.2112288823129
 31
0.0
1001
GENIUS_GENODEF_13
1002
{
1000
HIER
1070
     0
1002
}
1002
{
1000
MANEDIT
1070
     0
1002
}
1002
{
1000
NOSEL
1070
     0
1002
}
1002
{
1000
BEHIND
1070
     0
1002
}
1002
{
1000
OTHER
1070
     0
1002
}
1002
{
1000
REACTOR
1002
}
1001
GENIUS_GENOBJ-N-CEN_13
1002
{
1000
OWNER
1000
GEN
1002
}
1001
GENIUS_GENCEN_19
1002
{
1040
3.0
1002
}
  0
LINE
  5
A424
  8
D002
 10
78.41449965398905
 20
206.2612288823128
 30
0.0
 11
79.29671547599182
 21
206.0248398652573
 31
0.0
  0
LINE
  5
A425
  8
D002
 10
79.4537301385304
 20
206.8612288823128
 30
0.0
 11
79.99848180480589
 21
206.7152631132589
 31
0.0
  0
LINE
  5
A426
  8
D002
 10
79.75991635637828
 20
207.0380055776095
 30
0.0
 11
80.0631865660815
 21
206.9567445698311
 31
0.0
  0
ARC
  5
A427
  8
D002
 10
80.0308341854437
 20
206.8360038415451
 30
0.0
 40
0.1249999999999206
 50
254.9999999999954
 51
74.99999999999544
  0
LINE
  5
A428
  8
D002
 10
79.30373013853054
 20
207.1210365034482
 30
0.0
 11
79.44969590758441
 21
207.6657881697236
 31
0.0
  0
LINE
  5
A429
  8
D002
 10
76.09943614452808
 20
205.2710365034482
 30
0.0
 11
75.493218361879
 21
204.9210365034481
 31
0.0
1001
GENIUS_GENODEF_13
1002
{
1000
HIER
1070
     0
1002
}
1002
{
1000
MANEDIT
1070
     0
1002
}
1002
{
1000
NOSEL
1070
     0
1002
}
1002
{
1000
BEHIND
1070
     0
1002
}
1002
{
1000
OTHER
1070
     0
1002
}
1002
{
1000
REACTOR
1002
}
1001
GENIUS_GENOBJ-N-CEN_13
1002
{
1000
OWNER
1000
GEN
1002
}
1001
GENIUS_GENCEN_19
1002
{
1040
3.0
1002
}
  0
ARC
  5
A42A
  8
D002
 10
76.27530665389153
 20
204.4247662357833
 30
0.0
 40
0.1767766952966168
 50
164.9999999999747
 51
345.0000000000139
  0
LINE
  5
A42B
  8
D002
 10
76.09943614452808
 20
205.2710365034482
 30
0.0
 11
75.55872667347157
 21
205.4159191695576
 31
0.0
  0
ARC
  5
A42C
  8
D002
 10
80.15815300193648
 20
207.4411326928805
 30
0.0
 40
0.1499999999999773
 50
300.0000000000254
 51
120.0000000000254
  0
LINE
  5
A42D
  8
D002
 10
78.41449965398905
 20
206.2612288823128
 30
0.0
 11
78.07459926287842
 21
206.0649873000074
 31
0.0
1001
GENIUS_GENODEF_13
1002
{
1000
HIER
1070
     0
1002
}
1002
{
1000
MANEDIT
1070
     0
1002
}
1002
{
1000
NOSEL
1070
     0
1002
}
1002
{
1000
BEHIND
1070
     0
1002
}
1002
{
1000
OTHER
1070
     0
1002
}
1002
{
1000
REACTOR
1002
}
1001
GENIUS_GENOBJ-N-CEN_13
1002
{
1000
OWNER
1000
GEN
1002
}
1001
GENIUS_GENCEN_19
1002
{
1040
3.0
1002
}
  0
LINE
  5
A42E
  8
D002
 10
78.26449965398919
 20
206.5210365034482
 30
0.0
 11
77.92459926287856
 21
206.3247949211427
 31
0.0
1001
GENIUS_GENODEF_13
1002
{
1000
HIER
1070
     0
1002
}
1002
{
1000
MANEDIT
1070
     0
1002
}
1002
{
1000
NOSEL
1070
     0
1002
}
1002
{
1000
BEHIND
1070
     0
1002
}
1002
{
1000
OTHER
1070
     0
1002
}
1002
{
1000
REACTOR
1002
}
1001
GENIUS_GENOBJ-N-CEN_13
1002
{
1000
OWNER
1000
GEN
1002
}
1001
GENIUS_GENCEN_19
1002
{
1040
3.0
1002
}
  0
LINE
  5
A42F
  8
D002
 10
76.24943614452795
 20
205.0112288823128
 30
0.0
 11
76.10455347841852
 21
204.4705194112564
 31
0.0
  0
LINE
  5
A430
  8
D002
 10
76.68244884642021
 20
205.2612288823128
 30
0.0
 11
76.44605982936477
 21
204.3790130603103
 31
0.0
  0
LINE
  5
A431
  8
D002
 10
80.23315300193653
 20
207.3112288823129
 30
0.0
 11
79.75991635637828
 21
207.0380055776095
 31
0.0
1001
GENIUS_GENODEF_13
1002
{
1000
HIER
1070
     0
1002
}
1002
{
1000
MANEDIT
1070
     0
1002
}
1002
{
1000
NOSEL
1070
     0
1002
}
1002
{
1000
BEHIND
1070
     0
1002
}
1002
{
1000
OTHER
1070
     0
1002
}
1002
{
1000
REACTOR
1002
}
1001
GENIUS_GENOBJ-N-CEN_13
1002
{
1000
OWNER
1000
GEN
1002
}
1001
GENIUS_GENCEN_19
1002
{
1040
3.0
1002
}
  0
ARC
  5
A432
  8
D002
 10
74.78879549847292
 20
204.3411326928805
 30
0.0
 40
0.1499999999999773
 50
120.0000000000254
 51
300.0000000000254
  0
ARC
  5
A433
  8
D002
 10
75.60447984894458
 20
205.5866723450306
 30
0.0
 40
0.1767766952966168
 50
75.0000000000127
 51
255.0000000000127
  0
LINE
  5
A434
  8
D002
 10
80.08315300193644
 20
207.5710365034482
 30
0.0
 11
79.60991635637842
 21
207.2978131987448
 31
0.0
1001
GENIUS_GENODEF_13
1002
{
1000
HIER
1070
     0
1002
}
1002
{
1000
MANEDIT
1070
     0
1002
}
1002
{
1000
NOSEL
1070
     0
1002
}
1002
{
1000
BEHIND
1070
     0
1002
}
1002
{
1000
OTHER
1070
     0
1002
}
1002
{
1000
REACTOR
1002
}
1001
GENIUS_GENOBJ-N-CEN_13
1002
{
1000
OWNER
1000
GEN
1002
}
1001
GENIUS_GENCEN_19
1002
{
1040
3.0
1002
}
  0
LINE
  5
A435
  8
D002
 10
79.30373013853054
 20
207.1210365034482
 30
0.0
 11
78.69751235588146
 21
206.7710365034482
 31
0.0
1001
GENIUS_GENODEF_13
1002
{
1000
HIER
1070
     0
1002
}
1002
{
1000
MANEDIT
1070
     0
1002
}
1002
{
1000
NOSEL
1070
     0
1002
}
1002
{
1000
BEHIND
1070
     0
1002
}
1002
{
1000
OTHER
1070
     0
1002
}
1002
{
1000
REACTOR
1002
}
1001
GENIUS_GENOBJ-N-CEN_13
1002
{
1000
OWNER
1000
GEN
1002
}
1001
GENIUS_GENCEN_19
1002
{
1040
3.0
1002
}
  0
LINE
  5
A436
  8
D002
 10
75.18703214403112
 20
204.7442598081516
 30
0.0
 11
74.71379549847288
 21
204.4710365034482
 31
0.0
1001
GENIUS_GENODEF_13
1002
{
1000
HIER
1070
     0
1002
}
1002
{
1000
MANEDIT
1070
     0
1002
}
1002
{
1000
NOSEL
1070
     0
1002
}
1002
{
1000
BEHIND
1070
     0
1002
}
1002
{
1000
OTHER
1070
     0
1002
}
1002
{
1000
REACTOR
1002
}
1001
GENIUS_GENOBJ-N-CEN_13
1002
{
1000
OWNER
1000
GEN
1002
}
1001
GENIUS_GENCEN_19
1002
{
1040
3.0
1002
}
  0
LINE
  5
A437
  8
D002
 10
79.4537301385304
 20
206.8612288823128
 30
0.0
 11
78.84751235588132
 21
206.5112288823128
 31
0.0
1001
GENIUS_GENODEF_13
1002
{
1000
HIER
1070
     0
1002
}
1002
{
1000
MANEDIT
1070
     0
1002
}
1002
{
1000
NOSEL
1070
     0
1002
}
1002
{
1000
BEHIND
1070
     0
1002
}
1002
{
1000
OTHER
1070
     0
1002
}
1002
{
1000
REACTOR
1002
}
1001
GENIUS_GENOBJ-N-CEN_13
1002
{
1000
OWNER
1000
GEN
1002
}
1001
GENIUS_GENCEN_19
1002
{
1040
3.0
1002
}
  0
LINE
  5
A438
  8
D002
 10
75.64321836187887
 20
204.6612288823128
 30
0.0
 11
75.49725259282499
 21
204.1164772160374
 31
0.0
  0
LINE
  5
A439
  8
D002
 10
75.33703214403099
 20
204.4844521870162
 30
0.0
 11
75.25577113625272
 21
204.1811819773131
 31
0.0
  0
ARC
  5
A43A
  8
D002
 10
75.37651186453863
 20
204.1488295966752
 30
0.0
 40
0.1249999999999206
 50
164.9999999999954
 51
345.0000000001045
  0
LINE
  5
A43B
  8
D002
 10
75.493218361879
 20
204.9210365034481
 30
0.0
 11
74.94846669560351
 21
205.0670022725021
 31
0.0
  0
LINE
  5
A43C
  8
D002
 10
75.18703214403112
 20
204.7442598081516
 30
0.0
 11
74.88376193432791
 21
204.8255208159298
 31
0.0
  0
LINE
  5
A43D
  8
D002
 10
76.24943614452795
 20
205.0112288823128
 30
0.0
 11
75.64321836187887
 21
204.6612288823128
 31
0.0
1001
GENIUS_GENODEF_13
1002
{
1000
HIER
1070
     0
1002
}
1002
{
1000
MANEDIT
1070
     0
1002
}
1002
{
1000
NOSEL
1070
     0
1002
}
1002
{
1000
BEHIND
1070
     0
1002
}
1002
{
1000
OTHER
1070
     0
1002
}
1002
{
1000
REACTOR
1002
}
1001
GENIUS_GENOBJ-N-CEN_13
1002
{
1000
OWNER
1000
GEN
1002
}
1001
GENIUS_GENCEN_19
1002
{
1040
3.0
1002
}
  0
LINE
  5
A43E
  8
D002
 10
76.53244884642035
 20
205.5210365034482
 30
0.0
 11
75.65023302441759
 21
205.7574255205037
 31
0.0
  0
ARC
  5
A43F
  8
D002
 10
74.91611431496571
 20
204.9462615442159
 30
0.0
 40
0.1249999999999206
 50
74.99999999999544
 51
254.9999999999954
  0
LINE
  5
A440
  8
D002
 10
78.84751235588132
 20
206.5112288823128
 30
0.0
 11
79.38822182693784
 21
206.3663462162034
 31
0.0
  0
ARC
  5
A441
  8
D002
 10
79.34246865146483
 20
206.1955930407304
 30
0.0
 40
0.1767766952966168
 50
255.0000000000127
 51
75.0000000000127
  0
LINE
  5
A442
  8
D002
 10
78.26449965398919
 20
206.5210365034482
 30
0.0
 11
78.50088867104486
 21
207.4032523254507
 31
0.0
  0
LINE
  5
A443
  8
D002
 10
77.32347425020461
 20
204.8911326928805
 30
0.0
 11
77.32347425020461
 21
205.2836158574912
 31
0.0
1001
GENIUS_GENODEF_13
1002
{
1000
HIER
1070
     0
1002
}
1002
{
1000
MANEDIT
1070
     0
1002
}
1002
{
1000
NOSEL
1070
     0
1002
}
1002
{
1000
BEHIND
1070
     0
1002
}
1002
{
1000
OTHER
1070
     0
1002
}
1002
{
1000
REACTOR
1002
}
1001
GENIUS_GENOBJ-N-CEN_13
1002
{
1000
OWNER
1000
GEN
1002
}
1001
GENIUS_GENCEN_19
1002
{
1040
3.0
1002
}
  0
LINE
  5
A444
  8
D002
 10
79.60991635637842
 20
207.2978131987448
 30
0.0
 11
79.69117736415669
 21
207.6010834084478
 31
0.0
  0
ARC
  5
A445
  8
D002
 10
79.57043663587078
 20
207.6334357890858
 30
0.0
 40
0.1249999999999206
 50
344.9999999999954
 51
165.0000000001046
  0
LINE
  5
A446
  8
D002
 10
75.33703214403099
 20
207.2978131987448
 30
0.0
 11
75.25577113625272
 21
207.6010834084479
 31
0.0
  0
LINE
  5
A447
  8
D002
 10
75.493218361879
 20
206.8612288823128
 30
0.0
 11
74.94846669560351
 21
206.7152631132589
 31
0.0
  0
LINE
  5
A448
  8
D002
 10
75.18703214403112
 20
207.0380055776095
 30
0.0
 11
74.88376193432791
 21
206.9567445698312
 31
0.0
  0
LINE
  5
A449
  8
D002
 10
79.30373013853054
 20
204.6612288823129
 30
0.0
 11
78.69751235588146
 21
205.0112288823129
 31
0.0
1001
GENIUS_GENODEF_13
1002
{
1000
HIER
1070
     0
1002
}
1002
{
1000
MANEDIT
1070
     0
1002
}
1002
{
1000
NOSEL
1070
     0
1002
}
1002
{
1000
BEHIND
1070
     0
1002
}
1002
{
1000
OTHER
1070
     0
1002
}
1002
{
1000
REACTOR
1002
}
1001
GENIUS_GENOBJ-N-CEN_13
1002
{
1000
OWNER
1000
GEN
1002
}
1001
GENIUS_GENCEN_19
1002
{
1040
3.0
1002
}
  0
LINE
  5
A44A
  8
D002
 10
79.4537301385304
 20
204.9210365034482
 30
0.0
 11
78.84751235588132
 21
205.2710365034483
 31
0.0
1001
GENIUS_GENODEF_13
1002
{
1000
HIER
1070
     0
1002
}
1002
{
1000
MANEDIT
1070
     0
1002
}
1002
{
1000
NOSEL
1070
     0
1002
}
1002
{
1000
BEHIND
1070
     0
1002
}
1002
{
1000
OTHER
1070
     0
1002
}
1002
{
1000
REACTOR
1002
}
1001
GENIUS_GENOBJ-N-CEN_13
1002
{
1000
OWNER
1000
GEN
1002
}
1001
GENIUS_GENCEN_19
1002
{
1040
3.0
1002
}
  0
ARC
  5
A44B
  8
D002
 10
75.37651186453863
 20
207.6334357890858
 30
0.0
 40
0.1249999999999206
 50
14.99999999995087
 51
194.9999999999509
  0
ARC
  5
A44C
  8
D002
 10
74.91611431496571
 20
206.8360038415451
 30
0.0
 40
0.1249999999999206
 50
105.0000000000046
 51
285.0000000000046
  0
LINE
  5
A44D
  8
D002
 10
78.26449965398919
 20
205.2612288823129
 30
0.0
 11
77.92459926287856
 21
205.4574704646183
 31
0.0
1001
GENIUS_GENODEF_13
1002
{
1000
HIER
1070
     0
1002
}
1002
{
1000
MANEDIT
1070
     0
1002
}
1002
{
1000
NOSEL
1070
     0
1002
}
1002
{
1000
BEHIND
1070
     0
1002
}
1002
{
1000
OTHER
1070
     0
1002
}
1002
{
1000
REACTOR
1002
}
1001
GENIUS_GENOBJ-N-CEN_13
1002
{
1000
OWNER
1000
GEN
1002
}
1001
GENIUS_GENCEN_19
1002
{
1040
3.0
1002
}
  0
LINE
  5
A44E
  8
D002
 10
75.33703214403099
 20
207.2978131987448
 30
0.0
 11
74.86379549847297
 21
207.5710365034482
 31
0.0
1001
GENIUS_GENODEF_13
1002
{
1000
HIER
1070
     0
1002
}
1002
{
1000
MANEDIT
1070
     0
1002
}
1002
{
1000
NOSEL
1070
     0
1002
}
1002
{
1000
BEHIND
1070
     0
1002
}
1002
{
1000
OTHER
1070
     0
1002
}
1002
{
1000
REACTOR
1002
}
1001
GENIUS_GENOBJ-N-CEN_13
1002
{
1000
OWNER
1000
GEN
1002
}
1001
GENIUS_GENCEN_19
1002
{
1040
3.0
1002
}
  0
LINE
  5
A44F
  8
D002
 10
76.24943614452795
 20
206.7710365034483
 30
0.0
 11
76.10455347841852
 21
207.3117459745047
 31
0.0
  0
LINE
  5
A450
  8
D002
 10
78.41449965398905
 20
205.5210365034483
 30
0.0
 11
79.29671547599182
 21
205.7574255205037
 31
0.0
  0
ARC
  5
A451
  8
D002
 10
76.27530665389153
 20
207.3574991499777
 30
0.0
 40
0.1767766952966168
 50
15.00000000002528
 51
194.9999999999861
  0
LINE
  5
A452
  8
D002
 10
80.08315300193644
 20
204.2112288823129
 30
0.0
 11
79.60991635637842
 21
204.4844521870162
 31
0.0
1001
GENIUS_GENODEF_13
1002
{
1000
HIER
1070
     0
1002
}
1002
{
1000
MANEDIT
1070
     0
1002
}
1002
{
1000
NOSEL
1070
     0
1002
}
1002
{
1000
BEHIND
1070
     0
1002
}
1002
{
1000
OTHER
1070
     0
1002
}
1002
{
1000
REACTOR
1002
}
1001
GENIUS_GENOBJ-N-CEN_13
1002
{
1000
OWNER
1000
GEN
1002
}
1001
GENIUS_GENCEN_19
1002
{
1040
3.0
1002
}
  0
LINE
  5
A453
  8
D002
 10
76.53244884642035
 20
206.2612288823129
 30
0.0
 11
75.65023302441759
 21
206.0248398652574
 31
0.0
  0
LINE
  5
A454
  8
D002
 10
78.41449965398905
 20
205.5210365034483
 30
0.0
 11
78.07459926287842
 21
205.7172780857536
 31
0.0
1001
GENIUS_GENODEF_13
1002
{
1000
HIER
1070
     0
1002
}
1002
{
1000
MANEDIT
1070
     0
1002
}
1002
{
1000
NOSEL
1070
     0
1002
}
1002
{
1000
BEHIND
1070
     0
1002
}
1002
{
1000
OTHER
1070
     0
1002
}
1002
{
1000
REACTOR
1002
}
1001
GENIUS_GENOBJ-N-CEN_13
1002
{
1000
OWNER
1000
GEN
1002
}
1001
GENIUS_GENCEN_19
1002
{
1040
3.0
1002
}
  0
LINE
  5
A455
  8
D002
 10
80.23315300193653
 20
204.4710365034482
 30
0.0
 11
79.75991635637828
 21
204.7442598081516
 31
0.0
1001
GENIUS_GENODEF_13
1002
{
1000
HIER
1070
     0
1002
}
1002
{
1000
MANEDIT
1070
     0
1002
}
1002
{
1000
NOSEL
1070
     0
1002
}
1002
{
1000
BEHIND
1070
     0
1002
}
1002
{
1000
OTHER
1070
     0
1002
}
1002
{
1000
REACTOR
1002
}
1001
GENIUS_GENOBJ-N-CEN_13
1002
{
1000
OWNER
1000
GEN
1002
}
1001
GENIUS_GENCEN_19
1002
{
1040
3.0
1002
}
  0
LINE
  5
A456
  8
D002
 10
75.64321836187887
 20
207.1210365034482
 30
0.0
 11
75.49725259282499
 21
207.6657881697236
 31
0.0
  0
ARC
  5
A457
  8
D002
 10
75.60447984894458
 20
206.1955930407304
 30
0.0
 40
0.1767766952966168
 50
104.9999999999873
 51
284.9999999999873
  0
ARC
  5
A458
  8
D002
 10
74.78879549847292
 20
207.4411326928806
 30
0.0
 40
0.1499999999999773
 50
59.99999999997465
 51
239.9999999999746
  0
LINE
  5
A459
  8
D002
 10
78.84751235588132
 20
205.2710365034483
 30
0.0
 11
79.38822182693784
 21
205.4159191695576
 31
0.0
  0
LINE
  5
A45A
  8
D002
 10
76.24943614452795
 20
206.7710365034483
 30
0.0
 11
75.64321836187887
 21
207.1210365034482
 31
0.0
1001
GENIUS_GENODEF_13
1002
{
1000
HIER
1070
     0
1002
}
1002
{
1000
MANEDIT
1070
     0
1002
}
1002
{
1000
NOSEL
1070
     0
1002
}
1002
{
1000
BEHIND
1070
     0
1002
}
1002
{
1000
OTHER
1070
     0
1002
}
1002
{
1000
REACTOR
1002
}
1001
GENIUS_GENOBJ-N-CEN_13
1002
{
1000
OWNER
1000
GEN
1002
}
1001
GENIUS_GENCEN_19
1002
{
1040
3.0
1002
}
  0
ARC
  5
A45B
  8
D002
 10
80.15815300193648
 20
204.3411326928806
 30
0.0
 40
0.1499999999999773
 50
239.9999999999746
 51
59.99999999997465
  0
ARC
  5
A45C
  8
D002
 10
79.34246865146483
 20
205.5866723450307
 30
0.0
 40
0.1767766952966168
 50
284.9999999999873
 51
104.9999999999873
  0
LINE
  5
A45D
  8
D002
 10
78.26449965398919
 20
205.2612288823129
 30
0.0
 11
78.50088867104486
 21
204.3790130603103
 31
0.0
  0
LINE
  5
A45E
  8
D002
 10
75.18703214403112
 20
207.0380055776095
 30
0.0
 11
74.71379549847288
 21
207.3112288823129
 31
0.0
1001
GENIUS_GENODEF_13
1002
{
1000
HIER
1070
     0
1002
}
1002
{
1000
MANEDIT
1070
     0
1002
}
1002
{
1000
NOSEL
1070
     0
1002
}
1002
{
1000
BEHIND
1070
     0
1002
}
1002
{
1000
OTHER
1070
     0
1002
}
1002
{
1000
REACTOR
1002
}
1001
GENIUS_GENOBJ-N-CEN_13
1002
{
1000
OWNER
1000
GEN
1002
}
1001
GENIUS_GENCEN_19
1002
{
1040
3.0
1002
}
  0
LINE
  5
A45F
  8
D002
 10
78.69751235588146
 20
205.0112288823129
 30
0.0
 11
78.84239502199088
 21
204.4705194112564
 31
0.0
  0
LINE
  5
A460
  8
D002
 10
76.09943614452808
 20
206.5112288823129
 30
0.0
 11
75.55872667347157
 21
206.3663462162035
 31
0.0
  0
LINE
  5
A461
  8
D002
 10
76.68244884642021
 20
206.5210365034483
 30
0.0
 11
76.44605982936477
 21
207.4032523254508
 31
0.0
  0
ARC
  5
A462
  8
D002
 10
78.67164184651787
 20
204.4247662357834
 30
0.0
 40
0.1767766952966168
 50
195.0000000000253
 51
14.99999999998613
  0
LINE
  5
A463
  8
D002
 10
76.09943614452808
 20
206.5112288823129
 30
0.0
 11
75.493218361879
 21
206.8612288823128
 31
0.0
1001
GENIUS_GENODEF_13
1002
{
1000
HIER
1070
     0
1002
}
1002
{
1000
MANEDIT
1070
     0
1002
}
1002
{
1000
NOSEL
1070
     0
1002
}
1002
{
1000
BEHIND
1070
     0
1002
}
1002
{
1000
OTHER
1070
     0
1002
}
1002
{
1000
REACTOR
1002
}
1001
GENIUS_GENOBJ-N-CEN_13
1002
{
1000
OWNER
1000
GEN
1002
}
1001
GENIUS_GENCEN_19
1002
{
1040
3.0
1002
}
  0
LINE
  5
A469
  8
D002
 10
76.87234923753098
 20
206.0649873000075
 30
0.0
 11
76.53244884642035
 21
206.2612288823129
 31
0.0
1001
GENIUS_GENODEF_13
1002
{
1000
HIER
1070
     0
1002
}
1002
{
1000
MANEDIT
1070
     0
1002
}
1002
{
1000
NOSEL
1070
     0
1002
}
1002
{
1000
BEHIND
1070
     0
1002
}
1002
{
1000
OTHER
1070
     0
1002
}
1002
{
1000
REACTOR
1002
}
1001
GENIUS_GENOBJ-N-CEN_13
1002
{
1000
OWNER
1000
GEN
1002
}
1001
GENIUS_GENCEN_19
1002
{
1040
3.0
1002
}
  0
LINE
  5
A46A
  8
D002
 10
77.02234923753085
 20
205.4574704646182
 30
0.0
 11
76.68244884642021
 21
205.2612288823128
 31
0.0
1001
GENIUS_GENODEF_13
1002
{
1000
HIER
1070
     0
1002
}
1002
{
1000
MANEDIT
1070
     0
1002
}
1002
{
1000
NOSEL
1070
     0
1002
}
1002
{
1000
BEHIND
1070
     0
1002
}
1002
{
1000
OTHER
1070
     0
1002
}
1002
{
1000
REACTOR
1002
}
1001
GENIUS_GENOBJ-N-CEN_13
1002
{
1000
OWNER
1000
GEN
1002
}
1001
GENIUS_GENCEN_19
1002
{
1040
3.0
1002
}
  0
LINE
  5
A46B
  8
D002
 10
77.6234742502048
 20
206.4986495282698
 30
0.0
 11
77.6234742502048
 21
206.8911326928805
 31
0.0
1001
GENIUS_GENODEF_13
1002
{
1000
HIER
1070
     0
1002
}
1002
{
1000
MANEDIT
1070
     0
1002
}
1002
{
1000
NOSEL
1070
     0
1002
}
1002
{
1000
BEHIND
1070
     0
1002
}
1002
{
1000
OTHER
1070
     0
1002
}
1002
{
1000
REACTOR
1002
}
1001
GENIUS_GENOBJ-N-CEN_13
1002
{
1000
OWNER
1000
GEN
1002
}
1001
GENIUS_GENCEN_19
1002
{
1040
3.0
1002
}
  0
LINE
  5
A46C
  8
D002
 10
76.87234923753098
 20
205.7172780857535
 30
0.0
 11
76.53244884642035
 21
205.5210365034482
 31
0.0
1001
GENIUS_GENODEF_13
1002
{
1000
HIER
1070
     0
1002
}
1002
{
1000
MANEDIT
1070
     0
1002
}
1002
{
1000
NOSEL
1070
     0
1002
}
1002
{
1000
BEHIND
1070
     0
1002
}
1002
{
1000
OTHER
1070
     0
1002
}
1002
{
1000
REACTOR
1002
}
1001
GENIUS_GENOBJ-N-CEN_13
1002
{
1000
OWNER
1000
GEN
1002
}
1001
GENIUS_GENCEN_19
1002
{
1040
3.0
1002
}
  0
LINE
  5
A46D
  8
D002
 10
77.02234923753107
 20
206.3247949211428
 30
0.0
 11
76.68244884642021
 21
206.5210365034483
 31
0.0
1001
GENIUS_GENODEF_13
1002
{
1000
HIER
1070
     0
1002
}
1002
{
1000
MANEDIT
1070
     0
1002
}
1002
{
1000
NOSEL
1070
     0
1002
}
1002
{
1000
BEHIND
1070
     0
1002
}
1002
{
1000
OTHER
1070
     0
1002
}
1002
{
1000
REACTOR
1002
}
1001
GENIUS_GENOBJ-N-CEN_13
1002
{
1000
OWNER
1000
GEN
1002
}
1001
GENIUS_GENCEN_19
1002
{
1040
3.0
1002
}
  0
LINE
  5
A46E
  8
D002
 10
77.32347425020461
 20
206.4986495282698
 30
0.0
 11
77.32347425020461
 21
206.8911326928805
 31
0.0
1001
GENIUS_GENODEF_13
1002
{
1000
HIER
1070
     0
1002
}
1002
{
1000
MANEDIT
1070
     0
1002
}
1002
{
1000
NOSEL
1070
     0
1002
}
1002
{
1000
BEHIND
1070
     0
1002
}
1002
{
1000
OTHER
1070
     0
1002
}
1002
{
1000
REACTOR
1002
}
1001
GENIUS_GENOBJ-N-CEN_13
1002
{
1000
OWNER
1000
GEN
1002
}
1001
GENIUS_GENCEN_19
1002
{
1040
3.0
1002
}
  0
POINT
  5
A46F
  8
D002
 10
77.4734742502047
 20
205.8911326928805
 30
0.0
  0
LINE
  5
A471
  8
0
 10
42.01961158912366
 20
94.15527261528587
 30
0.0
 11
42.00312717955296
 21
94.17175516221141
 31
0.0
  0
LINE
  5
A472
  8
0
 10
40.52186234991734
 20
95.93586265775775
 30
0.0
 11
40.51801785032933
 21
95.93970529470062
 31
0.0
  0
LINE
  5
A473
  8
0
 10
40.51801785032933
 20
95.93970529470062
 30
0.0
 11
40.50663708846753
 21
95.95108605656242
 31
0.0
  0
LINE
  5
A474
  8
0
 10
40.50663708846753
 20
95.95108605656242
 30
0.0
 11
40.48815592329686
 21
95.96956908437824
 31
0.0
  0
LINE
  5
A475
  8
0
 10
40.48815592329686
 20
95.96956908437824
 30
0.0
 11
40.46328215997403
 21
95.99444098505592
 31
0.0
  0
LINE
  5
A476
  8
0
 10
40.46328215997403
 20
95.99444098505592
 30
0.0
 11
40.43297692339604
 21
96.02474808427905
 31
0.0
  0
LINE
  5
A477
  8
0
 10
40.43297692339604
 20
96.02474808427905
 30
0.0
 11
40.39839877884572
 21
96.05932622882938
 31
0.0
  0
LINE
  5
A478
  8
0
 10
40.39839877884572
 20
96.05932622882938
 30
0.0
 11
40.36088138024991
 21
96.09684549007034
 31
0.0
  0
LINE
  5
A479
  8
0
 10
40.36088138024991
 20
96.09684549007034
 30
0.0
 11
40.32186268966382
 21
96.13586231801128
 31
0.0
  0
LINE
  5
A47A
  8
0
 10
39.52186404864972
 20
96.93586282167053
 30
0.0
 11
39.48284535806363
 21
96.97488151225662
 31
0.0
  0
LINE
  5
A47B
  8
0
 10
39.48284535806363
 20
96.97488151225662
 30
0.0
 11
39.44532423417752
 21
97.01239891085243
 31
0.0
  0
LINE
  5
A47C
  8
0
 10
39.44532423417752
 20
97.01239891085243
 30
0.0
 11
39.41074981491749
 21
97.04697705540275
 31
0.0
  0
LINE
  5
A47D
  8
0
 10
39.41074981491749
 20
97.04697705540275
 30
0.0
 11
39.38044085304921
 21
97.07728415462589
 31
0.0
  0
LINE
  5
A47E
  8
0
 10
39.38044085304921
 20
97.07728415462589
 30
0.0
 11
39.35556708972638
 21
97.10215605530357
 31
0.0
  0
LINE
  5
A47F
  8
0
 10
39.35556708972638
 20
97.10215605530357
 30
0.0
 11
39.33708592455571
 21
97.12063908311939
 31
0.0
  0
LINE
  5
A480
  8
0
 10
39.33708592455571
 20
97.12063908311939
 30
0.0
 11
39.32570516269391
 21
97.13201984498119
 31
0.0
  0
LINE
  5
A481
  8
0
 10
39.32570516269391
 20
97.13201984498119
 30
0.0
 11
39.32186066310589
 21
97.13586248192405
 31
0.0
  0
LINE
  5
A482
  8
0
 10
33.52186306517308
 20
102.935861942502
 30
0.0
 11
33.48713218372052
 21
102.9705928239546
 31
0.0
  0
LINE
  5
A483
  8
0
 10
33.48713218372052
 20
102.9705928239546
 30
0.0
 11
33.45345928471272
 21
103.0042675856075
 31
0.0
  0
LINE
  5
A484
  8
0
 10
33.45345928471272
 20
103.0042675856075
 30
0.0
 11
33.42186137240117
 21
103.0358617726288
 31
0.0
  0
LINE
  5
A485
  8
0
 10
33.42186137240117
 20
103.0358617726288
 30
0.0
 11
33.39330329697316
 21
103.0644198480568
 31
0.0
  0
LINE
  5
A486
  8
0
 10
33.39330329697316
 20
103.0644198480568
 30
0.0
 11
33.36865305106824
 21
103.0890719566069
 31
0.0
  0
LINE
  5
A487
  8
0
 10
33.36865305106824
 20
103.0890719566069
 30
0.0
 11
33.34865569274609
 21
103.1090674522839
 31
0.0
  0
LINE
  5
A488
  8
0
 10
33.34865569274609
 20
103.1090674522839
 30
0.0
 11
33.33392216961568
 21
103.1238009754143
 31
0.0
  0
LINE
  5
A489
  8
0
 10
33.33392216961568
 20
103.1238009754143
 30
0.0
 11
33.3248995165128
 21
103.1328236285171
 31
0.0
  0
LINE
  5
A48A
  8
0
 10
33.3248995165128
 20
103.1328236285171
 30
0.0
 11
33.32186340491955
 21
103.1358634654007
 31
0.0
  0
LINE
  5
A48B
  8
0
 10
34.82186271946614
 20
101.635862288209
 30
0.0
 11
34.81801821987813
 21
101.6397049251518
 31
0.0
  0
LINE
  5
A48C
  8
0
 10
34.81801821987813
 20
101.6397049251518
 30
0.0
 11
34.80663745801633
 21
101.6510875496588
 31
0.0
  0
LINE
  5
A48D
  8
0
 10
34.80663745801633
 20
101.6510875496588
 30
0.0
 11
34.78815629284566
 21
101.6695687148294
 31
0.0
  0
LINE
  5
A48E
  8
0
 10
34.78815629284566
 20
101.6695687148294
 30
0.0
 11
34.76328252952283
 21
101.6944406155071
 31
0.0
  0
LINE
  5
A48F
  8
0
 10
34.76328252952283
 20
101.6944406155071
 30
0.0
 11
34.73297729294484
 21
101.7247477147303
 31
0.0
  0
LINE
  5
A490
  8
0
 10
34.73297729294484
 20
101.7247477147303
 30
0.0
 11
34.69839914839451
 21
101.7593258592806
 31
0.0
  0
LINE
  5
A491
  8
0
 10
34.69839914839451
 20
101.7593258592806
 30
0.0
 11
34.6608817497987
 21
101.7968451205215
 31
0.0
  0
LINE
  5
A492
  8
0
 10
34.6608817497987
 20
101.7968451205215
 30
0.0
 11
34.62186305921261
 21
101.8358619484625
 31
0.0
  0
LINE
  5
A493
  8
0
 10
42.75219384681608
 20
200.4403670206769
 30
0.0
 11
41.53975828151792
 21
198.3403670206766
 31
0.0
  0
ARC
  5
A494
  8
0
 10
41.62636082189624
 20
198.2903670206767
 30
0.0
 40
0.0999999999998077
 50
150.0000000000498
 51
270.0000000000499
  0
LINE
  5
A495
  8
0
 10
41.62636082189633
 20
198.1903670206769
 30
0.0
 11
44.05123195249266
 21
198.1903670206769
 31
0.0
  0
ARC
  5
A496
  8
0
 10
44.05123195249274
 20
198.2903670206767
 30
0.0
 40
0.0999999999998075
 50
269.9999999999499
 51
29.9999999999503
  0
LINE
  5
A497
  8
0
 10
44.13783449287106
 20
198.3403670206766
 30
0.0
 11
42.9253989275729
 21
200.4403670206769
 31
0.0
  0
ARC
  5
A498
  8
0
 10
42.83879638719449
 20
200.390367020677
 30
0.0
 40
0.0999999999999585
 50
29.99999999999998
 51
150.0
  0
LINE
  5
A499
  8
0
 10
42.7954951177006
 20
200.3153670206769
 30
0.0
 11
41.66966209211782
 21
198.365367020688
 31
0.0
  0
ARC
  5
A49A
  8
0
 10
41.71296336230077
 20
198.3403670206767
 30
0.0
 40
0.0500000000002611
 50
149.9999999851142
 51
269.9999999998677
  0
LINE
  5
A49B
  8
0
 10
41.71296336230066
 20
198.2903670206764
 30
0.0
 11
43.96462941214017
 21
198.2903670206764
 31
0.0
  0
ARC
  5
A49C
  8
0
 10
43.96462941214011
 20
198.3403670206764
 30
0.0
 40
0.0500000000000013
 50
270.0000000000688
 51
29.99999998531542
  0
LINE
  5
A49D
  8
0
 10
44.00793068233574
 20
198.3653670206653
 30
0.0
 11
42.882097658079
 21
200.3153670206769
 31
0.0
  0
ARC
  5
A49E
  8
0
 10
42.8387963878898
 20
200.290367020677
 30
0.0
 40
0.0499999999999793
 50
30.00000000000012
 51
149.9999999999999
  0
LINE
  5
A49F
  8
D002
 10
77.4734742502047
 20
226.2009991416811
 30
0.0
 11
77.2051220337631
 21
226.046065917281
 31
0.0
  0
LINE
  5
A4A0
  8
D002
 10
77.2051220337631
 20
226.046065917281
 30
0.0
 11
77.2051220337631
 21
225.7361994684807
 31
0.0
  0
LINE
  5
A4A1
  8
D002
 10
77.2051220337631
 20
225.7361994684807
 30
0.0
 11
77.4734742502047
 21
225.5812662440806
 31
0.0
  0
LINE
  5
A4A2
  8
D002
 10
77.4734742502047
 20
225.5812662440806
 30
0.0
 11
77.7418264666463
 21
225.7361994684807
 31
0.0
  0
LINE
  5
A4A3
  8
D002
 10
77.7418264666463
 20
225.7361994684807
 30
0.0
 11
77.7418264666463
 21
226.046065917281
 31
0.0
  0
LINE
  5
A4A4
  8
D002
 10
77.7418264666463
 20
226.046065917281
 30
0.0
 11
77.4734742502047
 21
226.2009991416811
 31
0.0
  0
LINE
  5
A4A5
  8
D002
 10
77.32347425020461
 20
226.4986495282701
 30
0.0
 11
77.02234923753107
 21
226.3247949211432
 31
0.0
  0
LINE
  5
A4A6
  8
D002
 10
77.92459926287856
 20
226.3247949211431
 30
0.0
 11
77.6234742502048
 21
226.4986495282701
 31
0.0
  0
LINE
  5
A4A7
  8
D002
 10
77.02234923753085
 20
225.4574704646185
 30
0.0
 11
77.32347425020461
 21
225.2836158574916
 31
0.0
  0
LINE
  5
A4A8
  8
D002
 10
77.6234742502048
 20
225.2836158574916
 30
0.0
 11
77.92459926287856
 21
225.4574704646186
 31
0.0
  0
LINE
  5
A4A9
  8
D002
 10
78.07459926287842
 20
225.7172780857539
 30
0.0
 11
78.07459926287842
 21
226.0649873000077
 31
0.0
  0
LINE
  5
A4AA
  8
D002
 10
76.87234923753098
 20
226.0649873000078
 30
0.0
 11
76.87234923753098
 21
225.7172780857538
 31
0.0
  0
LINE
  5
A4AB
  8
D002
 10
77.4734742502047
 20
206.2009991416808
 30
0.0
 11
77.2051220337631
 21
206.0460659172807
 31
0.0
  0
LINE
  5
A4AC
  8
D002
 10
77.2051220337631
 20
206.0460659172807
 30
0.0
 11
77.2051220337631
 21
205.7361994684803
 31
0.0
  0
LINE
  5
A4AD
  8
D002
 10
77.2051220337631
 20
205.7361994684803
 30
0.0
 11
77.4734742502047
 21
205.5812662440802
 31
0.0
  0
LINE
  5
A4AE
  8
D002
 10
77.4734742502047
 20
205.5812662440802
 30
0.0
 11
77.7418264666463
 21
205.7361994684803
 31
0.0
  0
LINE
  5
A4AF
  8
D002
 10
77.7418264666463
 20
205.7361994684803
 30
0.0
 11
77.7418264666463
 21
206.0460659172807
 31
0.0
  0
LINE
  5
A4B0
  8
D002
 10
77.7418264666463
 20
206.0460659172807
 30
0.0
 11
77.4734742502047
 21
206.2009991416808
 31
0.0
  0
LINE
  5
A4B1
  8
D002
 10
77.32347425020461
 20
206.4986495282698
 30
0.0
 11
77.02234923753107
 21
206.3247949211428
 31
0.0
  0
LINE
  5
A4B2
  8
D002
 10
77.92459926287856
 20
206.3247949211427
 30
0.0
 11
77.6234742502048
 21
206.4986495282698
 31
0.0
  0
LINE
  5
A4B3
  8
D002
 10
77.02234923753085
 20
205.4574704646182
 30
0.0
 11
77.32347425020461
 21
205.2836158574912
 31
0.0
  0
LINE
  5
A4B4
  8
D002
 10
77.6234742502048
 20
205.2836158574912
 30
0.0
 11
77.92459926287856
 21
205.4574704646183
 31
0.0
  0
LINE
  5
A4B5
  8
D002
 10
78.07459926287842
 20
205.7172780857536
 30
0.0
 11
78.07459926287842
 21
206.0649873000074
 31
0.0
  0
LINE
  5
A4B6
  8
D002
 10
76.87234923753098
 20
206.0649873000075
 30
0.0
 11
76.87234923753098
 21
205.7172780857535
 31
0.0
  0
VIEWPORT
  5
22
 67
     1
  8
0
 10
5.269134197284911
 20
5.545311567251436
 30
0.0
 40
11.13808705479925
 41
12.32365374410561
 68
     1
 69
     1
1001
GENIUS_GENSCREG_15
1000
PF
1040
1.0
1000
DF
1040
1.0
1000
MIN
1011
-0.2999093301147138
1021
-0.6165153048013714
1031
0.0
1021
-0.6165153048013714
1031
0.0
1000
MAX
1011
10.83817772468454
1021
11.70713843930424
1031
0.0
1021
11.70713843930424
1031
0.0
1000
FLAGS
1070
     4
1001
GENIUS_GENODEF_13
1002
{
1000
HIER
1070
     0
1002
}
1002
{
1000
MANEDIT
1070
     0
1002
}
1002
{
1000
NOSEL
1070
     0
1002
}
1002
{
1000
BEHIND
1070
     0
1002
}
1002
{
1000
OTHER
1070
     0
1002
}
1002
{
1000
REACTOR
1002
}
1001
GENIUS_GENOBJ-N-SDF_13
1002
{
1000
OWNER
1000
GEN
1002
}
1001
ACAD
1000
MVIEW
1002
{
1070
    16
1010
0.0
1020
0.0
1030
0.0
1020
0.0
1030
0.0
1010
0.0
1020
0.0
1030
1.0
1020
0.0
1030
1.0
1040
0.0
1040
12.32365374410561
1040
5.269134197284911
1040
5.545311567251436
1040
50.0
1040
0.0
1040
0.0
1070
     0
1070
   100
1070
     0
1070
     1
1070
     0
1070
     0
1070
     0
1070
     0
1040
0.0
1040
0.0
1040
0.0
1040
1.0
1040
1.0
1040
10.0
1040
10.0
1070
     0
1002
{
1002
}
1002
}
  0
ENDSEC
  0
EOF
