  0
SECTION
  2
HEADER
  9
$ACADVER
  1
AC1009
  9
$DWGCODEPAGE
  3
ansi_932
  9
$INSBASE
 10
0.0
 20
0.0
 30
0.0
  9
$EXTMIN
 10
0.0000064909936555
 20
-0.0000006430686881
 30
0.0
  9
$EXTMAX
 10
229.3158608337243
 20
294.6851305534325
 30
0.0
  9
$LIMMIN
 10
0.0
 20
0.0
  9
$LIMMAX
 10
420.0
 20
420.0
  9
$ORTHOMODE
 70
     0
  9
$REGENMODE
 70
     1
  9
$FILLMODE
 70
     1
  9
$QTEXTMODE
 70
     0
  9
$MIRRTEXT
 70
     0
  9
$DRAGMODE
 70
     2
  9
$LTSCALE
 40
10.0
  9
$OSMODE
 70
   549
  9
$ATTMODE
 70
     1
  9
$TEXTSIZE
 40
1.0
  9
$TRACEWID
 40
1.0
  9
$TEXTSTYLE
  7
STANDARD
  9
$CLAYER
  8
0
  9
$CELTYPE
  6
BYLAYER
  9
$CECOLOR
 62
   256
  9
$DIMSCALE
 40
1.0
  9
$DIMASZ
 40
2.5
  9
$DIMEXO
 40
1.0
  9
$DIMDLI
 40
7.0
  9
$DIMRND
 40
0.0
  9
$DIMDLE
 40
0.0
  9
$DIMEXE
 40
1.0
  9
$DIMTP
 40
0.1
  9
$DIMTM
 40
0.1
  9
$DIMTXT
 40
3.0
  9
$DIMCEN
 40
0.0
  9
$DIMTSZ
 40
0.0
  9
$DIMTOL
 70
     0
  9
$DIMLIM
 70
     0
  9
$DIMTIH
 70
     0
  9
$DIMTOH
 70
     0
  9
$DIMSE1
 70
     0
  9
$DIMSE2
 70
     0
  9
$DIMTAD
 70
     3
  9
$DIMZIN
 70
     8
  9
$DIMBLK
  1
OPEN
  9
$DIMASO
 70
     1
  9
$DIMSHO
 70
     1
  9
$DIMPOST
  1

  9
$DIMAPOST
  1
"
  9
$DIMALT
 70
     0
  9
$DIMALTD
 70
     2
  9
$DIMALTF
 40
0.0393701
  9
$DIMLFAC
 40
1.0
  9
$DIMTOFL
 70
     1
  9
$DIMTVP
 40
0.0
  9
$DIMTIX
 70
     0
  9
$DIMSOXD
 70
     0
  9
$DIMSAH
 70
     0
  9
$DIMBLK1
  1

  9
$DIMBLK2
  1

  9
$DIMSTYLE
  2
AM_JIS
  9
$DIMCLRD
 70
   256
  9
$DIMCLRE
 70
   256
  9
$DIMCLRT
 70
     2
  9
$DIMTFAC
 40
0.71
  9
$DIMGAP
 40
1.0
  9
$LUNITS
 70
     2
  9
$LUPREC
 70
     2
  9
$SKETCHINC
 40
1.0
  9
$FILLETRAD
 40
2.5
  9
$AUNITS
 70
     0
  9
$AUPREC
 70
     0
  9
$MENU
  1
.
  9
$ELEVATION
 40
0.0
  9
$PELEVATION
 40
0.0
  9
$THICKNESS
 40
0.0
  9
$LIMCHECK
 70
     0
  9
$CHAMFERA
 40
2.5
  9
$CHAMFERB
 40
2.5
  9
$SKPOLY
 70
     1
  9
$TDCREATE
 40
2457177.650584595
  9
$TDUPDATE
 40
2460346.651720046
  9
$TDINDWG
 40
0.0059132986
  9
$TDUSRTIMER
 40
0.0059082407
  9
$USRTIMER
 70
     1
  9
$ANGBASE
 50
0.0
  9
$ANGDIR
 70
     0
  9
$PDMODE
 70
     0
  9
$PDSIZE
 40
0.0
  9
$PLINEWID
 40
0.0
  9
$COORDS
 70
     0
  9
$SPLFRAME
 70
     0
  9
$SPLINETYPE
 70
     6
  9
$SPLINESEGS
 70
     8
  9
$ATTDIA
 70
     1
  9
$ATTREQ
 70
     1
  9
$HANDLING
 70
     1
  9
$HANDSEED
  5
9A6B
  9
$SURFTAB1
 70
     6
  9
$SURFTAB2
 70
     6
  9
$SURFTYPE
 70
     6
  9
$SURFU
 70
     6
  9
$SURFV
 70
     6
  9
$UCSNAME
  2

  9
$UCSORG
 10
0.0
 20
0.0
 30
0.0
  9
$UCSXDIR
 10
1.0
 20
0.0
 30
0.0
  9
$UCSYDIR
 10
0.0
 20
1.0
 30
0.0
  9
$PUCSNAME
  2

  9
$PUCSORG
 10
0.0
 20
0.0
 30
0.0
  9
$PUCSXDIR
 10
1.0
 20
0.0
 30
0.0
  9
$PUCSYDIR
 10
0.0
 20
1.0
 30
0.0
  9
$USERI1
 70
     0
  9
$USERI2
 70
     0
  9
$USERI3
 70
     0
  9
$USERI4
 70
     0
  9
$USERI5
 70
     0
  9
$USERR1
 40
0.0
  9
$USERR2
 40
0.0
  9
$USERR3
 40
0.0
  9
$USERR4
 40
0.0
  9
$USERR5
 40
0.0
  9
$WORLDVIEW
 70
     1
  9
$SHADEDGE
 70
     3
  9
$SHADEDIF
 70
    70
  9
$TILEMODE
 70
     1
  9
$MAXACTVP
 70
    48
  9
$PLIMCHECK
 70
     0
  9
$PEXTMIN
 10
1.000000000000000E+20
 20
1.000000000000000E+20
 30
1.000000000000000E+20
  9
$PEXTMAX
 10
-1.000000000000000E+20
 20
-1.000000000000000E+20
 30
-1.000000000000000E+20
  9
$PLIMMIN
 10
-0.2500002402958907
 20
-0.2499999962453767
  9
$PLIMMAX
 10
10.74999951940822
 20
8.249999763458732
  9
$UNITMODE
 70
     0
  9
$VISRETAIN
 70
     1
  9
$PLINEGEN
 70
     0
  9
$PSLTSCALE
 70
     1
  0
ENDSEC
  0
SECTION
  2
TABLES
  0
TABLE
  2
VPORT
 70
     1
  0
VPORT
  2
*ACTIVE
 70
     0
 10
0.0
 20
0.0
 11
1.0
 21
1.0
 12
209.9999999999999
 22
209.9999996784657
 13
0.0
 23
0.0
 14
2.5
 24
2.5
 15
10.0
 25
10.0
 16
0.0
 26
0.0
 36
1.0
 17
0.0
 27
0.0
 37
0.0
 40
423.2589725200276
 41
2.05293551491819
 42
50.0
 43
0.0
 44
0.0
 50
0.0
 51
0.0
 71
     0
 72
   100
 73
     1
 74
     3
 75
     0
 76
     0
 77
     0
 78
     0
  0
ENDTAB
  0
TABLE
  2
LTYPE
 70
    22
  0
LTYPE
  2
CONTINUOUS
 70
     0
  3
Solid line
 72
    65
 73
     0
 40
0.0
  0
LTYPE
  2
HIDDEN
 70
     0
  3
__ __ __ __ __ __ __ __ __ __ __ __ __ __ __ __
 72
    65
 73
     2
 40
0.375
 49
0.25
 49
-0.125
  0
LTYPE
  2
PHANTOM2
 70
     0
  3
___ _ _ ___ _ _ ___ _ _ ___ _ _ ___ _ _ ___ _ _
 72
    65
 73
     6
 40
1.25
 49
0.625
 49
-0.125
 49
0.125
 49
-0.125
 49
0.125
 49
-0.125
  0
LTYPE
  2
CENTER
 70
     0
  3
____ _ ____ _ ____ _ ____ _ ____ _ ____ _ ____ 
 72
    65
 73
     4
 40
2.0
 49
1.25
 49
-0.25
 49
0.25
 49
-0.25
  0
LTYPE
  2
ACJISTGB
 70
     0
  3
__ . . __ . .
 72
    65
 73
     6
 40
9.0
 49
4.0
 49
-1.0
 49
1.0
 49
-1.0
 49
1.0
 49
-1.0
  0
LTYPE
  2
ACJISTGL
 70
     0
  3
_ _ _ _ _
 72
    65
 73
     2
 40
3.0
 49
2.0
 49
-1.0
  0
LTYPE
  2
ACISOWELD
 70
     0
  3
_ _ _ _ _
 72
    65
 73
     2
 40
2.0
 49
2.0
 49
-1.0
  0
LTYPE
  2
ACISOTGB
 70
     0
  3
__ . . __ . .
 72
    65
 73
     6
 40
9.0
 49
4.0
 49
-1.0
 49
1.0
 49
-1.0
 49
1.0
 49
-1.0
  0
LTYPE
  2
ACISOTGL
 70
     0
  3
_ _ _ _ _
 72
    65
 73
     2
 40
3.0
 49
2.0
 49
-1.0
  0
LTYPE
  2
AM_ISO02W050
 70
     0
  3
__ __ __ __ __ __ __ __ __ __ __ __ __ __ __
 72
    65
 73
     2
 40
7.5
 49
6.0
 49
-1.5
  0
LTYPE
  2
AM_ISO08W050
 70
     0
  3
____ . ____ . ____ . ____ . ____ . ____ . ____
 72
    65
 73
     4
 40
18.0
 49
12.0
 49
-1.5
 49
3.0
 49
-1.5
  0
LTYPE
  2
AM_ISO09W050
 70
     0
  3
_____ . . _____ . . _____ . . ____ .. ____
 72
    65
 73
     6
 40
22.5
 49
12.0
 49
-1.5
 49
3.0
 49
-1.5
 49
3.0
 49
-1.5
  0
LTYPE
  2
AM_ISO02W050X2
 70
     0
  3
 _ _ _ _ _ _ _ _ _ _ _ _
 72
    65
 73
     2
 40
3.75
 49
3.0
 49
-0.75
  0
LTYPE
  2
AM_ISO08W050X2
 70
     0
  3
__ . __ . __ . __ . __ . __
 72
    65
 73
     4
 40
9.0
 49
6.0
 49
-0.75
 49
1.5
 49
-0.75
  0
LTYPE
  2
AMZIGZAG
 70
     0
  3
/\/-/\/-/\/-/\/-/\/-/\/
 72
    65
 73
     2
 40
11.0001
 49
0.0001
 49
-11.0
  0
LTYPE
  2
AMCONSTR
 70
     0
  3
_______________________
 72
    65
 73
     2
 40
9999.0
 49
9999.0
 49
0.0
  0
LTYPE
  2
CENTER2
 70
     0
  3
Center (.5x) ___ _ ___ _ ___ _ ___ _ ___ _ ___
 72
    65
 73
     4
 40
1.125
 49
0.75
 49
-0.125
 49
0.125
 49
-0.125
  0
LTYPE
  2
HIDDEN2
 70
     0
  3
Hidden (.5x) _ _ _ _ _ _ _ _ _ _ _ _ _ _ _ _ _
 72
    65
 73
     2
 40
0.1875
 49
0.125
 49
-0.0625
  0
LTYPE
  2
ACJISWELD
 70
     0
  3
_ _ _ _ _
 72
    65
 73
     2
 40
2.0
 49
2.0
 49
-1.0
  0
LTYPE
  2
AMZIGZAG2
 70
     0
  3
/\/-/\/-/\/-/\/-/\/-/\/
 72
    65
 73
     2
 40
0.4401
 49
0.0001
 49
-0.44
  0
LTYPE
  2
ACANSTGB
 70
     0
  3
__ . . __ . .
 72
    65
 73
     6
 40
0.35433070866
 49
0.15748031496
 49
-0.03937007874
 49
0.03937007874
 49
-0.03937007874
 49
0.03937007874
 49
-0.03937007874
  0
LTYPE
  2
ACANSTGL
 70
     0
  3
_ _ _ _ _
 72
    65
 73
     2
 40
0.11811023622
 49
0.07874015748
 49
-0.03937007874
  0
ENDTAB
  0
TABLE
  2
LAYER
 70
     9
  0
LAYER
  2
0
 70
     0
 62
     7
  6
CONTINUOUS
  0
LAYER
  2
7
 70
     0
 62
     4
  6
CENTER2
  0
LAYER
  2
10
 70
     0
 62
     2
  6
CONTINUOUS
  0
LAYER
  2
DEFPOINTS
 70
     0
 62
     7
  6
CONTINUOUS
  0
LAYER
  2
AM_7
 70
     0
 62
     4
  6
CENTER2
  0
LAYER
  2
AM_0
 70
     0
 62
     7
  6
CONTINUOUS
  0
LAYER
  2
D002
 70
     0
 62
   152
  6
CONTINUOUS
  0
ENDTAB
  0
TABLE
  2
STYLE
 70
     8
  0
STYLE
  2
STANDARD
 70
     0
 40
0.0
 41
1.0
 50
0.0
 71
     0
 42
1.0
  3
ISOCP.SHX
  4
EXTFONT.SHX
  0
STYLE
  2
ACJISTS
 70
     0
 40
1.0
 41
1.0
 50
0.0
 71
     0
 42
3.5
  3
isocp.shx
  4
extfont.shx
  0
STYLE
  2
ACJISGDT
 70
     0
 40
0.0
 41
1.0
 50
0.0
 71
     0
 42
3.5
  3
amgdt.shx
  4
extfont.shx
  0
STYLE
  2
ACISOTS
 70
     0
 40
1.0
 41
1.0
 50
0.0
 71
     0
 42
1.0
  3
isocp.shx
  4
extfont.shx
  0
STYLE
  2
ACISOGDT
 70
     0
 40
0.0
 41
1.0
 50
0.0
 71
     0
 42
3.5
  3
amgdt.shx
  4
extfont.shx
  0
STYLE
  2

 70
     1
 40
0.0
 41
1.0
 50
0.0
 71
     0
 42
3.5
  3
ltypeshp.shx
  4

  0
STYLE
  2

 70
     1
 40
0.0
 41
1.0
 50
0.0
 71
     0
 42
4.0
  3
genltshp.shx
  4

  0
STYLE
  2
ACANSGDT
 70
     0
 40
0.0
 41
1.0
 50
0.0
 71
     0
 42
4.0
  3
amgdt.shx
  4

  0
ENDTAB
  0
TABLE
  2
VIEW
 70
     3
  0
VIEW
  2
AMDTVIEW1
 70
     0
 40
329.0721649484536
 10
210.0
 20
164.5360824742268
 41
420.0
 11
0.0
 21
0.0
 31
1.0
 12
0.0
 22
0.0
 32
0.0
 42
50.0
 43
0.0
 44
0.0
 50
0.0
 71
     0
  0
VIEW
  2
AMDTVIEW2
 70
     0
 40
329.0721649484536
 10
210.0
 20
164.5360824742268
 41
420.0
 11
0.0
 21
0.0
 31
1.0
 12
0.0
 22
0.0
 32
0.0
 42
50.0
 43
0.0
 44
0.0
 50
0.0
 71
     0
  0
VIEW
  2
AMDTVIEW3
 70
     0
 40
329.0721649484536
 10
210.0
 20
164.5360824742268
 41
420.0
 11
0.0
 21
0.0
 31
1.0
 12
0.0
 22
0.0
 32
0.0
 42
50.0
 43
0.0
 44
0.0
 50
0.0
 71
     0
  0
ENDTAB
  0
TABLE
  2
UCS
 70
     0
  0
ENDTAB
  0
TABLE
  2
APPID
 70
    65
  0
APPID
  2
ACAD
 70
     0
  0
APPID
  2
AD_DRAW
 70
     0
  0
APPID
  2
DESIGNERASSEMBLIES
 70
     0
  0
APPID
  2
MCAD_NO_VIS
 70
     0
  0
APPID
  2
ASURF_PCURVE_APPNAME
 70
     0
  0
APPID
  2
ACAD_TEMP_GRAPHIC
 70
     0
  0
APPID
  2
ACATTRIBSERVICES
 70
     0
  0
APPID
  2
ACADM_DIM_EDIT
 70
     0
  0
APPID
  2
GENIUS_GENDIM_13
 70
     0
  0
APPID
  2
GENIUS_GENDTOL_13
 70
     0
  0
APPID
  2
GENIUS_GE3DTOL_13
 70
     0
  0
APPID
  2
AMG_3D2D_5_0
 70
     0
  0
APPID
  2
AMDT_DM_ADJ
 70
     0
  0
APPID
  2
ACAD_PSEXT
 70
     0
  0
APPID
  2
ACAD_DSTYLE_DIMTEXT_FILL
 70
     0
  0
APPID
  2
ACAECLAYERSTANDARD
 70
     0
  0
APPID
  2
GENIUS_GENREC_14
 70
     0
  0
APPID
  2
GENIUS_GENODEF_13
 70
     0
  0
APPID
  2
GENIUS_GENOBJ-N-REC_13
 70
     0
  0
APPID
  2
DCO15
 70
     0
  0
APPID
  2
ACAD_DSTYLE_DIMJAG
 70
     0
  0
APPID
  2
ACAD_DSTYLE_DIMTALN
 70
     0
  0
APPID
  2
ACAD_MLEADERVER
 70
     0
  0
APPID
  2
GENIUS_GENSCREG_15
 70
     0
  0
APPID
  2
GENIUS_GENOBJ-N-SDF_13
 70
     0
  0
APPID
  2
ACAD_NAV_VCDISPLAY
 70
     0
  0
APPID
  2
ACAD_EXEMPT_FROM_CAD_STAND
 70
     0
  0
APPID
  2
ACCMTRANSPARENCY
 70
     0
  0
APPID
  2
GENIUS_GENOBJ-N-CEN_13
 70
     0
  0
APPID
  2
GENIUS_GENOBJ-N-FIL_13
 70
     0
  0
APPID
  2
GENIUS_GENCEN_19
 70
     0
  0
APPID
  2
ACAD_DSTYLE_DIMBREAK
 70
     0
  0
APPID
  2
PLOTTRANSPARENCY
 70
     0
  0
APPID
  2
HC_SUPERPART
 70
     0
  0
APPID
  2
HC_SP4BLOCK
 70
     0
  0
APPID
  2
HC_XDATA_SPRING
 70
     0
  0
APPID
  2
HCCAD_FRAME
 70
     0
  0
APPID
  2
GENIUS_GENOLIS_13
 70
     0
  0
APPID
  2
GENIUS_GENOENT_13
 70
     0
  0
APPID
  2
GENIUS_GENOREF_13
 70
     0
  0
APPID
  2
GENIUS_GENOBJ-N-TIT_13
 70
     0
  0
APPID
  2
GENIUS_GENOBJ-N-ZOO_13
 70
     0
  0
APPID
  2
GENIUS_GENTITLE_13
 70
     0
  0
APPID
  2
GENIUS_GENSYMENT_13
 70
     0
  0
APPID
  2
GENIUS_GENSCSYM_13
 70
     0
  0
APPID
  2
GENIUS_GENOBJ-N-REV_13
 70
     0
  0
APPID
  2
GENIUS_GENOBJ-N-RSSYM_13
 70
     0
  0
APPID
  2
GENIUS_GENREV_15
 70
     0
  0
APPID
  2
HRA
 70
     0
  0
APPID
  2
HTIT
 70
     0
  0
APPID
  2
GENIUS_GENZOO_17
 70
     0
  0
APPID
  2
GENIUS_GENOBJ-N-CRS_13
 70
     0
  0
APPID
  2
GENIUS_GENCRS_20
 70
     0
  0
APPID
  2
GENIUS_GENOBJ-N-CRC_13
 70
     0
  0
APPID
  2
GENIUS_GENCRC_14
 70
     0
  0
APPID
  2
GENIUS_GENFIL_13
 70
     0
  0
APPID
  2
GENIUS_GENOBJ-N-CHA_13
 70
     0
  0
APPID
  2
GENIUS_GENHATCH_13
 70
     0
  0
APPID
  2
GENIUS_GENOBJ-N-HTC_13
 70
     0
  0
APPID
  2
GENIUS_GENOBJ-N-DIM_13
 70
     0
  0
APPID
  2
GENIUS_GENOBJ-N-DIMLI_13
 70
     0
  0
APPID
  2
GENIUS_GENOBJ-N-FITL_13
 70
     0
  0
APPID
  2
GENIUS_GENFITL_13
 70
     0
  0
APPID
  2
GENLAYCOLOR
 70
     0
  0
APPID
  2
ACADANNOTATIVE
 70
     0
  0
ENDTAB
  0
TABLE
  2
DIMSTYLE
 70
    23
  0
DIMSTYLE
  2
STANDARD
 70
     0
  3

  4

  5

  6

  7

 40
1.0
 41
2.5
 42
0.625
 43
3.75
 44
1.25
 45
0.0
 46
0.0
 47
0.0
 48
0.0
140
2.5
141
2.5
142
0.0
143
0.0394
144
1.0
145
0.0
146
1.0
147
0.625
 71
     0
 72
     0
 73
     0
 74
     0
 75
     0
 76
     0
 77
     1
 78
     8
170
     0
171
     4
172
     1
173
     0
174
     0
175
     0
176
     0
177
     0
178
     0
  0
DIMSTYLE
  2
AM_JIS
 70
     0
  3

  4
"
  5
OPEN
  6

  7

 40
1.0
 41
2.5
 42
1.0
 43
7.0
 44
1.0
 45
0.0
 46
0.0
 47
0.1
 48
0.1
140
3.0
141
0.0
142
0.0
143
0.0393701
144
1.0
145
0.0
146
0.71
147
1.0
 71
     0
 72
     0
 73
     0
 74
     0
 75
     0
 76
     0
 77
     3
 78
     8
170
     0
171
     2
172
     1
173
     0
174
     0
175
     0
176
   256
177
   256
178
     2
  0
DIMSTYLE
  2
AM_JIS$3
 70
     0
  3

  4
"
  5
OPEN
  6

  7

 40
1.0
 41
2.5
 42
1.0
 43
10.0
 44
1.0
 45
0.0
 46
0.0
 47
0.1
 48
0.1
140
3.0
141
0.0
142
0.0
143
0.0393701
144
1.0
145
0.0
146
0.71
147
1.0
 71
     0
 72
     0
 73
     0
 74
     0
 75
     0
 76
     0
 77
     3
 78
     8
170
     0
171
     2
172
     1
173
     0
174
     0
175
     0
176
   256
177
   256
178
     2
  0
DIMSTYLE
  2
AM_JIS$4
 70
     0
  3

  4
"
  5

  6
OPEN30
  7
OPEN
 40
1.0
 41
2.5
 42
1.0
 43
10.0
 44
1.0
 45
0.0
 46
0.0
 47
0.1
 48
0.1
140
3.0
141
0.0
142
0.0
143
0.0393701
144
1.0
145
0.0
146
0.71
147
1.0
 71
     0
 72
     0
 73
     0
 74
     0
 75
     0
 76
     0
 77
     3
 78
     8
170
     0
171
     2
172
     1
173
     1
174
     0
175
     0
176
   256
177
   256
178
     2
  0
DIMSTYLE
  2
AM_JIS$6
 70
     0
  3

  4
"
  5
OPEN30
  6
OPEN30
  7
OPEN30
 40
1.0
 41
2.5
 42
1.0
 43
10.0
 44
1.0
 45
0.0
 46
0.0
 47
0.1
 48
0.1
140
3.5
141
0.0
142
0.0
143
0.0393701
144
1.0
145
0.0
146
0.71
147
1.5
 71
     0
 72
     0
 73
     0
 74
     0
 75
     0
 76
     0
 77
     0
 78
     8
170
     0
171
     2
172
     1
173
     0
174
     0
175
     0
176
   256
177
   256
178
     2
  0
DIMSTYLE
  2
AM_JIS$7
 70
     0
  3

  4
"
  5
OPEN30
  6

  7

 40
1.0
 41
2.5
 42
1.0
 43
10.0
 44
1.0
 45
0.0
 46
0.0
 47
0.1
 48
0.1
140
3.0
141
0.0
142
0.0
143
0.0393701
144
1.0
145
0.0
146
0.71
147
1.0
 71
     0
 72
     0
 73
     0
 74
     0
 75
     0
 76
     0
 77
     3
 78
     8
170
     0
171
     2
172
     1
173
     0
174
     0
175
     0
176
   256
177
   256
178
     2
  0
DIMSTYLE
  2
AM_JIS$SF
 70
     0
  3

  4
"
  5
OPEN
  6

  7

 40
1.0
 41
2.5
 42
1.0
 43
7.0
 44
1.0
 45
0.0
 46
0.0
 47
0.1
 48
0.1
140
3.5
141
0.0
142
0.0
143
0.0393701
144
1.0
145
0.0
146
0.71
147
1.5
 71
     0
 72
     0
 73
     0
 74
     0
 75
     1
 76
     1
 77
     3
 78
     8
170
     0
171
     2
172
     1
173
     0
174
     0
175
     0
176
   256
177
   256
178
     2
  0
DIMSTYLE
  2
AM_JIS$SH
 70
     0
  3

  4
"
  5

  6
GENAXEH
  7
OPEN
 40
1.0
 41
2.5
 42
1.0
 43
7.0
 44
1.0
 45
0.0
 46
0.0
 47
0.1
 48
0.1
140
3.5
141
0.0
142
0.0
143
0.0393701
144
2.0
145
0.0
146
0.71
147
1.5
 71
     0
 72
     0
 73
     0
 74
     0
 75
     1
 76
     1
 77
     3
 78
     8
170
     0
171
     2
172
     1
173
     1
174
     0
175
     0
176
   256
177
   256
178
     2
  0
DIMSTYLE
  2
AM_ISO
 70
     0
  3

  4
"
  5

  6

  7

 40
1.0
 41
2.5
 42
1.0
 43
10.0
 44
1.0
 45
0.0
 46
0.0
 47
0.1
 48
0.1
140
3.5
141
0.0
142
0.0
143
0.0393701
144
1.0
145
0.0
146
0.71
147
1.5
 71
     0
 72
     0
 73
     0
 74
     0
 75
     0
 76
     0
 77
     1
 78
     8
170
     0
171
     2
172
     1
173
     0
174
     0
175
     0
176
   256
177
   256
178
     2
  0
DIMSTYLE
  2
AM_ISO$3
 70
     0
  3

  4
"
  5

  6

  7

 40
1.0
 41
2.5
 42
1.0
 43
10.0
 44
1.0
 45
0.0
 46
0.0
 47
0.1
 48
0.1
140
3.5
141
0.0
142
0.0
143
0.0393701
144
1.0
145
0.0
146
0.71
147
1.5
 71
     0
 72
     0
 73
     0
 74
     1
 75
     0
 76
     0
 77
     1
 78
     8
170
     0
171
     2
172
     0
173
     0
174
     0
175
     0
176
   256
177
   256
178
     2
  0
DIMSTYLE
  2
AM_ISO$4
 70
     0
  3

  4
"
  5

  6

  7

 40
1.0
 41
2.5
 42
1.0
 43
10.0
 44
1.0
 45
0.0
 46
0.0
 47
0.1
 48
0.1
140
3.5
141
0.0
142
0.0
143
0.0393701
144
1.0
145
0.0
146
0.71
147
1.5
 71
     0
 72
     0
 73
     0
 74
     1
 75
     0
 76
     0
 77
     1
 78
     8
170
     0
171
     2
172
     0
173
     0
174
     0
175
     0
176
   256
177
   256
178
     2
  0
DIMSTYLE
  2
AM_ISO$6
 70
     0
  3

  4
"
  5

  6

  7

 40
1.0
 41
2.5
 42
1.0
 43
10.0
 44
1.0
 45
0.0
 46
0.0
 47
0.1
 48
0.1
140
3.5
141
0.0
142
0.0
143
0.0393701
144
1.0
145
0.0
146
0.71
147
1.5
 71
     0
 72
     0
 73
     0
 74
     0
 75
     0
 76
     0
 77
     0
 78
     8
170
     0
171
     2
172
     1
173
     0
174
     0
175
     0
176
   256
177
   256
178
     2
  0
DIMSTYLE
  2
AM_ISO$7
 70
     0
  3

  4
"
  5

  6

  7

 40
1.0
 41
2.5
 42
1.0
 43
10.0
 44
1.0
 45
0.0
 46
0.0
 47
0.1
 48
0.1
140
5.0
141
0.0
142
0.0
143
0.0393701
144
1.0
145
0.0
146
0.71
147
1.5
 71
     0
 72
     0
 73
     0
 74
     0
 75
     0
 76
     0
 77
     1
 78
     8
170
     0
171
     2
172
     1
173
     0
174
     0
175
     0
176
   256
177
   256
178
     2
  0
DIMSTYLE
  2
AM_ISO$SF
 70
     0
  3

  4
"
  5

  6

  7

 40
1.0
 41
2.5
 42
1.0
 43
10.0
 44
1.0
 45
0.0
 46
0.0
 47
0.1
 48
0.1
140
3.5
141
0.0
142
0.0
143
0.0393701
144
1.0
145
0.0
146
0.71
147
1.5
 71
     0
 72
     0
 73
     0
 74
     0
 75
     1
 76
     1
 77
     1
 78
     8
170
     0
171
     2
172
     1
173
     0
174
     0
175
     0
176
   256
177
   256
178
     2
  0
DIMSTYLE
  2
AM_ISO$SH
 70
     0
  3

  4
"
  5

  6
GENAXEH
  7

 40
1.0
 41
2.5
 42
1.0
 43
10.0
 44
1.0
 45
0.0
 46
0.0
 47
0.1
 48
0.1
140
3.5
141
0.0
142
0.0
143
0.0393701
144
2.0
145
0.0
146
0.71
147
1.5
 71
     0
 72
     0
 73
     0
 74
     0
 75
     1
 76
     1
 77
     1
 78
     8
170
     0
171
     2
172
     1
173
     1
174
     0
175
     0
176
   256
177
   256
178
     2
  0
DIMSTYLE
  2
AM_JIS$2
 70
     0
  3

  4
"
  5
OPEN
  6

  7

 40
1.0
 41
2.5
 42
1.0
 43
7.0
 44
1.0
 45
0.0
 46
0.0
 47
0.1
 48
0.1
140
3.0
141
0.0
142
0.0
143
0.0393701
144
1.0
145
0.0
146
0.71
147
1.0
 71
     0
 72
     0
 73
     0
 74
     0
 75
     0
 76
     0
 77
     3
 78
     8
170
     0
171
     2
172
     1
173
     0
174
     0
175
     0
176
   256
177
   256
178
     2
  0
DIMSTYLE
  2
AM_JIS$0
 70
     0
  3

  4
"
  5
OPEN
  6

  7

 40
1.0
 41
2.5
 42
1.0
 43
7.0
 44
1.0
 45
0.0
 46
0.0
 47
0.1
 48
0.1
140
3.0
141
0.0
142
0.0
143
0.0393701
144
1.0
145
0.0
146
0.71
147
1.0
 71
     0
 72
     0
 73
     0
 74
     0
 75
     0
 76
     0
 77
     3
 78
     8
170
     0
171
     2
172
     1
173
     0
174
     0
175
     0
176
   256
177
   256
178
     2
  0
DIMSTYLE
  2
AM_ANSI
 70
     0
  3

  4
mm
  5

  6

  7

 40
1.0
 41
0.12
 42
0.05
 43
0.5
 44
0.1
 45
0.0
 46
0.0
 47
0.1
 48
0.1
140
0.12
141
0.0
142
0.0
143
25.4
144
1.0
145
0.0
146
0.71
147
0.06
 71
     0
 72
     0
 73
     1
 74
     1
 75
     0
 76
     0
 77
     0
 78
     7
170
     0
171
     2
172
     0
173
     0
174
     0
175
     0
176
   256
177
   256
178
     2
  0
DIMSTYLE
  2
AM_ANSI$3
 70
     0
  3

  4
mm
  5

  6

  7

 40
1.0
 41
0.12
 42
0.05
 43
0.5
 44
0.1
 45
0.0
 46
0.0
 47
0.1
 48
0.1
140
0.12
141
0.0
142
0.0
143
25.4
144
1.0
145
0.0
146
0.71
147
0.06
 71
     0
 72
     0
 73
     1
 74
     1
 75
     0
 76
     0
 77
     0
 78
     7
170
     0
171
     2
172
     0
173
     0
174
     0
175
     0
176
   256
177
   256
178
     2
  0
DIMSTYLE
  2
AM_ANSI$4
 70
     0
  3

  4
mm
  5

  6

  7

 40
1.0
 41
0.12
 42
0.05
 43
0.5
 44
0.1
 45
0.0
 46
0.0
 47
0.1
 48
0.1
140
0.12
141
0.0
142
0.0
143
25.4
144
1.0
145
0.0
146
0.71
147
0.06
 71
     0
 72
     0
 73
     1
 74
     1
 75
     0
 76
     0
 77
     0
 78
     7
170
     0
171
     2
172
     0
173
     0
174
     0
175
     0
176
   256
177
   256
178
     2
  0
DIMSTYLE
  2
AM_ANSI$7
 70
     0
  3

  4
mm
  5

  6

  7

 40
1.0
 41
0.12
 42
0.05
 43
0.5
 44
0.1
 45
0.0
 46
0.0
 47
0.1
 48
0.1
140
0.12
141
0.0
142
0.0
143
25.4
144
1.0
145
0.0
146
0.71
147
0.06
 71
     0
 72
     0
 73
     1
 74
     1
 75
     0
 76
     0
 77
     0
 78
     7
170
     0
171
     2
172
     0
173
     0
174
     0
175
     0
176
   256
177
   256
178
     2
  0
DIMSTYLE
  2
AM_ANSI$SF
 70
     0
  3

  4
mm
  5

  6

  7

 40
1.0
 41
0.12
 42
0.05
 43
0.5
 44
0.1
 45
0.0
 46
0.0
 47
0.1
 48
0.1
140
0.12
141
0.0
142
0.0
143
25.4
144
1.0
145
0.0
146
0.71
147
0.06
 71
     0
 72
     0
 73
     1
 74
     1
 75
     1
 76
     1
 77
     0
 78
     7
170
     0
171
     2
172
     0
173
     0
174
     0
175
     0
176
   256
177
   256
178
     2
  0
DIMSTYLE
  2
AM_ANSI$SH
 70
     0
  3

  4
mm
  5

  6
GENAXEH
  7

 40
1.0
 41
0.12
 42
0.05
 43
0.5
 44
0.1
 45
0.0
 46
0.0
 47
0.1
 48
0.1
140
0.12
141
0.0
142
0.0
143
25.4
144
1.0
145
0.0
146
0.71
147
0.06
 71
     0
 72
     0
 73
     1
 74
     1
 75
     1
 76
     1
 77
     0
 78
     7
170
     0
171
     2
172
     0
173
     1
174
     0
175
     0
176
   256
177
   256
178
     2
  0
ENDTAB
  0
ENDSEC
  0
SECTION
  2
BLOCKS
  0
BLOCK
  8
0
  2
$MODEL_SPACE
 70
     0
 10
0.0
 20
0.0
 30
0.0
  3
$MODEL_SPACE
  1

  0
ENDBLK
  5
1C
  8
0
  0
BLOCK
 67
     1
  8
0
  2
$PAPER_SPACE
 70
     0
 10
0.0
 20
0.0
 30
0.0
  3
$PAPER_SPACE
  1

  0
ENDBLK
  5
19
 67
     1
  8
0
  0
BLOCK
  8
0
  2
_OPEN30
 70
     0
 10
0.0
 20
0.0
 30
0.0
  3
_OPEN30
  1

  0
LINE
  5
2EF
  8
0
  6
BYBLOCK
 62
     0
 10
-1.0
 20
0.26794919
 30
0.0
 11
0.0
 21
0.0
 31
0.0
  0
LINE
  5
2F0
  8
0
  6
BYBLOCK
 62
     0
 10
0.0
 20
0.0
 30
0.0
 11
-1.0
 21
-0.26794919
 31
0.0
  0
LINE
  5
2F1
  8
0
  6
BYBLOCK
 62
     0
 10
0.0
 20
0.0
 30
0.0
 11
-1.0
 21
0.0
 31
0.0
  0
ENDBLK
  5
2F3
  8
0
  0
BLOCK
  8
0
  2
GENAXEH
 70
     0
 10
0.0
 20
0.0
 30
0.0
  3
GENAXEH
  1

  0
LINE
  5
2F5
  8
0
 10
-1.0
 20
0.0
 30
0.0
 11
1.0
 21
0.0
 31
0.0
  0
ENDBLK
  5
2F7
  8
0
  0
BLOCK
  8
0
  2
_OPEN
 70
     0
 10
0.0
 20
0.0
 30
0.0
  3
_OPEN
  1

  0
LINE
  5
597
  8
0
  6
BYBLOCK
 62
     0
 10
-1.0
 20
0.1666666666666667
 30
0.0
 11
0.0
 21
0.0
 31
0.0
  0
LINE
  5
598
  8
0
  6
BYBLOCK
 62
     0
 10
-1.0
 20
-0.1666666666666667
 30
0.0
 11
0.0
 21
0.0
 31
0.0
  0
LINE
  5
599
  8
0
  6
BYBLOCK
 62
     0
 10
0.0
 20
0.0
 30
0.0
 11
-1.0
 21
0.0
 31
0.0
  0
ENDBLK
  5
59B
  8
0
  0
BLOCK
  8
0
  2
_TAGCIRCLE
 70
     2
 10
0.0
 20
0.0
 30
0.0
  3
_TAGCIRCLE
  1

  0
CIRCLE
  5
1151
  8
0
  6
BYBLOCK
 62
     0
 10
0.0
 20
0.0
 30
0.0
 40
4.0
  0
ATTDEF
  5
1152
  8
0
 62
     0
 10
-7.1
 20
-1.5
 30
0.0
 40
3.0
  1
タグ番号
 72
     1
 11
0.0
 21
-1.5
 31
0.0
  3
タグ番号を入力
  2
タグ番号
 70
     0
  0
ENDBLK
  5
1154
  8
0
  0
BLOCK
  8
0
  2
_ACMFILLED15
 70
     0
 10
0.0
 20
0.0
 30
0.0
  3
_ACMFILLED15
  1
Acad:XRef
  0
TRACE
  5
7806
  8
AM_0
 62
     0
 10
-1.0
 20
0.1316524975873958
 30
0.0
 11
-1.0
 21
-0.1316524975873958
 31
0.0
 12
0.0
 22
0.0
 32
0.0
 13
0.0
 23
0.0
 33
0.0
  0
ENDBLK
  5
7804
  8
0
  0
BLOCK
  8
0
  2
_ACMOPEN30
 70
     0
 10
0.0
 20
0.0
 30
0.0
  3
_ACMOPEN30
  1
Acad:XRef
  0
LINE
  5
7810
  8
AM_0
 62
     0
 10
-1.0
 20
0.0
 30
0.0
 11
0.0
 21
0.0
 31
0.0
  0
LINE
  5
7811
  8
AM_0
 62
     0
 10
-1.0
 20
-0.2679491924311227
 30
0.0
 11
0.0
 21
0.0
 31
0.0
  0
LINE
  5
7812
  8
AM_0
 62
     0
 10
-1.0
 20
0.2679491924311227
 30
0.0
 11
0.0
 21
0.0
 31
0.0
  0
ENDBLK
  5
780F
  8
0
  0
BLOCK
  8
0
  2
_ACMFILLEDHALF
 70
     0
 10
0.0
 20
0.0
 30
0.0
  3
_ACMFILLEDHALF
  1

  0
TRACE
  5
781B
  8
0
 62
     0
 10
-0.8
 20
0.0
 30
0.0
 11
-1.0
 21
0.166666666
 31
0.0
 12
0.0
 22
0.0
 32
0.0
 13
0.0
 23
0.0
 33
0.0
  0
LINE
  5
781C
  8
0
 62
     0
 10
-1.0
 20
0.0
 30
0.0
 11
-0.8
 21
0.0
 31
0.0
  0
ENDBLK
  5
781D
  8
0
  0
BLOCK
  8
0
  2
_ACMOPEN15
 70
     0
 10
0.0
 20
0.0
 30
0.0
  3
_ACMOPEN15
  1
Acad:XRef
  0
LINE
  5
782A
  8
AM_0
 62
     0
 10
-1.0
 20
0.0
 30
0.0
 11
0.0
 21
0.0
 31
0.0
  0
LINE
  5
782B
  8
AM_0
 62
     0
 10
-1.0
 20
-0.1316524975873958
 30
0.0
 11
0.0
 21
0.0
 31
0.0
  0
LINE
  5
782C
  8
AM_0
 62
     0
 10
-1.0
 20
0.1316524975873958
 30
0.0
 11
0.0
 21
0.0
 31
0.0
  0
ENDBLK
  5
7829
  8
0
  0
BLOCK
  8
0
  2
*X14
 70
     1
 10
0.0
 20
0.0
 30
0.0
  3
*X14
  1
Acad:XRef
  0
TEXT
  5
9A67
  8
0
 10
69.35713162404996
 20
206.6384403864565
 30
0.0
 40
1.9
  1
凍結
  0
TEXT
  5
9A68
  8
0
 10
69.34303143852121
 20
203.314321648052
 30
0.0
 40
1.9
  1
予防
  0
ENDBLK
  5
9A6A
  8
0
  0
ENDSEC
  0
SECTION
  2
ENTITIES
  0
TEXT
  5
17AD
  8
10
 10
-1.499993509006345
 20
-0.0000006430686881
 30
0.0
 40
10.0
  1
2024.02.01 ER2000SQ 2台連動 露出型
 11
-1.499993509006345
 21
-0.0000006430686881
 31
0.0
 73
     1
  0
LINE
  5
461A
  8
0
 10
25.52186071078961
 20
289.8911305534326
 30
0.0
 11
125.5218607107896
 21
289.8911305534324
 31
0.0
  0
LINE
  5
461B
  8
0
 10
25.52186071078961
 20
169.8911305534325
 30
0.0
 11
125.5218607107896
 21
169.8911305534325
 31
0.0
  0
ARC
  5
461C
  8
0
 10
25.52186071078961
 20
281.8911305534326
 30
0.0
 40
8.0
 50
90.0
 51
180.0
  0
LINE
  5
461D
  8
0
 10
21.27922002367029
 20
286.1337712405517
 30
0.0
 11
29.52186071078961
 21
277.8911305534326
 31
0.0
  0
LINE
  5
461E
  8
0
 10
31.52186071078961
 20
181.8911305534324
 30
0.0
 11
119.5218607107896
 21
181.8911305534326
 31
0.0
  0
LINE
  5
461F
  8
0
 10
31.52186071078961
 20
277.8911305534326
 30
0.0
 11
119.5218607107896
 21
277.8911305534325
 31
0.0
  0
LINE
  5
4622
  8
0
 10
29.52186071078961
 20
275.8911305534326
 30
0.0
 11
29.52186071078961
 21
183.8911305534325
 31
0.0
  0
LINE
  5
4624
  8
0
 10
17.52186071078961
 20
281.8911305534326
 30
0.0
 11
17.52186071078961
 21
177.8911305534325
 31
0.0
  0
LINE
  5
4625
  8
0
 10
21.27922002367052
 20
173.6484898663132
 30
0.0
 11
29.52186071078961
 21
181.8911305534325
 31
0.0
  0
ARC
  5
4626
  8
0
 10
25.52186071078961
 20
177.8911305534325
 30
0.0
 40
8.0
 50
180.0
 51
270.0
  0
ARC
  5
462A
  8
0
 10
125.5218607107896
 20
281.8911305534324
 30
0.0
 40
8.0
 50
0.0
 51
90.0
  0
LINE
  5
462B
  8
0
 10
129.7645013979089
 20
286.1337712405517
 30
0.0
 11
121.5218607107896
 21
277.8911305534324
 31
0.0
  0
LINE
  5
462D
  8
0
 10
121.5218607107896
 20
275.8911305534325
 30
0.0
 11
121.5218607107896
 21
183.8911305534326
 31
0.0
  0
LINE
  5
462E
  8
0
 10
133.5218607107896
 20
281.8911305534324
 30
0.0
 11
133.5218607107896
 21
177.8911305534325
 31
0.0
  0
LINE
  5
462F
  8
0
 10
121.5218607107896
 20
181.8911305534326
 30
0.0
 11
129.7645013979089
 21
173.6484898663131
 31
0.0
  0
ARC
  5
4630
  8
0
 10
125.5218607107896
 20
177.8911305534325
 30
0.0
 40
8.0
 50
270.0
 51
0.0
  0
LINE
  5
6E36
  8
0
 10
25.52186071078961
 20
290.5544305534326
 30
0.0
 11
125.5218607107896
 21
290.5544305534323
 31
0.0
  0
ARC
  5
6E37
  8
0
 10
25.52186071078961
 20
281.8911305534325
 30
0.0
 40
8.6633
 50
90.0
 51
180.0
  0
LINE
  5
6E38
  8
0
 10
16.85856071078967
 20
281.8911305534325
 30
0.0
 11
16.85856071078967
 21
177.8911305534325
 31
0.0
  0
ARC
  5
6E39
  8
0
 10
25.52186071078961
 20
177.8911305534325
 30
0.0
 40
8.6633
 50
180.0
 51
270.0
  0
LINE
  5
6E3A
  8
0
 10
25.52186071078961
 20
169.2278305534325
 30
0.0
 11
125.5218607107896
 21
169.2278305534325
 31
0.0
  0
ARC
  5
6E3B
  8
0
 10
125.5218607107896
 20
177.8911305534325
 30
0.0
 40
8.6633
 50
270.0
 51
0.0
  0
LINE
  5
6E3C
  8
0
 10
134.1851607107895
 20
281.8911305534323
 30
0.0
 11
134.1851607107895
 21
177.8911305534325
 31
0.0
  0
ARC
  5
6E3D
  8
0
 10
125.5218607107896
 20
281.8911305534323
 30
0.0
 40
8.6633
 50
0.0
 51
90.0
  0
LINE
  5
74ED
  8
0
 10
178.9776284668759
 20
280.4759159776623
 30
0.0
 11
180.2735145211565
 21
287.8252509975997
 31
0.0
  0
LINE
  5
74EE
  8
0
 10
184.0218610572421
 20
169.8911305534326
 30
0.0
 11
184.0218610572421
 21
289.8911305534326
 31
0.0
  0
LINE
  5
74EF
  8
0
 10
178.5218610572421
 20
184.5157904592101
 30
0.0
 11
178.5218610572421
 21
275.2664706476545
 31
0.0
  0
LINE
  5
74F0
  8
0
 10
178.9776284668759
 20
179.3063451292023
 30
0.0
 11
180.2735145211564
 21
171.9570101092654
 31
0.0
  0
ARC
  5
74F1
  8
0
 10
182.7355339036869
 20
172.3911305534327
 30
0.0
 40
2.5
 50
190.0000000000002
 51
270.0
  0
LINE
  5
74F2
  8
0
 10
184.0218610572421
 20
169.8911305534327
 30
0.0
 11
182.7355339036868
 21
169.8911305534327
 31
0.0
  0
ARC
  5
74F3
  8
0
 10
208.5218610572421
 20
184.5157904592101
 30
0.0
 40
30.0
 50
180.0
 51
190.0000000000002
  0
ARC
  5
74F4
  8
0
 10
208.5218610572421
 20
275.2664706476545
 30
0.0
 40
30.0
 50
169.9999999999998
 51
180.0
  0
ARC
  5
74F5
  8
0
 10
182.735533903687
 20
287.3911305534324
 30
0.0
 40
2.5
 50
90.0
 51
169.9999999999998
  0
LINE
  5
74F6
  8
0
 10
184.0218610572355
 20
289.8911305534326
 30
0.0
 11
182.7355339036802
 21
289.8911305534326
 31
0.0
  0
ARC
  5
74F7
  8
0
 10
175.8218610572416
 20
259.6911305534326
 30
0.0
 40
1.0
 50
90.0
 51
180.0
  0
LINE
  5
74F8
  8
0
 10
175.8218610572416
 20
260.6911305534326
 30
0.0
 11
178.5218610572416
 21
260.6911305534326
 31
0.0
  0
LINE
  5
74F9
  8
0
 10
175.8218610572416
 20
253.6911305534326
 30
0.0
 11
178.5218610572416
 21
253.6911305534326
 31
0.0
  0
LINE
  5
74FA
  8
0
 10
174.8218610572416
 20
259.6911305534326
 30
0.0
 11
174.8218610572416
 21
254.6911305534326
 31
0.0
  0
ARC
  5
74FB
  8
0
 10
175.8218610572416
 20
254.6911305534326
 30
0.0
 40
1.0
 50
180.0
 51
270.0
  0
LINE
  5
74FC
  8
0
 10
125.5218614558477
 20
144.5474997174231
 30
0.0
 11
25.52185996573155
 21
144.5474997174231
 31
0.0
  0
LINE
  5
74FD
  8
0
 10
125.5218614558477
 20
140.5474998766793
 30
0.0
 11
25.52185996573155
 21
140.5474998766793
 31
0.0
  0
LINE
  5
74FE
  8
0
 10
17.52186237971966
 20
140.5474998766793
 30
0.0
 11
17.52186237971966
 21
144.5474997174231
 31
0.0
  0
LINE
  5
74FF
  8
0
 10
25.52185996573155
 20
144.5474997174231
 30
0.0
 11
17.52186237971966
 21
144.5474997174231
 31
0.0
  0
LINE
  5
7500
  8
0
 10
25.52185996573155
 20
140.5474998766793
 30
0.0
 11
17.52186237971966
 21
140.5474998766793
 31
0.0
  0
LINE
  5
7501
  8
0
 10
133.5218590418596
 20
140.5474998766793
 30
0.0
 11
133.5218590418596
 21
144.5474997174231
 31
0.0
  0
LINE
  5
7502
  8
0
 10
133.5218590418596
 20
144.5474997174231
 30
0.0
 11
125.5218614558477
 21
144.5474997174231
 31
0.0
  0
LINE
  5
7503
  8
0
 10
133.5218590418596
 20
140.5474998766793
 30
0.0
 11
125.5218614558477
 21
140.5474998766793
 31
0.0
  0
LINE
  5
7504
  8
0
 10
18.6218623737592
 20
144.5474997174231
 30
0.0
 11
18.6218623737592
 21
145.0474997174202
 31
0.0
  0
LINE
  5
7505
  8
0
 10
132.42185904782
 20
144.5474997174231
 30
0.0
 11
132.42185904782
 21
145.0474997174202
 31
0.0
  0
LINE
  5
7506
  8
0
 10
39.02186124723141
 20
150.5474996531619
 30
0.0
 11
112.0218601743478
 21
150.5474996531619
 31
0.0
  0
LINE
  5
7507
  8
0
 10
52.96669090893408
 20
153.747132388526
 30
0.0
 11
51.96669090893431
 21
153.747132388526
 31
0.0
  0
LINE
  5
7508
  8
0
 10
53.96669090893431
 20
154.247132388526
 30
0.0
 11
52.96669090893431
 21
154.247132388526
 31
0.0
  0
LINE
  5
7509
  8
0
 10
51.96669090893431
 20
154.247132388526
 30
0.0
 11
50.96669090893431
 21
154.247132388526
 31
0.0
  0
LINE
  5
750A
  8
0
 10
51.96669090893431
 20
154.247132388526
 30
0.0
 11
51.96669090893431
 21
153.747132388526
 31
0.0
  0
LINE
  5
750B
  8
0
 10
54.96669090893431
 20
154.247132388526
 30
0.0
 11
54.96669090893431
 21
153.747132388526
 31
0.0
  0
LINE
  5
750C
  8
0
 10
52.96669090893431
 20
154.247132388526
 30
0.0
 11
52.96669090893408
 21
153.747132388526
 31
0.0
  0
LINE
  5
750D
  8
0
 10
53.96669090893431
 20
154.247132388526
 30
0.0
 11
53.96669090893431
 21
153.747132388526
 31
0.0
  0
LINE
  5
750E
  8
0
 10
54.96669090893431
 20
153.747132388526
 30
0.0
 11
53.96669090893431
 21
153.747132388526
 31
0.0
  0
LINE
  5
750F
  8
0
 10
56.96669090893431
 20
150.5474996531619
 30
0.0
 11
56.96669090893408
 21
153.247132388526
 31
0.0
  0
ARC
  5
7510
  8
0
 10
55.96669090893408
 20
153.247132388526
 30
0.0
 40
1.0
 50
0.0
 51
90.0
  0
LINE
  5
7511
  8
0
 10
55.96669090893408
 20
154.247132388526
 30
0.0
 11
54.96669090893431
 21
154.247132388526
 31
0.0
  0
LINE
  5
7512
  8
0
 10
49.96669090893431
 20
150.5474996531619
 30
0.0
 11
49.96669090893431
 21
153.247132388526
 31
0.0
  0
ARC
  5
7513
  8
0
 10
50.96669090893431
 20
153.247132388526
 30
0.0
 40
1.0
 50
90.0
 51
180.0
  0
LINE
  5
7514
  8
0
 10
133.5218607107894
 20
145.0474997174202
 30
0.0
 11
17.52186071078916
 21
145.0474997174202
 31
0.0
  0
ARC
  5
7515
  8
0
 10
118.8972008050119
 20
120.5474997174202
 30
0.0
 40
30.0
 50
80.00000000000146
 51
90.0
  0
LINE
  5
7516
  8
0
 10
118.8972008050119
 20
150.5474997174202
 30
0.0
 11
32.14652061656727
 21
150.5474997174202
 31
0.0
  0
ARC
  5
7517
  8
0
 10
131.0218607107894
 20
146.3338268709754
 30
0.0
 40
2.5
 50
0.0
 51
80.00000000000146
  0
LINE
  5
7518
  8
0
 10
133.5218607107894
 20
145.0474997174202
 30
0.0
 11
133.5218607107894
 21
146.3338268709754
 31
0.0
  0
LINE
  5
7519
  8
0
 10
124.1066461350198
 20
150.0917323077864
 30
0.0
 11
131.4559811549567
 21
148.7958462535059
 31
0.0
  0
ARC
  5
751A
  8
0
 10
32.14652061656727
 20
120.5474997174202
 30
0.0
 40
30.0
 50
90.0
 51
99.99999999999855
  0
ARC
  5
751B
  8
0
 10
20.02186071078938
 20
146.3338268709753
 30
0.0
 40
2.5
 50
99.99999999999855
 51
180.0
  0
LINE
  5
751C
  8
0
 10
26.93707528655943
 20
150.0917323077864
 30
0.0
 11
19.58774026662206
 21
148.7958462535059
 31
0.0
  0
LINE
  5
751D
  8
0
 10
17.52186071078916
 20
145.0474997174268
 30
0.0
 11
17.52186071078916
 21
146.333826870982
 31
0.0
  0
LINE
  5
751E
  8
0
 10
188.5218608337242
 20
290.0161285343261
 30
0.0
 11
184.5218609929804
 21
290.0161285343261
 31
0.0
  0
LINE
  5
751F
  8
0
 10
184.5218609929804
 20
290.0161285343261
 30
0.0
 11
184.5218609929804
 21
282.0161309483142
 31
0.0
  0
LINE
  5
7520
  8
0
 10
188.5218608337242
 20
290.0161285343261
 30
0.0
 11
188.5218608337242
 21
282.0161309483142
 31
0.0
  0
LINE
  5
7521
  8
0
 10
184.5218609929804
 20
282.0161309483142
 30
0.0
 11
184.5218609929804
 21
178.016128802547
 31
0.0
  0
LINE
  5
7522
  8
0
 10
188.5218608337242
 20
282.0161309483142
 30
0.0
 11
188.5218608337242
 21
178.016128802547
 31
0.0
  0
LINE
  5
7523
  8
0
 10
188.5218608337242
 20
170.0161312165351
 30
0.0
 11
184.5218609929804
 21
170.0161312165351
 31
0.0
  0
LINE
  5
7524
  8
0
 10
184.5218609929804
 20
178.016128802547
 30
0.0
 11
184.5218609929804
 21
170.0161312165351
 31
0.0
  0
LINE
  5
7525
  8
0
 10
188.5218608337242
 20
178.016128802547
 30
0.0
 11
188.5218608337242
 21
170.0161312165351
 31
0.0
  0
LINE
  5
7526
  8
0
 10
184.5218609929804
 20
171.1161312105747
 30
0.0
 11
184.0218610572421
 21
171.1161312105747
 31
0.0
  0
LINE
  5
7527
  8
0
 10
184.5218609929804
 20
288.9161285402865
 30
0.0
 11
184.0218610572421
 21
288.9161285402865
 31
0.0
  0
LINE
  5
7528
  8
0
 10
188.5218608337242
 20
290.0161298754305
 30
0.0
 11
188.5218608337242
 21
170.0161298754307
 31
0.0
  0
LINE
  5
7529
  8
0
 10
226.5218608337244
 20
290.6794223427029
 30
0.0
 11
226.5218608337241
 21
169.3528374081583
 31
0.0
  0
LINE
  5
752A
  8
0
 10
188.5218608337242
 20
170.0161298754307
 30
0.0
 11
226.5218608337241
 21
169.3528374081583
 31
0.0
  0
LINE
  5
752B
  8
0
 10
188.5218608337242
 20
290.0161298754305
 30
0.0
 11
226.5218608337244
 21
290.6794223427029
 31
0.0
  0
LINE
  5
752C
  8
0
 10
133.5218607107898
 20
140.5474998766793
 30
0.0
 11
134.1851531780618
 21
102.5474998766793
 31
0.0
  0
LINE
  5
752D
  8
0
 10
17.52186071078961
 20
140.5474998766793
 30
0.0
 11
16.8585682435172
 21
102.5474998766793
 31
0.0
  0
ARC
  5
752E
  8
0
 10
70.02186071078938
 20
106.5474998766793
 30
0.0
 40
4.0
 50
0.0
 51
90.0
  0
ARC
  5
752F
  8
0
 10
70.02186071078938
 20
106.5474998766793
 30
0.0
 40
3.0
 50
0.0
 51
180.0
  0
LINE
  5
7530
  8
0
 10
16.8585682435172
 20
102.5474998766793
 30
0.0
 11
134.1851531780618
 21
102.5474998766793
 31
0.0
  0
LINE
  5
7531
  8
0
 10
66.02186071078938
 20
102.5474998766793
 30
0.0
 11
66.02186071078938
 21
106.5474998766793
 31
0.0
  0
LINE
  5
7532
  8
0
 10
67.02186071078938
 20
102.5474998766793
 30
0.0
 11
67.02186071078938
 21
106.5474998766793
 31
0.0
  0
LINE
  5
7533
  8
0
 10
55.52186071078938
 20
102.5474998766793
 30
0.0
 11
55.52186071078938
 21
106.5474998766793
 31
0.0
  0
LINE
  5
7534
  8
0
 10
56.52186071078938
 20
102.5474998766793
 30
0.0
 11
56.52186071078938
 21
106.5474998766793
 31
0.0
  0
LINE
  5
7535
  8
0
 10
63.52186071078938
 20
106.5474998766793
 30
0.0
 11
63.52186071078938
 21
102.5474998766793
 31
0.0
  0
LINE
  5
7536
  8
0
 10
62.52186071078938
 20
106.5474998766793
 30
0.0
 11
62.52186071078938
 21
102.5474998766793
 31
0.0
  0
ARC
  5
7537
  8
0
 10
59.52186071078938
 20
106.5474998766793
 30
0.0
 40
4.0
 50
0.0
 51
48.59037789073133
  0
ARC
  5
7538
  8
0
 10
59.52186071078938
 20
106.5474998766793
 30
0.0
 40
3.0
 50
0.0
 51
180.0
  0
LINE
  5
7539
  8
0
 10
62.1676120218541
 20
109.5474998766793
 30
0.0
 11
67.3761093997249
 21
109.5474998766793
 31
0.0
  0
ARC
  5
753A
  8
0
 10
70.02186071078938
 20
106.5474998766793
 30
0.0
 40
4.0
 50
131.4096221092687
 51
180.0
  0
ARC
  5
753B
  8
0
 10
59.52186071078938
 20
106.5474998766793
 30
0.0
 40
4.0
 50
90.0
 51
180.0
  0
LINE
  5
753C
  8
0
 10
59.52186071078938
 20
110.5474998766793
 30
0.0
 11
70.02186071078938
 21
110.5474998766793
 31
0.0
  0
LINE
  5
753D
  8
0
 10
94.52186071078938
 20
106.5474998766793
 30
0.0
 11
94.52186071078938
 21
102.5474998766793
 31
0.0
  0
LINE
  5
753E
  8
0
 10
95.52186071078938
 20
106.5474998766793
 30
0.0
 11
95.52186071078938
 21
102.5474998766793
 31
0.0
  0
LINE
  5
753F
  8
0
 10
88.52186071078938
 20
102.5474998766793
 30
0.0
 11
88.52186071078938
 21
106.5474998766793
 31
0.0
  0
LINE
  5
7540
  8
0
 10
87.52186071078938
 20
102.5474998766793
 30
0.0
 11
87.52186071078938
 21
106.5474998766793
 31
0.0
  0
LINE
  5
7541
  8
0
 10
74.02186071078938
 20
106.5474998766793
 30
0.0
 11
74.02186071078938
 21
102.5474998766793
 31
0.0
  0
LINE
  5
7542
  8
0
 10
73.02186071078938
 20
106.5474998766793
 30
0.0
 11
73.02186071078938
 21
102.5474998766793
 31
0.0
  0
LINE
  5
7543
  8
0
 10
77.02186071078938
 20
102.5474998766793
 30
0.0
 11
77.02186071078938
 21
106.5474998766793
 31
0.0
  0
LINE
  5
7544
  8
0
 10
78.02186071078938
 20
102.5474998766793
 30
0.0
 11
78.02186071078938
 21
106.5474998766793
 31
0.0
  0
LINE
  5
7545
  8
0
 10
85.02186071078938
 20
106.5474998766793
 30
0.0
 11
85.02186071078938
 21
102.5474998766793
 31
0.0
  0
LINE
  5
7546
  8
0
 10
84.02186071078938
 20
106.5474998766793
 30
0.0
 11
84.02186071078938
 21
102.5474998766793
 31
0.0
  0
LINE
  5
7547
  8
0
 10
81.02186071078938
 20
110.5474998766793
 30
0.0
 11
91.52186071078938
 21
110.5474998766793
 31
0.0
  0
ARC
  5
7548
  8
0
 10
91.52186071078938
 20
106.5474998766793
 30
0.0
 40
4.0
 50
131.4096221092687
 51
180.0
  0
LINE
  5
7549
  8
0
 10
83.66761202185387
 20
109.5474998766793
 30
0.0
 11
88.8761093997249
 21
109.5474998766793
 31
0.0
  0
ARC
  5
754A
  8
0
 10
81.02186071078938
 20
106.5474998766793
 30
0.0
 40
4.0
 50
0.0
 51
48.59037789073133
  0
ARC
  5
754B
  8
0
 10
81.02186071078938
 20
106.5474998766793
 30
0.0
 40
3.0
 50
0.0
 51
180.0
  0
ARC
  5
754C
  8
0
 10
81.02186071078938
 20
106.5474998766793
 30
0.0
 40
4.0
 50
90.0
 51
180.0
  0
ARC
  5
754D
  8
0
 10
91.52186071078938
 20
106.5474998766793
 30
0.0
 40
3.0
 50
0.0
 51
180.0
  0
ARC
  5
754E
  8
0
 10
91.52186071078938
 20
106.5474998766793
 30
0.0
 40
4.0
 50
0.0
 51
90.0
  0
LINE
  5
754F
  8
0
 10
17.52186071078961
 20
140.5474998766793
 30
0.0
 11
133.5218607107898
 21
140.5474998766793
 31
0.0
  0
LINE
  5
75BA
  8
7
 10
12.72786071078951
 20
229.8911305534324
 30
0.0
 11
138.3158607107895
 21
229.8911305534321
 31
0.0
1001
GENIUS_GENOBJ-N-CEN_13
1002
{
1000
OWNER
1000
GEN
1002
}
1001
GENIUS_GENODEF_13
1002
{
1000
HIER
1070
     0
1002
}
1002
{
1000
MANEDIT
1070
     0
1002
}
1002
{
1000
NOSEL
1070
     0
1002
}
1002
{
1000
BEHIND
1070
     0
1002
}
1002
{
1000
OTHER
1070
     0
1002
}
1002
{
1000
REACTOR
1002
}
1001
GENIUS_GENCEN_19
1002
{
1040
2.794
1002
}
  0
LINE
  5
75BB
  8
7
 10
75.52186071078961
 20
294.6851305534325
 30
0.0
 11
75.52186071078961
 21
165.0971305534323
 31
0.0
1001
GENIUS_GENOBJ-N-CEN_13
1002
{
1000
OWNER
1000
GEN
1002
}
1001
GENIUS_GENODEF_13
1002
{
1000
HIER
1070
     0
1002
}
1002
{
1000
MANEDIT
1070
     0
1002
}
1002
{
1000
NOSEL
1070
     0
1002
}
1002
{
1000
BEHIND
1070
     0
1002
}
1002
{
1000
OTHER
1070
     0
1002
}
1002
{
1000
REACTOR
1002
}
1001
GENIUS_GENCEN_19
1002
{
1040
2.794
1002
}
  0
LINE
  5
75BC
  8
AM_7
 10
75.52186071078961
 20
153.3414997174202
 30
0.0
 11
75.52186071078961
 21
99.75349987667929
 31
0.0
1001
GENIUS_GENOBJ-N-CEN_13
1002
{
1000
OWNER
1000
GEN
1002
}
1001
GENIUS_GENODEF_13
1002
{
1000
HIER
1070
     0
1002
}
1002
{
1000
MANEDIT
1070
     0
1002
}
1002
{
1000
NOSEL
1070
     0
1002
}
1002
{
1000
BEHIND
1070
     0
1002
}
1002
{
1000
OTHER
1070
     0
1002
}
1002
{
1000
REACTOR
1002
}
1001
GENIUS_GENCEN_19
1002
{
1040
2.794
1002
}
  0
LINE
  5
75BD
  8
AM_7
 10
175.7278610572421
 20
229.8911305534319
 30
0.0
 11
229.3158608337243
 21
229.8911305534318
 31
0.0
1001
GENIUS_GENODEF_13
1002
{
1000
HIER
1070
     0
1002
}
1002
{
1000
MANEDIT
1070
     0
1002
}
1002
{
1000
NOSEL
1070
     0
1002
}
1002
{
1000
BEHIND
1070
     0
1002
}
1002
{
1000
OTHER
1070
     0
1002
}
1002
{
1000
REACTOR
1002
}
1001
GENIUS_GENOBJ-N-CEN_13
1002
{
1000
OWNER
1000
GEN
1002
}
1001
GENIUS_GENCEN_19
1002
{
1040
2.794
1002
}
  0
LINE
  5
81E6
  8
0
 10
38.27186071078958
 20
264.9911305534323
 30
0.0
 11
112.7718607107896
 21
264.9911305534323
 31
0.0
  0
LINE
  5
81E7
  8
0
 10
38.27186071078958
 20
194.7911305534323
 30
0.0
 11
112.7718607107896
 21
194.7911305534323
 31
0.0
  0
LINE
  5
81E8
  8
0
 10
38.27186071078958
 20
264.9911305534323
 30
0.0
 11
38.27186071078958
 21
194.7911305534323
 31
0.0
  0
LINE
  5
81E9
  8
0
 10
112.7718607107896
 20
264.9911305534323
 30
0.0
 11
112.7718607107896
 21
194.7911305534323
 31
0.0
  0
LINE
  5
81EA
  8
0
 10
112.0218601743478
 20
195.3911314176996
 30
0.0
 11
112.0218601743478
 21
264.3911296891649
 31
0.0
  0
LINE
  5
81EB
  8
0
 10
39.02186124723139
 20
195.3911314176996
 30
0.0
 11
112.0218601743478
 21
195.3911314176996
 31
0.0
  0
LINE
  5
81EC
  8
0
 10
39.02186124723139
 20
264.3911296891649
 30
0.0
 11
39.02186124723139
 21
195.3911314176996
 31
0.0
  0
LINE
  5
81ED
  8
0
 10
112.0218601743478
 20
264.3911296891649
 30
0.0
 11
39.02186124723139
 21
264.3911296891649
 31
0.0
  0
LINE
  5
81EE
  8
0
 10
40.52186056177797
 20
196.8911307322462
 30
0.0
 11
110.5218608598012
 21
196.8911307322462
 31
0.0
  0
LINE
  5
81EF
  8
0
 10
110.5218608598012
 20
196.8911307322462
 30
0.0
 11
110.5218608598012
 21
262.8911303746183
 31
0.0
  0
LINE
  5
81F0
  8
0
 10
110.5218608598012
 20
262.8911303746183
 30
0.0
 11
65.521860934307
 21
262.8911303746183
 31
0.0
  0
LINE
  5
81F1
  8
0
 10
40.52186056177797
 20
250.8911302703102
 30
0.0
 11
65.521860934307
 21
250.8911302703102
 31
0.0
  0
LINE
  5
81F2
  8
0
 10
40.52186056177797
 20
250.8911302703102
 30
0.0
 11
40.52186056177797
 21
196.8911307322462
 31
0.0
  0
LINE
  5
81F3
  8
0
 10
47.32186018626871
 20
253.191130088516
 30
0.0
 11
57.32185996275129
 21
253.191130088516
 31
0.0
  0
LINE
  5
81F4
  8
0
 10
57.32185996275129
 20
253.191130088516
 30
0.0
 11
57.32185996275129
 21
261.1911313998182
 31
0.0
  0
LINE
  5
81F5
  8
0
 10
57.32185996275129
 20
261.1911313998182
 30
0.0
 11
47.32186018626871
 21
261.1911313998182
 31
0.0
  0
LINE
  5
81F6
  8
0
 10
47.32186018626871
 20
261.1911313998182
 30
0.0
 11
47.32186018626871
 21
253.191130088516
 31
0.0
  0
LINE
  5
81F7
  8
0
 10
65.521860934307
 20
250.8911302703102
 30
0.0
 11
65.521860934307
 21
262.8911303746183
 31
0.0
  0
LINE
  5
81F8
  8
0
 10
112.5218611876267
 20
194.8911304044207
 30
0.0
 11
112.5218611876267
 21
264.8911307024439
 31
0.0
  0
LINE
  5
81F9
  8
0
 10
38.52186023395242
 20
194.8911304044207
 30
0.0
 11
112.5218611876267
 21
194.8911304044207
 31
0.0
  0
LINE
  5
81FA
  8
0
 10
38.52186023395242
 20
264.8911307024439
 30
0.0
 11
38.52186023395242
 21
194.8911304044207
 31
0.0
  0
LINE
  5
81FB
  8
0
 10
112.5218611876267
 20
264.8911307024439
 30
0.0
 11
38.52186023395242
 21
264.8911307024439
 31
0.0
  0
ARC
  5
81FC
  8
0
 10
48.72186007450998
 20
259.691130088516
 30
0.0
 40
1.0
 50
90.0
 51
180.0
  0
ARC
  5
81FD
  8
0
 10
53.72186007450998
 20
259.691130088516
 30
0.0
 40
1.0
 50
0.0
 51
90.0
  0
LINE
  5
81FE
  8
0
 10
48.72186007450998
 20
260.691130088516
 30
0.0
 11
53.72186007450998
 21
260.691130088516
 31
0.0
  0
LINE
  5
81FF
  8
0
 10
53.72186007450998
 20
253.6911300885161
 30
0.0
 11
48.72186007450998
 21
253.691130088516
 31
0.0
  0
ARC
  5
8200
  8
0
 10
48.72186007450998
 20
254.691130088516
 30
0.0
 40
1.0
 50
180.0
 51
270.0000000000016
  0
ARC
  5
8201
  8
0
 10
53.72186007450998
 20
254.6911300885161
 30
0.0
 40
1.0
 50
270.0
 51
0.0
  0
LINE
  5
8202
  8
0
 10
52.72186007450998
 20
253.6911300885161
 30
0.0
 11
52.72186007450998
 21
260.691130088516
 31
0.0
  0
LINE
  5
8203
  8
0
 10
51.72186007450998
 20
253.691130088516
 30
0.0
 11
51.72186007450998
 21
260.691130088516
 31
0.0
  0
LINE
  5
8204
  8
0
 10
50.72186007450998
 20
253.6911300885159
 30
0.0
 11
50.72186007450998
 21
260.691130088516
 31
0.0
  0
LINE
  5
8205
  8
0
 10
49.72186007450998
 20
253.6911300885159
 30
0.0
 11
49.72186007450998
 21
260.691130088516
 31
0.0
  0
LINE
  5
8206
  8
0
 10
47.72186007450998
 20
254.691130088516
 30
0.0
 11
47.72186007450998
 21
259.691130088516
 31
0.0
  0
LINE
  5
8207
  8
0
 10
54.72186007450998
 20
259.691130088516
 30
0.0
 11
54.72186007450998
 21
254.6911300885161
 31
0.0
  0
LINE
  5
8208
  8
0
 10
65.771860934307
 20
262.6411305534324
 30
0.0
 11
110.2718607107896
 21
262.6411305534323
 31
0.0
  0
LINE
  5
8209
  8
0
 10
110.2718607107896
 20
262.6411305534323
 30
0.0
 11
110.2718607107896
 21
197.1411305534322
 31
0.0
  0
LINE
  5
820A
  8
0
 10
40.77186071078958
 20
197.1411305534324
 30
0.0
 11
40.77186071078958
 21
250.6411302703102
 31
0.0
  0
LINE
  5
820B
  8
0
 10
110.2718607107896
 20
197.1411305534322
 30
0.0
 11
40.77186071078958
 21
197.1411305534324
 31
0.0
  0
LINE
  5
820C
  8
0
  6
CONTINUOUS
 10
65.771860934307
 20
250.6411302703102
 30
0.0
 11
65.771860934307
 21
262.6411305534324
 31
0.0
  0
LINE
  5
820D
  8
0
  6
CONTINUOUS
 10
40.77186071078958
 20
250.6411302703102
 30
0.0
 11
65.771860934307
 21
250.6411302703102
 31
0.0
  0
LINE
  5
8383
  8
0
 10
55.82186007451
 20
248.2411305534325
 30
0.0
 11
55.82186007451
 21
246.2411305534325
 31
0.0
  0
LINE
  5
8384
  8
0
 10
48.82186007451
 20
248.2411305534325
 30
0.0
 11
48.82186007451
 21
246.2411305534325
 31
0.0
  0
ARC
  5
8385
  8
0
 10
49.82186007451
 20
248.2411305534325
 30
0.0
 40
1.0
 50
90.0
 51
180.0
  0
ARC
  5
8386
  8
0
 10
49.82186007451
 20
246.2411305534325
 30
0.0
 40
1.0
 50
180.0
 51
270.0
  0
ARC
  5
8387
  8
0
 10
54.82186007451
 20
246.2411305534325
 30
0.0
 40
1.0
 50
270.0
 51
0.0
  0
ARC
  5
8388
  8
0
 10
54.82186007451
 20
248.2411305534325
 30
0.0
 40
1.0
 50
0.0
 51
90.0
  0
LINE
  5
8389
  8
0
 10
49.82186007451
 20
249.2411305534325
 30
0.0
 11
54.82186007451
 21
249.2411305534325
 31
0.0
  0
LINE
  5
838A
  8
0
 10
49.82186007451
 20
245.2411305534325
 30
0.0
 11
54.82186007451
 21
245.2411305534325
 31
0.0
  0
TEXT
  5
838B
  8
0
 10
42.16044691739713
 20
246.2788547340138
 30
0.0
 40
2.0
  1
OFF
 41
1.5
  0
TEXT
  5
838C
  8
0
 10
57.20729606708885
 20
246.2788547340138
 30
0.0
 40
2.0
  1
ON
 41
1.5
  0
TEXT
  5
838D
  8
0
 10
49.75043150308143
 20
246.2980260388994
 30
0.0
 40
2.0
  1
電源
  0
LINE
  5
838F
  8
0
 10
42.27186071078958
 20
217.1012386607375
 30
0.0
 11
42.27186071078958
 21
219.6387386607381
 31
0.0
  0
LINE
  5
8390
  8
0
 10
44.37436071078955
 20
217.1012386607375
 30
0.0
 11
44.37436071078955
 21
219.6387386607381
 31
0.0
  0
LINE
  5
8391
  8
0
 10
44.59186071078975
 20
217.1012386607375
 30
0.0
 11
44.59186071078975
 21
219.6387386607381
 31
0.0
  0
LINE
  5
8392
  8
0
 10
42.27186071078958
 20
217.1012386607375
 30
0.0
 11
43.06936071078971
 21
217.1012386607375
 31
0.0
  0
LINE
  5
8393
  8
0
 10
42.27186071078958
 20
219.6387386607381
 30
0.0
 11
43.06936071078971
 21
219.6387386607381
 31
0.0
  0
LINE
  5
8394
  8
0
 10
43.06936071078971
 20
219.6387386607381
 30
0.0
 11
43.06936071078971
 21
218.768738660738
 31
0.0
  0
LINE
  5
8395
  8
0
 10
43.57686071078942
 20
219.6387386607381
 30
0.0
 11
43.57686071078942
 21
218.768738660738
 31
0.0
  0
LINE
  5
8396
  8
0
 10
43.06936071078971
 20
217.1012386607375
 30
0.0
 11
43.06936071078971
 21
217.9712386607374
 31
0.0
  0
LINE
  5
8397
  8
0
 10
43.57686071078942
 20
217.1012386607375
 30
0.0
 11
43.57686071078942
 21
217.9712386607374
 31
0.0
  0
LINE
  5
8398
  8
0
 10
43.57686071078942
 20
219.6387386607381
 30
0.0
 11
44.37436071078955
 21
219.6387386607381
 31
0.0
  0
LINE
  5
8399
  8
0
 10
43.57686071078942
 20
217.1012386607375
 30
0.0
 11
44.37436071078955
 21
217.1012386607375
 31
0.0
  0
LINE
  5
839A
  8
0
 10
43.06936071078971
 20
218.768738660738
 30
0.0
 11
43.57686071078942
 21
218.768738660738
 31
0.0
  0
LINE
  5
839B
  8
0
 10
43.06936071078971
 20
217.9712386607374
 30
0.0
 11
43.57686071078942
 21
217.9712386607374
 31
0.0
  0
LINE
  5
839C
  8
0
 10
45.38936071078942
 20
217.1012386607375
 30
0.0
 11
45.38936071078942
 21
219.6387386607381
 31
0.0
  0
LINE
  5
839D
  8
0
 10
45.60686071078962
 20
217.1012386607375
 30
0.0
 11
45.60686071078962
 21
219.6387386607381
 31
0.0
  0
LINE
  5
839E
  8
0
 10
44.59186071078975
 20
219.6387386607381
 30
0.0
 11
45.38936071078942
 21
219.6387386607381
 31
0.0
  0
LINE
  5
839F
  8
0
 10
44.59186071078975
 20
217.1012386607375
 30
0.0
 11
45.38936071078942
 21
217.1012386607375
 31
0.0
  0
LINE
  5
83A0
  8
0
 10
47.70936071078958
 20
217.1012386607375
 30
0.0
 11
47.70936071078958
 21
217.6812386607374
 31
0.0
  0
LINE
  5
83A1
  8
0
 10
47.70936071078958
 20
219.0587386607382
 30
0.0
 11
47.70936071078958
 21
219.6387386607381
 31
0.0
  0
LINE
  5
83A2
  8
0
 10
45.60686071078962
 20
217.1012386607375
 30
0.0
 11
46.40436071078975
 21
217.1012386607375
 31
0.0
  0
LINE
  5
83A3
  8
0
 10
45.60686071078962
 20
219.6387386607381
 30
0.0
 11
46.40436071078975
 21
219.6387386607381
 31
0.0
  0
LINE
  5
83A4
  8
0
 10
46.40436071078975
 20
219.6387386607381
 30
0.0
 11
46.40436071078975
 21
218.768738660738
 31
0.0
  0
LINE
  5
83A5
  8
0
 10
46.91186071078945
 20
219.6387386607381
 30
0.0
 11
46.91186071078945
 21
219.0587386607382
 31
0.0
  0
LINE
  5
83A6
  8
0
 10
46.40436071078975
 20
217.1012386607375
 30
0.0
 11
46.40436071078975
 21
217.9712386607374
 31
0.0
  0
LINE
  5
83A7
  8
0
 10
46.91186071078945
 20
217.1012386607375
 30
0.0
 11
46.91186071078945
 21
217.6812386607374
 31
0.0
  0
ARC
  5
83A8
  8
0
 10
46.62186071078949
 20
217.6812386607374
 30
0.0
 40
0.29
 50
0.0
 51
90.0
  0
ARC
  5
83A9
  8
0
 10
46.62186071078949
 20
217.6812386607374
 30
0.0
 40
1.0875
 50
0.0
 51
39.29648023919504
  0
LINE
  5
83AA
  8
0
 10
46.91186071078945
 20
219.6387386607381
 30
0.0
 11
47.70936071078958
 21
219.6387386607381
 31
0.0
  0
LINE
  5
83AB
  8
0
 10
46.91186071078945
 20
217.1012386607375
 30
0.0
 11
47.70936071078958
 21
217.1012386607375
 31
0.0
  0
LINE
  5
83AC
  8
0
 10
46.40436071078975
 20
218.768738660738
 30
0.0
 11
46.62186071078949
 21
218.768738660738
 31
0.0
  0
ARC
  5
83AD
  8
0
 10
46.62186071078949
 20
219.0587386607382
 30
0.0
 40
0.29
 50
270.0
 51
0.0
  0
ARC
  5
83AE
  8
0
 10
46.62186071078949
 20
219.0587386607382
 30
0.0
 40
1.0875
 50
320.703519760823
 51
0.0
  0
LINE
  5
83AF
  8
0
 10
46.40436071078975
 20
217.9712386607374
 30
0.0
 11
46.62186071078949
 21
217.9712386607374
 31
0.0
  0
LINE
  5
83B0
  8
0
 10
47.92686071078978
 20
217.1012386607375
 30
0.0
 11
47.92686071078978
 21
218.5874886607374
 31
0.0
  0
LINE
  5
83B1
  8
0
 10
50.02936071078975
 20
217.1012386607375
 30
0.0
 11
50.02936071078975
 21
218.5874886607374
 31
0.0
  0
LINE
  5
83B2
  8
0
 10
47.92686071078978
 20
217.1012386607375
 30
0.0
 11
48.72436071078945
 21
217.1012386607375
 31
0.0
  0
LINE
  5
83B3
  8
0
 10
48.72436071078945
 20
217.1012386607375
 30
0.0
 11
48.72436071078945
 21
217.6087386607372
 31
0.0
  0
LINE
  5
83B4
  8
0
 10
49.23186071078962
 20
217.1012386607375
 30
0.0
 11
49.23186071078962
 21
217.6087386607372
 31
0.0
  0
LINE
  5
83B5
  8
0
 10
49.23186071078962
 20
217.1012386607375
 30
0.0
 11
50.02936071078975
 21
217.1012386607375
 31
0.0
  0
LINE
  5
83B6
  8
0
 10
48.72436071078945
 20
217.6087386607372
 30
0.0
 11
49.23186071078962
 21
217.6087386607372
 31
0.0
  0
LINE
  5
83B7
  8
0
 10
48.72436071078945
 20
218.3337386607376
 30
0.0
 11
49.23186071078962
 21
218.3337386607376
 31
0.0
  0
ARC
  5
83B8
  8
0
 10
48.97811071078976
 20
218.5874886607374
 30
0.0
 40
1.05125
 50
0.0
 51
180.0
  0
ARC
  5
83B9
  8
0
 10
48.97811071078976
 20
218.5874886607374
 30
0.0
 40
0.25375
 50
0.0
 51
180.0
  0
LINE
  5
83BA
  8
0
 10
48.72436071078945
 20
218.3337386607376
 30
0.0
 11
48.72436071078945
 21
218.5874886607374
 31
0.0
  0
LINE
  5
83BB
  8
0
 10
49.23186071078962
 20
218.5874886607374
 30
0.0
 11
49.23186071078962
 21
218.3337386607376
 31
0.0
  0
LINE
  5
83BC
  8
0
 10
50.24686071078949
 20
217.1012386607375
 30
0.0
 11
50.24686071078949
 21
219.6387386607381
 31
0.0
  0
LINE
  5
83BD
  8
0
 10
52.34936071078945
 20
217.1012386607375
 30
0.0
 11
52.34936071078945
 21
217.6812386607374
 31
0.0
  0
LINE
  5
83BE
  8
0
 10
50.24686071078949
 20
217.1012386607375
 30
0.0
 11
51.04436071078962
 21
217.1012386607375
 31
0.0
  0
LINE
  5
83BF
  8
0
 10
51.1893607107896
 20
217.8987386607376
 30
0.0
 11
51.33436071078958
 21
217.8987386607376
 31
0.0
  0
LINE
  5
83C0
  8
0
 10
51.1893607107896
 20
218.478738660738
 30
0.0
 11
51.33436071078958
 21
218.478738660738
 31
0.0
  0
LINE
  5
83C1
  8
0
 10
51.04436071078962
 20
217.1012386607375
 30
0.0
 11
51.04436071078962
 21
218.9137386607377
 31
0.0
  0
LINE
  5
83C2
  8
0
 10
51.55186071078978
 20
217.1012386607375
 30
0.0
 11
51.55186071078978
 21
217.6812386607374
 31
0.0
  0
ARC
  5
83C3
  8
0
 10
51.33436071078958
 20
217.6812386607374
 30
0.0
 40
0.2175
 50
0.0
 51
90.0
  0
ARC
  5
83C4
  8
0
 10
51.33436071078958
 20
217.6812386607374
 30
0.0
 40
1.015
 50
0.0
 51
30.66296328368444
  0
LINE
  5
83C5
  8
0
 10
50.24686071078949
 20
219.6387386607381
 30
0.0
 11
51.40686071078935
 21
219.6387386607381
 31
0.0
  0
LINE
  5
83C6
  8
0
 10
51.04436071078962
 20
218.9137386607377
 30
0.0
 11
51.33436071078958
 21
218.9137386607377
 31
0.0
  0
LINE
  5
83C7
  8
0
 10
51.55186071078978
 20
217.1012386607375
 30
0.0
 11
52.34936071078945
 21
217.1012386607375
 31
0.0
  0
ARC
  5
83C8
  8
0
 10
51.33436071078958
 20
218.6962386607378
 30
0.0
 40
0.2175
 50
270.0
 51
90.0
  0
ARC
  5
83C9
  8
0
 10
51.40686071078935
 20
218.6962386607378
 30
0.0
 40
0.9425
 50
328.1493895340829
 51
90.0
  0
LINE
  5
83CA
  8
0
 10
51.1893607107896
 20
218.478738660738
 30
0.0
 11
51.1893607107896
 21
217.8987386607376
 31
0.0
  0
LINE
  5
83CB
  8
0
 10
52.56686071078965
 20
217.1012386607375
 30
0.0
 11
52.56686071078965
 21
219.6387386607381
 31
0.0
  0
LINE
  5
83CC
  8
0
 10
53.36436071078978
 20
217.1012386607375
 30
0.0
 11
53.36436071078978
 21
219.6387386607381
 31
0.0
  0
LINE
  5
83CD
  8
0
 10
56.26436071078942
 20
217.1374886607376
 30
0.0
 11
56.26436071078942
 21
218.5874886607374
 31
0.0
  0
LINE
  5
83CE
  8
0
 10
52.56686071078965
 20
219.6387386607381
 30
0.0
 11
53.36436071078978
 21
219.6387386607381
 31
0.0
  0
LINE
  5
83CF
  8
0
 10
52.56686071078965
 20
217.1012386607375
 30
0.0
 11
53.36436071078978
 21
217.1012386607375
 31
0.0
  0
ARC
  5
83D0
  8
0
 10
55.53936071078951
 20
218.3699886607377
 30
0.0
 40
1.305
 50
84.27518954777628
 51
281.4211862750073
  0
ARC
  5
83D1
  8
0
 10
55.53936071078951
 20
218.3699886607377
 30
0.0
 40
0.5075000000000001
 50
84.27518954777645
 51
270.0
  0
CIRCLE
  5
83D2
  8
0
 10
57.78686071078945
 20
218.3699886607377
 30
0.0
 40
1.305
  0
CIRCLE
  5
83D3
  8
0
 10
57.78686071078945
 20
218.3699886607377
 30
0.0
 40
0.5075000000000001
  0
LINE
  5
83D4
  8
0
 10
55.53936071078951
 20
217.862488660738
 30
0.0
 11
55.53936071078951
 21
218.5874886607374
 31
0.0
  0
LINE
  5
83D5
  8
0
 10
55.53936071078951
 20
218.5874886607374
 30
0.0
 11
56.26436071078942
 21
218.5874886607374
 31
0.0
  0
LINE
  5
83D6
  8
0
 10
55.79777655237385
 20
217.0908302448964
 30
0.0
 11
56.26436071078942
 21
217.1374886607376
 31
0.0
  0
LINE
  5
83D7
  8
0
 10
55.66953527438054
 20
219.6684799325582
 30
0.0
 11
56.26436071078942
 21
219.6387386607381
 31
0.0
  0
LINE
  5
83D8
  8
0
 10
56.26436071078942
 20
219.6387386607381
 30
0.0
 11
56.26436071078942
 21
218.8412386607375
 31
0.0
  0
LINE
  5
83D9
  8
0
 10
56.26436071078942
 20
218.8412386607375
 30
0.0
 11
55.58998415218602
 21
218.8749574886684
 31
0.0
  0
LINE
  5
83DA
  8
0
 10
59.30936071078949
 20
217.1012386607375
 30
0.0
 11
59.30936071078949
 21
219.6387386607381
 31
0.0
  0
LINE
  5
83DB
  8
0
 10
61.41186071078945
 20
217.1012386607375
 30
0.0
 11
61.41186071078945
 21
217.6812386607374
 31
0.0
  0
LINE
  5
83DC
  8
0
 10
61.41186071078945
 20
219.0587386607382
 30
0.0
 11
61.41186071078945
 21
219.6387386607381
 31
0.0
  0
LINE
  5
83DD
  8
0
 10
59.30936071078949
 20
217.1012386607375
 30
0.0
 11
60.10686071078962
 21
217.1012386607375
 31
0.0
  0
LINE
  5
83DE
  8
0
 10
59.30936071078949
 20
219.6387386607381
 30
0.0
 11
60.10686071078962
 21
219.6387386607381
 31
0.0
  0
LINE
  5
83DF
  8
0
 10
60.10686071078962
 20
219.6387386607381
 30
0.0
 11
60.10686071078962
 21
218.768738660738
 31
0.0
  0
LINE
  5
83E0
  8
0
 10
60.61436071078978
 20
219.6387386607381
 30
0.0
 11
60.61436071078978
 21
219.0587386607382
 31
0.0
  0
LINE
  5
83E1
  8
0
 10
60.10686071078962
 20
217.1012386607375
 30
0.0
 11
60.10686071078962
 21
217.9712386607374
 31
0.0
  0
LINE
  5
83E2
  8
0
 10
60.61436071078978
 20
217.1012386607375
 30
0.0
 11
60.61436071078978
 21
217.6812386607374
 31
0.0
  0
ARC
  5
83E3
  8
0
 10
60.32436071078936
 20
217.6812386607374
 30
0.0
 40
0.29
 50
0.0
 51
90.0
  0
ARC
  5
83E4
  8
0
 10
60.32436071078936
 20
217.6812386607374
 30
0.0
 40
1.0875
 50
0.0
 51
39.29648023919504
  0
LINE
  5
83E5
  8
0
 10
60.61436071078978
 20
219.6387386607381
 30
0.0
 11
61.41186071078945
 21
219.6387386607381
 31
0.0
  0
LINE
  5
83E6
  8
0
 10
60.61436071078978
 20
217.1012386607375
 30
0.0
 11
61.41186071078945
 21
217.1012386607375
 31
0.0
  0
LINE
  5
83E7
  8
0
 10
60.10686071078962
 20
218.768738660738
 30
0.0
 11
60.32436071078936
 21
218.768738660738
 31
0.0
  0
ARC
  5
83E8
  8
0
 10
60.32436071078936
 20
219.0587386607382
 30
0.0
 40
0.29
 50
270.0
 51
0.0
  0
ARC
  5
83E9
  8
0
 10
60.32436071078936
 20
219.0587386607382
 30
0.0
 40
1.0875
 50
320.703519760823
 51
0.0
  0
LINE
  5
83EA
  8
0
 10
60.10686071078962
 20
217.9712386607374
 30
0.0
 11
60.32436071078936
 21
217.9712386607374
 31
0.0
  0
LINE
  5
83EB
  8
0
 10
61.62936071078965
 20
217.1012386607375
 30
0.0
 11
61.62936071078965
 21
219.6387386607381
 31
0.0
  0
LINE
  5
83EC
  8
0
 10
62.42686071078978
 20
217.1012386607375
 30
0.0
 11
62.42686071078978
 21
219.6387386607381
 31
0.0
  0
LINE
  5
83ED
  8
0
 10
61.62936071078965
 20
219.6387386607381
 30
0.0
 11
62.42686071078978
 21
219.6387386607381
 31
0.0
  0
LINE
  5
83EE
  8
0
 10
61.62936071078965
 20
217.1012386607375
 30
0.0
 11
62.42686071078978
 21
217.1012386607375
 31
0.0
  0
LINE
  5
83EF
  8
0
 10
62.64436071078953
 20
217.1012386607375
 30
0.0
 11
62.64436071078953
 21
218.5874886607374
 31
0.0
  0
LINE
  5
83F0
  8
0
 10
64.74686071078949
 20
217.1012386607375
 30
0.0
 11
64.74686071078949
 21
218.5874886607374
 31
0.0
  0
LINE
  5
83F1
  8
0
 10
62.64436071078953
 20
217.1012386607375
 30
0.0
 11
63.44186071078965
 21
217.1012386607375
 31
0.0
  0
LINE
  5
83F2
  8
0
 10
63.44186071078965
 20
217.1012386607375
 30
0.0
 11
63.44186071078965
 21
218.5874886607374
 31
0.0
  0
LINE
  5
83F3
  8
0
 10
63.94936071078936
 20
217.1012386607375
 30
0.0
 11
63.94936071078936
 21
218.5874886607374
 31
0.0
  0
LINE
  5
83F4
  8
0
 10
63.94936071078936
 20
217.1012386607375
 30
0.0
 11
64.74686071078949
 21
217.1012386607375
 31
0.0
  0
ARC
  5
83F5
  8
0
 10
63.69561071078951
 20
218.5874886607374
 30
0.0
 40
1.05125
 50
0.0
 51
180.0
  0
ARC
  5
83F6
  8
0
 10
63.69561071078951
 20
218.5874886607374
 30
0.0
 40
0.25375
 50
0.0
 51
180.0
  0
LINE
  5
83F7
  8
0
 10
56.52186071078958
 20
212.8911305534324
 30
0.0
 11
64.52186071078958
 21
212.8911305534324
 31
0.0
  0
ARC
  5
83F8
  8
0
 10
64.52186071078958
 20
210.8911305534324
 30
0.0
 40
2.0
 50
0.0
 51
90.0
  0
ARC
  5
83F9
  8
0
 10
56.52186071078958
 20
210.8911305534324
 30
0.0
 40
2.0
 50
90.0
 51
180.0
  0
ARC
  5
83FA
  8
0
 10
64.52186071078958
 20
203.8911305534319
 30
0.0
 40
2.0
 50
270.0
 51
0.0
  0
LINE
  5
83FB
  8
0
 10
66.52186071078958
 20
203.8911305534319
 30
0.0
 11
66.52186071078958
 21
210.8911305534324
 31
0.0
  0
LINE
  5
83FC
  8
0
 10
56.52186071078958
 20
201.8911305534319
 30
0.0
 11
64.52186071078958
 21
201.8911305534319
 31
0.0
  0
ARC
  5
83FD
  8
0
 10
56.52186071078958
 20
203.8911305534319
 30
0.0
 40
2.0
 50
180.0
 51
270.0
  0
LINE
  5
83FE
  8
0
 10
54.52186071078958
 20
203.8911305534319
 30
0.0
 11
54.52186071078958
 21
210.8911305534324
 31
0.0
  0
CIRCLE
  5
83FF
  8
0
 10
95.52186071078958
 20
209.8911305534324
 30
0.0
 40
7.499999999999949
  0
CIRCLE
  5
8400
  8
0
 10
95.52186071078958
 20
209.8911305534324
 30
0.0
 40
8.20000000000001
  0
CIRCLE
  5
8401
  8
0
 10
95.52186071078958
 20
209.8911305534324
 30
0.0
 40
8.499999999999963
  0
LINE
  5
8402
  8
0
 10
68.27186071078958
 20
203.8911305534319
 30
0.0
 11
68.27186071078958
 21
215.8911305534324
 31
0.0
  0
LINE
  5
8403
  8
0
 10
68.57186071078954
 20
203.8911305534319
 30
0.0
 11
68.57186071078954
 21
209.8911305534319
 31
0.0
  0
ARC
  5
8404
  8
0
 10
70.27186071078958
 20
203.8911305534319
 30
0.0
 40
2.0
 50
180.0
 51
270.0
1001
GENIUS_GENOBJ-N-FIL_13
1002
{
1000
OWNER
1000
GEN
1002
}
1001
GENIUS_GENODEF_13
1002
{
1000
HIER
1070
     0
1002
}
1002
{
1000
MANEDIT
1070
     0
1002
}
1002
{
1000
NOSEL
1070
     0
1002
}
1002
{
1000
BEHIND
1070
     0
1002
}
1002
{
1000
OTHER
1070
     0
1002
}
1002
{
1000
REACTOR
1002
}
  0
ARC
  5
8405
  8
0
 10
70.27186071078958
 20
203.8911305534319
 30
0.0
 40
1.7
 50
180.0
 51
270.0
1001
GENIUS_GENOBJ-N-FIL_13
1002
{
1000
OWNER
1000
GEN
1002
}
1001
GENIUS_GENODEF_13
1002
{
1000
HIER
1070
     0
1002
}
1002
{
1000
MANEDIT
1070
     0
1002
}
1002
{
1000
NOSEL
1070
     0
1002
}
1002
{
1000
BEHIND
1070
     0
1002
}
1002
{
1000
OTHER
1070
     0
1002
}
1002
{
1000
REACTOR
1002
}
  0
LINE
  5
8406
  8
0
 10
86.27186071078867
 20
203.8911305534319
 30
0.0
 11
86.27186071078867
 21
215.8911305534315
 31
0.0
  0
LINE
  5
8407
  8
0
 10
85.97186071078872
 20
203.8911305534319
 30
0.0
 11
85.97186071078872
 21
209.8911305534319
 31
0.0
  0
ARC
  5
8408
  8
0
 10
84.27186071078867
 20
215.8911305534315
 30
0.0
 40
2.0
 50
0.0
 51
90.0
1001
GENIUS_GENODEF_13
1002
{
1000
HIER
1070
     0
1002
}
1002
{
1000
MANEDIT
1070
     0
1002
}
1002
{
1000
NOSEL
1070
     0
1002
}
1002
{
1000
BEHIND
1070
     0
1002
}
1002
{
1000
OTHER
1070
     0
1002
}
1002
{
1000
REACTOR
1002
}
1001
GENIUS_GENOBJ-N-FIL_13
1002
{
1000
OWNER
1000
GEN
1002
}
  0
INSERT
  5
8409
  8
0
  2
*X14
 10
0.0
 20
0.0
 30
0.0
  0
LINE
  5
840A
  8
0
 10
86.27186071078867
 20
209.8911305534319
 30
0.0
 11
68.27186071078958
 21
209.8911305534319
 31
0.0
  0
CIRCLE
  5
840B
  8
0
 10
77.4734742502047
 20
213.8911305534324
 30
0.0
 40
2.0
  0
LINE
  5
840C
  8
0
 10
84.27186071078867
 20
217.8911305534315
 30
0.0
 11
70.27186071078958
 21
217.8911305534324
 31
0.0
  0
ARC
  5
840D
  8
0
 10
70.27186071078958
 20
215.8911305534324
 30
0.0
 40
2.0
 50
90.0
 51
180.0
1001
GENIUS_GENOBJ-N-FIL_13
1002
{
1000
OWNER
1000
GEN
1002
}
1001
GENIUS_GENODEF_13
1002
{
1000
HIER
1070
     0
1002
}
1002
{
1000
MANEDIT
1070
     0
1002
}
1002
{
1000
NOSEL
1070
     0
1002
}
1002
{
1000
BEHIND
1070
     0
1002
}
1002
{
1000
OTHER
1070
     0
1002
}
1002
{
1000
REACTOR
1002
}
  0
LINE
  5
840E
  8
0
 10
84.27186071078867
 20
201.8911305534319
 30
0.0
 11
70.27186071078958
 21
201.8911305534319
 31
0.0
  0
LINE
  5
840F
  8
0
 10
84.27186071078867
 20
202.1911305534319
 30
0.0
 11
70.27186071078958
 21
202.1911305534319
 31
0.0
  0
ARC
  5
8410
  8
0
 10
84.27186071078867
 20
203.8911305534319
 30
0.0
 40
2.0
 50
270.0
 51
0.0
1001
GENIUS_GENODEF_13
1002
{
1000
HIER
1070
     0
1002
}
1002
{
1000
MANEDIT
1070
     0
1002
}
1002
{
1000
NOSEL
1070
     0
1002
}
1002
{
1000
BEHIND
1070
     0
1002
}
1002
{
1000
OTHER
1070
     0
1002
}
1002
{
1000
REACTOR
1002
}
1001
GENIUS_GENOBJ-N-FIL_13
1002
{
1000
OWNER
1000
GEN
1002
}
  0
ARC
  5
8411
  8
0
 10
84.27186071078867
 20
203.8911305534319
 30
0.0
 40
1.7
 50
270.0
 51
0.0
1001
GENIUS_GENODEF_13
1002
{
1000
HIER
1070
     0
1002
}
1002
{
1000
MANEDIT
1070
     0
1002
}
1002
{
1000
NOSEL
1070
     0
1002
}
1002
{
1000
BEHIND
1070
     0
1002
}
1002
{
1000
OTHER
1070
     0
1002
}
1002
{
1000
REACTOR
1002
}
1001
GENIUS_GENOBJ-N-FIL_13
1002
{
1000
OWNER
1000
GEN
1002
}
  0
TEXT
  5
8412
  8
0
 10
69.34773150036412
 20
212.9769685249846
 30
0.0
 40
1.9
  1
給水
  0
TEXT
  5
8413
  8
0
 10
89.34301098908271
 20
207.9715263481139
 30
0.0
 40
4.0
  1
PUSH
 41
1.2
  0
TEXT
  5
8414
  8
0
 10
42.15052490373949
 20
220.3458330562004
 30
0.0
 40
1.8
  1
電動水抜操作盤
  0
TEXT
  5
8415
  8
0
 10
42.07371599835916
 20
214.4935139467383
 30
0.0
 40
1.8
  1
ER2000-SQ
  0
TEXT
  5
8417
  8
0
 10
44.47302753709982
 20
198.5567133397884
 30
0.0
 40
1.3
  1
冬期以外(凍結の心配がない期間)や長期間使用しないときは電源をOFFにしてください
  0
CIRCLE
  5
841A
  8
0
 10
42.83879638719449
 20
198.5903648812285
 30
0.0
 40
0.1
  0
LINE
  5
841B
  8
0
 10
42.73879638719458
 20
199.5903648812285
 30
0.0
 11
42.78923886507059
 21
198.833727713088
 31
0.0
  0
LINE
  5
841C
  8
0
 10
42.93879638719486
 20
199.5903648812285
 30
0.0
 11
42.8883539093184
 21
198.8337277130862
 31
0.0
  0
ARC
  5
841D
  8
0
 10
42.83879638719449
 20
199.5903648812285
 30
0.0
 40
0.1
 50
0.0
 51
180.0
  0
ARC
  5
841E
  8
0
 10
42.83879638719449
 20
198.8403648812285
 30
0.0
 40
0.05
 50
187.6281496672678
 51
352.3718503306272
  0
TEXT
  5
8422
  8
0
 10
55.65609498313664
 20
203.1068499471185
 30
0.0
 40
1.9
  1
点検
  0
CIRCLE
  5
8423
  8
0
 10
82.52186071079004
 20
205.8911305534323
 30
0.0
 40
2.0
  0
CIRCLE
  5
8424
  8
0
 10
82.52186071079004
 20
205.8911305534323
 30
0.0
 40
1.5
  0
CIRCLE
  5
8425
  8
0
 10
82.52186071079004
 20
213.8911305534323
 30
0.0
 40
2.0
  0
CIRCLE
  5
8426
  8
0
 10
82.52186071079004
 20
213.8911305534323
 30
0.0
 40
1.5
  0
ARC
  5
8427
  8
0
 10
64.27349690451774
 20
204.4584463188549
 30
0.0
 40
0.9999999999999992
 50
233.0491207032591
 51
57.3262839971238
  0
LINE
  5
8428
  8
0
 10
63.67236678704717
 20
203.6592951555137
 30
0.0
 11
58.96523257543257
 21
207.2000522379967
 31
0.0
  0
LINE
  5
8429
  8
0
 10
59.85525242607736
 20
208.4800366674654
 30
0.0
 11
64.81335113157988
 21
205.3002048433283
 31
0.0
  0
ARC
  5
842A
  8
0
 10
57.40560133188029
 20
209.2339445601394
 30
0.0
 40
1.99079584716086
 50
1.683229077249547
 51
160.7903378653517
  0
ARC
  5
842B
  8
0
 10
60.39510665313992
 20
209.3217951919386
 30
0.0
 40
0.9999999999999992
 50
181.6832290772424
 51
237.3262839971238
1001
GENIUS_GENODEF_13
1002
{
1000
HIER
1070
     0
1002
}
1002
{
1000
MANEDIT
1070
     0
1002
}
1002
{
1000
NOSEL
1070
     0
1002
}
1002
{
1000
BEHIND
1070
     0
1002
}
1002
{
1000
OTHER
1070
     0
1002
}
1002
{
1000
REACTOR
1002
}
1001
GENIUS_GENOBJ-N-FIL_13
1002
{
1000
OWNER
1000
GEN
1002
}
  0
ARC
  5
842C
  8
0
 10
57.40560133188029
 20
209.2339445601394
 30
0.0
 40
1.99079584716086
 50
219.5850668351127
 51
288.6921756231428
  0
ARC
  5
842D
  8
0
 10
58.36410245796236
 20
206.4009010746553
 30
0.0
 40
0.9999999999999992
 50
53.0491207032568
 51
108.6921756231398
1001
GENIUS_GENOBJ-N-FIL_13
1002
{
1000
OWNER
1000
GEN
1002
}
1001
GENIUS_GENODEF_13
1002
{
1000
HIER
1070
     0
1002
}
1002
{
1000
MANEDIT
1070
     0
1002
}
1002
{
1000
NOSEL
1070
     0
1002
}
1002
{
1000
BEHIND
1070
     0
1002
}
1002
{
1000
OTHER
1070
     0
1002
}
1002
{
1000
REACTOR
1002
}
  0
LINE
  5
842E
  8
0
 10
57.96654585710496
 20
209.3347501196159
 30
0.0
 11
57.58409148041193
 21
208.273157199576
 31
0.0
  0
LINE
  5
842F
  8
0
 10
57.58409148041193
 20
208.273157199576
 30
0.0
 11
55.87133608188205
 21
207.9653633653708
 31
0.0
  0
LINE
  5
8430
  8
0
 10
57.96654585710485
 20
209.3347501196165
 30
0.0
 11
57.2384066082181
 21
210.1967617856409
 31
0.0
  0
LINE
  5
8431
  8
0
 10
57.2384066082181
 20
210.1967617856409
 30
0.0
 11
55.52565120968799
 21
209.8889679514353
 31
0.0
  0
CIRCLE
  5
8432
  8
0
 10
64.27349690451774
 20
204.4584463188549
 30
0.0
 40
0.4999999999999996
  0
LINE
  5
8433
  8
0
 10
42.53437110525473
 20
212.5722655534319
 30
0.0
 11
44.87115260525476
 21
212.5722655534319
 31
0.0
  0
LINE
  5
8434
  8
0
 10
44.87115260525476
 20
212.5722655534319
 30
0.0
 11
44.87115260525476
 21
212.9062494534319
 31
0.0
  0
LINE
  5
8435
  8
0
 10
44.87115260525476
 20
212.9062494534319
 30
0.0
 11
42.53437110525473
 21
212.9062494534319
 31
0.0
  0
LINE
  5
8436
  8
0
 10
42.53437110525473
 20
212.9062494534319
 30
0.0
 11
42.53437110525473
 21
212.5722655534319
 31
0.0
  0
LINE
  5
8437
  8
0
 10
45.53874610525475
 20
212.5722655534319
 30
0.0
 11
46.53996060525475
 21
212.5722655534319
 31
0.0
  0
LINE
  5
8438
  8
0
 10
46.53996060525475
 20
212.5722655534319
 30
0.0
 11
46.53996060525475
 21
212.9062494534319
 31
0.0
  0
LINE
  5
8439
  8
0
 10
46.53996060525475
 20
212.9062494534319
 30
0.0
 11
45.53874610525475
 21
212.9062494534319
 31
0.0
  0
LINE
  5
843A
  8
0
 10
45.53874610525475
 20
212.9062494534319
 30
0.0
 11
45.53874610525475
 21
212.5722655534319
 31
0.0
  0
LINE
  5
843B
  8
0
 10
47.20751610525474
 20
212.5722655534319
 30
0.0
 11
47.54150000525476
 21
212.5722655534319
 31
0.0
  0
LINE
  5
843C
  8
0
 10
47.54150000525476
 20
212.5722655534319
 30
0.0
 11
47.54150000525476
 21
212.9062494534319
 31
0.0
  0
LINE
  5
843D
  8
0
 10
47.54150000525476
 20
212.9062494534319
 30
0.0
 11
47.20751610525474
 21
212.9062494534319
 31
0.0
  0
LINE
  5
843E
  8
0
 10
47.20751610525474
 20
212.9062494534319
 30
0.0
 11
47.20751610525474
 21
212.5722655534319
 31
0.0
  0
LINE
  5
843F
  8
0
 10
47.87508110525474
 20
212.5722655534319
 30
0.0
 11
48.20906595525474
 21
212.5722655534319
 31
0.0
  0
LINE
  5
8440
  8
0
 10
48.20906595525474
 20
212.5722655534319
 30
0.0
 11
48.20906595525474
 21
212.9062494534319
 31
0.0
  0
LINE
  5
8441
  8
0
 10
48.20906595525474
 20
212.9062494534319
 30
0.0
 11
47.87508110525474
 21
212.9062494534319
 31
0.0
  0
LINE
  5
8442
  8
0
 10
47.87508110525474
 20
212.9062494534319
 30
0.0
 11
47.87508110525474
 21
212.5722655534319
 31
0.0
  0
LINE
  5
8443
  8
0
 10
48.54274110525472
 20
212.5722655534319
 30
0.0
 11
48.87672595525476
 21
212.5722655534319
 31
0.0
  0
LINE
  5
8444
  8
0
 10
48.87672595525476
 20
212.5722655534319
 30
0.0
 11
48.87672595525476
 21
212.9062494534319
 31
0.0
  0
LINE
  5
8445
  8
0
 10
48.87672595525476
 20
212.9062494534319
 30
0.0
 11
48.54274110525472
 21
212.9062494534319
 31
0.0
  0
LINE
  5
8446
  8
0
 10
48.54274110525472
 20
212.9062494534319
 30
0.0
 11
48.54274110525472
 21
212.5722655534319
 31
0.0
  0
LINE
  5
8447
  8
0
 10
49.87749110525473
 20
212.5722655534319
 30
0.0
 11
50.21147500525473
 21
212.5722655534319
 31
0.0
  0
LINE
  5
8448
  8
0
 10
50.21147500525473
 20
212.5722655534319
 30
0.0
 11
50.21147500525473
 21
212.9062494534319
 31
0.0
  0
LINE
  5
8449
  8
0
 10
50.21147500525473
 20
212.9062494534319
 30
0.0
 11
49.87749110525473
 21
212.9062494534319
 31
0.0
  0
LINE
  5
844A
  8
0
 10
49.87749110525473
 20
212.9062494534319
 30
0.0
 11
49.87749110525473
 21
212.5722655534319
 31
0.0
  0
LINE
  5
844C
  8
0
 10
51.54708000525474
 20
212.5722655534319
 30
0.0
 11
53.21550610525475
 21
212.5722655534319
 31
0.0
  0
LINE
  5
844D
  8
0
 10
53.54987760525472
 20
210.5690955534319
 30
0.0
 11
53.54987760525472
 21
212.9062494534319
 31
0.0
  0
LINE
  5
844E
  8
0
 10
53.54987760525472
 20
212.9062494534319
 30
0.0
 11
51.21309610525475
 21
212.9062494534319
 31
0.0
  0
LINE
  5
844F
  8
0
 10
51.21309610525475
 20
212.9062494534319
 30
0.0
 11
51.21309610525475
 21
210.5690955534319
 31
0.0
  0
LINE
  5
8450
  8
0
 10
42.53437110525473
 20
212.2383405534319
 30
0.0
 11
42.86872645525474
 21
212.2383405534319
 31
0.0
  0
LINE
  5
8451
  8
0
 10
42.86872645525474
 20
212.2383405534319
 30
0.0
 11
42.86872645525474
 21
212.572325403432
 31
0.0
  0
LINE
  5
8452
  8
0
 10
42.86872645525474
 20
212.572325403432
 30
0.0
 11
42.53437110525473
 21
212.572325403432
 31
0.0
  0
LINE
  5
8453
  8
0
 10
42.53437110525473
 20
212.572325403432
 30
0.0
 11
42.53437110525473
 21
212.2383405534319
 31
0.0
  0
LINE
  5
8454
  8
0
 10
44.53744610525473
 20
212.2383405534319
 30
0.0
 11
44.87143000525472
 21
212.2383405534319
 31
0.0
  0
LINE
  5
8455
  8
0
 10
44.87143000525472
 20
212.2383405534319
 30
0.0
 11
44.87143000525472
 21
212.572325403432
 31
0.0
  0
LINE
  5
8456
  8
0
 10
44.87143000525472
 20
212.572325403432
 30
0.0
 11
44.53744610525473
 21
212.572325403432
 31
0.0
  0
LINE
  5
8457
  8
0
 10
44.53744610525473
 20
212.572325403432
 30
0.0
 11
44.53744610525473
 21
212.2383405534319
 31
0.0
  0
LINE
  5
8458
  8
0
 10
45.20510610525474
 20
212.2383405534319
 30
0.0
 11
46.20669110525472
 21
212.2383405534319
 31
0.0
  0
LINE
  5
8459
  8
0
 10
46.20669110525472
 20
212.2383405534319
 30
0.0
 11
46.20669110525472
 21
212.572325403432
 31
0.0
  0
LINE
  5
845A
  8
0
 10
46.20669110525472
 20
212.572325403432
 30
0.0
 11
45.20510610525474
 21
212.572325403432
 31
0.0
  0
LINE
  5
845B
  8
0
 10
45.20510610525474
 20
212.572325403432
 30
0.0
 11
45.20510610525474
 21
212.2383405534319
 31
0.0
  0
LINE
  5
845C
  8
0
 10
46.54033110525475
 20
212.2383405534319
 30
0.0
 11
47.54154560525473
 21
212.2383405534319
 31
0.0
  0
LINE
  5
845D
  8
0
 10
47.54154560525473
 20
212.2383405534319
 30
0.0
 11
47.54154560525473
 21
212.572325403432
 31
0.0
  0
LINE
  5
845E
  8
0
 10
47.54154560525473
 20
212.572325403432
 30
0.0
 11
46.54033110525475
 21
212.572325403432
 31
0.0
  0
LINE
  5
845F
  8
0
 10
46.54033110525475
 20
212.572325403432
 30
0.0
 11
46.54033110525475
 21
212.2383405534319
 31
0.0
  0
LINE
  5
8460
  8
0
 10
48.20910110525475
 20
212.2383405534319
 30
0.0
 11
48.54308500525474
 21
212.2383405534319
 31
0.0
  0
LINE
  5
8461
  8
0
 10
48.54308500525474
 20
212.2383405534319
 30
0.0
 11
48.54308500525474
 21
212.572325403432
 31
0.0
  0
LINE
  5
8462
  8
0
 10
48.54308500525474
 20
212.572325403432
 30
0.0
 11
48.20910110525475
 21
212.572325403432
 31
0.0
  0
LINE
  5
8463
  8
0
 10
48.20910110525475
 20
212.572325403432
 30
0.0
 11
48.20910110525475
 21
212.2383405534319
 31
0.0
  0
LINE
  5
8464
  8
0
 10
49.20992610525474
 20
212.2383405534319
 30
0.0
 11
49.54428145525475
 21
212.2383405534319
 31
0.0
  0
LINE
  5
8465
  8
0
 10
49.54428145525475
 20
212.2383405534319
 30
0.0
 11
49.54428145525475
 21
212.572325403432
 31
0.0
  0
LINE
  5
8466
  8
0
 10
49.54428145525475
 20
212.572325403432
 30
0.0
 11
49.20992610525474
 21
212.572325403432
 31
0.0
  0
LINE
  5
8467
  8
0
 10
49.20992610525474
 20
212.572325403432
 30
0.0
 11
49.20992610525474
 21
212.2383405534319
 31
0.0
  0
LINE
  5
8468
  8
0
 10
49.87749110525473
 20
212.2383405534319
 30
0.0
 11
50.21147500525473
 21
212.2383405534319
 31
0.0
  0
LINE
  5
8469
  8
0
 10
50.21147500525473
 20
212.2383405534319
 30
0.0
 11
50.21147500525473
 21
212.572325403432
 31
0.0
  0
LINE
  5
846A
  8
0
 10
50.21147500525473
 20
212.572325403432
 30
0.0
 11
49.87749110525473
 21
212.572325403432
 31
0.0
  0
LINE
  5
846B
  8
0
 10
49.87749110525473
 20
212.572325403432
 30
0.0
 11
49.87749110525473
 21
212.2383405534319
 31
0.0
  0
LINE
  5
846C
  8
0
 10
50.54591110525473
 20
212.2383405534319
 30
0.0
 11
50.87989595525474
 21
212.2383405534319
 31
0.0
  0
LINE
  5
846E
  8
0
 10
50.87989595525474
 20
212.2382959034319
 30
0.0
 11
50.87989595525474
 21
212.572325403432
 31
0.0
  0
LINE
  5
846F
  8
0
 10
50.87989595525474
 20
212.572325403432
 30
0.0
 11
50.54591110525473
 21
212.572325403432
 31
0.0
  0
LINE
  5
8470
  8
0
 10
50.54591110525473
 20
212.572325403432
 30
0.0
 11
50.54591110525473
 21
212.2382959034319
 31
0.0
  0
LINE
  5
8471
  8
0
 10
42.53437110525473
 20
211.9039405534319
 30
0.0
 11
42.86872645525474
 21
211.9039405534319
 31
0.0
  0
LINE
  5
8472
  8
0
 10
42.86872645525474
 20
211.9039405534319
 30
0.0
 11
42.86872645525474
 21
212.2382959034319
 31
0.0
  0
LINE
  5
8473
  8
0
 10
42.86872645525474
 20
212.2382959034319
 30
0.0
 11
42.53437110525473
 21
212.2382959034319
 31
0.0
  0
LINE
  5
8474
  8
0
 10
42.53437110525473
 20
212.2382959034319
 30
0.0
 11
42.53437110525473
 21
211.9039405534319
 31
0.0
  0
LINE
  5
8475
  8
0
 10
43.20193610525473
 20
211.9039405534319
 30
0.0
 11
44.20352110525474
 21
211.9039405534319
 31
0.0
  0
LINE
  5
8476
  8
0
 10
44.20352110525474
 20
211.9039405534319
 30
0.0
 11
44.20352110525474
 21
212.2382959034319
 31
0.0
  0
LINE
  5
8477
  8
0
 10
44.20352110525474
 20
212.2382959034319
 30
0.0
 11
43.20193610525473
 21
212.2382959034319
 31
0.0
  0
LINE
  5
8478
  8
0
 10
43.20193610525473
 20
212.2382959034319
 30
0.0
 11
43.20193610525473
 21
211.9039405534319
 31
0.0
  0
LINE
  5
8479
  8
0
 10
44.53744610525473
 20
211.9039405534319
 30
0.0
 11
44.87143000525472
 21
211.9039405534319
 31
0.0
  0
LINE
  5
847A
  8
0
 10
44.87143000525472
 20
211.9039405534319
 30
0.0
 11
44.87143000525472
 21
212.2382959034319
 31
0.0
  0
LINE
  5
847B
  8
0
 10
44.87143000525472
 20
212.2382959034319
 30
0.0
 11
44.53744610525473
 21
212.2382959034319
 31
0.0
  0
LINE
  5
847C
  8
0
 10
44.53744610525473
 20
212.2382959034319
 30
0.0
 11
44.53744610525473
 21
211.9039405534319
 31
0.0
  0
LINE
  5
847D
  8
0
 10
45.20510610525474
 20
211.9039405534319
 30
0.0
 11
46.20669110525472
 21
211.9039405534319
 31
0.0
  0
LINE
  5
847E
  8
0
 10
46.20669110525472
 20
211.9039405534319
 30
0.0
 11
46.20669110525472
 21
212.2382959034319
 31
0.0
  0
LINE
  5
847F
  8
0
 10
46.20669110525472
 20
212.2382959034319
 30
0.0
 11
45.20510610525474
 21
212.2382959034319
 31
0.0
  0
LINE
  5
8480
  8
0
 10
45.20510610525474
 20
212.2382959034319
 30
0.0
 11
45.20510610525474
 21
211.9039405534319
 31
0.0
  0
LINE
  5
8481
  8
0
 10
46.54033110525475
 20
211.9039405534319
 30
0.0
 11
47.20755790525473
 21
211.9039405534319
 31
0.0
  0
LINE
  5
8482
  8
0
 10
47.20755790525473
 20
211.9039405534319
 30
0.0
 11
47.20755790525473
 21
212.2382959034319
 31
0.0
  0
LINE
  5
8483
  8
0
 10
47.20755790525473
 20
212.2382959034319
 30
0.0
 11
46.54033110525475
 21
212.2382959034319
 31
0.0
  0
LINE
  5
8484
  8
0
 10
46.54033110525475
 20
212.2382959034319
 30
0.0
 11
46.54033110525475
 21
211.9039405534319
 31
0.0
  0
LINE
  5
8485
  8
0
 10
47.54153610525475
 20
211.9039405534319
 30
0.0
 11
47.87589145525476
 21
211.9039405534319
 31
0.0
  0
LINE
  5
8486
  8
0
 10
47.87589145525476
 20
211.9039405534319
 30
0.0
 11
47.87589145525476
 21
212.2382959034319
 31
0.0
  0
LINE
  5
8487
  8
0
 10
47.87589145525476
 20
212.2382959034319
 30
0.0
 11
47.54153610525475
 21
212.2382959034319
 31
0.0
  0
LINE
  5
8488
  8
0
 10
47.54153610525475
 20
212.2382959034319
 30
0.0
 11
47.54153610525475
 21
211.9039405534319
 31
0.0
  0
LINE
  5
8489
  8
0
 10
48.20910110525475
 20
211.9039405534319
 30
0.0
 11
49.21068610525475
 21
211.9039405534319
 31
0.0
  0
LINE
  5
848A
  8
0
 10
49.21068610525475
 20
211.9039405534319
 30
0.0
 11
49.21068610525475
 21
212.2382959034319
 31
0.0
  0
LINE
  5
848B
  8
0
 10
49.21068610525475
 20
212.2382959034319
 30
0.0
 11
48.20910110525475
 21
212.2382959034319
 31
0.0
  0
LINE
  5
848C
  8
0
 10
48.20910110525475
 20
212.2382959034319
 30
0.0
 11
48.20910110525475
 21
211.9039405534319
 31
0.0
  0
LINE
  5
848D
  8
0
 10
49.54432610525475
 20
211.9039405534319
 30
0.0
 11
49.87831095525473
 21
211.9039405534319
 31
0.0
  0
LINE
  5
848E
  8
0
 10
49.87831095525473
 20
211.9039405534319
 30
0.0
 11
49.87831095525473
 21
212.2382959034319
 31
0.0
  0
LINE
  5
848F
  8
0
 10
49.87831095525473
 20
212.2382959034319
 30
0.0
 11
49.54432610525475
 21
212.2382959034319
 31
0.0
  0
LINE
  5
8490
  8
0
 10
49.54432610525475
 20
212.2382959034319
 30
0.0
 11
49.54432610525475
 21
211.9039405534319
 31
0.0
  0
LINE
  5
8491
  8
0
 10
50.54591110525473
 20
211.9039405534319
 30
0.0
 11
50.87989595525474
 21
211.9039405534319
 31
0.0
  0
LINE
  5
8492
  8
0
 10
50.87989595525474
 20
211.9039405534319
 30
0.0
 11
50.87989595525474
 21
212.2382959034319
 31
0.0
  0
LINE
  5
8493
  8
0
 10
50.87989595525474
 20
212.2382959034319
 30
0.0
 11
50.54591110525473
 21
212.2382959034319
 31
0.0
  0
LINE
  5
8494
  8
0
 10
50.54591110525473
 20
212.2382959034319
 30
0.0
 11
50.54591110525473
 21
211.9039405534319
 31
0.0
  0
LINE
  5
8496
  8
0
 10
52.88224610525475
 20
211.2367555534319
 30
0.0
 11
52.88224610525475
 21
212.2382959034319
 31
0.0
  0
LINE
  5
8497
  8
0
 10
52.88224610525475
 20
212.2382959034319
 30
0.0
 11
51.88066110525472
 21
212.2382959034319
 31
0.0
  0
LINE
  5
8498
  8
0
 10
51.88066110525472
 20
212.2382959034319
 30
0.0
 11
51.88066110525472
 21
211.2367555534319
 31
0.0
  0
LINE
  5
8499
  8
0
 10
42.53437110525473
 20
211.5706805534319
 30
0.0
 11
42.86872645525474
 21
211.5706805534319
 31
0.0
  0
LINE
  5
849A
  8
0
 10
42.86872645525474
 20
211.5706805534319
 30
0.0
 11
42.86872645525474
 21
211.9046644534319
 31
0.0
  0
LINE
  5
849B
  8
0
 10
42.86872645525474
 20
211.9046644534319
 30
0.0
 11
42.53437110525473
 21
211.9046644534319
 31
0.0
  0
LINE
  5
849C
  8
0
 10
42.53437110525473
 20
211.9046644534319
 30
0.0
 11
42.53437110525473
 21
211.5706805534319
 31
0.0
  0
LINE
  5
849D
  8
0
 10
43.20193610525473
 20
211.5706805534319
 30
0.0
 11
44.20352110525474
 21
211.5706805534319
 31
0.0
  0
LINE
  5
849E
  8
0
 10
44.20352110525474
 20
211.5706805534319
 30
0.0
 11
44.20352110525474
 21
211.9046644534319
 31
0.0
  0
LINE
  5
849F
  8
0
 10
44.20352110525474
 20
211.9046644534319
 30
0.0
 11
43.20193610525473
 21
211.9046644534319
 31
0.0
  0
LINE
  5
84A0
  8
0
 10
43.20193610525473
 20
211.9046644534319
 30
0.0
 11
43.20193610525473
 21
211.5706805534319
 31
0.0
  0
LINE
  5
84A1
  8
0
 10
44.53744610525473
 20
211.5706805534319
 30
0.0
 11
44.87143000525472
 21
211.5706805534319
 31
0.0
  0
LINE
  5
84A2
  8
0
 10
44.87143000525472
 20
211.5706805534319
 30
0.0
 11
44.87143000525472
 21
211.9046644534319
 31
0.0
  0
LINE
  5
84A3
  8
0
 10
44.87143000525472
 20
211.9046644534319
 30
0.0
 11
44.53744610525473
 21
211.9046644534319
 31
0.0
  0
LINE
  5
84A4
  8
0
 10
44.53744610525473
 20
211.9046644534319
 30
0.0
 11
44.53744610525473
 21
211.5706805534319
 31
0.0
  0
LINE
  5
84A5
  8
0
 10
45.20510610525474
 20
211.5706805534319
 30
0.0
 11
45.53909095525475
 21
211.5706805534319
 31
0.0
  0
LINE
  5
84A6
  8
0
 10
45.53909095525475
 20
211.5706805534319
 30
0.0
 11
45.53909095525475
 21
211.9046644534319
 31
0.0
  0
LINE
  5
84A7
  8
0
 10
45.53909095525475
 20
211.9046644534319
 30
0.0
 11
45.20510610525474
 21
211.9046644534319
 31
0.0
  0
LINE
  5
84A8
  8
0
 10
45.20510610525474
 20
211.9046644534319
 30
0.0
 11
45.20510610525474
 21
211.5706805534319
 31
0.0
  0
LINE
  5
84A9
  8
0
 10
48.87666610525474
 20
211.5706805534319
 30
0.0
 11
49.21065000525473
 21
211.5706805534319
 31
0.0
  0
LINE
  5
84AA
  8
0
 10
49.21065000525473
 20
211.5706805534319
 30
0.0
 11
49.21065000525473
 21
211.9046644534319
 31
0.0
  0
LINE
  5
84AB
  8
0
 10
49.21065000525473
 20
211.9046644534319
 30
0.0
 11
48.87666610525474
 21
211.9046644534319
 31
0.0
  0
LINE
  5
84AC
  8
0
 10
48.87666610525474
 20
211.9046644534319
 30
0.0
 11
48.87666610525474
 21
211.5706805534319
 31
0.0
  0
LINE
  5
84AD
  8
0
 10
49.54432610525475
 20
211.5706805534319
 30
0.0
 11
50.87915210525472
 21
211.5706805534319
 31
0.0
  0
LINE
  5
84AE
  8
0
 10
50.87915210525472
 20
211.5706805534319
 30
0.0
 11
50.87915210525472
 21
211.9046644534319
 31
0.0
  0
LINE
  5
84AF
  8
0
 10
50.87915210525472
 20
211.9046644534319
 30
0.0
 11
49.54432610525475
 21
211.9046644534319
 31
0.0
  0
LINE
  5
84B0
  8
0
 10
49.54432610525475
 20
211.9046644534319
 30
0.0
 11
49.54432610525475
 21
211.5706805534319
 31
0.0
  0
LINE
  5
84B1
  8
0
 10
42.53437110525473
 20
211.2367555534319
 30
0.0
 11
42.86872645525474
 21
211.2367555534319
 31
0.0
  0
LINE
  5
84B2
  8
0
 10
42.86872645525474
 20
211.2367555534319
 30
0.0
 11
42.86872645525474
 21
211.5707404034319
 31
0.0
  0
LINE
  5
84B3
  8
0
 10
42.86872645525474
 20
211.5707404034319
 30
0.0
 11
42.53437110525473
 21
211.5707404034319
 31
0.0
  0
LINE
  5
84B4
  8
0
 10
42.53437110525473
 20
211.5707404034319
 30
0.0
 11
42.53437110525473
 21
211.2367555534319
 31
0.0
  0
LINE
  5
84B5
  8
0
 10
43.20193610525473
 20
211.2367555534319
 30
0.0
 11
44.20352110525474
 21
211.2367555534319
 31
0.0
  0
LINE
  5
84B6
  8
0
 10
44.20352110525474
 20
211.2367555534319
 30
0.0
 11
44.20352110525474
 21
211.5707404034319
 31
0.0
  0
LINE
  5
84B7
  8
0
 10
44.20352110525474
 20
211.5707404034319
 30
0.0
 11
43.20193610525473
 21
211.5707404034319
 31
0.0
  0
LINE
  5
84B8
  8
0
 10
43.20193610525473
 20
211.5707404034319
 30
0.0
 11
43.20193610525473
 21
211.2367555534319
 31
0.0
  0
LINE
  5
84B9
  8
0
 10
44.53744610525473
 20
211.2367555534319
 30
0.0
 11
44.87143000525472
 21
211.2367555534319
 31
0.0
  0
LINE
  5
84BA
  8
0
 10
44.87143000525472
 20
211.2367555534319
 30
0.0
 11
44.87143000525472
 21
211.5707404034319
 31
0.0
  0
LINE
  5
84BB
  8
0
 10
44.87143000525472
 20
211.5707404034319
 30
0.0
 11
44.53744610525473
 21
211.5707404034319
 31
0.0
  0
LINE
  5
84BC
  8
0
 10
44.53744610525473
 20
211.5707404034319
 30
0.0
 11
44.53744610525473
 21
211.2367555534319
 31
0.0
  0
LINE
  5
84BD
  8
0
 10
45.53874610525475
 20
211.2367555534319
 30
0.0
 11
45.87273095525472
 21
211.2367555534319
 31
0.0
  0
LINE
  5
84BE
  8
0
 10
45.87273095525472
 20
211.2367555534319
 30
0.0
 11
45.87273095525472
 21
211.5707404034319
 31
0.0
  0
LINE
  5
84BF
  8
0
 10
45.87273095525472
 20
211.5707404034319
 30
0.0
 11
45.53874610525475
 21
211.5707404034319
 31
0.0
  0
LINE
  5
84C0
  8
0
 10
45.53874610525475
 20
211.5707404034319
 30
0.0
 11
45.53874610525475
 21
211.2367555534319
 31
0.0
  0
LINE
  5
84C1
  8
0
 10
46.20593110525473
 20
211.2367555534319
 30
0.0
 11
47.20751610525474
 21
211.2367555534319
 31
0.0
  0
LINE
  5
84C2
  8
0
 10
47.20751610525474
 20
211.2367555534319
 30
0.0
 11
47.20751610525474
 21
211.5707404034319
 31
0.0
  0
LINE
  5
84C3
  8
0
 10
47.20751610525474
 20
211.5707404034319
 30
0.0
 11
46.20593110525473
 21
211.5707404034319
 31
0.0
  0
LINE
  5
84C4
  8
0
 10
46.20593110525473
 20
211.5707404034319
 30
0.0
 11
46.20593110525473
 21
211.2367555534319
 31
0.0
  0
LINE
  5
84C5
  8
0
 10
47.54153610525475
 20
211.2367555534319
 30
0.0
 11
47.87589145525476
 21
211.2367555534319
 31
0.0
  0
LINE
  5
84C6
  8
0
 10
47.87589145525476
 20
211.2367555534319
 30
0.0
 11
47.87589145525476
 21
211.5707404034319
 31
0.0
  0
LINE
  5
84C7
  8
0
 10
47.87589145525476
 20
211.5707404034319
 30
0.0
 11
47.54153610525475
 21
211.5707404034319
 31
0.0
  0
LINE
  5
84C8
  8
0
 10
47.54153610525475
 20
211.5707404034319
 30
0.0
 11
47.54153610525475
 21
211.2367555534319
 31
0.0
  0
LINE
  5
84C9
  8
0
 10
48.20910110525475
 20
211.2367555534319
 30
0.0
 11
48.87669840525473
 21
211.2367555534319
 31
0.0
  0
LINE
  5
84CA
  8
0
 10
48.87669840525473
 20
211.2367555534319
 30
0.0
 11
48.87669840525473
 21
211.5707404034319
 31
0.0
  0
LINE
  5
84CB
  8
0
 10
48.87669840525473
 20
211.5707404034319
 30
0.0
 11
48.20910110525475
 21
211.5707404034319
 31
0.0
  0
LINE
  5
84CC
  8
0
 10
48.20910110525475
 20
211.5707404034319
 30
0.0
 11
48.20910110525475
 21
211.2367555534319
 31
0.0
  0
LINE
  5
84CD
  8
0
 10
50.21151110525474
 20
211.2367555534319
 30
0.0
 11
50.54586645525472
 21
211.2367555534319
 31
0.0
  0
LINE
  5
84CE
  8
0
 10
50.54586645525472
 20
211.2367555534319
 30
0.0
 11
50.54586645525472
 21
211.5707404034319
 31
0.0
  0
LINE
  5
84CF
  8
0
 10
50.54586645525472
 20
211.5707404034319
 30
0.0
 11
50.21151110525474
 21
211.5707404034319
 31
0.0
  0
LINE
  5
84D0
  8
0
 10
50.21151110525474
 20
211.5707404034319
 30
0.0
 11
50.21151110525474
 21
211.2367555534319
 31
0.0
  0
LINE
  5
84D1
  8
0
 10
51.88066110525472
 20
211.2367555534319
 30
0.0
 11
52.88224610525475
 21
211.2367555534319
 31
0.0
  0
LINE
  5
84D2
  8
0
 10
42.53437110525473
 20
210.9031155534319
 30
0.0
 11
42.86872645525474
 21
210.9031155534319
 31
0.0
  0
LINE
  5
84D3
  8
0
 10
42.86872645525474
 20
210.9031155534319
 30
0.0
 11
42.86872645525474
 21
211.2371004034319
 31
0.0
  0
LINE
  5
84D4
  8
0
 10
42.86872645525474
 20
211.2371004034319
 30
0.0
 11
42.53437110525473
 21
211.2371004034319
 31
0.0
  0
LINE
  5
84D5
  8
0
 10
42.53437110525473
 20
211.2371004034319
 30
0.0
 11
42.53437110525473
 21
210.9031155534319
 31
0.0
  0
LINE
  5
84D6
  8
0
 10
44.53744610525473
 20
210.9031155534319
 30
0.0
 11
44.87143000525472
 21
210.9031155534319
 31
0.0
  0
LINE
  5
84D7
  8
0
 10
44.87143000525472
 20
210.9031155534319
 30
0.0
 11
44.87143000525472
 21
211.2371004034319
 31
0.0
  0
LINE
  5
84D8
  8
0
 10
44.87143000525472
 20
211.2371004034319
 30
0.0
 11
44.53744610525473
 21
211.2371004034319
 31
0.0
  0
LINE
  5
84D9
  8
0
 10
44.53744610525473
 20
211.2371004034319
 30
0.0
 11
44.53744610525473
 21
210.9031155534319
 31
0.0
  0
LINE
  5
84DA
  8
0
 10
46.87349610525473
 20
210.9031155534319
 30
0.0
 11
47.54109435525476
 21
210.9031155534319
 31
0.0
  0
LINE
  5
84DB
  8
0
 10
47.54109435525476
 20
210.9031155534319
 30
0.0
 11
47.54109435525476
 21
211.2371004034319
 31
0.0
  0
LINE
  5
84DC
  8
0
 10
47.54109435525476
 20
211.2371004034319
 30
0.0
 11
46.87349610525473
 21
211.2371004034319
 31
0.0
  0
LINE
  5
84DD
  8
0
 10
46.87349610525473
 20
211.2371004034319
 30
0.0
 11
46.87349610525473
 21
210.9031155534319
 31
0.0
  0
LINE
  5
84DE
  8
0
 10
47.87508110525474
 20
210.9031155534319
 30
0.0
 11
48.20906595525474
 21
210.9031155534319
 31
0.0
  0
LINE
  5
84DF
  8
0
 10
48.20906595525474
 20
210.9031155534319
 30
0.0
 11
48.20906595525474
 21
211.2371004034319
 31
0.0
  0
LINE
  5
84E0
  8
0
 10
48.20906595525474
 20
211.2371004034319
 30
0.0
 11
47.87508110525474
 21
211.2371004034319
 31
0.0
  0
LINE
  5
84E1
  8
0
 10
47.87508110525474
 20
211.2371004034319
 30
0.0
 11
47.87508110525474
 21
210.9031155534319
 31
0.0
  0
LINE
  5
84E2
  8
0
 10
48.54274110525472
 20
210.9031155534319
 30
0.0
 11
48.87672595525476
 21
210.9031155534319
 31
0.0
  0
LINE
  5
84E3
  8
0
 10
48.87672595525476
 20
210.9031155534319
 30
0.0
 11
48.87672595525476
 21
211.2371004034319
 31
0.0
  0
LINE
  5
84E4
  8
0
 10
48.87672595525476
 20
211.2371004034319
 30
0.0
 11
48.54274110525472
 21
211.2371004034319
 31
0.0
  0
LINE
  5
84E5
  8
0
 10
48.54274110525472
 20
211.2371004034319
 30
0.0
 11
48.54274110525472
 21
210.9031155534319
 31
0.0
  0
LINE
  5
84E6
  8
0
 10
49.20992610525474
 20
210.9031155534319
 30
0.0
 11
49.54428145525475
 21
210.9031155534319
 31
0.0
  0
LINE
  5
84E7
  8
0
 10
49.54428145525475
 20
210.9031155534319
 30
0.0
 11
49.54428145525475
 21
211.2371004034319
 31
0.0
  0
LINE
  5
84E8
  8
0
 10
49.54428145525475
 20
211.2371004034319
 30
0.0
 11
49.20992610525474
 21
211.2371004034319
 31
0.0
  0
LINE
  5
84E9
  8
0
 10
49.20992610525474
 20
211.2371004034319
 30
0.0
 11
49.20992610525474
 21
210.9031155534319
 31
0.0
  0
LINE
  5
84EA
  8
0
 10
51.54708000525474
 20
210.903079453432
 30
0.0
 11
51.54708000525474
 21
212.5722655534319
 31
0.0
  0
LINE
  5
84EB
  8
0
 10
53.21550610525475
 20
212.5722655534319
 30
0.0
 11
53.21550610525475
 21
210.903079453432
 31
0.0
  0
LINE
  5
84EC
  8
0
 10
42.53437110525473
 20
210.5690955534319
 30
0.0
 11
44.87115260525476
 21
210.5690955534319
 31
0.0
  0
LINE
  5
84ED
  8
0
 10
44.87115260525476
 20
210.5690955534319
 30
0.0
 11
44.87115260525476
 21
210.903079453432
 31
0.0
  0
LINE
  5
84EE
  8
0
 10
44.87115260525476
 20
210.903079453432
 30
0.0
 11
42.53437110525473
 21
210.903079453432
 31
0.0
  0
LINE
  5
84EF
  8
0
 10
42.53437110525473
 20
210.903079453432
 30
0.0
 11
42.53437110525473
 21
210.5690955534319
 31
0.0
  0
LINE
  5
84F0
  8
0
 10
45.20510610525474
 20
210.5690955534319
 30
0.0
 11
45.53909095525475
 21
210.5690955534319
 31
0.0
  0
LINE
  5
84F1
  8
0
 10
45.53909095525475
 20
210.5690955534319
 30
0.0
 11
45.53909095525475
 21
210.903079453432
 31
0.0
  0
LINE
  5
84F2
  8
0
 10
45.53909095525475
 20
210.903079453432
 30
0.0
 11
45.20510610525474
 21
210.903079453432
 31
0.0
  0
LINE
  5
84F3
  8
0
 10
45.20510610525474
 20
210.903079453432
 30
0.0
 11
45.20510610525474
 21
210.5690955534319
 31
0.0
  0
LINE
  5
84F4
  8
0
 10
45.87267110525474
 20
210.5690955534319
 30
0.0
 11
46.20665500525473
 21
210.5690955534319
 31
0.0
  0
LINE
  5
84F5
  8
0
 10
46.20665500525473
 20
210.5690955534319
 30
0.0
 11
46.20665500525473
 21
210.903079453432
 31
0.0
  0
LINE
  5
84F6
  8
0
 10
46.20665500525473
 20
210.903079453432
 30
0.0
 11
45.87267110525474
 21
210.903079453432
 31
0.0
  0
LINE
  5
84F7
  8
0
 10
45.87267110525474
 20
210.903079453432
 30
0.0
 11
45.87267110525474
 21
210.5690955534319
 31
0.0
  0
LINE
  5
84F8
  8
0
 10
46.54033110525475
 20
210.5690955534319
 30
0.0
 11
46.87431500525474
 21
210.5690955534319
 31
0.0
  0
LINE
  5
84F9
  8
0
 10
46.87431500525474
 20
210.5690955534319
 30
0.0
 11
46.87431500525474
 21
210.903079453432
 31
0.0
  0
LINE
  5
84FA
  8
0
 10
46.87431500525474
 20
210.903079453432
 30
0.0
 11
46.54033110525475
 21
210.903079453432
 31
0.0
  0
LINE
  5
84FB
  8
0
 10
46.54033110525475
 20
210.903079453432
 30
0.0
 11
46.54033110525475
 21
210.5690955534319
 31
0.0
  0
LINE
  5
84FC
  8
0
 10
47.20751610525474
 20
210.5690955534319
 30
0.0
 11
47.54150000525476
 21
210.5690955534319
 31
0.0
  0
LINE
  5
84FD
  8
0
 10
47.54150000525476
 20
210.5690955534319
 30
0.0
 11
47.54150000525476
 21
210.903079453432
 31
0.0
  0
LINE
  5
84FE
  8
0
 10
47.54150000525476
 20
210.903079453432
 30
0.0
 11
47.20751610525474
 21
210.903079453432
 31
0.0
  0
LINE
  5
84FF
  8
0
 10
47.20751610525474
 20
210.903079453432
 30
0.0
 11
47.20751610525474
 21
210.5690955534319
 31
0.0
  0
LINE
  5
8500
  8
0
 10
47.87508110525474
 20
210.5690955534319
 30
0.0
 11
48.20906595525474
 21
210.5690955534319
 31
0.0
  0
LINE
  5
8501
  8
0
 10
48.20906595525474
 20
210.5690955534319
 30
0.0
 11
48.20906595525474
 21
210.903079453432
 31
0.0
  0
LINE
  5
8502
  8
0
 10
48.20906595525474
 20
210.903079453432
 30
0.0
 11
47.87508110525474
 21
210.903079453432
 31
0.0
  0
LINE
  5
8503
  8
0
 10
47.87508110525474
 20
210.903079453432
 30
0.0
 11
47.87508110525474
 21
210.5690955534319
 31
0.0
  0
LINE
  5
8504
  8
0
 10
48.54274110525472
 20
210.5690955534319
 30
0.0
 11
48.87672595525476
 21
210.5690955534319
 31
0.0
  0
LINE
  5
8505
  8
0
 10
48.87672595525476
 20
210.5690955534319
 30
0.0
 11
48.87672595525476
 21
210.903079453432
 31
0.0
  0
LINE
  5
8506
  8
0
 10
48.87672595525476
 20
210.903079453432
 30
0.0
 11
48.54274110525472
 21
210.903079453432
 31
0.0
  0
LINE
  5
8507
  8
0
 10
48.54274110525472
 20
210.903079453432
 30
0.0
 11
48.54274110525472
 21
210.5690955534319
 31
0.0
  0
LINE
  5
8508
  8
0
 10
49.20992610525474
 20
210.5690955534319
 30
0.0
 11
49.54428145525475
 21
210.5690955534319
 31
0.0
  0
LINE
  5
8509
  8
0
 10
49.54428145525475
 20
210.5690955534319
 30
0.0
 11
49.54428145525475
 21
210.903079453432
 31
0.0
  0
LINE
  5
850A
  8
0
 10
49.54428145525475
 20
210.903079453432
 30
0.0
 11
49.20992610525474
 21
210.903079453432
 31
0.0
  0
LINE
  5
850B
  8
0
 10
49.20992610525474
 20
210.903079453432
 30
0.0
 11
49.20992610525474
 21
210.5690955534319
 31
0.0
  0
LINE
  5
850C
  8
0
 10
49.87749110525473
 20
210.5690955534319
 30
0.0
 11
50.21147500525473
 21
210.5690955534319
 31
0.0
  0
LINE
  5
850D
  8
0
 10
50.21147500525473
 20
210.5690955534319
 30
0.0
 11
50.21147500525473
 21
210.903079453432
 31
0.0
  0
LINE
  5
850E
  8
0
 10
50.21147500525473
 20
210.903079453432
 30
0.0
 11
49.87749110525473
 21
210.903079453432
 31
0.0
  0
LINE
  5
850F
  8
0
 10
49.87749110525473
 20
210.903079453432
 30
0.0
 11
49.87749110525473
 21
210.5690955534319
 31
0.0
  0
LINE
  5
8510
  8
0
 10
50.54591110525473
 20
210.5690955534319
 30
0.0
 11
50.87989595525474
 21
210.5690955534319
 31
0.0
  0
LINE
  5
8511
  8
0
 10
50.87989595525474
 20
210.5690955534319
 30
0.0
 11
50.87989595525474
 21
210.903079453432
 31
0.0
  0
LINE
  5
8512
  8
0
 10
50.87989595525474
 20
210.903079453432
 30
0.0
 11
50.54591110525473
 21
210.903079453432
 31
0.0
  0
LINE
  5
8513
  8
0
 10
50.54591110525473
 20
210.903079453432
 30
0.0
 11
50.54591110525473
 21
210.5690955534319
 31
0.0
  0
LINE
  5
8514
  8
0
 10
51.21309610525475
 20
210.5690955534319
 30
0.0
 11
53.54987760525472
 21
210.5690955534319
 31
0.0
  0
LINE
  5
8515
  8
0
 10
53.21550610525475
 20
210.903079453432
 30
0.0
 11
51.54708000525474
 21
210.903079453432
 31
0.0
  0
LINE
  5
8516
  8
0
 10
45.20510610525474
 20
210.2359305534319
 30
0.0
 11
45.53909095525475
 21
210.2359305534319
 31
0.0
  0
LINE
  5
8517
  8
0
 10
45.53909095525475
 20
210.2359305534319
 30
0.0
 11
45.53909095525475
 21
210.5699144534319
 31
0.0
  0
LINE
  5
8518
  8
0
 10
45.53909095525475
 20
210.5699144534319
 30
0.0
 11
45.20510610525474
 21
210.5699144534319
 31
0.0
  0
LINE
  5
8519
  8
0
 10
45.20510610525474
 20
210.5699144534319
 30
0.0
 11
45.20510610525474
 21
210.2359305534319
 31
0.0
  0
LINE
  5
851A
  8
0
 10
46.54033110525475
 20
210.2359305534319
 30
0.0
 11
46.87431500525474
 21
210.2359305534319
 31
0.0
  0
LINE
  5
851B
  8
0
 10
46.87431500525474
 20
210.2359305534319
 30
0.0
 11
46.87431500525474
 21
210.5699144534319
 31
0.0
  0
LINE
  5
851C
  8
0
 10
46.87431500525474
 20
210.5699144534319
 30
0.0
 11
46.54033110525475
 21
210.5699144534319
 31
0.0
  0
LINE
  5
851D
  8
0
 10
46.54033110525475
 20
210.5699144534319
 30
0.0
 11
46.54033110525475
 21
210.2359305534319
 31
0.0
  0
LINE
  5
851E
  8
0
 10
47.20751610525474
 20
210.2359305534319
 30
0.0
 11
47.54150000525476
 21
210.2359305534319
 31
0.0
  0
LINE
  5
851F
  8
0
 10
47.54150000525476
 20
210.2359305534319
 30
0.0
 11
47.54150000525476
 21
210.5699144534319
 31
0.0
  0
LINE
  5
8520
  8
0
 10
47.54150000525476
 20
210.5699144534319
 30
0.0
 11
47.20751610525474
 21
210.5699144534319
 31
0.0
  0
LINE
  5
8521
  8
0
 10
47.20751610525474
 20
210.5699144534319
 30
0.0
 11
47.20751610525474
 21
210.2359305534319
 31
0.0
  0
LINE
  5
8522
  8
0
 10
49.87749110525473
 20
210.2359305534319
 30
0.0
 11
50.21147500525473
 21
210.2359305534319
 31
0.0
  0
LINE
  5
8523
  8
0
 10
50.21147500525473
 20
210.2359305534319
 30
0.0
 11
50.21147500525473
 21
210.5699144534319
 31
0.0
  0
LINE
  5
8524
  8
0
 10
50.21147500525473
 20
210.5699144534319
 30
0.0
 11
49.87749110525473
 21
210.5699144534319
 31
0.0
  0
LINE
  5
8525
  8
0
 10
49.87749110525473
 20
210.5699144534319
 30
0.0
 11
49.87749110525473
 21
210.2359305534319
 31
0.0
  0
LINE
  5
8526
  8
0
 10
50.54591110525473
 20
210.2359305534319
 30
0.0
 11
50.87989595525474
 21
210.2359305534319
 31
0.0
  0
LINE
  5
8527
  8
0
 10
50.87989595525474
 20
210.2359305534319
 30
0.0
 11
50.87989595525474
 21
210.5699144534319
 31
0.0
  0
LINE
  5
8528
  8
0
 10
50.87989595525474
 20
210.5699144534319
 30
0.0
 11
50.54591110525473
 21
210.5699144534319
 31
0.0
  0
LINE
  5
8529
  8
0
 10
50.54591110525473
 20
210.5699144534319
 30
0.0
 11
50.54591110525473
 21
210.2359305534319
 31
0.0
  0
LINE
  5
852A
  8
0
 10
42.53437110525473
 20
209.9015305534319
 30
0.0
 11
42.86872645525474
 21
209.9015305534319
 31
0.0
  0
LINE
  5
852B
  8
0
 10
42.86872645525474
 20
209.9015305534319
 30
0.0
 11
42.86872645525474
 21
210.2358859034319
 31
0.0
  0
LINE
  5
852C
  8
0
 10
42.86872645525474
 20
210.2358859034319
 30
0.0
 11
42.53437110525473
 21
210.2358859034319
 31
0.0
  0
LINE
  5
852D
  8
0
 10
42.53437110525473
 20
210.2358859034319
 30
0.0
 11
42.53437110525473
 21
209.9015305534319
 31
0.0
  0
LINE
  5
852E
  8
0
 10
44.53744610525473
 20
209.9015305534319
 30
0.0
 11
44.87143000525472
 21
209.9015305534319
 31
0.0
  0
LINE
  5
852F
  8
0
 10
44.87143000525472
 20
209.9015305534319
 30
0.0
 11
44.87143000525472
 21
210.2358859034319
 31
0.0
  0
LINE
  5
8530
  8
0
 10
44.87143000525472
 20
210.2358859034319
 30
0.0
 11
44.53744610525473
 21
210.2358859034319
 31
0.0
  0
LINE
  5
8531
  8
0
 10
44.53744610525473
 20
210.2358859034319
 30
0.0
 11
44.53744610525473
 21
209.9015305534319
 31
0.0
  0
LINE
  5
8532
  8
0
 10
45.20510610525474
 20
209.9015305534319
 30
0.0
 11
46.20669110525472
 21
209.9015305534319
 31
0.0
  0
LINE
  5
8533
  8
0
 10
46.20669110525472
 20
209.9015305534319
 30
0.0
 11
46.20669110525472
 21
210.2358859034319
 31
0.0
  0
LINE
  5
8534
  8
0
 10
46.20669110525472
 20
210.2358859034319
 30
0.0
 11
45.20510610525474
 21
210.2358859034319
 31
0.0
  0
LINE
  5
8535
  8
0
 10
45.20510610525474
 20
210.2358859034319
 30
0.0
 11
45.20510610525474
 21
209.9015305534319
 31
0.0
  0
LINE
  5
8536
  8
0
 10
46.87349610525473
 20
209.9015305534319
 30
0.0
 11
48.54267460525475
 21
209.9015305534319
 31
0.0
  0
LINE
  5
8537
  8
0
 10
48.54267460525475
 20
209.9015305534319
 30
0.0
 11
48.54267460525475
 21
210.2358859034319
 31
0.0
  0
LINE
  5
8538
  8
0
 10
48.54267460525475
 20
210.2358859034319
 30
0.0
 11
46.87349610525473
 21
210.2358859034319
 31
0.0
  0
LINE
  5
8539
  8
0
 10
46.87349610525473
 20
210.2358859034319
 30
0.0
 11
46.87349610525473
 21
209.9015305534319
 31
0.0
  0
LINE
  5
853A
  8
0
 10
49.87749110525473
 20
209.9015305534319
 30
0.0
 11
50.21147500525473
 21
209.9015305534319
 31
0.0
  0
LINE
  5
853B
  8
0
 10
50.21147500525473
 20
209.9015305534319
 30
0.0
 11
50.21147500525473
 21
210.2358859034319
 31
0.0
  0
LINE
  5
853C
  8
0
 10
50.21147500525473
 20
210.2358859034319
 30
0.0
 11
49.87749110525473
 21
210.2358859034319
 31
0.0
  0
LINE
  5
853D
  8
0
 10
49.87749110525473
 20
210.2358859034319
 30
0.0
 11
49.87749110525473
 21
209.9015305534319
 31
0.0
  0
LINE
  5
853E
  8
0
 10
50.54591110525473
 20
209.9015305534319
 30
0.0
 11
51.54712560525473
 21
209.9015305534319
 31
0.0
  0
LINE
  5
853F
  8
0
 10
51.54712560525473
 20
209.9015305534319
 30
0.0
 11
51.54712560525473
 21
210.2358859034319
 31
0.0
  0
LINE
  5
8540
  8
0
 10
51.54712560525473
 20
210.2358859034319
 30
0.0
 11
50.54591110525473
 21
210.2358859034319
 31
0.0
  0
LINE
  5
8541
  8
0
 10
50.54591110525473
 20
210.2358859034319
 30
0.0
 11
50.54591110525473
 21
209.9015305534319
 31
0.0
  0
LINE
  5
8542
  8
0
 10
52.21392110525474
 20
209.9015305534319
 30
0.0
 11
53.21550610525475
 21
209.9015305534319
 31
0.0
  0
LINE
  5
8543
  8
0
 10
53.21550610525475
 20
209.9015305534319
 30
0.0
 11
53.21550610525475
 21
210.2358859034319
 31
0.0
  0
LINE
  5
8544
  8
0
 10
53.21550610525475
 20
210.2358859034319
 30
0.0
 11
52.21392110525474
 21
210.2358859034319
 31
0.0
  0
LINE
  5
8545
  8
0
 10
52.21392110525474
 20
210.2358859034319
 30
0.0
 11
52.21392110525474
 21
209.9015305534319
 31
0.0
  0
LINE
  5
8546
  8
0
 10
42.53437110525473
 20
209.5682705534319
 30
0.0
 11
42.86872645525474
 21
209.5682705534319
 31
0.0
  0
LINE
  5
8547
  8
0
 10
42.86872645525474
 20
209.5682705534319
 30
0.0
 11
42.86872645525474
 21
209.902255403432
 31
0.0
  0
LINE
  5
8548
  8
0
 10
42.86872645525474
 20
209.902255403432
 30
0.0
 11
42.53437110525473
 21
209.902255403432
 31
0.0
  0
LINE
  5
8549
  8
0
 10
42.53437110525473
 20
209.902255403432
 30
0.0
 11
42.53437110525473
 21
209.5682705534319
 31
0.0
  0
LINE
  5
854A
  8
0
 10
44.20352110525474
 20
209.5682705534319
 30
0.0
 11
44.53750595525474
 21
209.5682705534319
 31
0.0
  0
LINE
  5
854B
  8
0
 10
44.53750595525474
 20
209.5682705534319
 30
0.0
 11
44.53750595525474
 21
209.902255403432
 31
0.0
  0
LINE
  5
854C
  8
0
 10
44.53750595525474
 20
209.902255403432
 30
0.0
 11
44.20352110525474
 21
209.902255403432
 31
0.0
  0
LINE
  5
854D
  8
0
 10
44.20352110525474
 20
209.902255403432
 30
0.0
 11
44.20352110525474
 21
209.5682705534319
 31
0.0
  0
LINE
  5
854E
  8
0
 10
45.20510610525474
 20
209.5682705534319
 30
0.0
 11
45.53909095525475
 21
209.5682705534319
 31
0.0
  0
LINE
  5
854F
  8
0
 10
45.53909095525475
 20
209.5682705534319
 30
0.0
 11
45.53909095525475
 21
209.902255403432
 31
0.0
  0
LINE
  5
8550
  8
0
 10
45.53909095525475
 20
209.902255403432
 30
0.0
 11
45.20510610525474
 21
209.902255403432
 31
0.0
  0
LINE
  5
8551
  8
0
 10
45.20510610525474
 20
209.902255403432
 30
0.0
 11
45.20510610525474
 21
209.5682705534319
 31
0.0
  0
LINE
  5
8552
  8
0
 10
45.87267110525474
 20
209.5682705534319
 30
0.0
 11
46.87388560525474
 21
209.5682705534319
 31
0.0
  0
LINE
  5
8553
  8
0
 10
46.87388560525474
 20
209.5682705534319
 30
0.0
 11
46.87388560525474
 21
209.902255403432
 31
0.0
  0
LINE
  5
8554
  8
0
 10
46.87388560525474
 20
209.902255403432
 30
0.0
 11
45.87267110525474
 21
209.902255403432
 31
0.0
  0
LINE
  5
8555
  8
0
 10
45.87267110525474
 20
209.902255403432
 30
0.0
 11
45.87267110525474
 21
209.5682705534319
 31
0.0
  0
LINE
  5
8556
  8
0
 10
47.54153610525475
 20
209.5682705534319
 30
0.0
 11
47.87589145525476
 21
209.5682705534319
 31
0.0
  0
LINE
  5
8557
  8
0
 10
47.87589145525476
 20
209.5682705534319
 30
0.0
 11
47.87589145525476
 21
209.902255403432
 31
0.0
  0
LINE
  5
8558
  8
0
 10
47.87589145525476
 20
209.902255403432
 30
0.0
 11
47.54153610525475
 21
209.902255403432
 31
0.0
  0
LINE
  5
8559
  8
0
 10
47.54153610525475
 20
209.902255403432
 30
0.0
 11
47.54153610525475
 21
209.5682705534319
 31
0.0
  0
LINE
  5
855A
  8
0
 10
48.54274110525472
 20
209.5682705534319
 30
0.0
 11
49.20996790525476
 21
209.5682705534319
 31
0.0
  0
LINE
  5
855B
  8
0
 10
49.20996790525476
 20
209.5682705534319
 30
0.0
 11
49.20996790525476
 21
209.902255403432
 31
0.0
  0
LINE
  5
855C
  8
0
 10
49.20996790525476
 20
209.902255403432
 30
0.0
 11
48.54274110525472
 21
209.902255403432
 31
0.0
  0
LINE
  5
855D
  8
0
 10
48.54274110525472
 20
209.902255403432
 30
0.0
 11
48.54274110525472
 21
209.5682705534319
 31
0.0
  0
LINE
  5
855E
  8
0
 10
49.54432610525475
 20
209.5682705534319
 30
0.0
 11
50.54591110525473
 21
209.5682705534319
 31
0.0
  0
LINE
  5
855F
  8
0
 10
50.54591110525473
 20
209.5682705534319
 30
0.0
 11
50.54591110525473
 21
209.902255403432
 31
0.0
  0
LINE
  5
8560
  8
0
 10
50.54591110525473
 20
209.902255403432
 30
0.0
 11
49.54432610525475
 21
209.902255403432
 31
0.0
  0
LINE
  5
8561
  8
0
 10
49.54432610525475
 20
209.902255403432
 30
0.0
 11
49.54432610525475
 21
209.5682705534319
 31
0.0
  0
LINE
  5
8562
  8
0
 10
51.88066110525472
 20
209.5682705534319
 30
0.0
 11
52.88224610525475
 21
209.5682705534319
 31
0.0
  0
LINE
  5
8563
  8
0
 10
52.88224610525475
 20
209.5682705534319
 30
0.0
 11
52.88224610525475
 21
209.902255403432
 31
0.0
  0
LINE
  5
8564
  8
0
 10
52.88224610525475
 20
209.902255403432
 30
0.0
 11
51.88066110525472
 21
209.902255403432
 31
0.0
  0
LINE
  5
8565
  8
0
 10
51.88066110525472
 20
209.902255403432
 30
0.0
 11
51.88066110525472
 21
209.5682705534319
 31
0.0
  0
LINE
  5
8566
  8
0
 10
43.20193610525473
 20
209.234345553432
 30
0.0
 11
43.53629240525473
 21
209.234345553432
 31
0.0
  0
LINE
  5
8567
  8
0
 10
43.53629240525473
 20
209.234345553432
 30
0.0
 11
43.53629240525473
 21
209.5683294534319
 31
0.0
  0
LINE
  5
8568
  8
0
 10
43.53629240525473
 20
209.5683294534319
 30
0.0
 11
43.20193610525473
 21
209.5683294534319
 31
0.0
  0
LINE
  5
8569
  8
0
 10
43.20193610525473
 20
209.5683294534319
 30
0.0
 11
43.20193610525473
 21
209.234345553432
 31
0.0
  0
LINE
  5
856A
  8
0
 10
43.86950110525476
 20
209.234345553432
 30
0.0
 11
45.20469760525472
 21
209.234345553432
 31
0.0
  0
LINE
  5
856B
  8
0
 10
45.20469760525472
 20
209.234345553432
 30
0.0
 11
45.20469760525472
 21
209.5683294534319
 31
0.0
  0
LINE
  5
856C
  8
0
 10
45.20469760525472
 20
209.5683294534319
 30
0.0
 11
43.86950110525476
 21
209.5683294534319
 31
0.0
  0
LINE
  5
856D
  8
0
 10
43.86950110525476
 20
209.5683294534319
 30
0.0
 11
43.86950110525476
 21
209.234345553432
 31
0.0
  0
LINE
  5
856E
  8
0
 10
45.53874610525475
 20
209.234345553432
 30
0.0
 11
46.20597290525473
 21
209.234345553432
 31
0.0
  0
LINE
  5
856F
  8
0
 10
46.20597290525473
 20
209.234345553432
 30
0.0
 11
46.20597290525473
 21
209.5683294534319
 31
0.0
  0
LINE
  5
8570
  8
0
 10
46.20597290525473
 20
209.5683294534319
 30
0.0
 11
45.53874610525475
 21
209.5683294534319
 31
0.0
  0
LINE
  5
8571
  8
0
 10
45.53874610525475
 20
209.5683294534319
 30
0.0
 11
45.53874610525475
 21
209.234345553432
 31
0.0
  0
LINE
  5
8572
  8
0
 10
46.54033110525475
 20
209.234345553432
 30
0.0
 11
46.87431500525474
 21
209.234345553432
 31
0.0
  0
LINE
  5
8573
  8
0
 10
46.87431500525474
 20
209.234345553432
 30
0.0
 11
46.87431500525474
 21
209.5683294534319
 31
0.0
  0
LINE
  5
8574
  8
0
 10
46.87431500525474
 20
209.5683294534319
 30
0.0
 11
46.54033110525475
 21
209.5683294534319
 31
0.0
  0
LINE
  5
8575
  8
0
 10
46.54033110525475
 20
209.5683294534319
 30
0.0
 11
46.54033110525475
 21
209.234345553432
 31
0.0
  0
LINE
  5
8576
  8
0
 10
47.54153610525475
 20
209.234345553432
 30
0.0
 11
47.87589145525476
 21
209.234345553432
 31
0.0
  0
LINE
  5
8577
  8
0
 10
47.87589145525476
 20
209.234345553432
 30
0.0
 11
47.87589145525476
 21
209.5683294534319
 31
0.0
  0
LINE
  5
8578
  8
0
 10
47.87589145525476
 20
209.5683294534319
 30
0.0
 11
47.54153610525475
 21
209.5683294534319
 31
0.0
  0
LINE
  5
8579
  8
0
 10
47.54153610525475
 20
209.5683294534319
 30
0.0
 11
47.54153610525475
 21
209.234345553432
 31
0.0
  0
LINE
  5
857A
  8
0
 10
48.54274110525472
 20
209.234345553432
 30
0.0
 11
48.87672595525476
 21
209.234345553432
 31
0.0
  0
LINE
  5
857B
  8
0
 10
48.87672595525476
 20
209.234345553432
 30
0.0
 11
48.87672595525476
 21
209.5683294534319
 31
0.0
  0
LINE
  5
857C
  8
0
 10
48.87672595525476
 20
209.5683294534319
 30
0.0
 11
48.54274110525472
 21
209.5683294534319
 31
0.0
  0
LINE
  5
857D
  8
0
 10
48.54274110525472
 20
209.5683294534319
 30
0.0
 11
48.54274110525472
 21
209.234345553432
 31
0.0
  0
LINE
  5
857E
  8
0
 10
49.20992610525474
 20
209.234345553432
 30
0.0
 11
49.54428145525475
 21
209.234345553432
 31
0.0
  0
LINE
  5
857F
  8
0
 10
49.54428145525475
 20
209.234345553432
 30
0.0
 11
49.54428145525475
 21
209.5683294534319
 31
0.0
  0
LINE
  5
8580
  8
0
 10
49.54428145525475
 20
209.5683294534319
 30
0.0
 11
49.20992610525474
 21
209.5683294534319
 31
0.0
  0
LINE
  5
8581
  8
0
 10
49.20992610525474
 20
209.5683294534319
 30
0.0
 11
49.20992610525474
 21
209.234345553432
 31
0.0
  0
LINE
  5
8582
  8
0
 10
49.87749110525473
 20
209.234345553432
 30
0.0
 11
50.21147500525473
 21
209.234345553432
 31
0.0
  0
LINE
  5
8583
  8
0
 10
50.21147500525473
 20
209.234345553432
 30
0.0
 11
50.21147500525473
 21
209.5683294534319
 31
0.0
  0
LINE
  5
8584
  8
0
 10
50.21147500525473
 20
209.5683294534319
 30
0.0
 11
49.87749110525473
 21
209.5683294534319
 31
0.0
  0
LINE
  5
8585
  8
0
 10
49.87749110525473
 20
209.5683294534319
 30
0.0
 11
49.87749110525473
 21
209.234345553432
 31
0.0
  0
LINE
  5
8586
  8
0
 10
50.54591110525473
 20
209.234345553432
 30
0.0
 11
51.54712560525473
 21
209.234345553432
 31
0.0
  0
LINE
  5
8587
  8
0
 10
51.54712560525473
 20
209.234345553432
 30
0.0
 11
51.54712560525473
 21
209.5683294534319
 31
0.0
  0
LINE
  5
8588
  8
0
 10
51.54712560525473
 20
209.5683294534319
 30
0.0
 11
50.54591110525473
 21
209.5683294534319
 31
0.0
  0
LINE
  5
8589
  8
0
 10
50.54591110525473
 20
209.5683294534319
 30
0.0
 11
50.54591110525473
 21
209.234345553432
 31
0.0
  0
LINE
  5
858A
  8
0
 10
51.88066110525472
 20
209.234345553432
 30
0.0
 11
52.21464595525475
 21
209.234345553432
 31
0.0
  0
LINE
  5
858B
  8
0
 10
52.21464595525475
 20
209.234345553432
 30
0.0
 11
52.21464595525475
 21
209.5683294534319
 31
0.0
  0
LINE
  5
858C
  8
0
 10
52.21464595525475
 20
209.5683294534319
 30
0.0
 11
51.88066110525472
 21
209.5683294534319
 31
0.0
  0
LINE
  5
858D
  8
0
 10
51.88066110525472
 20
209.5683294534319
 30
0.0
 11
51.88066110525472
 21
209.234345553432
 31
0.0
  0
LINE
  5
858E
  8
0
 10
52.54832110525473
 20
209.234345553432
 30
0.0
 11
53.21554695525475
 21
209.234345553432
 31
0.0
  0
LINE
  5
858F
  8
0
 10
53.21554695525475
 20
209.234345553432
 30
0.0
 11
53.21554695525475
 21
209.5683294534319
 31
0.0
  0
LINE
  5
8590
  8
0
 10
53.21554695525475
 20
209.5683294534319
 30
0.0
 11
52.54832110525473
 21
209.5683294534319
 31
0.0
  0
LINE
  5
8591
  8
0
 10
52.54832110525473
 20
209.5683294534319
 30
0.0
 11
52.54832110525473
 21
209.234345553432
 31
0.0
  0
LINE
  5
8592
  8
0
 10
42.53437110525473
 20
208.8999455534319
 30
0.0
 11
43.20196840525472
 21
208.8999455534319
 31
0.0
  0
LINE
  5
8593
  8
0
 10
43.20196840525472
 20
208.8999455534319
 30
0.0
 11
43.20196840525472
 21
209.2343009034319
 31
0.0
  0
LINE
  5
8594
  8
0
 10
43.20196840525472
 20
209.2343009034319
 30
0.0
 11
42.53437110525473
 21
209.2343009034319
 31
0.0
  0
LINE
  5
8595
  8
0
 10
42.53437110525473
 20
209.2343009034319
 30
0.0
 11
42.53437110525473
 21
208.8999455534319
 31
0.0
  0
LINE
  5
8596
  8
0
 10
43.53586110525475
 20
208.8999455534319
 30
0.0
 11
44.20345840525474
 21
208.8999455534319
 31
0.0
  0
LINE
  5
8597
  8
0
 10
44.20345840525474
 20
208.8999455534319
 30
0.0
 11
44.20345840525474
 21
209.2343009034319
 31
0.0
  0
LINE
  5
8598
  8
0
 10
44.20345840525474
 20
209.2343009034319
 30
0.0
 11
43.53586110525475
 21
209.2343009034319
 31
0.0
  0
LINE
  5
8599
  8
0
 10
43.53586110525475
 20
209.2343009034319
 30
0.0
 11
43.53586110525475
 21
208.8999455534319
 31
0.0
  0
LINE
  5
859A
  8
0
 10
44.87108610525473
 20
208.8999455534319
 30
0.0
 11
45.20507000525473
 21
208.8999455534319
 31
0.0
  0
LINE
  5
859B
  8
0
 10
45.20507000525473
 20
208.8999455534319
 30
0.0
 11
45.20507000525473
 21
209.2343009034319
 31
0.0
  0
LINE
  5
859C
  8
0
 10
45.20507000525473
 20
209.2343009034319
 30
0.0
 11
44.87108610525473
 21
209.2343009034319
 31
0.0
  0
LINE
  5
859D
  8
0
 10
44.87108610525473
 20
209.2343009034319
 30
0.0
 11
44.87108610525473
 21
208.8999455534319
 31
0.0
  0
LINE
  5
859E
  8
0
 10
45.87267110525474
 20
208.8999455534319
 30
0.0
 11
46.53989695525473
 21
208.8999455534319
 31
0.0
  0
LINE
  5
859F
  8
0
 10
46.53989695525473
 20
208.8999455534319
 30
0.0
 11
46.53989695525473
 21
209.2343009034319
 31
0.0
  0
LINE
  5
85A0
  8
0
 10
46.53989695525473
 20
209.2343009034319
 30
0.0
 11
45.87267110525474
 21
209.2343009034319
 31
0.0
  0
LINE
  5
85A1
  8
0
 10
45.87267110525474
 20
209.2343009034319
 30
0.0
 11
45.87267110525474
 21
208.8999455534319
 31
0.0
  0
LINE
  5
85A2
  8
0
 10
47.20751610525474
 20
208.8999455534319
 30
0.0
 11
47.87511340525475
 21
208.8999455534319
 31
0.0
  0
LINE
  5
85A3
  8
0
 10
47.87511340525475
 20
208.8999455534319
 30
0.0
 11
47.87511340525475
 21
209.2343009034319
 31
0.0
  0
LINE
  5
85A4
  8
0
 10
47.87511340525475
 20
209.2343009034319
 30
0.0
 11
47.20751610525474
 21
209.2343009034319
 31
0.0
  0
LINE
  5
85A5
  8
0
 10
47.20751610525474
 20
209.2343009034319
 30
0.0
 11
47.20751610525474
 21
208.8999455534319
 31
0.0
  0
LINE
  5
85A6
  8
0
 10
48.87666610525474
 20
208.8999455534319
 30
0.0
 11
49.54426340525472
 21
208.8999455534319
 31
0.0
  0
LINE
  5
85A7
  8
0
 10
49.54426340525472
 20
208.8999455534319
 30
0.0
 11
49.54426340525472
 21
209.2343009034319
 31
0.0
  0
LINE
  5
85A8
  8
0
 10
49.54426340525472
 20
209.2343009034319
 30
0.0
 11
48.87666610525474
 21
209.2343009034319
 31
0.0
  0
LINE
  5
85A9
  8
0
 10
48.87666610525474
 20
209.2343009034319
 30
0.0
 11
48.87666610525474
 21
208.8999455534319
 31
0.0
  0
LINE
  5
85AA
  8
0
 10
49.87749110525473
 20
208.8999455534319
 30
0.0
 11
50.54508840525475
 21
208.8999455534319
 31
0.0
  0
LINE
  5
85AB
  8
0
 10
50.54508840525475
 20
208.8999455534319
 30
0.0
 11
50.54508840525475
 21
209.2343009034319
 31
0.0
  0
LINE
  5
85AC
  8
0
 10
50.54508840525475
 20
209.2343009034319
 30
0.0
 11
49.87749110525473
 21
209.2343009034319
 31
0.0
  0
LINE
  5
85AD
  8
0
 10
49.87749110525473
 20
209.2343009034319
 30
0.0
 11
49.87749110525473
 21
208.8999455534319
 31
0.0
  0
LINE
  5
85AE
  8
0
 10
50.87907610525474
 20
208.8999455534319
 30
0.0
 11
51.21306095525475
 21
208.8999455534319
 31
0.0
  0
LINE
  5
85AF
  8
0
 10
51.21306095525475
 20
208.8999455534319
 30
0.0
 11
51.21306095525475
 21
209.2343009034319
 31
0.0
  0
LINE
  5
85B0
  8
0
 10
51.21306095525475
 20
209.2343009034319
 30
0.0
 11
50.87907610525474
 21
209.2343009034319
 31
0.0
  0
LINE
  5
85B1
  8
0
 10
50.87907610525474
 20
209.2343009034319
 30
0.0
 11
50.87907610525474
 21
208.8999455534319
 31
0.0
  0
LINE
  5
85B2
  8
0
 10
51.54673610525475
 20
208.8999455534319
 30
0.0
 11
53.54915560525475
 21
208.8999455534319
 31
0.0
  0
LINE
  5
85B3
  8
0
 10
53.54915560525475
 20
208.8999455534319
 30
0.0
 11
53.54915560525475
 21
209.2343009034319
 31
0.0
  0
LINE
  5
85B4
  8
0
 10
53.54915560525475
 20
209.2343009034319
 30
0.0
 11
51.54673610525475
 21
209.2343009034319
 31
0.0
  0
LINE
  5
85B5
  8
0
 10
51.54673610525475
 20
209.2343009034319
 30
0.0
 11
51.54673610525475
 21
208.8999455534319
 31
0.0
  0
LINE
  5
85B6
  8
0
 10
42.86867610525474
 20
208.5666855534319
 30
0.0
 11
43.20266095525474
 21
208.5666855534319
 31
0.0
  0
LINE
  5
85B7
  8
0
 10
43.20266095525474
 20
208.5666855534319
 30
0.0
 11
43.20266095525474
 21
208.9006704034319
 31
0.0
  0
LINE
  5
85B8
  8
0
 10
43.20266095525474
 20
208.9006704034319
 30
0.0
 11
42.86867610525474
 21
208.9006704034319
 31
0.0
  0
LINE
  5
85B9
  8
0
 10
42.86867610525474
 20
208.9006704034319
 30
0.0
 11
42.86867610525474
 21
208.5666855534319
 31
0.0
  0
LINE
  5
85BA
  8
0
 10
43.53586110525475
 20
208.5666855534319
 30
0.0
 11
43.86984500525475
 21
208.5666855534319
 31
0.0
  0
LINE
  5
85BB
  8
0
 10
43.86984500525475
 20
208.5666855534319
 30
0.0
 11
43.86984500525475
 21
208.9006704034319
 31
0.0
  0
LINE
  5
85BC
  8
0
 10
43.86984500525475
 20
208.9006704034319
 30
0.0
 11
43.53586110525475
 21
208.9006704034319
 31
0.0
  0
LINE
  5
85BD
  8
0
 10
43.53586110525475
 20
208.9006704034319
 30
0.0
 11
43.53586110525475
 21
208.5666855534319
 31
0.0
  0
LINE
  5
85BE
  8
0
 10
44.53744610525473
 20
208.5666855534319
 30
0.0
 11
45.53903110525474
 21
208.5666855534319
 31
0.0
  0
LINE
  5
85BF
  8
0
 10
45.53903110525474
 20
208.5666855534319
 30
0.0
 11
45.53903110525474
 21
208.9006704034319
 31
0.0
  0
LINE
  5
85C0
  8
0
 10
45.53903110525474
 20
208.9006704034319
 30
0.0
 11
44.53744610525473
 21
208.9006704034319
 31
0.0
  0
LINE
  5
85C1
  8
0
 10
44.53744610525473
 20
208.9006704034319
 30
0.0
 11
44.53744610525473
 21
208.5666855534319
 31
0.0
  0
LINE
  5
85C2
  8
0
 10
46.87349610525473
 20
208.5666855534319
 30
0.0
 11
47.54109435525476
 21
208.5666855534319
 31
0.0
  0
LINE
  5
85C3
  8
0
 10
47.54109435525476
 20
208.5666855534319
 30
0.0
 11
47.54109435525476
 21
208.9006704034319
 31
0.0
  0
LINE
  5
85C4
  8
0
 10
47.54109435525476
 20
208.9006704034319
 30
0.0
 11
46.87349610525473
 21
208.9006704034319
 31
0.0
  0
LINE
  5
85C5
  8
0
 10
46.87349610525473
 20
208.9006704034319
 30
0.0
 11
46.87349610525473
 21
208.5666855534319
 31
0.0
  0
LINE
  5
85C6
  8
0
 10
47.87508110525474
 20
208.5666855534319
 30
0.0
 11
48.87666610525474
 21
208.5666855534319
 31
0.0
  0
LINE
  5
85C7
  8
0
 10
48.87666610525474
 20
208.5666855534319
 30
0.0
 11
48.87666610525474
 21
208.9006704034319
 31
0.0
  0
LINE
  5
85C8
  8
0
 10
48.87666610525474
 20
208.9006704034319
 30
0.0
 11
47.87508110525474
 21
208.9006704034319
 31
0.0
  0
LINE
  5
85C9
  8
0
 10
47.87508110525474
 20
208.9006704034319
 30
0.0
 11
47.87508110525474
 21
208.5666855534319
 31
0.0
  0
LINE
  5
85CA
  8
0
 10
49.20992610525474
 20
208.5666855534319
 30
0.0
 11
50.21151110525474
 21
208.5666855534319
 31
0.0
  0
LINE
  5
85CB
  8
0
 10
50.21151110525474
 20
208.5666855534319
 30
0.0
 11
50.21151110525474
 21
208.9006704034319
 31
0.0
  0
LINE
  5
85CC
  8
0
 10
50.21151110525474
 20
208.9006704034319
 30
0.0
 11
49.20992610525474
 21
208.9006704034319
 31
0.0
  0
LINE
  5
85CD
  8
0
 10
49.20992610525474
 20
208.9006704034319
 30
0.0
 11
49.20992610525474
 21
208.5666855534319
 31
0.0
  0
LINE
  5
85CE
  8
0
 10
50.54591110525473
 20
208.5666855534319
 30
0.0
 11
50.87989595525474
 21
208.5666855534319
 31
0.0
  0
LINE
  5
85CF
  8
0
 10
50.87989595525474
 20
208.5666855534319
 30
0.0
 11
50.87989595525474
 21
208.9006704034319
 31
0.0
  0
LINE
  5
85D0
  8
0
 10
50.87989595525474
 20
208.9006704034319
 30
0.0
 11
50.54591110525473
 21
208.9006704034319
 31
0.0
  0
LINE
  5
85D1
  8
0
 10
50.54591110525473
 20
208.9006704034319
 30
0.0
 11
50.54591110525473
 21
208.5666855534319
 31
0.0
  0
LINE
  5
85D2
  8
0
 10
51.21309610525475
 20
208.5666855534319
 30
0.0
 11
51.88069340525473
 21
208.5666855534319
 31
0.0
  0
LINE
  5
85D3
  8
0
 10
51.88069340525473
 20
208.5666855534319
 30
0.0
 11
51.88069340525473
 21
208.9006704034319
 31
0.0
  0
LINE
  5
85D4
  8
0
 10
51.88069340525473
 20
208.9006704034319
 30
0.0
 11
51.21309610525475
 21
208.9006704034319
 31
0.0
  0
LINE
  5
85D5
  8
0
 10
51.21309610525475
 20
208.9006704034319
 30
0.0
 11
51.21309610525475
 21
208.5666855534319
 31
0.0
  0
LINE
  5
85D6
  8
0
 10
42.53437110525473
 20
208.2327605534319
 30
0.0
 11
43.20196840525472
 21
208.2327605534319
 31
0.0
  0
LINE
  5
85D7
  8
0
 10
43.20196840525472
 20
208.2327605534319
 30
0.0
 11
43.20196840525472
 21
208.5667444534319
 31
0.0
  0
LINE
  5
85D8
  8
0
 10
43.20196840525472
 20
208.5667444534319
 30
0.0
 11
42.53437110525473
 21
208.5667444534319
 31
0.0
  0
LINE
  5
85D9
  8
0
 10
42.53437110525473
 20
208.5667444534319
 30
0.0
 11
42.53437110525473
 21
208.2327605534319
 31
0.0
  0
LINE
  5
85DA
  8
0
 10
43.53586110525475
 20
208.2327605534319
 30
0.0
 11
44.20345840525474
 21
208.2327605534319
 31
0.0
  0
LINE
  5
85DB
  8
0
 10
44.20345840525474
 20
208.2327605534319
 30
0.0
 11
44.20345840525474
 21
208.5667444534319
 31
0.0
  0
LINE
  5
85DC
  8
0
 10
44.20345840525474
 20
208.5667444534319
 30
0.0
 11
43.53586110525475
 21
208.5667444534319
 31
0.0
  0
LINE
  5
85DD
  8
0
 10
43.53586110525475
 20
208.5667444534319
 30
0.0
 11
43.53586110525475
 21
208.2327605534319
 31
0.0
  0
LINE
  5
85DE
  8
0
 10
44.87108610525473
 20
208.2327605534319
 30
0.0
 11
45.53868340525474
 21
208.2327605534319
 31
0.0
  0
LINE
  5
85DF
  8
0
 10
45.53868340525474
 20
208.2327605534319
 30
0.0
 11
45.53868340525474
 21
208.5667444534319
 31
0.0
  0
LINE
  5
85E0
  8
0
 10
45.53868340525474
 20
208.5667444534319
 30
0.0
 11
44.87108610525473
 21
208.5667444534319
 31
0.0
  0
LINE
  5
85E1
  8
0
 10
44.87108610525473
 20
208.5667444534319
 30
0.0
 11
44.87108610525473
 21
208.2327605534319
 31
0.0
  0
LINE
  5
85E2
  8
0
 10
46.20593110525473
 20
208.2327605534319
 30
0.0
 11
46.87352840525475
 21
208.2327605534319
 31
0.0
  0
LINE
  5
85E3
  8
0
 10
46.87352840525475
 20
208.2327605534319
 30
0.0
 11
46.87352840525475
 21
208.5667444534319
 31
0.0
  0
LINE
  5
85E4
  8
0
 10
46.87352840525475
 20
208.5667444534319
 30
0.0
 11
46.20593110525473
 21
208.5667444534319
 31
0.0
  0
LINE
  5
85E5
  8
0
 10
46.20593110525473
 20
208.5667444534319
 30
0.0
 11
46.20593110525473
 21
208.2327605534319
 31
0.0
  0
LINE
  5
85E6
  8
0
 10
47.20751610525474
 20
208.2327605534319
 30
0.0
 11
47.54150000525476
 21
208.2327605534319
 31
0.0
  0
LINE
  5
85E7
  8
0
 10
47.54150000525476
 20
208.2327605534319
 30
0.0
 11
47.54150000525476
 21
208.5667444534319
 31
0.0
  0
LINE
  5
85E8
  8
0
 10
47.54150000525476
 20
208.5667444534319
 30
0.0
 11
47.20751610525474
 21
208.5667444534319
 31
0.0
  0
LINE
  5
85E9
  8
0
 10
47.20751610525474
 20
208.5667444534319
 30
0.0
 11
47.20751610525474
 21
208.2327605534319
 31
0.0
  0
LINE
  5
85EA
  8
0
 10
47.87508110525474
 20
208.2327605534319
 30
0.0
 11
48.54267840525472
 21
208.2327605534319
 31
0.0
  0
LINE
  5
85EB
  8
0
 10
48.54267840525472
 20
208.2327605534319
 30
0.0
 11
48.54267840525472
 21
208.5667444534319
 31
0.0
  0
LINE
  5
85EC
  8
0
 10
48.54267840525472
 20
208.5667444534319
 30
0.0
 11
47.87508110525474
 21
208.5667444534319
 31
0.0
  0
LINE
  5
85ED
  8
0
 10
47.87508110525474
 20
208.5667444534319
 30
0.0
 11
47.87508110525474
 21
208.2327605534319
 31
0.0
  0
LINE
  5
85EE
  8
0
 10
49.20992610525474
 20
208.2327605534319
 30
0.0
 11
49.87752435525474
 21
208.2327605534319
 31
0.0
  0
LINE
  5
85EF
  8
0
 10
49.87752435525474
 20
208.2327605534319
 30
0.0
 11
49.87752435525474
 21
208.5667444534319
 31
0.0
  0
LINE
  5
85F0
  8
0
 10
49.87752435525474
 20
208.5667444534319
 30
0.0
 11
49.20992610525474
 21
208.5667444534319
 31
0.0
  0
LINE
  5
85F1
  8
0
 10
49.20992610525474
 20
208.5667444534319
 30
0.0
 11
49.20992610525474
 21
208.2327605534319
 31
0.0
  0
LINE
  5
85F2
  8
0
 10
50.21151110525474
 20
208.2327605534319
 30
0.0
 11
50.54586645525472
 21
208.2327605534319
 31
0.0
  0
LINE
  5
85F3
  8
0
 10
50.54586645525472
 20
208.2327605534319
 30
0.0
 11
50.54586645525472
 21
208.5667444534319
 31
0.0
  0
LINE
  5
85F4
  8
0
 10
50.54586645525472
 20
208.5667444534319
 30
0.0
 11
50.21151110525474
 21
208.5667444534319
 31
0.0
  0
LINE
  5
85F5
  8
0
 10
50.21151110525474
 20
208.5667444534319
 30
0.0
 11
50.21151110525474
 21
208.2327605534319
 31
0.0
  0
LINE
  5
85F6
  8
0
 10
51.21309610525475
 20
208.2327605534319
 30
0.0
 11
51.54708000525474
 21
208.2327605534319
 31
0.0
  0
LINE
  5
85F7
  8
0
 10
51.54708000525474
 20
208.2327605534319
 30
0.0
 11
51.54708000525474
 21
208.5667444534319
 31
0.0
  0
LINE
  5
85F8
  8
0
 10
51.54708000525474
 20
208.5667444534319
 30
0.0
 11
51.21309610525475
 21
208.5667444534319
 31
0.0
  0
LINE
  5
85F9
  8
0
 10
51.21309610525475
 20
208.5667444534319
 30
0.0
 11
51.21309610525475
 21
208.2327605534319
 31
0.0
  0
LINE
  5
85FA
  8
0
 10
52.21392110525474
 20
208.2327605534319
 30
0.0
 11
53.54911760525474
 21
208.2327605534319
 31
0.0
  0
LINE
  5
85FB
  8
0
 10
53.54911760525474
 20
208.2327605534319
 30
0.0
 11
53.54911760525474
 21
208.5667444534319
 31
0.0
  0
LINE
  5
85FC
  8
0
 10
53.54911760525474
 20
208.5667444534319
 30
0.0
 11
52.21392110525474
 21
208.5667444534319
 31
0.0
  0
LINE
  5
85FD
  8
0
 10
52.21392110525474
 20
208.5667444534319
 30
0.0
 11
52.21392110525474
 21
208.2327605534319
 31
0.0
  0
LINE
  5
85FE
  8
0
 10
42.86867610525474
 20
207.8991205534319
 30
0.0
 11
46.20666260525473
 21
207.8991205534319
 31
0.0
  0
LINE
  5
85FF
  8
0
 10
46.20666260525473
 20
207.8991205534319
 30
0.0
 11
46.20666260525473
 21
208.2331054034319
 31
0.0
  0
LINE
  5
8600
  8
0
 10
46.20666260525473
 20
208.2331054034319
 30
0.0
 11
42.86867610525474
 21
208.2331054034319
 31
0.0
  0
LINE
  5
8601
  8
0
 10
42.86867610525474
 20
208.2331054034319
 30
0.0
 11
42.86867610525474
 21
207.8991205534319
 31
0.0
  0
LINE
  5
8602
  8
0
 10
46.87349610525473
 20
207.8991205534319
 30
0.0
 11
47.20748095525474
 21
207.8991205534319
 31
0.0
  0
LINE
  5
8603
  8
0
 10
47.20748095525474
 20
207.8991205534319
 30
0.0
 11
47.20748095525474
 21
208.2331054034319
 31
0.0
  0
LINE
  5
8604
  8
0
 10
47.20748095525474
 20
208.2331054034319
 30
0.0
 11
46.87349610525473
 21
208.2331054034319
 31
0.0
  0
LINE
  5
8605
  8
0
 10
46.87349610525473
 20
208.2331054034319
 30
0.0
 11
46.87349610525473
 21
207.8991205534319
 31
0.0
  0
LINE
  5
8606
  8
0
 10
48.20910110525475
 20
207.8991205534319
 30
0.0
 11
48.54308500525474
 21
207.8991205534319
 31
0.0
  0
LINE
  5
8607
  8
0
 10
48.54308500525474
 20
207.8991205534319
 30
0.0
 11
48.54308500525474
 21
208.2331054034319
 31
0.0
  0
LINE
  5
8608
  8
0
 10
48.54308500525474
 20
208.2331054034319
 30
0.0
 11
48.20910110525475
 21
208.2331054034319
 31
0.0
  0
LINE
  5
8609
  8
0
 10
48.20910110525475
 20
208.2331054034319
 30
0.0
 11
48.20910110525475
 21
207.8991205534319
 31
0.0
  0
LINE
  5
860A
  8
0
 10
48.87666610525474
 20
207.8991205534319
 30
0.0
 11
49.21065000525473
 21
207.8991205534319
 31
0.0
  0
LINE
  5
860B
  8
0
 10
49.21065000525473
 20
207.8991205534319
 30
0.0
 11
49.21065000525473
 21
208.2331054034319
 31
0.0
  0
LINE
  5
860C
  8
0
 10
49.21065000525473
 20
208.2331054034319
 30
0.0
 11
48.87666610525474
 21
208.2331054034319
 31
0.0
  0
LINE
  5
860D
  8
0
 10
48.87666610525474
 20
208.2331054034319
 30
0.0
 11
48.87666610525474
 21
207.8991205534319
 31
0.0
  0
LINE
  5
860E
  8
0
 10
50.87907610525474
 20
207.8991205534319
 30
0.0
 11
51.54667435525474
 21
207.8991205534319
 31
0.0
  0
LINE
  5
860F
  8
0
 10
51.54667435525474
 20
207.8991205534319
 30
0.0
 11
51.54667435525474
 21
208.2331054034319
 31
0.0
  0
LINE
  5
8610
  8
0
 10
51.54667435525474
 20
208.2331054034319
 30
0.0
 11
50.87907610525474
 21
208.2331054034319
 31
0.0
  0
LINE
  5
8611
  8
0
 10
50.87907610525474
 20
208.2331054034319
 30
0.0
 11
50.87907610525474
 21
207.8991205534319
 31
0.0
  0
LINE
  5
8612
  8
0
 10
51.88066110525472
 20
207.8991205534319
 30
0.0
 11
52.21464595525475
 21
207.8991205534319
 31
0.0
  0
LINE
  5
8613
  8
0
 10
52.21464595525475
 20
207.8991205534319
 30
0.0
 11
52.21464595525475
 21
208.2331054034319
 31
0.0
  0
LINE
  5
8614
  8
0
 10
52.21464595525475
 20
208.2331054034319
 30
0.0
 11
51.88066110525472
 21
208.2331054034319
 31
0.0
  0
LINE
  5
8615
  8
0
 10
51.88066110525472
 20
208.2331054034319
 30
0.0
 11
51.88066110525472
 21
207.8991205534319
 31
0.0
  0
LINE
  5
8616
  8
0
 10
52.54832110525473
 20
207.8991205534319
 30
0.0
 11
53.21554695525475
 21
207.8991205534319
 31
0.0
  0
LINE
  5
8617
  8
0
 10
53.21554695525475
 20
207.8991205534319
 30
0.0
 11
53.21554695525475
 21
208.2331054034319
 31
0.0
  0
LINE
  5
8618
  8
0
 10
53.21554695525475
 20
208.2331054034319
 30
0.0
 11
52.54832110525473
 21
208.2331054034319
 31
0.0
  0
LINE
  5
8619
  8
0
 10
52.54832110525473
 20
208.2331054034319
 30
0.0
 11
52.54832110525473
 21
207.8991205534319
 31
0.0
  0
LINE
  5
861A
  8
0
 10
42.53437110525473
 20
207.5651005534319
 30
0.0
 11
43.20196840525472
 21
207.5651005534319
 31
0.0
  0
LINE
  5
861B
  8
0
 10
43.20196840525472
 20
207.5651005534319
 30
0.0
 11
43.20196840525472
 21
207.8991205534319
 31
0.0
  0
LINE
  5
861C
  8
0
 10
43.20196840525472
 20
207.8991205534319
 30
0.0
 11
42.53437110525473
 21
207.8991205534319
 31
0.0
  0
LINE
  5
861D
  8
0
 10
42.53437110525473
 20
207.8991205534319
 30
0.0
 11
42.53437110525473
 21
207.5651005534319
 31
0.0
  0
LINE
  5
861E
  8
0
 10
43.53586110525475
 20
207.5651005534319
 30
0.0
 11
44.20345840525474
 21
207.5651005534319
 31
0.0
  0
LINE
  5
861F
  8
0
 10
44.20345840525474
 20
207.5651005534319
 30
0.0
 11
44.20345840525474
 21
207.8991205534319
 31
0.0
  0
LINE
  5
8620
  8
0
 10
44.20345840525474
 20
207.8991205534319
 30
0.0
 11
43.53586110525475
 21
207.8991205534319
 31
0.0
  0
LINE
  5
8621
  8
0
 10
43.53586110525475
 20
207.8991205534319
 30
0.0
 11
43.53586110525475
 21
207.5651005534319
 31
0.0
  0
LINE
  5
8622
  8
0
 10
45.53874610525475
 20
207.5651005534319
 30
0.0
 11
45.87273095525472
 21
207.5651005534319
 31
0.0
  0
LINE
  5
8623
  8
0
 10
45.87273095525472
 20
207.5651005534319
 30
0.0
 11
45.87273095525472
 21
207.8991205534319
 31
0.0
  0
LINE
  5
8624
  8
0
 10
45.87273095525472
 20
207.8991205534319
 30
0.0
 11
45.53874610525475
 21
207.8991205534319
 31
0.0
  0
LINE
  5
8625
  8
0
 10
45.53874610525475
 20
207.8991205534319
 30
0.0
 11
45.53874610525475
 21
207.5651005534319
 31
0.0
  0
LINE
  5
8626
  8
0
 10
46.54033110525475
 20
207.5651005534319
 30
0.0
 11
46.87431500525474
 21
207.5651005534319
 31
0.0
  0
LINE
  5
8627
  8
0
 10
46.87431500525474
 20
207.5651005534319
 30
0.0
 11
46.87431500525474
 21
207.8991205534319
 31
0.0
  0
LINE
  5
8628
  8
0
 10
46.87431500525474
 20
207.8991205534319
 30
0.0
 11
46.54033110525475
 21
207.8991205534319
 31
0.0
  0
LINE
  5
8629
  8
0
 10
46.54033110525475
 20
207.8991205534319
 30
0.0
 11
46.54033110525475
 21
207.5651005534319
 31
0.0
  0
LINE
  5
862A
  8
0
 10
47.20751610525474
 20
207.5651005534319
 30
0.0
 11
47.87511340525475
 21
207.5651005534319
 31
0.0
  0
LINE
  5
862B
  8
0
 10
47.87511340525475
 20
207.5651005534319
 30
0.0
 11
47.87511340525475
 21
207.8991205534319
 31
0.0
  0
LINE
  5
862C
  8
0
 10
47.87511340525475
 20
207.8991205534319
 30
0.0
 11
47.20751610525474
 21
207.8991205534319
 31
0.0
  0
LINE
  5
862D
  8
0
 10
47.20751610525474
 20
207.8991205534319
 30
0.0
 11
47.20751610525474
 21
207.5651005534319
 31
0.0
  0
LINE
  5
862E
  8
0
 10
48.54274110525472
 20
207.5651005534319
 30
0.0
 11
49.20996790525476
 21
207.5651005534319
 31
0.0
  0
LINE
  5
862F
  8
0
 10
49.20996790525476
 20
207.5651005534319
 30
0.0
 11
49.20996790525476
 21
207.8991205534319
 31
0.0
  0
LINE
  5
8630
  8
0
 10
49.20996790525476
 20
207.8991205534319
 30
0.0
 11
48.54274110525472
 21
207.8991205534319
 31
0.0
  0
LINE
  5
8631
  8
0
 10
48.54274110525472
 20
207.8991205534319
 30
0.0
 11
48.54274110525472
 21
207.5651005534319
 31
0.0
  0
LINE
  5
8632
  8
0
 10
50.87907610525474
 20
207.5651005534319
 30
0.0
 11
51.21309610525475
 21
207.5651005534319
 31
0.0
  0
LINE
  5
8633
  8
0
 10
51.21309610525475
 20
207.5651005534319
 30
0.0
 11
51.21309610525475
 21
207.8991205534319
 31
0.0
  0
LINE
  5
8634
  8
0
 10
51.21309610525475
 20
207.8991205534319
 30
0.0
 11
50.87911125525474
 21
207.8991205534319
 31
0.0
  0
LINE
  5
8635
  8
0
 10
50.87911125525474
 20
207.8991205534319
 30
0.0
 11
50.87907610525474
 21
207.5651005534319
 31
0.0
  0
LINE
  5
8636
  8
0
 10
51.88066110525472
 20
207.5651005534319
 30
0.0
 11
52.88224610525475
 21
207.5651005534319
 31
0.0
  0
LINE
  5
8637
  8
0
 10
52.88224610525475
 20
207.5651005534319
 30
0.0
 11
52.88224610525475
 21
207.8991205534319
 31
0.0
  0
LINE
  5
8638
  8
0
 10
52.88224610525475
 20
207.8991205534319
 30
0.0
 11
51.88066110525472
 21
207.8991205534319
 31
0.0
  0
LINE
  5
8639
  8
0
 10
51.88066110525472
 20
207.8991205534319
 30
0.0
 11
51.88066110525472
 21
207.5651005534319
 31
0.0
  0
LINE
  5
863A
  8
0
 10
53.21550610525475
 20
207.5651005534319
 30
0.0
 11
53.54986240525474
 21
207.5651005534319
 31
0.0
  0
LINE
  5
863B
  8
0
 10
53.54986240525474
 20
207.5651005534319
 30
0.0
 11
53.54986240525474
 21
207.8991205534319
 31
0.0
  0
LINE
  5
863C
  8
0
 10
53.54986240525474
 20
207.8991205534319
 30
0.0
 11
53.21550610525475
 21
207.8991205534319
 31
0.0
  0
LINE
  5
863D
  8
0
 10
53.21550610525475
 20
207.8991205534319
 30
0.0
 11
53.21550610525475
 21
207.5651005534319
 31
0.0
  0
LINE
  5
863E
  8
0
 10
42.86867610525474
 20
207.2315555534319
 30
0.0
 11
43.20266095525474
 21
207.2315555534319
 31
0.0
  0
LINE
  5
863F
  8
0
 10
43.20266095525474
 20
207.2315555534319
 30
0.0
 11
43.20266095525474
 21
207.565910903432
 31
0.0
  0
LINE
  5
8640
  8
0
 10
43.20266095525474
 20
207.565910903432
 30
0.0
 11
42.86867610525474
 21
207.565910903432
 31
0.0
  0
LINE
  5
8641
  8
0
 10
42.86867610525474
 20
207.565910903432
 30
0.0
 11
42.86867610525474
 21
207.2315555534319
 31
0.0
  0
LINE
  5
8642
  8
0
 10
44.53744610525473
 20
207.2315555534319
 30
0.0
 11
44.87143000525472
 21
207.2315555534319
 31
0.0
  0
LINE
  5
8643
  8
0
 10
44.87143000525472
 20
207.2315555534319
 30
0.0
 11
44.87143000525472
 21
207.565910903432
 31
0.0
  0
LINE
  5
8644
  8
0
 10
44.87143000525472
 20
207.565910903432
 30
0.0
 11
44.53744610525473
 21
207.565910903432
 31
0.0
  0
LINE
  5
8645
  8
0
 10
44.53744610525473
 20
207.565910903432
 30
0.0
 11
44.53744610525473
 21
207.2315555534319
 31
0.0
  0
LINE
  5
8646
  8
0
 10
45.53874610525475
 20
207.2315555534319
 30
0.0
 11
46.20597290525473
 21
207.2315555534319
 31
0.0
  0
LINE
  5
8647
  8
0
 10
46.20597290525473
 20
207.2315555534319
 30
0.0
 11
46.20597290525473
 21
207.565910903432
 31
0.0
  0
LINE
  5
8648
  8
0
 10
46.20597290525473
 20
207.565910903432
 30
0.0
 11
45.53874610525475
 21
207.565910903432
 31
0.0
  0
LINE
  5
8649
  8
0
 10
45.53874610525475
 20
207.565910903432
 30
0.0
 11
45.53874610525475
 21
207.2315555534319
 31
0.0
  0
LINE
  5
864A
  8
0
 10
46.54033110525475
 20
207.2315555534319
 30
0.0
 11
47.20755790525473
 21
207.2315555534319
 31
0.0
  0
LINE
  5
864B
  8
0
 10
47.20755790525473
 20
207.2315555534319
 30
0.0
 11
47.20755790525473
 21
207.565910903432
 31
0.0
  0
LINE
  5
864C
  8
0
 10
47.20755790525473
 20
207.565910903432
 30
0.0
 11
46.54033110525475
 21
207.565910903432
 31
0.0
  0
LINE
  5
864D
  8
0
 10
46.54033110525475
 20
207.565910903432
 30
0.0
 11
46.54033110525475
 21
207.2315555534319
 31
0.0
  0
LINE
  5
864E
  8
0
 10
48.20910110525475
 20
207.2315555534319
 30
0.0
 11
49.21068610525475
 21
207.2315555534319
 31
0.0
  0
LINE
  5
864F
  8
0
 10
49.21068610525475
 20
207.2315555534319
 30
0.0
 11
49.21068610525475
 21
207.565910903432
 31
0.0
  0
LINE
  5
8650
  8
0
 10
49.21068610525475
 20
207.565910903432
 30
0.0
 11
48.20910110525475
 21
207.565910903432
 31
0.0
  0
LINE
  5
8651
  8
0
 10
48.20910110525475
 20
207.565910903432
 30
0.0
 11
48.20910110525475
 21
207.2315555534319
 31
0.0
  0
LINE
  5
8652
  8
0
 10
49.87749110525473
 20
207.2315555534319
 30
0.0
 11
50.21147500525473
 21
207.2315555534319
 31
0.0
  0
LINE
  5
8653
  8
0
 10
50.21147500525473
 20
207.2315555534319
 30
0.0
 11
50.21147500525473
 21
207.565910903432
 31
0.0
  0
LINE
  5
8654
  8
0
 10
50.21147500525473
 20
207.565910903432
 30
0.0
 11
49.87749110525473
 21
207.565910903432
 31
0.0
  0
LINE
  5
8655
  8
0
 10
49.87749110525473
 20
207.565910903432
 30
0.0
 11
49.87749110525473
 21
207.2315555534319
 31
0.0
  0
LINE
  5
8656
  8
0
 10
50.54591110525473
 20
207.2315555534319
 30
0.0
 11
51.21313790525474
 21
207.2315555534319
 31
0.0
  0
LINE
  5
8657
  8
0
 10
51.21313790525474
 20
207.2315555534319
 30
0.0
 11
51.21313790525474
 21
207.565910903432
 31
0.0
  0
LINE
  5
8658
  8
0
 10
51.21313790525474
 20
207.565910903432
 30
0.0
 11
50.54591110525473
 21
207.565910903432
 31
0.0
  0
LINE
  5
8659
  8
0
 10
50.54591110525473
 20
207.565910903432
 30
0.0
 11
50.54591110525473
 21
207.2315555534319
 31
0.0
  0
LINE
  5
865A
  8
0
 10
51.54673610525475
 20
207.2315555534319
 30
0.0
 11
52.54832110525473
 21
207.2315555534319
 31
0.0
  0
LINE
  5
865B
  8
0
 10
52.54832110525473
 20
207.2315555534319
 30
0.0
 11
52.54832110525473
 21
207.565910903432
 31
0.0
  0
LINE
  5
865C
  8
0
 10
52.54832110525473
 20
207.565910903432
 30
0.0
 11
51.54673610525475
 21
207.565910903432
 31
0.0
  0
LINE
  5
865D
  8
0
 10
51.54673610525475
 20
207.565910903432
 30
0.0
 11
51.54673610525475
 21
207.2315555534319
 31
0.0
  0
LINE
  5
865E
  8
0
 10
53.21550610525475
 20
207.2315555534319
 30
0.0
 11
53.54986240525474
 21
207.2315555534319
 31
0.0
  0
LINE
  5
865F
  8
0
 10
53.54986240525474
 20
207.2315555534319
 30
0.0
 11
53.54986240525474
 21
207.565910903432
 31
0.0
  0
LINE
  5
8660
  8
0
 10
53.54986240525474
 20
207.565910903432
 30
0.0
 11
53.21550610525475
 21
207.565910903432
 31
0.0
  0
LINE
  5
8661
  8
0
 10
53.21550610525475
 20
207.565910903432
 30
0.0
 11
53.21550610525475
 21
207.2315555534319
 31
0.0
  0
LINE
  5
8662
  8
0
 10
42.86867610525474
 20
206.8975355534319
 30
0.0
 11
43.53590290525474
 21
206.8975355534319
 31
0.0
  0
LINE
  5
8663
  8
0
 10
43.53590290525474
 20
206.8975355534319
 30
0.0
 11
43.53590290525474
 21
207.2315204034319
 31
0.0
  0
LINE
  5
8664
  8
0
 10
43.53590290525474
 20
207.2315204034319
 30
0.0
 11
42.86867610525474
 21
207.2315204034319
 31
0.0
  0
LINE
  5
8665
  8
0
 10
42.86867610525474
 20
207.2315204034319
 30
0.0
 11
42.86867610525474
 21
206.8975355534319
 31
0.0
  0
LINE
  5
8666
  8
0
 10
43.86950110525476
 20
206.8975355534319
 30
0.0
 11
44.20348500525475
 21
206.8975355534319
 31
0.0
  0
LINE
  5
8667
  8
0
 10
44.20348500525475
 20
206.8975355534319
 30
0.0
 11
44.20348500525475
 21
207.2315204034319
 31
0.0
  0
LINE
  5
8668
  8
0
 10
44.20348500525475
 20
207.2315204034319
 30
0.0
 11
43.86950110525476
 21
207.2315204034319
 31
0.0
  0
LINE
  5
8669
  8
0
 10
43.86950110525476
 20
207.2315204034319
 30
0.0
 11
43.86950110525476
 21
206.8975355534319
 31
0.0
  0
LINE
  5
866A
  8
0
 10
46.20593110525473
 20
206.8975355534319
 30
0.0
 11
46.53991500525473
 21
206.8975355534319
 31
0.0
  0
LINE
  5
866B
  8
0
 10
46.53991500525473
 20
206.8975355534319
 30
0.0
 11
46.53991500525473
 21
207.2315204034319
 31
0.0
  0
LINE
  5
866C
  8
0
 10
46.53991500525473
 20
207.2315204034319
 30
0.0
 11
46.20593110525473
 21
207.2315204034319
 31
0.0
  0
LINE
  5
866D
  8
0
 10
46.20593110525473
 20
207.2315204034319
 30
0.0
 11
46.20593110525473
 21
206.8975355534319
 31
0.0
  0
LINE
  5
866E
  8
0
 10
46.87349610525473
 20
206.8975355534319
 30
0.0
 11
49.87750060525474
 21
206.8975355534319
 31
0.0
  0
LINE
  5
866F
  8
0
 10
49.87750060525474
 20
206.8975355534319
 30
0.0
 11
49.87750060525474
 21
207.2315204034319
 31
0.0
  0
LINE
  5
8670
  8
0
 10
49.87750060525474
 20
207.2315204034319
 30
0.0
 11
46.87349610525473
 21
207.2315204034319
 31
0.0
  0
LINE
  5
8671
  8
0
 10
46.87349610525473
 20
207.2315204034319
 30
0.0
 11
46.87349610525473
 21
206.8975355534319
 31
0.0
  0
LINE
  5
8672
  8
0
 10
50.21151110525474
 20
206.8975355534319
 30
0.0
 11
51.54670760525474
 21
206.8975355534319
 31
0.0
  0
LINE
  5
8673
  8
0
 10
51.54670760525474
 20
206.8975355534319
 30
0.0
 11
51.54670760525474
 21
207.2315204034319
 31
0.0
  0
LINE
  5
8674
  8
0
 10
51.54670760525474
 20
207.2315204034319
 30
0.0
 11
50.21151110525474
 21
207.2315204034319
 31
0.0
  0
LINE
  5
8675
  8
0
 10
50.21151110525474
 20
207.2315204034319
 30
0.0
 11
50.21151110525474
 21
206.8975355534319
 31
0.0
  0
LINE
  5
8676
  8
0
 10
52.21392110525474
 20
206.8975355534319
 30
0.0
 11
52.88151840525472
 21
206.8975355534319
 31
0.0
  0
LINE
  5
8677
  8
0
 10
52.88151840525472
 20
206.8975355534319
 30
0.0
 11
52.88151840525472
 21
207.2315204034319
 31
0.0
  0
LINE
  5
8678
  8
0
 10
52.88151840525472
 20
207.2315204034319
 30
0.0
 11
52.21392110525474
 21
207.2315204034319
 31
0.0
  0
LINE
  5
8679
  8
0
 10
52.21392110525474
 20
207.2315204034319
 30
0.0
 11
52.21392110525474
 21
206.8975355534319
 31
0.0
  0
LINE
  5
867A
  8
0
 10
53.21550610525475
 20
206.8975355534319
 30
0.0
 11
53.54986240525474
 21
206.8975355534319
 31
0.0
  0
LINE
  5
867B
  8
0
 10
53.54986240525474
 20
206.8975355534319
 30
0.0
 11
53.54986240525474
 21
207.2315204034319
 31
0.0
  0
LINE
  5
867C
  8
0
 10
53.54986240525474
 20
207.2315204034319
 30
0.0
 11
53.21550610525475
 21
207.2315204034319
 31
0.0
  0
LINE
  5
867D
  8
0
 10
53.21550610525475
 20
207.2315204034319
 30
0.0
 11
53.21550610525475
 21
206.8975355534319
 31
0.0
  0
LINE
  5
867E
  8
0
 10
43.20193610525473
 20
206.5642755534319
 30
0.0
 11
43.53629240525473
 21
206.5642755534319
 31
0.0
  0
LINE
  5
867F
  8
0
 10
43.53629240525473
 20
206.5642755534319
 30
0.0
 11
43.53629240525473
 21
206.898259453432
 31
0.0
  0
LINE
  5
8680
  8
0
 10
43.53629240525473
 20
206.898259453432
 30
0.0
 11
43.20193610525473
 21
206.898259453432
 31
0.0
  0
LINE
  5
8681
  8
0
 10
43.20193610525473
 20
206.898259453432
 30
0.0
 11
43.20193610525473
 21
206.5642755534319
 31
0.0
  0
LINE
  5
8682
  8
0
 10
43.86950110525476
 20
206.5642755534319
 30
0.0
 11
44.20348500525475
 21
206.5642755534319
 31
0.0
  0
LINE
  5
8683
  8
0
 10
44.20348500525475
 20
206.5642755534319
 30
0.0
 11
44.20348500525475
 21
206.898259453432
 31
0.0
  0
LINE
  5
8684
  8
0
 10
44.20348500525475
 20
206.898259453432
 30
0.0
 11
43.86950110525476
 21
206.898259453432
 31
0.0
  0
LINE
  5
8685
  8
0
 10
43.86950110525476
 20
206.898259453432
 30
0.0
 11
43.86950110525476
 21
206.5642755534319
 31
0.0
  0
LINE
  5
8686
  8
0
 10
44.53744610525473
 20
206.5642755534319
 30
0.0
 11
46.54023610525473
 21
206.5642755534319
 31
0.0
  0
LINE
  5
8687
  8
0
 10
46.54023610525473
 20
206.5642755534319
 30
0.0
 11
46.54023610525473
 21
206.898259453432
 31
0.0
  0
LINE
  5
8688
  8
0
 10
46.54023610525473
 20
206.898259453432
 30
0.0
 11
44.53744610525473
 21
206.898259453432
 31
0.0
  0
LINE
  5
8689
  8
0
 10
44.53744610525473
 20
206.898259453432
 30
0.0
 11
44.53744610525473
 21
206.5642755534319
 31
0.0
  0
LINE
  5
868A
  8
0
 10
46.87349610525473
 20
206.5642755534319
 30
0.0
 11
47.20748095525474
 21
206.5642755534319
 31
0.0
  0
LINE
  5
868B
  8
0
 10
47.20748095525474
 20
206.5642755534319
 30
0.0
 11
47.20748095525474
 21
206.898259453432
 31
0.0
  0
LINE
  5
868C
  8
0
 10
47.20748095525474
 20
206.898259453432
 30
0.0
 11
46.87349610525473
 21
206.898259453432
 31
0.0
  0
LINE
  5
868D
  8
0
 10
46.87349610525473
 20
206.898259453432
 30
0.0
 11
46.87349610525473
 21
206.5642755534319
 31
0.0
  0
LINE
  5
868E
  8
0
 10
47.54153610525475
 20
206.5642755534319
 30
0.0
 11
48.20913435525472
 21
206.5642755534319
 31
0.0
  0
LINE
  5
868F
  8
0
 10
48.20913435525472
 20
206.5642755534319
 30
0.0
 11
48.20913435525472
 21
206.898259453432
 31
0.0
  0
LINE
  5
8690
  8
0
 10
48.20913435525472
 20
206.898259453432
 30
0.0
 11
47.54153610525475
 21
206.898259453432
 31
0.0
  0
LINE
  5
8691
  8
0
 10
47.54153610525475
 20
206.898259453432
 30
0.0
 11
47.54153610525475
 21
206.5642755534319
 31
0.0
  0
LINE
  5
8692
  8
0
 10
48.87666610525474
 20
206.5642755534319
 30
0.0
 11
49.21065000525473
 21
206.5642755534319
 31
0.0
  0
LINE
  5
8693
  8
0
 10
49.21065000525473
 20
206.5642755534319
 30
0.0
 11
49.21065000525473
 21
206.898259453432
 31
0.0
  0
LINE
  5
8694
  8
0
 10
49.21065000525473
 20
206.898259453432
 30
0.0
 11
48.87666610525474
 21
206.898259453432
 31
0.0
  0
LINE
  5
8695
  8
0
 10
48.87666610525474
 20
206.898259453432
 30
0.0
 11
48.87666610525474
 21
206.5642755534319
 31
0.0
  0
LINE
  5
8696
  8
0
 10
50.21151110525474
 20
206.5642755534319
 30
0.0
 11
50.54586645525472
 21
206.5642755534319
 31
0.0
  0
LINE
  5
8697
  8
0
 10
50.54586645525472
 20
206.5642755534319
 30
0.0
 11
50.54586645525472
 21
206.898259453432
 31
0.0
  0
LINE
  5
8698
  8
0
 10
50.54586645525472
 20
206.898259453432
 30
0.0
 11
50.21151110525474
 21
206.898259453432
 31
0.0
  0
LINE
  5
8699
  8
0
 10
50.21151110525474
 20
206.898259453432
 30
0.0
 11
50.21151110525474
 21
206.5642755534319
 31
0.0
  0
LINE
  5
869A
  8
0
 10
51.54673610525475
 20
206.5642755534319
 30
0.0
 11
51.88072000525474
 21
206.5642755534319
 31
0.0
  0
LINE
  5
869B
  8
0
 10
51.88072000525474
 20
206.5642755534319
 30
0.0
 11
51.88072000525474
 21
206.898259453432
 31
0.0
  0
LINE
  5
869C
  8
0
 10
51.88072000525474
 20
206.898259453432
 30
0.0
 11
51.54673610525475
 21
206.898259453432
 31
0.0
  0
LINE
  5
869D
  8
0
 10
51.54673610525475
 20
206.898259453432
 30
0.0
 11
51.54673610525475
 21
206.5642755534319
 31
0.0
  0
LINE
  5
869E
  8
0
 10
52.21392110525474
 20
206.5642755534319
 30
0.0
 11
52.88151840525472
 21
206.5642755534319
 31
0.0
  0
LINE
  5
869F
  8
0
 10
52.88151840525472
 20
206.5642755534319
 30
0.0
 11
52.88151840525472
 21
206.898259453432
 31
0.0
  0
LINE
  5
86A0
  8
0
 10
52.88151840525472
 20
206.898259453432
 30
0.0
 11
52.21392110525474
 21
206.898259453432
 31
0.0
  0
LINE
  5
86A1
  8
0
 10
52.21392110525474
 20
206.898259453432
 30
0.0
 11
52.21392110525474
 21
206.5642755534319
 31
0.0
  0
LINE
  5
86A2
  8
0
 10
53.21550610525475
 20
206.5642755534319
 30
0.0
 11
53.54986240525474
 21
206.5642755534319
 31
0.0
  0
LINE
  5
86A3
  8
0
 10
53.54986240525474
 20
206.5642755534319
 30
0.0
 11
53.54986240525474
 21
206.898259453432
 31
0.0
  0
LINE
  5
86A4
  8
0
 10
53.54986240525474
 20
206.898259453432
 30
0.0
 11
53.21550610525475
 21
206.898259453432
 31
0.0
  0
LINE
  5
86A5
  8
0
 10
53.21550610525475
 20
206.898259453432
 30
0.0
 11
53.21550610525475
 21
206.5642755534319
 31
0.0
  0
LINE
  5
86A6
  8
0
 10
42.86867610525474
 20
206.2303505534319
 30
0.0
 11
43.20266095525474
 21
206.2303505534319
 31
0.0
  0
LINE
  5
86A7
  8
0
 10
43.20266095525474
 20
206.2303505534319
 30
0.0
 11
43.20266095525474
 21
206.564335403432
 31
0.0
  0
LINE
  5
86A8
  8
0
 10
43.20266095525474
 20
206.564335403432
 30
0.0
 11
42.86867610525474
 21
206.564335403432
 31
0.0
  0
LINE
  5
86A9
  8
0
 10
42.86867610525474
 20
206.564335403432
 30
0.0
 11
42.86867610525474
 21
206.2303505534319
 31
0.0
  0
LINE
  5
86AA
  8
0
 10
43.53586110525475
 20
206.2303505534319
 30
0.0
 11
44.53744610525473
 21
206.2303505534319
 31
0.0
  0
LINE
  5
86AB
  8
0
 10
44.53744610525473
 20
206.2303505534319
 30
0.0
 11
44.53744610525473
 21
206.564335403432
 31
0.0
  0
LINE
  5
86AC
  8
0
 10
44.53744610525473
 20
206.564335403432
 30
0.0
 11
43.53586110525475
 21
206.564335403432
 31
0.0
  0
LINE
  5
86AD
  8
0
 10
43.53586110525475
 20
206.564335403432
 30
0.0
 11
43.53586110525475
 21
206.2303505534319
 31
0.0
  0
LINE
  5
86AE
  8
0
 10
44.87108610525473
 20
206.2303505534319
 30
0.0
 11
45.53868340525474
 21
206.2303505534319
 31
0.0
  0
LINE
  5
86AF
  8
0
 10
45.53868340525474
 20
206.2303505534319
 30
0.0
 11
45.53868340525474
 21
206.564335403432
 31
0.0
  0
LINE
  5
86B0
  8
0
 10
45.53868340525474
 20
206.564335403432
 30
0.0
 11
44.87108610525473
 21
206.564335403432
 31
0.0
  0
LINE
  5
86B1
  8
0
 10
44.87108610525473
 20
206.564335403432
 30
0.0
 11
44.87108610525473
 21
206.2303505534319
 31
0.0
  0
LINE
  5
86B2
  8
0
 10
45.87267110525474
 20
206.2303505534319
 30
0.0
 11
46.20665500525473
 21
206.2303505534319
 31
0.0
  0
LINE
  5
86B3
  8
0
 10
46.20665500525473
 20
206.2303505534319
 30
0.0
 11
46.20665500525473
 21
206.564335403432
 31
0.0
  0
LINE
  5
86B4
  8
0
 10
46.20665500525473
 20
206.564335403432
 30
0.0
 11
45.87267110525474
 21
206.564335403432
 31
0.0
  0
LINE
  5
86B5
  8
0
 10
45.87267110525474
 20
206.564335403432
 30
0.0
 11
45.87267110525474
 21
206.2303505534319
 31
0.0
  0
LINE
  5
86B6
  8
0
 10
47.54153610525475
 20
206.2303505534319
 30
0.0
 11
49.87831760525475
 21
206.2303505534319
 31
0.0
  0
LINE
  5
86B7
  8
0
 10
49.87831760525475
 20
206.2303505534319
 30
0.0
 11
49.87831760525475
 21
206.564335403432
 31
0.0
  0
LINE
  5
86B8
  8
0
 10
49.87831760525475
 20
206.564335403432
 30
0.0
 11
47.54153610525475
 21
206.564335403432
 31
0.0
  0
LINE
  5
86B9
  8
0
 10
47.54153610525475
 20
206.564335403432
 30
0.0
 11
47.54153610525475
 21
206.2303505534319
 31
0.0
  0
LINE
  5
86BA
  8
0
 10
50.21151110525474
 20
206.2303505534319
 30
0.0
 11
50.54586645525472
 21
206.2303505534319
 31
0.0
  0
LINE
  5
86BB
  8
0
 10
50.54586645525472
 20
206.2303505534319
 30
0.0
 11
50.54586645525472
 21
206.564335403432
 31
0.0
  0
LINE
  5
86BC
  8
0
 10
50.54586645525472
 20
206.564335403432
 30
0.0
 11
50.21151110525474
 21
206.564335403432
 31
0.0
  0
LINE
  5
86BD
  8
0
 10
50.21151110525474
 20
206.564335403432
 30
0.0
 11
50.21151110525474
 21
206.2303505534319
 31
0.0
  0
LINE
  5
86BE
  8
0
 10
50.87907610525474
 20
206.2303505534319
 30
0.0
 11
51.21306095525475
 21
206.2303505534319
 31
0.0
  0
LINE
  5
86BF
  8
0
 10
51.21306095525475
 20
206.2303505534319
 30
0.0
 11
51.21306095525475
 21
206.564335403432
 31
0.0
  0
LINE
  5
86C0
  8
0
 10
51.21306095525475
 20
206.564335403432
 30
0.0
 11
50.87907610525474
 21
206.564335403432
 31
0.0
  0
LINE
  5
86C1
  8
0
 10
50.87907610525474
 20
206.564335403432
 30
0.0
 11
50.87907610525474
 21
206.2303505534319
 31
0.0
  0
LINE
  5
86C2
  8
0
 10
51.88066110525472
 20
206.2303505534319
 30
0.0
 11
52.88224610525475
 21
206.2303505534319
 31
0.0
  0
LINE
  5
86C3
  8
0
 10
52.88224610525475
 20
206.2303505534319
 30
0.0
 11
52.88224610525475
 21
206.564335403432
 31
0.0
  0
LINE
  5
86C4
  8
0
 10
52.88224610525475
 20
206.564335403432
 30
0.0
 11
51.88066110525472
 21
206.564335403432
 31
0.0
  0
LINE
  5
86C5
  8
0
 10
51.88066110525472
 20
206.564335403432
 30
0.0
 11
51.88066110525472
 21
206.2303505534319
 31
0.0
  0
LINE
  5
86C6
  8
0
 10
53.21550610525475
 20
206.2303505534319
 30
0.0
 11
53.54986240525474
 21
206.2303505534319
 31
0.0
  0
LINE
  5
86C7
  8
0
 10
53.54986240525474
 20
206.2303505534319
 30
0.0
 11
53.54986240525474
 21
206.564335403432
 31
0.0
  0
LINE
  5
86C8
  8
0
 10
53.54986240525474
 20
206.564335403432
 30
0.0
 11
53.21550610525475
 21
206.564335403432
 31
0.0
  0
LINE
  5
86C9
  8
0
 10
53.21550610525475
 20
206.564335403432
 30
0.0
 11
53.21550610525475
 21
206.2303505534319
 31
0.0
  0
LINE
  5
86CA
  8
0
 10
42.53437110525473
 20
205.895950553432
 30
0.0
 11
43.86956760525476
 21
205.895950553432
 31
0.0
  0
LINE
  5
86CB
  8
0
 10
43.86956760525476
 20
205.895950553432
 30
0.0
 11
43.86956760525476
 21
206.2303059034319
 31
0.0
  0
LINE
  5
86CC
  8
0
 10
43.86956760525476
 20
206.2303059034319
 30
0.0
 11
42.53437110525473
 21
206.2303059034319
 31
0.0
  0
LINE
  5
86CD
  8
0
 10
42.53437110525473
 20
206.2303059034319
 30
0.0
 11
42.53437110525473
 21
205.895950553432
 31
0.0
  0
LINE
  5
86CE
  8
0
 10
44.53744610525473
 20
205.895950553432
 30
0.0
 11
44.87143000525472
 21
205.895950553432
 31
0.0
  0
LINE
  5
86CF
  8
0
 10
44.87143000525472
 20
205.895950553432
 30
0.0
 11
44.87143000525472
 21
206.2303059034319
 31
0.0
  0
LINE
  5
86D0
  8
0
 10
44.87143000525472
 20
206.2303059034319
 30
0.0
 11
44.53744610525473
 21
206.2303059034319
 31
0.0
  0
LINE
  5
86D1
  8
0
 10
44.53744610525473
 20
206.2303059034319
 30
0.0
 11
44.53744610525473
 21
205.895950553432
 31
0.0
  0
LINE
  5
86D2
  8
0
 10
45.20510610525474
 20
205.895950553432
 30
0.0
 11
45.53909095525475
 21
205.895950553432
 31
0.0
  0
LINE
  5
86D3
  8
0
 10
45.53909095525475
 20
205.895950553432
 30
0.0
 11
45.53909095525475
 21
206.2303059034319
 31
0.0
  0
LINE
  5
86D4
  8
0
 10
45.53909095525475
 20
206.2303059034319
 30
0.0
 11
45.20510610525474
 21
206.2303059034319
 31
0.0
  0
LINE
  5
86D5
  8
0
 10
45.20510610525474
 20
206.2303059034319
 30
0.0
 11
45.20510610525474
 21
205.895950553432
 31
0.0
  0
LINE
  5
86D6
  8
0
 10
45.87267110525474
 20
205.895950553432
 30
0.0
 11
46.20665500525473
 21
205.895950553432
 31
0.0
  0
LINE
  5
86D7
  8
0
 10
46.20665500525473
 20
205.895950553432
 30
0.0
 11
46.20665500525473
 21
206.2303059034319
 31
0.0
  0
LINE
  5
86D8
  8
0
 10
46.20665500525473
 20
206.2303059034319
 30
0.0
 11
45.87267110525474
 21
206.2303059034319
 31
0.0
  0
LINE
  5
86D9
  8
0
 10
45.87267110525474
 20
206.2303059034319
 30
0.0
 11
45.87267110525474
 21
205.895950553432
 31
0.0
  0
LINE
  5
86DA
  8
0
 10
46.54033110525475
 20
205.895950553432
 30
0.0
 11
47.54154560525473
 21
205.895950553432
 31
0.0
  0
LINE
  5
86DB
  8
0
 10
47.54154560525473
 20
205.895950553432
 30
0.0
 11
47.54154560525473
 21
206.2303059034319
 31
0.0
  0
LINE
  5
86DC
  8
0
 10
47.54154560525473
 20
206.2303059034319
 30
0.0
 11
46.54033110525475
 21
206.2303059034319
 31
0.0
  0
LINE
  5
86DD
  8
0
 10
46.54033110525475
 20
206.2303059034319
 30
0.0
 11
46.54033110525475
 21
205.895950553432
 31
0.0
  0
LINE
  5
86DE
  8
0
 10
47.87508110525474
 20
205.895950553432
 30
0.0
 11
48.20906595525474
 21
205.895950553432
 31
0.0
  0
LINE
  5
86DF
  8
0
 10
48.20906595525474
 20
205.895950553432
 30
0.0
 11
48.20906595525474
 21
206.2303059034319
 31
0.0
  0
LINE
  5
86E0
  8
0
 10
48.20906595525474
 20
206.2303059034319
 30
0.0
 11
47.87508110525474
 21
206.2303059034319
 31
0.0
  0
LINE
  5
86E1
  8
0
 10
47.87508110525474
 20
206.2303059034319
 30
0.0
 11
47.87508110525474
 21
205.895950553432
 31
0.0
  0
LINE
  5
86E2
  8
0
 10
49.20992610525474
 20
205.895950553432
 30
0.0
 11
50.21151110525474
 21
205.895950553432
 31
0.0
  0
LINE
  5
86E3
  8
0
 10
50.21151110525474
 20
205.895950553432
 30
0.0
 11
50.21151110525474
 21
206.2303059034319
 31
0.0
  0
LINE
  5
86E4
  8
0
 10
50.21151110525474
 20
206.2303059034319
 30
0.0
 11
49.20992610525474
 21
206.2303059034319
 31
0.0
  0
LINE
  5
86E5
  8
0
 10
49.20992610525474
 20
206.2303059034319
 30
0.0
 11
49.20992610525474
 21
205.895950553432
 31
0.0
  0
LINE
  5
86E6
  8
0
 10
50.87907610525474
 20
205.895950553432
 30
0.0
 11
51.21306095525475
 21
205.895950553432
 31
0.0
  0
LINE
  5
86E7
  8
0
 10
51.21306095525475
 20
205.895950553432
 30
0.0
 11
51.21306095525475
 21
206.2303059034319
 31
0.0
  0
LINE
  5
86E8
  8
0
 10
51.21306095525475
 20
206.2303059034319
 30
0.0
 11
50.87907610525474
 21
206.2303059034319
 31
0.0
  0
LINE
  5
86E9
  8
0
 10
50.87907610525474
 20
206.2303059034319
 30
0.0
 11
50.87907610525474
 21
205.895950553432
 31
0.0
  0
LINE
  5
86EA
  8
0
 10
51.88066110525472
 20
205.895950553432
 30
0.0
 11
52.54788790525475
 21
205.895950553432
 31
0.0
  0
LINE
  5
86EB
  8
0
 10
52.54788790525475
 20
205.895950553432
 30
0.0
 11
52.54788790525475
 21
206.2303059034319
 31
0.0
  0
LINE
  5
86EC
  8
0
 10
52.54788790525475
 20
206.2303059034319
 30
0.0
 11
51.88066110525472
 21
206.2303059034319
 31
0.0
  0
LINE
  5
86ED
  8
0
 10
51.88066110525472
 20
206.2303059034319
 30
0.0
 11
51.88066110525472
 21
205.895950553432
 31
0.0
  0
LINE
  5
86EE
  8
0
 10
42.53437110525473
 20
205.5626905534319
 30
0.0
 11
43.20196840525472
 21
205.5626905534319
 31
0.0
  0
LINE
  5
86EF
  8
0
 10
43.20196840525472
 20
205.5626905534319
 30
0.0
 11
43.20196840525472
 21
205.8966754034319
 31
0.0
  0
LINE
  5
86F0
  8
0
 10
43.20196840525472
 20
205.8966754034319
 30
0.0
 11
42.53437110525473
 21
205.8966754034319
 31
0.0
  0
LINE
  5
86F1
  8
0
 10
42.53437110525473
 20
205.8966754034319
 30
0.0
 11
42.53437110525473
 21
205.5626905534319
 31
0.0
  0
LINE
  5
86F2
  8
0
 10
43.53586110525475
 20
205.5626905534319
 30
0.0
 11
43.86984500525475
 21
205.5626905534319
 31
0.0
  0
LINE
  5
86F3
  8
0
 10
43.86984500525475
 20
205.5626905534319
 30
0.0
 11
43.86984500525475
 21
205.8966754034319
 31
0.0
  0
LINE
  5
86F4
  8
0
 10
43.86984500525475
 20
205.8966754034319
 30
0.0
 11
43.53586110525475
 21
205.8966754034319
 31
0.0
  0
LINE
  5
86F5
  8
0
 10
43.53586110525475
 20
205.8966754034319
 30
0.0
 11
43.53586110525475
 21
205.5626905534319
 31
0.0
  0
LINE
  5
86F6
  8
0
 10
44.20352110525474
 20
205.5626905534319
 30
0.0
 11
44.53750595525474
 21
205.5626905534319
 31
0.0
  0
LINE
  5
86F7
  8
0
 10
44.53750595525474
 20
205.5626905534319
 30
0.0
 11
44.53750595525474
 21
205.8966754034319
 31
0.0
  0
LINE
  5
86F8
  8
0
 10
44.53750595525474
 20
205.8966754034319
 30
0.0
 11
44.20352110525474
 21
205.8966754034319
 31
0.0
  0
LINE
  5
86F9
  8
0
 10
44.20352110525474
 20
205.8966754034319
 30
0.0
 11
44.20352110525474
 21
205.5626905534319
 31
0.0
  0
LINE
  5
86FA
  8
0
 10
45.20510610525474
 20
205.5626905534319
 30
0.0
 11
45.53909095525475
 21
205.5626905534319
 31
0.0
  0
LINE
  5
86FB
  8
0
 10
45.53909095525475
 20
205.5626905534319
 30
0.0
 11
45.53909095525475
 21
205.8966754034319
 31
0.0
  0
LINE
  5
86FC
  8
0
 10
45.53909095525475
 20
205.8966754034319
 30
0.0
 11
45.20510610525474
 21
205.8966754034319
 31
0.0
  0
LINE
  5
86FD
  8
0
 10
45.20510610525474
 20
205.8966754034319
 30
0.0
 11
45.20510610525474
 21
205.5626905534319
 31
0.0
  0
LINE
  5
86FE
  8
0
 10
45.87267110525474
 20
205.5626905534319
 30
0.0
 11
46.87388560525474
 21
205.5626905534319
 31
0.0
  0
LINE
  5
86FF
  8
0
 10
46.87388560525474
 20
205.5626905534319
 30
0.0
 11
46.87388560525474
 21
205.8966754034319
 31
0.0
  0
LINE
  5
8700
  8
0
 10
46.87388560525474
 20
205.8966754034319
 30
0.0
 11
45.87267110525474
 21
205.8966754034319
 31
0.0
  0
LINE
  5
8701
  8
0
 10
45.87267110525474
 20
205.8966754034319
 30
0.0
 11
45.87267110525474
 21
205.5626905534319
 31
0.0
  0
LINE
  5
8702
  8
0
 10
47.20751610525474
 20
205.5626905534319
 30
0.0
 11
47.54150000525476
 21
205.5626905534319
 31
0.0
  0
LINE
  5
8703
  8
0
 10
47.54150000525476
 20
205.5626905534319
 30
0.0
 11
47.54150000525476
 21
205.8966754034319
 31
0.0
  0
LINE
  5
8704
  8
0
 10
47.54150000525476
 20
205.8966754034319
 30
0.0
 11
47.20751610525474
 21
205.8966754034319
 31
0.0
  0
LINE
  5
8705
  8
0
 10
47.20751610525474
 20
205.8966754034319
 30
0.0
 11
47.20751610525474
 21
205.5626905534319
 31
0.0
  0
LINE
  5
8706
  8
0
 10
47.87508110525474
 20
205.5626905534319
 30
0.0
 11
48.87666610525474
 21
205.5626905534319
 31
0.0
  0
LINE
  5
8707
  8
0
 10
48.87666610525474
 20
205.5626905534319
 30
0.0
 11
48.87666610525474
 21
205.8966754034319
 31
0.0
  0
LINE
  5
8708
  8
0
 10
48.87666610525474
 20
205.8966754034319
 30
0.0
 11
47.87508110525474
 21
205.8966754034319
 31
0.0
  0
LINE
  5
8709
  8
0
 10
47.87508110525474
 20
205.8966754034319
 30
0.0
 11
47.87508110525474
 21
205.5626905534319
 31
0.0
  0
LINE
  5
870A
  8
0
 10
49.20992610525474
 20
205.5626905534319
 30
0.0
 11
49.54428145525475
 21
205.5626905534319
 31
0.0
  0
LINE
  5
870B
  8
0
 10
49.54428145525475
 20
205.5626905534319
 30
0.0
 11
49.54428145525475
 21
205.8966754034319
 31
0.0
  0
LINE
  5
870C
  8
0
 10
49.54428145525475
 20
205.8966754034319
 30
0.0
 11
49.20992610525474
 21
205.8966754034319
 31
0.0
  0
LINE
  5
870D
  8
0
 10
49.20992610525474
 20
205.8966754034319
 30
0.0
 11
49.20992610525474
 21
205.5626905534319
 31
0.0
  0
LINE
  5
870E
  8
0
 10
49.87749110525473
 20
205.5626905534319
 30
0.0
 11
50.54508840525475
 21
205.5626905534319
 31
0.0
  0
LINE
  5
870F
  8
0
 10
50.54508840525475
 20
205.5626905534319
 30
0.0
 11
50.54508840525475
 21
205.8966754034319
 31
0.0
  0
LINE
  5
8710
  8
0
 10
50.54508840525475
 20
205.8966754034319
 30
0.0
 11
49.87749110525473
 21
205.8966754034319
 31
0.0
  0
LINE
  5
8711
  8
0
 10
49.87749110525473
 20
205.8966754034319
 30
0.0
 11
49.87749110525473
 21
205.5626905534319
 31
0.0
  0
LINE
  5
8712
  8
0
 10
51.54673610525475
 20
205.5626905534319
 30
0.0
 11
52.88156210525472
 21
205.5626905534319
 31
0.0
  0
LINE
  5
8713
  8
0
 10
52.88156210525472
 20
205.5626905534319
 30
0.0
 11
52.88156210525472
 21
205.8966754034319
 31
0.0
  0
LINE
  5
8714
  8
0
 10
52.88156210525472
 20
205.8966754034319
 30
0.0
 11
51.54673610525475
 21
205.8966754034319
 31
0.0
  0
LINE
  5
8715
  8
0
 10
51.54673610525475
 20
205.8966754034319
 30
0.0
 11
51.54673610525475
 21
205.5626905534319
 31
0.0
  0
LINE
  5
8716
  8
0
 10
42.53437110525473
 20
205.2287655534319
 30
0.0
 11
42.86872645525474
 21
205.2287655534319
 31
0.0
  0
LINE
  5
8717
  8
0
 10
42.86872645525474
 20
205.2287655534319
 30
0.0
 11
42.86872645525474
 21
205.5627494534319
 31
0.0
  0
LINE
  5
8718
  8
0
 10
42.86872645525474
 20
205.5627494534319
 30
0.0
 11
42.53437110525473
 21
205.5627494534319
 31
0.0
  0
LINE
  5
8719
  8
0
 10
42.53437110525473
 20
205.5627494534319
 30
0.0
 11
42.53437110525473
 21
205.2287655534319
 31
0.0
  0
LINE
  5
871A
  8
0
 10
43.20193610525473
 20
205.2287655534319
 30
0.0
 11
43.53629240525473
 21
205.2287655534319
 31
0.0
  0
LINE
  5
871B
  8
0
 10
43.53629240525473
 20
205.2287655534319
 30
0.0
 11
43.53629240525473
 21
205.5627494534319
 31
0.0
  0
LINE
  5
871C
  8
0
 10
43.53629240525473
 20
205.5627494534319
 30
0.0
 11
43.20193610525473
 21
205.5627494534319
 31
0.0
  0
LINE
  5
871D
  8
0
 10
43.20193610525473
 20
205.5627494534319
 30
0.0
 11
43.20193610525473
 21
205.2287655534319
 31
0.0
  0
LINE
  5
871E
  8
0
 10
43.86950110525476
 20
205.2287655534319
 30
0.0
 11
44.87108610525473
 21
205.2287655534319
 31
0.0
  0
LINE
  5
871F
  8
0
 10
44.87108610525473
 20
205.2287655534319
 30
0.0
 11
44.87108610525473
 21
205.5627494534319
 31
0.0
  0
LINE
  5
8720
  8
0
 10
44.87108610525473
 20
205.5627494534319
 30
0.0
 11
43.86950110525476
 21
205.5627494534319
 31
0.0
  0
LINE
  5
8721
  8
0
 10
43.86950110525476
 20
205.5627494534319
 30
0.0
 11
43.86950110525476
 21
205.2287655534319
 31
0.0
  0
LINE
  5
8722
  8
0
 10
45.53874610525475
 20
205.2287655534319
 30
0.0
 11
45.87273095525472
 21
205.2287655534319
 31
0.0
  0
LINE
  5
8723
  8
0
 10
45.87273095525472
 20
205.2287655534319
 30
0.0
 11
45.87273095525472
 21
205.5627494534319
 31
0.0
  0
LINE
  5
8724
  8
0
 10
45.87273095525472
 20
205.5627494534319
 30
0.0
 11
45.53874610525475
 21
205.5627494534319
 31
0.0
  0
LINE
  5
8725
  8
0
 10
45.53874610525475
 20
205.5627494534319
 30
0.0
 11
45.53874610525475
 21
205.2287655534319
 31
0.0
  0
LINE
  5
8726
  8
0
 10
46.20593110525473
 20
205.2287655534319
 30
0.0
 11
46.53991500525473
 21
205.2287655534319
 31
0.0
  0
LINE
  5
8727
  8
0
 10
46.53991500525473
 20
205.2287655534319
 30
0.0
 11
46.53991500525473
 21
205.5627494534319
 31
0.0
  0
LINE
  5
8728
  8
0
 10
46.53991500525473
 20
205.5627494534319
 30
0.0
 11
46.20593110525473
 21
205.5627494534319
 31
0.0
  0
LINE
  5
8729
  8
0
 10
46.20593110525473
 20
205.5627494534319
 30
0.0
 11
46.20593110525473
 21
205.2287655534319
 31
0.0
  0
LINE
  5
872A
  8
0
 10
47.54153610525475
 20
205.2287655534319
 30
0.0
 11
48.54312110525473
 21
205.2287655534319
 31
0.0
  0
LINE
  5
872B
  8
0
 10
48.54312110525473
 20
205.2287655534319
 30
0.0
 11
48.54312110525473
 21
205.5627494534319
 31
0.0
  0
LINE
  5
872C
  8
0
 10
48.54312110525473
 20
205.5627494534319
 30
0.0
 11
47.54153610525475
 21
205.5627494534319
 31
0.0
  0
LINE
  5
872D
  8
0
 10
47.54153610525475
 20
205.5627494534319
 30
0.0
 11
47.54153610525475
 21
205.2287655534319
 31
0.0
  0
LINE
  5
872E
  8
0
 10
49.20992610525474
 20
205.2287655534319
 30
0.0
 11
49.87752435525474
 21
205.2287655534319
 31
0.0
  0
LINE
  5
872F
  8
0
 10
49.87752435525474
 20
205.2287655534319
 30
0.0
 11
49.87752435525474
 21
205.5627494534319
 31
0.0
  0
LINE
  5
8730
  8
0
 10
49.87752435525474
 20
205.5627494534319
 30
0.0
 11
49.20992610525474
 21
205.5627494534319
 31
0.0
  0
LINE
  5
8731
  8
0
 10
49.20992610525474
 20
205.5627494534319
 30
0.0
 11
49.20992610525474
 21
205.2287655534319
 31
0.0
  0
LINE
  5
8732
  8
0
 10
50.54591110525473
 20
205.2287655534319
 30
0.0
 11
51.21313790525474
 21
205.2287655534319
 31
0.0
  0
LINE
  5
8733
  8
0
 10
51.21313790525474
 20
205.2287655534319
 30
0.0
 11
51.21313790525474
 21
205.5627494534319
 31
0.0
  0
LINE
  5
8734
  8
0
 10
51.21313790525474
 20
205.5627494534319
 30
0.0
 11
50.54591110525473
 21
205.5627494534319
 31
0.0
  0
LINE
  5
8735
  8
0
 10
50.54591110525473
 20
205.5627494534319
 30
0.0
 11
50.54591110525473
 21
205.2287655534319
 31
0.0
  0
LINE
  5
8736
  8
0
 10
51.54673610525475
 20
205.2287655534319
 30
0.0
 11
51.88072000525474
 21
205.2287655534319
 31
0.0
  0
LINE
  5
8737
  8
0
 10
51.88072000525474
 20
205.2287655534319
 30
0.0
 11
51.88072000525474
 21
205.5627494534319
 31
0.0
  0
LINE
  5
8738
  8
0
 10
51.88072000525474
 20
205.5627494534319
 30
0.0
 11
51.54673610525475
 21
205.5627494534319
 31
0.0
  0
LINE
  5
8739
  8
0
 10
51.54673610525475
 20
205.5627494534319
 30
0.0
 11
51.54673610525475
 21
205.2287655534319
 31
0.0
  0
LINE
  5
873A
  8
0
 10
52.21392110525474
 20
205.2287655534319
 30
0.0
 11
53.21550610525475
 21
205.2287655534319
 31
0.0
  0
LINE
  5
873B
  8
0
 10
53.21550610525475
 20
205.2287655534319
 30
0.0
 11
53.21550610525475
 21
205.5627494534319
 31
0.0
  0
LINE
  5
873C
  8
0
 10
53.21550610525475
 20
205.5627494534319
 30
0.0
 11
52.21392110525474
 21
205.5627494534319
 31
0.0
  0
LINE
  5
873D
  8
0
 10
52.21392110525474
 20
205.5627494534319
 30
0.0
 11
52.21392110525474
 21
205.2287655534319
 31
0.0
  0
LINE
  5
873E
  8
0
 10
42.53437110525473
 20
204.8951255534319
 30
0.0
 11
42.86872645525474
 21
204.8951255534319
 31
0.0
  0
LINE
  5
873F
  8
0
 10
42.86872645525474
 20
204.8951255534319
 30
0.0
 11
42.86872645525474
 21
205.229109453432
 31
0.0
  0
LINE
  5
8740
  8
0
 10
42.86872645525474
 20
205.229109453432
 30
0.0
 11
42.53437110525473
 21
205.229109453432
 31
0.0
  0
LINE
  5
8741
  8
0
 10
42.53437110525473
 20
205.229109453432
 30
0.0
 11
42.53437110525473
 21
204.8951255534319
 31
0.0
  0
LINE
  5
8742
  8
0
 10
43.86950110525476
 20
204.8951255534319
 30
0.0
 11
44.53709840525474
 21
204.8951255534319
 31
0.0
  0
LINE
  5
8743
  8
0
 10
44.53709840525474
 20
204.8951255534319
 30
0.0
 11
44.53709840525474
 21
205.229109453432
 31
0.0
  0
LINE
  5
8744
  8
0
 10
44.53709840525474
 20
205.229109453432
 30
0.0
 11
43.86950110525476
 21
205.229109453432
 31
0.0
  0
LINE
  5
8745
  8
0
 10
43.86950110525476
 20
205.229109453432
 30
0.0
 11
43.86950110525476
 21
204.8951255534319
 31
0.0
  0
LINE
  5
8746
  8
0
 10
44.87108610525473
 20
204.8951255534319
 30
0.0
 11
46.87350560525476
 21
204.8951255534319
 31
0.0
  0
LINE
  5
8747
  8
0
 10
46.87350560525476
 20
204.8951255534319
 30
0.0
 11
46.87350560525476
 21
205.229109453432
 31
0.0
  0
LINE
  5
8748
  8
0
 10
46.87350560525476
 20
205.229109453432
 30
0.0
 11
44.87108610525473
 21
205.229109453432
 31
0.0
  0
LINE
  5
8749
  8
0
 10
44.87108610525473
 20
205.229109453432
 30
0.0
 11
44.87108610525473
 21
204.8951255534319
 31
0.0
  0
LINE
  5
874A
  8
0
 10
48.54274110525472
 20
204.8951255534319
 30
0.0
 11
48.87672595525476
 21
204.8951255534319
 31
0.0
  0
LINE
  5
874B
  8
0
 10
48.87672595525476
 20
204.8951255534319
 30
0.0
 11
48.87672595525476
 21
205.229109453432
 31
0.0
  0
LINE
  5
874C
  8
0
 10
48.87672595525476
 20
205.229109453432
 30
0.0
 11
48.54274110525472
 21
205.229109453432
 31
0.0
  0
LINE
  5
874D
  8
0
 10
48.54274110525472
 20
205.229109453432
 30
0.0
 11
48.54274110525472
 21
204.8951255534319
 31
0.0
  0
LINE
  5
874E
  8
0
 10
49.87749110525473
 20
204.8951255534319
 30
0.0
 11
50.54508840525475
 21
204.8951255534319
 31
0.0
  0
LINE
  5
874F
  8
0
 10
50.54508840525475
 20
204.8951255534319
 30
0.0
 11
50.54508840525475
 21
205.229109453432
 31
0.0
  0
LINE
  5
8750
  8
0
 10
50.54508840525475
 20
205.229109453432
 30
0.0
 11
49.87749110525473
 21
205.229109453432
 31
0.0
  0
LINE
  5
8751
  8
0
 10
49.87749110525473
 20
205.229109453432
 30
0.0
 11
49.87749110525473
 21
204.8951255534319
 31
0.0
  0
LINE
  5
8752
  8
0
 10
50.87907610525474
 20
204.8951255534319
 30
0.0
 11
51.88066110525472
 21
204.8951255534319
 31
0.0
  0
LINE
  5
8753
  8
0
 10
51.88066110525472
 20
204.8951255534319
 30
0.0
 11
51.88066110525472
 21
205.229109453432
 31
0.0
  0
LINE
  5
8754
  8
0
 10
51.88066110525472
 20
205.229109453432
 30
0.0
 11
50.87907610525474
 21
205.229109453432
 31
0.0
  0
LINE
  5
8755
  8
0
 10
50.87907610525474
 20
205.229109453432
 30
0.0
 11
50.87907610525474
 21
204.8951255534319
 31
0.0
  0
LINE
  5
8756
  8
0
 10
52.21392110525474
 20
204.8951255534319
 30
0.0
 11
52.88151840525472
 21
204.8951255534319
 31
0.0
  0
LINE
  5
8757
  8
0
 10
52.88151840525472
 20
204.8951255534319
 30
0.0
 11
52.88151840525472
 21
205.229109453432
 31
0.0
  0
LINE
  5
8758
  8
0
 10
52.88151840525472
 20
205.229109453432
 30
0.0
 11
52.21392110525474
 21
205.229109453432
 31
0.0
  0
LINE
  5
8759
  8
0
 10
52.21392110525474
 20
205.229109453432
 30
0.0
 11
52.21392110525474
 21
204.8951255534319
 31
0.0
  0
LINE
  5
875A
  8
0
 10
53.21550610525475
 20
204.8951255534319
 30
0.0
 11
53.54986240525474
 21
204.8951255534319
 31
0.0
  0
LINE
  5
875B
  8
0
 10
53.54986240525474
 20
204.8951255534319
 30
0.0
 11
53.54986240525474
 21
205.229109453432
 31
0.0
  0
LINE
  5
875C
  8
0
 10
53.54986240525474
 20
205.229109453432
 30
0.0
 11
53.21550610525475
 21
205.229109453432
 31
0.0
  0
LINE
  5
875D
  8
0
 10
53.21550610525475
 20
205.229109453432
 30
0.0
 11
53.21550610525475
 21
204.8951255534319
 31
0.0
  0
LINE
  5
875E
  8
0
 10
42.53437110525473
 20
204.5611055534319
 30
0.0
 11
43.20196840525472
 21
204.5611055534319
 31
0.0
  0
LINE
  5
875F
  8
0
 10
43.20196840525472
 20
204.5611055534319
 30
0.0
 11
43.20196840525472
 21
204.8950904034319
 31
0.0
  0
LINE
  5
8760
  8
0
 10
43.20196840525472
 20
204.8950904034319
 30
0.0
 11
42.53437110525473
 21
204.8950904034319
 31
0.0
  0
LINE
  5
8761
  8
0
 10
42.53437110525473
 20
204.8950904034319
 30
0.0
 11
42.53437110525473
 21
204.5611055534319
 31
0.0
  0
LINE
  5
8762
  8
0
 10
43.53586110525475
 20
204.5611055534319
 30
0.0
 11
43.86984500525475
 21
204.5611055534319
 31
0.0
  0
LINE
  5
8763
  8
0
 10
43.86984500525475
 20
204.5611055534319
 30
0.0
 11
43.86984500525475
 21
204.8950904034319
 31
0.0
  0
LINE
  5
8764
  8
0
 10
43.86984500525475
 20
204.8950904034319
 30
0.0
 11
43.53586110525475
 21
204.8950904034319
 31
0.0
  0
LINE
  5
8765
  8
0
 10
43.53586110525475
 20
204.8950904034319
 30
0.0
 11
43.53586110525475
 21
204.5611055534319
 31
0.0
  0
LINE
  5
8766
  8
0
 10
44.20352110525474
 20
204.5611055534319
 30
0.0
 11
46.20594060525474
 21
204.5611055534319
 31
0.0
  0
LINE
  5
8767
  8
0
 10
46.20594060525474
 20
204.5611055534319
 30
0.0
 11
46.20594060525474
 21
204.8950904034319
 31
0.0
  0
LINE
  5
8768
  8
0
 10
46.20594060525474
 20
204.8950904034319
 30
0.0
 11
44.20352110525474
 21
204.8950904034319
 31
0.0
  0
LINE
  5
8769
  8
0
 10
44.20352110525474
 20
204.8950904034319
 30
0.0
 11
44.20352110525474
 21
204.5611055534319
 31
0.0
  0
LINE
  5
876A
  8
0
 10
47.54153610525475
 20
204.5611055534319
 30
0.0
 11
48.20913435525472
 21
204.5611055534319
 31
0.0
  0
LINE
  5
876B
  8
0
 10
48.20913435525472
 20
204.5611055534319
 30
0.0
 11
48.20913435525472
 21
204.8950904034319
 31
0.0
  0
LINE
  5
876C
  8
0
 10
48.20913435525472
 20
204.8950904034319
 30
0.0
 11
47.54153610525475
 21
204.8950904034319
 31
0.0
  0
LINE
  5
876D
  8
0
 10
47.54153610525475
 20
204.8950904034319
 30
0.0
 11
47.54153610525475
 21
204.5611055534319
 31
0.0
  0
LINE
  5
876E
  8
0
 10
48.87666610525474
 20
204.5611055534319
 30
0.0
 11
49.54426340525472
 21
204.5611055534319
 31
0.0
  0
LINE
  5
876F
  8
0
 10
49.54426340525472
 20
204.5611055534319
 30
0.0
 11
49.54426340525472
 21
204.8950904034319
 31
0.0
  0
LINE
  5
8770
  8
0
 10
49.54426340525472
 20
204.8950904034319
 30
0.0
 11
48.87666610525474
 21
204.8950904034319
 31
0.0
  0
LINE
  5
8771
  8
0
 10
48.87666610525474
 20
204.8950904034319
 30
0.0
 11
48.87666610525474
 21
204.5611055534319
 31
0.0
  0
LINE
  5
8772
  8
0
 10
50.54591110525473
 20
204.5611055534319
 30
0.0
 11
52.54833060525473
 21
204.5611055534319
 31
0.0
  0
LINE
  5
8773
  8
0
 10
52.54833060525473
 20
204.5611055534319
 30
0.0
 11
52.54833060525473
 21
204.8950904034319
 31
0.0
  0
LINE
  5
8774
  8
0
 10
52.54833060525473
 20
204.8950904034319
 30
0.0
 11
50.54591110525473
 21
204.8950904034319
 31
0.0
  0
LINE
  5
8775
  8
0
 10
50.54591110525473
 20
204.8950904034319
 30
0.0
 11
50.54591110525473
 21
204.5611055534319
 31
0.0
  0
LINE
  5
8776
  8
0
 10
45.20510610525474
 20
204.2275605534319
 30
0.0
 11
45.53909095525475
 21
204.2275605534319
 31
0.0
  0
LINE
  5
8777
  8
0
 10
45.53909095525475
 20
204.2275605534319
 30
0.0
 11
45.53909095525475
 21
204.5615454034319
 31
0.0
  0
LINE
  5
8778
  8
0
 10
45.53909095525475
 20
204.5615454034319
 30
0.0
 11
45.20510610525474
 21
204.5615454034319
 31
0.0
  0
LINE
  5
8779
  8
0
 10
45.20510610525474
 20
204.5615454034319
 30
0.0
 11
45.20510610525474
 21
204.2275605534319
 31
0.0
  0
LINE
  5
877A
  8
0
 10
46.20593110525473
 20
204.2275605534319
 30
0.0
 11
46.53991500525473
 21
204.2275605534319
 31
0.0
  0
LINE
  5
877B
  8
0
 10
46.53991500525473
 20
204.2275605534319
 30
0.0
 11
46.53991500525473
 21
204.5615454034319
 31
0.0
  0
LINE
  5
877C
  8
0
 10
46.53991500525473
 20
204.5615454034319
 30
0.0
 11
46.20593110525473
 21
204.5615454034319
 31
0.0
  0
LINE
  5
877D
  8
0
 10
46.20593110525473
 20
204.5615454034319
 30
0.0
 11
46.20593110525473
 21
204.2275605534319
 31
0.0
  0
LINE
  5
877E
  8
0
 10
46.87349610525473
 20
204.2275605534319
 30
0.0
 11
47.20748095525474
 21
204.2275605534319
 31
0.0
  0
LINE
  5
877F
  8
0
 10
47.20748095525474
 20
204.2275605534319
 30
0.0
 11
47.20748095525474
 21
204.5615454034319
 31
0.0
  0
LINE
  5
8780
  8
0
 10
47.20748095525474
 20
204.5615454034319
 30
0.0
 11
46.87349610525473
 21
204.5615454034319
 31
0.0
  0
LINE
  5
8781
  8
0
 10
46.87349610525473
 20
204.5615454034319
 30
0.0
 11
46.87349610525473
 21
204.2275605534319
 31
0.0
  0
LINE
  5
8782
  8
0
 10
47.54153610525475
 20
204.2275605534319
 30
0.0
 11
47.87589145525476
 21
204.2275605534319
 31
0.0
  0
LINE
  5
8783
  8
0
 10
47.87589145525476
 20
204.2275605534319
 30
0.0
 11
47.87589145525476
 21
204.5615454034319
 31
0.0
  0
LINE
  5
8784
  8
0
 10
47.87589145525476
 20
204.5615454034319
 30
0.0
 11
47.54153610525475
 21
204.5615454034319
 31
0.0
  0
LINE
  5
8785
  8
0
 10
47.54153610525475
 20
204.5615454034319
 30
0.0
 11
47.54153610525475
 21
204.2275605534319
 31
0.0
  0
LINE
  5
8786
  8
0
 10
48.54274110525472
 20
204.2275605534319
 30
0.0
 11
49.54395560525472
 21
204.2275605534319
 31
0.0
  0
LINE
  5
8787
  8
0
 10
49.54395560525472
 20
204.2275605534319
 30
0.0
 11
49.54395560525472
 21
204.5615454034319
 31
0.0
  0
LINE
  5
8788
  8
0
 10
49.54395560525472
 20
204.5615454034319
 30
0.0
 11
48.54274110525472
 21
204.5615454034319
 31
0.0
  0
LINE
  5
8789
  8
0
 10
48.54274110525472
 20
204.5615454034319
 30
0.0
 11
48.54274110525472
 21
204.2275605534319
 31
0.0
  0
LINE
  5
878A
  8
0
 10
49.87749110525473
 20
204.2275605534319
 30
0.0
 11
50.87907610525474
 21
204.2275605534319
 31
0.0
  0
LINE
  5
878B
  8
0
 10
50.87907610525474
 20
204.2275605534319
 30
0.0
 11
50.87907610525474
 21
204.5615454034319
 31
0.0
  0
LINE
  5
878C
  8
0
 10
50.87907610525474
 20
204.5615454034319
 30
0.0
 11
49.87749110525473
 21
204.5615454034319
 31
0.0
  0
LINE
  5
878D
  8
0
 10
49.87749110525473
 20
204.5615454034319
 30
0.0
 11
49.87749110525473
 21
204.2275605534319
 31
0.0
  0
LINE
  5
878E
  8
0
 10
51.88066110525472
 20
204.2275605534319
 30
0.0
 11
52.21464595525475
 21
204.2275605534319
 31
0.0
  0
LINE
  5
878F
  8
0
 10
52.21464595525475
 20
204.2275605534319
 30
0.0
 11
52.21464595525475
 21
204.5615454034319
 31
0.0
  0
LINE
  5
8790
  8
0
 10
52.21464595525475
 20
204.5615454034319
 30
0.0
 11
51.88066110525472
 21
204.5615454034319
 31
0.0
  0
LINE
  5
8791
  8
0
 10
51.88066110525472
 20
204.5615454034319
 30
0.0
 11
51.88066110525472
 21
204.2275605534319
 31
0.0
  0
LINE
  5
8792
  8
0
 10
52.54832110525473
 20
204.2275605534319
 30
0.0
 11
53.54990610525476
 21
204.2275605534319
 31
0.0
  0
LINE
  5
8793
  8
0
 10
53.54990610525476
 20
204.2275605534319
 30
0.0
 11
53.54990610525476
 21
204.5615454034319
 31
0.0
  0
LINE
  5
8794
  8
0
 10
53.54990610525476
 20
204.5615454034319
 30
0.0
 11
52.54832110525473
 21
204.5615454034319
 31
0.0
  0
LINE
  5
8795
  8
0
 10
52.54832110525473
 20
204.5615454034319
 30
0.0
 11
52.54832110525473
 21
204.2275605534319
 31
0.0
  0
LINE
  5
8796
  8
0
 10
42.53437110525473
 20
203.893540553432
 30
0.0
 11
44.87115260525476
 21
203.893540553432
 31
0.0
  0
LINE
  5
8797
  8
0
 10
44.87115260525476
 20
203.893540553432
 30
0.0
 11
44.87115260525476
 21
204.2275244534319
 31
0.0
  0
LINE
  5
8798
  8
0
 10
44.87115260525476
 20
204.2275244534319
 30
0.0
 11
42.53437110525473
 21
204.2275244534319
 31
0.0
  0
LINE
  5
8799
  8
0
 10
42.53437110525473
 20
204.2275244534319
 30
0.0
 11
42.53437110525473
 21
203.893540553432
 31
0.0
  0
LINE
  5
879A
  8
0
 10
46.20593110525473
 20
203.893540553432
 30
0.0
 11
47.20751610525474
 21
203.893540553432
 31
0.0
  0
LINE
  5
879B
  8
0
 10
47.20751610525474
 20
203.893540553432
 30
0.0
 11
47.20751610525474
 21
204.2275244534319
 31
0.0
  0
LINE
  5
879C
  8
0
 10
47.20751610525474
 20
204.2275244534319
 30
0.0
 11
46.20593110525473
 21
204.2275244534319
 31
0.0
  0
LINE
  5
879D
  8
0
 10
46.20593110525473
 20
204.2275244534319
 30
0.0
 11
46.20593110525473
 21
203.893540553432
 31
0.0
  0
LINE
  5
879E
  8
0
 10
47.54153610525475
 20
203.893540553432
 30
0.0
 11
48.20913435525472
 21
203.893540553432
 31
0.0
  0
LINE
  5
879F
  8
0
 10
48.20913435525472
 20
203.893540553432
 30
0.0
 11
48.20913435525472
 21
204.2275244534319
 31
0.0
  0
LINE
  5
87A0
  8
0
 10
48.20913435525472
 20
204.2275244534319
 30
0.0
 11
47.54153610525475
 21
204.2275244534319
 31
0.0
  0
LINE
  5
87A1
  8
0
 10
47.54153610525475
 20
204.2275244534319
 30
0.0
 11
47.54153610525475
 21
203.893540553432
 31
0.0
  0
LINE
  5
87A2
  8
0
 10
48.54274110525472
 20
203.893540553432
 30
0.0
 11
48.87672595525476
 21
203.893540553432
 31
0.0
  0
LINE
  5
87A3
  8
0
 10
48.87672595525476
 20
203.893540553432
 30
0.0
 11
48.87672595525476
 21
204.2275244534319
 31
0.0
  0
LINE
  5
87A4
  8
0
 10
48.87672595525476
 20
204.2275244534319
 30
0.0
 11
48.54274110525472
 21
204.2275244534319
 31
0.0
  0
LINE
  5
87A5
  8
0
 10
48.54274110525472
 20
204.2275244534319
 30
0.0
 11
48.54274110525472
 21
203.893540553432
 31
0.0
  0
LINE
  5
87A6
  8
0
 10
49.20992610525474
 20
203.893540553432
 30
0.0
 11
49.87752435525474
 21
203.893540553432
 31
0.0
  0
LINE
  5
87A7
  8
0
 10
49.87752435525474
 20
203.893540553432
 30
0.0
 11
49.87752435525474
 21
204.2275244534319
 31
0.0
  0
LINE
  5
87A8
  8
0
 10
49.87752435525474
 20
204.2275244534319
 30
0.0
 11
49.20992610525474
 21
204.2275244534319
 31
0.0
  0
LINE
  5
87A9
  8
0
 10
49.20992610525474
 20
204.2275244534319
 30
0.0
 11
49.20992610525474
 21
203.893540553432
 31
0.0
  0
LINE
  5
87AA
  8
0
 10
50.21151110525474
 20
203.893540553432
 30
0.0
 11
50.87910840525473
 21
203.893540553432
 31
0.0
  0
LINE
  5
87AB
  8
0
 10
50.87910840525473
 20
203.893540553432
 30
0.0
 11
50.87910840525473
 21
204.2275244534319
 31
0.0
  0
LINE
  5
87AC
  8
0
 10
50.87910840525473
 20
204.2275244534319
 30
0.0
 11
50.21151110525474
 21
204.2275244534319
 31
0.0
  0
LINE
  5
87AD
  8
0
 10
50.21151110525474
 20
204.2275244534319
 30
0.0
 11
50.21151110525474
 21
203.893540553432
 31
0.0
  0
LINE
  5
87AE
  8
0
 10
51.21309610525475
 20
203.893540553432
 30
0.0
 11
51.54708000525474
 21
203.893540553432
 31
0.0
  0
LINE
  5
87AF
  8
0
 10
51.54708000525474
 20
203.893540553432
 30
0.0
 11
51.54708000525474
 21
204.2275244534319
 31
0.0
  0
LINE
  5
87B0
  8
0
 10
51.54708000525474
 20
204.2275244534319
 30
0.0
 11
51.21309610525475
 21
204.2275244534319
 31
0.0
  0
LINE
  5
87B1
  8
0
 10
51.21309610525475
 20
204.2275244534319
 30
0.0
 11
51.21309610525475
 21
203.893540553432
 31
0.0
  0
LINE
  5
87B2
  8
0
 10
51.88066110525472
 20
203.893540553432
 30
0.0
 11
52.21464595525475
 21
203.893540553432
 31
0.0
  0
LINE
  5
87B3
  8
0
 10
52.21464595525475
 20
203.893540553432
 30
0.0
 11
52.21464595525475
 21
204.2275244534319
 31
0.0
  0
LINE
  5
87B4
  8
0
 10
52.21464595525475
 20
204.2275244534319
 30
0.0
 11
51.88066110525472
 21
204.2275244534319
 31
0.0
  0
LINE
  5
87B5
  8
0
 10
51.88066110525472
 20
204.2275244534319
 30
0.0
 11
51.88066110525472
 21
203.893540553432
 31
0.0
  0
LINE
  5
87B6
  8
0
 10
52.54832110525473
 20
203.893540553432
 30
0.0
 11
53.21554695525475
 21
203.893540553432
 31
0.0
  0
LINE
  5
87B7
  8
0
 10
53.21554695525475
 20
203.893540553432
 30
0.0
 11
53.21554695525475
 21
204.2275244534319
 31
0.0
  0
LINE
  5
87B8
  8
0
 10
53.21554695525475
 20
204.2275244534319
 30
0.0
 11
52.54832110525473
 21
204.2275244534319
 31
0.0
  0
LINE
  5
87B9
  8
0
 10
52.54832110525473
 20
204.2275244534319
 30
0.0
 11
52.54832110525473
 21
203.893540553432
 31
0.0
  0
LINE
  5
87BA
  8
0
 10
42.53437110525473
 20
203.5602805534319
 30
0.0
 11
42.86872645525474
 21
203.5602805534319
 31
0.0
  0
LINE
  5
87BB
  8
0
 10
42.86872645525474
 20
203.5602805534319
 30
0.0
 11
42.86872645525474
 21
203.8942644534319
 31
0.0
  0
LINE
  5
87BC
  8
0
 10
42.86872645525474
 20
203.8942644534319
 30
0.0
 11
42.53437110525473
 21
203.8942644534319
 31
0.0
  0
LINE
  5
87BD
  8
0
 10
42.53437110525473
 20
203.8942644534319
 30
0.0
 11
42.53437110525473
 21
203.5602805534319
 31
0.0
  0
LINE
  5
87BE
  8
0
 10
44.53744610525473
 20
203.5602805534319
 30
0.0
 11
44.87143000525472
 21
203.5602805534319
 31
0.0
  0
LINE
  5
87BF
  8
0
 10
44.87143000525472
 20
203.5602805534319
 30
0.0
 11
44.87143000525472
 21
203.8942644534319
 31
0.0
  0
LINE
  5
87C0
  8
0
 10
44.87143000525472
 20
203.8942644534319
 30
0.0
 11
44.53744610525473
 21
203.8942644534319
 31
0.0
  0
LINE
  5
87C1
  8
0
 10
44.53744610525473
 20
203.8942644534319
 30
0.0
 11
44.53744610525473
 21
203.5602805534319
 31
0.0
  0
LINE
  5
87C2
  8
0
 10
45.53874610525475
 20
203.5602805534319
 30
0.0
 11
46.53996060525475
 21
203.5602805534319
 31
0.0
  0
LINE
  5
87C3
  8
0
 10
46.53996060525475
 20
203.5602805534319
 30
0.0
 11
46.53996060525475
 21
203.8942644534319
 31
0.0
  0
LINE
  5
87C4
  8
0
 10
46.53996060525475
 20
203.8942644534319
 30
0.0
 11
45.53874610525475
 21
203.8942644534319
 31
0.0
  0
LINE
  5
87C5
  8
0
 10
45.53874610525475
 20
203.8942644534319
 30
0.0
 11
45.53874610525475
 21
203.5602805534319
 31
0.0
  0
LINE
  5
87C6
  8
0
 10
47.54153610525475
 20
203.5602805534319
 30
0.0
 11
47.87589145525476
 21
203.5602805534319
 31
0.0
  0
LINE
  5
87C7
  8
0
 10
47.87589145525476
 20
203.5602805534319
 30
0.0
 11
47.87589145525476
 21
203.8942644534319
 31
0.0
  0
LINE
  5
87C8
  8
0
 10
47.87589145525476
 20
203.8942644534319
 30
0.0
 11
47.54153610525475
 21
203.8942644534319
 31
0.0
  0
LINE
  5
87C9
  8
0
 10
47.54153610525475
 20
203.8942644534319
 30
0.0
 11
47.54153610525475
 21
203.5602805534319
 31
0.0
  0
LINE
  5
87CA
  8
0
 10
49.20992610525474
 20
203.5602805534319
 30
0.0
 11
49.54428145525475
 21
203.5602805534319
 31
0.0
  0
LINE
  5
87CB
  8
0
 10
49.54428145525475
 20
203.5602805534319
 30
0.0
 11
49.54428145525475
 21
203.8942644534319
 31
0.0
  0
LINE
  5
87CC
  8
0
 10
49.54428145525475
 20
203.8942644534319
 30
0.0
 11
49.20992610525474
 21
203.8942644534319
 31
0.0
  0
LINE
  5
87CD
  8
0
 10
49.20992610525474
 20
203.8942644534319
 30
0.0
 11
49.20992610525474
 21
203.5602805534319
 31
0.0
  0
LINE
  5
87CE
  8
0
 10
50.21151110525474
 20
203.5602805534319
 30
0.0
 11
50.87910840525473
 21
203.5602805534319
 31
0.0
  0
LINE
  5
87CF
  8
0
 10
50.87910840525473
 20
203.5602805534319
 30
0.0
 11
50.87910840525473
 21
203.8942644534319
 31
0.0
  0
LINE
  5
87D0
  8
0
 10
50.87910840525473
 20
203.8942644534319
 30
0.0
 11
50.21151110525474
 21
203.8942644534319
 31
0.0
  0
LINE
  5
87D1
  8
0
 10
50.21151110525474
 20
203.8942644534319
 30
0.0
 11
50.21151110525474
 21
203.5602805534319
 31
0.0
  0
LINE
  5
87D2
  8
0
 10
51.88066110525472
 20
203.5602805534319
 30
0.0
 11
52.88224610525475
 21
203.5602805534319
 31
0.0
  0
LINE
  5
87D3
  8
0
 10
52.88224610525475
 20
203.5602805534319
 30
0.0
 11
52.88224610525475
 21
203.8942644534319
 31
0.0
  0
LINE
  5
87D4
  8
0
 10
52.88224610525475
 20
203.8942644534319
 30
0.0
 11
51.88066110525472
 21
203.8942644534319
 31
0.0
  0
LINE
  5
87D5
  8
0
 10
51.88066110525472
 20
203.8942644534319
 30
0.0
 11
51.88066110525472
 21
203.5602805534319
 31
0.0
  0
LINE
  5
87D6
  8
0
 10
53.21550610525475
 20
203.5602805534319
 30
0.0
 11
53.54986240525474
 21
203.5602805534319
 31
0.0
  0
LINE
  5
87D7
  8
0
 10
53.54986240525474
 20
203.5602805534319
 30
0.0
 11
53.54986240525474
 21
203.8942644534319
 31
0.0
  0
LINE
  5
87D8
  8
0
 10
53.54986240525474
 20
203.8942644534319
 30
0.0
 11
53.21550610525475
 21
203.8942644534319
 31
0.0
  0
LINE
  5
87D9
  8
0
 10
53.21550610525475
 20
203.8942644534319
 30
0.0
 11
53.21550610525475
 21
203.5602805534319
 31
0.0
  0
LINE
  5
87DA
  8
0
 10
42.53437110525473
 20
203.226260553432
 30
0.0
 11
42.86872645525474
 21
203.226260553432
 31
0.0
  0
LINE
  5
87DB
  8
0
 10
42.86872645525474
 20
203.226260553432
 30
0.0
 11
42.86872645525474
 21
203.5602454034319
 31
0.0
  0
LINE
  5
87DC
  8
0
 10
42.86872645525474
 20
203.5602454034319
 30
0.0
 11
42.53437110525473
 21
203.5602454034319
 31
0.0
  0
LINE
  5
87DD
  8
0
 10
42.53437110525473
 20
203.5602454034319
 30
0.0
 11
42.53437110525473
 21
203.226260553432
 31
0.0
  0
LINE
  5
87DE
  8
0
 10
43.20193610525473
 20
203.226260553432
 30
0.0
 11
44.20352110525474
 21
203.226260553432
 31
0.0
  0
LINE
  5
87DF
  8
0
 10
44.20352110525474
 20
203.226260553432
 30
0.0
 11
44.20352110525474
 21
203.5602454034319
 31
0.0
  0
LINE
  5
87E0
  8
0
 10
44.20352110525474
 20
203.5602454034319
 30
0.0
 11
43.20193610525473
 21
203.5602454034319
 31
0.0
  0
LINE
  5
87E1
  8
0
 10
43.20193610525473
 20
203.5602454034319
 30
0.0
 11
43.20193610525473
 21
203.226260553432
 31
0.0
  0
LINE
  5
87E2
  8
0
 10
44.53744610525473
 20
203.226260553432
 30
0.0
 11
44.87143000525472
 21
203.226260553432
 31
0.0
  0
LINE
  5
87E3
  8
0
 10
44.87143000525472
 20
203.226260553432
 30
0.0
 11
44.87143000525472
 21
203.5602454034319
 31
0.0
  0
LINE
  5
87E4
  8
0
 10
44.87143000525472
 20
203.5602454034319
 30
0.0
 11
44.53744610525473
 21
203.5602454034319
 31
0.0
  0
LINE
  5
87E5
  8
0
 10
44.53744610525473
 20
203.5602454034319
 30
0.0
 11
44.53744610525473
 21
203.226260553432
 31
0.0
  0
LINE
  5
87E6
  8
0
 10
45.87267110525474
 20
203.226260553432
 30
0.0
 11
46.53989695525473
 21
203.226260553432
 31
0.0
  0
LINE
  5
87E7
  8
0
 10
46.53989695525473
 20
203.226260553432
 30
0.0
 11
46.53989695525473
 21
203.5602454034319
 31
0.0
  0
LINE
  5
87E8
  8
0
 10
46.53989695525473
 20
203.5602454034319
 30
0.0
 11
45.87267110525474
 21
203.5602454034319
 31
0.0
  0
LINE
  5
87E9
  8
0
 10
45.87267110525474
 20
203.5602454034319
 30
0.0
 11
45.87267110525474
 21
203.226260553432
 31
0.0
  0
LINE
  5
87EA
  8
0
 10
46.87349610525473
 20
203.226260553432
 30
0.0
 11
47.54109435525476
 21
203.226260553432
 31
0.0
  0
LINE
  5
87EB
  8
0
 10
47.54109435525476
 20
203.226260553432
 30
0.0
 11
47.54109435525476
 21
203.5602454034319
 31
0.0
  0
LINE
  5
87EC
  8
0
 10
47.54109435525476
 20
203.5602454034319
 30
0.0
 11
46.87349610525473
 21
203.5602454034319
 31
0.0
  0
LINE
  5
87ED
  8
0
 10
46.87349610525473
 20
203.5602454034319
 30
0.0
 11
46.87349610525473
 21
203.226260553432
 31
0.0
  0
LINE
  5
87EE
  8
0
 10
48.54274110525472
 20
203.226260553432
 30
0.0
 11
49.20996790525476
 21
203.226260553432
 31
0.0
  0
LINE
  5
87EF
  8
0
 10
49.20996790525476
 20
203.226260553432
 30
0.0
 11
49.20996790525476
 21
203.5602454034319
 31
0.0
  0
LINE
  5
87F0
  8
0
 10
49.20996790525476
 20
203.5602454034319
 30
0.0
 11
48.54274110525472
 21
203.5602454034319
 31
0.0
  0
LINE
  5
87F1
  8
0
 10
48.54274110525472
 20
203.5602454034319
 30
0.0
 11
48.54274110525472
 21
203.226260553432
 31
0.0
  0
LINE
  5
87F2
  8
0
 10
49.54432610525475
 20
203.226260553432
 30
0.0
 11
49.87831095525473
 21
203.226260553432
 31
0.0
  0
LINE
  5
87F3
  8
0
 10
49.87831095525473
 20
203.226260553432
 30
0.0
 11
49.87831095525473
 21
203.5602454034319
 31
0.0
  0
LINE
  5
87F4
  8
0
 10
49.87831095525473
 20
203.5602454034319
 30
0.0
 11
49.54432610525475
 21
203.5602454034319
 31
0.0
  0
LINE
  5
87F5
  8
0
 10
49.54432610525475
 20
203.5602454034319
 30
0.0
 11
49.54432610525475
 21
203.226260553432
 31
0.0
  0
LINE
  5
87F6
  8
0
 10
50.54591110525473
 20
203.226260553432
 30
0.0
 11
52.54833060525473
 21
203.226260553432
 31
0.0
  0
LINE
  5
87F7
  8
0
 10
52.54833060525473
 20
203.226260553432
 30
0.0
 11
52.54833060525473
 21
203.5602454034319
 31
0.0
  0
LINE
  5
87F8
  8
0
 10
52.54833060525473
 20
203.5602454034319
 30
0.0
 11
50.54591110525473
 21
203.5602454034319
 31
0.0
  0
LINE
  5
87F9
  8
0
 10
50.54591110525473
 20
203.5602454034319
 30
0.0
 11
50.54591110525473
 21
203.226260553432
 31
0.0
  0
LINE
  5
87FA
  8
0
 10
42.53437110525473
 20
202.8919555534319
 30
0.0
 11
42.86872645525474
 21
202.8919555534319
 31
0.0
  0
LINE
  5
87FB
  8
0
 10
42.86872645525474
 20
202.8919555534319
 30
0.0
 11
42.86872645525474
 21
203.2263109034319
 31
0.0
  0
LINE
  5
87FC
  8
0
 10
42.86872645525474
 20
203.2263109034319
 30
0.0
 11
42.53437110525473
 21
203.2263109034319
 31
0.0
  0
LINE
  5
87FD
  8
0
 10
42.53437110525473
 20
203.2263109034319
 30
0.0
 11
42.53437110525473
 21
202.8919555534319
 31
0.0
  0
LINE
  5
87FE
  8
0
 10
43.20193610525473
 20
202.8919555534319
 30
0.0
 11
44.20352110525474
 21
202.8919555534319
 31
0.0
  0
LINE
  5
87FF
  8
0
 10
44.20352110525474
 20
202.8919555534319
 30
0.0
 11
44.20352110525474
 21
203.2263109034319
 31
0.0
  0
LINE
  5
8800
  8
0
 10
44.20352110525474
 20
203.2263109034319
 30
0.0
 11
43.20193610525473
 21
203.2263109034319
 31
0.0
  0
LINE
  5
8801
  8
0
 10
43.20193610525473
 20
203.2263109034319
 30
0.0
 11
43.20193610525473
 21
202.8919555534319
 31
0.0
  0
LINE
  5
8802
  8
0
 10
44.53744610525473
 20
202.8919555534319
 30
0.0
 11
44.87143000525472
 21
202.8919555534319
 31
0.0
  0
LINE
  5
8803
  8
0
 10
44.87143000525472
 20
202.8919555534319
 30
0.0
 11
44.87143000525472
 21
203.2263109034319
 31
0.0
  0
LINE
  5
8804
  8
0
 10
44.87143000525472
 20
203.2263109034319
 30
0.0
 11
44.53744610525473
 21
203.2263109034319
 31
0.0
  0
LINE
  5
8805
  8
0
 10
44.53744610525473
 20
203.2263109034319
 30
0.0
 11
44.53744610525473
 21
202.8919555534319
 31
0.0
  0
LINE
  5
8806
  8
0
 10
45.53874610525475
 20
202.8919555534319
 30
0.0
 11
46.87357210525474
 21
202.8919555534319
 31
0.0
  0
LINE
  5
8807
  8
0
 10
46.87357210525474
 20
202.8919555534319
 30
0.0
 11
46.87357210525474
 21
203.2263109034319
 31
0.0
  0
LINE
  5
8808
  8
0
 10
46.87357210525474
 20
203.2263109034319
 30
0.0
 11
45.53874610525475
 21
203.2263109034319
 31
0.0
  0
LINE
  5
8809
  8
0
 10
45.53874610525475
 20
203.2263109034319
 30
0.0
 11
45.53874610525475
 21
202.8919555534319
 31
0.0
  0
LINE
  5
880A
  8
0
 10
47.20751610525474
 20
202.8919555534319
 30
0.0
 11
47.54150000525476
 21
202.8919555534319
 31
0.0
  0
LINE
  5
880B
  8
0
 10
47.54150000525476
 20
202.8919555534319
 30
0.0
 11
47.54150000525476
 21
203.2263109034319
 31
0.0
  0
LINE
  5
880C
  8
0
 10
47.54150000525476
 20
203.2263109034319
 30
0.0
 11
47.20751610525474
 21
203.2263109034319
 31
0.0
  0
LINE
  5
880D
  8
0
 10
47.20751610525474
 20
203.2263109034319
 30
0.0
 11
47.20751610525474
 21
202.8919555534319
 31
0.0
  0
LINE
  5
880E
  8
0
 10
47.87508110525474
 20
202.8919555534319
 30
0.0
 11
48.20906595525474
 21
202.8919555534319
 31
0.0
  0
LINE
  5
880F
  8
0
 10
48.20906595525474
 20
202.8919555534319
 30
0.0
 11
48.20906595525474
 21
203.2263109034319
 31
0.0
  0
LINE
  5
8810
  8
0
 10
48.20906595525474
 20
203.2263109034319
 30
0.0
 11
47.87508110525474
 21
203.2263109034319
 31
0.0
  0
LINE
  5
8811
  8
0
 10
47.87508110525474
 20
203.2263109034319
 30
0.0
 11
47.87508110525474
 21
202.8919555534319
 31
0.0
  0
LINE
  5
8812
  8
0
 10
49.20992610525474
 20
202.8919555534319
 30
0.0
 11
49.54428145525475
 21
202.8919555534319
 31
0.0
  0
LINE
  5
8813
  8
0
 10
49.54428145525475
 20
202.8919555534319
 30
0.0
 11
49.54428145525475
 21
203.2263109034319
 31
0.0
  0
LINE
  5
8814
  8
0
 10
49.54428145525475
 20
203.2263109034319
 30
0.0
 11
49.20992610525474
 21
203.2263109034319
 31
0.0
  0
LINE
  5
8815
  8
0
 10
49.20992610525474
 20
203.2263109034319
 30
0.0
 11
49.20992610525474
 21
202.8919555534319
 31
0.0
  0
LINE
  5
8816
  8
0
 10
49.87749110525473
 20
202.8919555534319
 30
0.0
 11
50.54508840525475
 21
202.8919555534319
 31
0.0
  0
LINE
  5
8817
  8
0
 10
50.54508840525475
 20
202.8919555534319
 30
0.0
 11
50.54508840525475
 21
203.2263109034319
 31
0.0
  0
LINE
  5
8818
  8
0
 10
50.54508840525475
 20
203.2263109034319
 30
0.0
 11
49.87749110525473
 21
203.2263109034319
 31
0.0
  0
LINE
  5
8819
  8
0
 10
49.87749110525473
 20
203.2263109034319
 30
0.0
 11
49.87749110525473
 21
202.8919555534319
 31
0.0
  0
LINE
  5
881A
  8
0
 10
50.87907610525474
 20
202.8919555534319
 30
0.0
 11
51.21306095525475
 21
202.8919555534319
 31
0.0
  0
LINE
  5
881B
  8
0
 10
51.21306095525475
 20
202.8919555534319
 30
0.0
 11
51.21306095525475
 21
203.2263109034319
 31
0.0
  0
LINE
  5
881C
  8
0
 10
51.21306095525475
 20
203.2263109034319
 30
0.0
 11
50.87907610525474
 21
203.2263109034319
 31
0.0
  0
LINE
  5
881D
  8
0
 10
50.87907610525474
 20
203.2263109034319
 30
0.0
 11
50.87907610525474
 21
202.8919555534319
 31
0.0
  0
LINE
  5
881E
  8
0
 10
51.54673610525475
 20
202.8919555534319
 30
0.0
 11
52.21396290525473
 21
202.8919555534319
 31
0.0
  0
LINE
  5
881F
  8
0
 10
52.21396290525473
 20
202.8919555534319
 30
0.0
 11
52.21396290525473
 21
203.2263109034319
 31
0.0
  0
LINE
  5
8820
  8
0
 10
52.21396290525473
 20
203.2263109034319
 30
0.0
 11
51.54673610525475
 21
203.2263109034319
 31
0.0
  0
LINE
  5
8821
  8
0
 10
51.54673610525475
 20
203.2263109034319
 30
0.0
 11
51.54673610525475
 21
202.8919555534319
 31
0.0
  0
LINE
  5
8822
  8
0
 10
52.54832110525473
 20
202.8919555534319
 30
0.0
 11
52.88230500525475
 21
202.8919555534319
 31
0.0
  0
LINE
  5
8823
  8
0
 10
52.88230500525475
 20
202.8919555534319
 30
0.0
 11
52.88230500525475
 21
203.2263109034319
 31
0.0
  0
LINE
  5
8824
  8
0
 10
52.88230500525475
 20
203.2263109034319
 30
0.0
 11
52.54832110525473
 21
203.2263109034319
 31
0.0
  0
LINE
  5
8825
  8
0
 10
52.54832110525473
 20
203.2263109034319
 30
0.0
 11
52.54832110525473
 21
202.8919555534319
 31
0.0
  0
LINE
  5
8826
  8
0
 10
53.21550610525475
 20
202.8919555534319
 30
0.0
 11
53.54986240525474
 21
202.8919555534319
 31
0.0
  0
LINE
  5
8827
  8
0
 10
53.54986240525474
 20
202.8919555534319
 30
0.0
 11
53.54986240525474
 21
203.2263109034319
 31
0.0
  0
LINE
  5
8828
  8
0
 10
53.54986240525474
 20
203.2263109034319
 30
0.0
 11
53.21550610525475
 21
203.2263109034319
 31
0.0
  0
LINE
  5
8829
  8
0
 10
53.21550610525475
 20
203.2263109034319
 30
0.0
 11
53.21550610525475
 21
202.8919555534319
 31
0.0
  0
LINE
  5
882A
  8
0
 10
42.53437110525473
 20
202.5586955534319
 30
0.0
 11
42.86872645525474
 21
202.5586955534319
 31
0.0
  0
LINE
  5
882B
  8
0
 10
42.86872645525474
 20
202.5586955534319
 30
0.0
 11
42.86872645525474
 21
202.892679453432
 31
0.0
  0
LINE
  5
882C
  8
0
 10
42.86872645525474
 20
202.892679453432
 30
0.0
 11
42.53437110525473
 21
202.892679453432
 31
0.0
  0
LINE
  5
882D
  8
0
 10
42.53437110525473
 20
202.892679453432
 30
0.0
 11
42.53437110525473
 21
202.5586955534319
 31
0.0
  0
LINE
  5
882E
  8
0
 10
43.20193610525473
 20
202.5586955534319
 30
0.0
 11
44.20352110525474
 21
202.5586955534319
 31
0.0
  0
LINE
  5
882F
  8
0
 10
44.20352110525474
 20
202.5586955534319
 30
0.0
 11
44.20352110525474
 21
202.892679453432
 31
0.0
  0
LINE
  5
8830
  8
0
 10
44.20352110525474
 20
202.892679453432
 30
0.0
 11
43.20193610525473
 21
202.892679453432
 31
0.0
  0
LINE
  5
8831
  8
0
 10
43.20193610525473
 20
202.892679453432
 30
0.0
 11
43.20193610525473
 21
202.5586955534319
 31
0.0
  0
LINE
  5
8832
  8
0
 10
44.53744610525473
 20
202.5586955534319
 30
0.0
 11
44.87143000525472
 21
202.5586955534319
 31
0.0
  0
LINE
  5
8833
  8
0
 10
44.87143000525472
 20
202.5586955534319
 30
0.0
 11
44.87143000525472
 21
202.892679453432
 31
0.0
  0
LINE
  5
8834
  8
0
 10
44.87143000525472
 20
202.892679453432
 30
0.0
 11
44.53744610525473
 21
202.892679453432
 31
0.0
  0
LINE
  5
8835
  8
0
 10
44.53744610525473
 20
202.892679453432
 30
0.0
 11
44.53744610525473
 21
202.5586955534319
 31
0.0
  0
LINE
  5
8836
  8
0
 10
45.87267110525474
 20
202.5586955534319
 30
0.0
 11
47.20749710525473
 21
202.5586955534319
 31
0.0
  0
LINE
  5
8837
  8
0
 10
47.20749710525473
 20
202.5586955534319
 30
0.0
 11
47.20749710525473
 21
202.892679453432
 31
0.0
  0
LINE
  5
8838
  8
0
 10
47.20749710525473
 20
202.892679453432
 30
0.0
 11
45.87267110525474
 21
202.892679453432
 31
0.0
  0
LINE
  5
8839
  8
0
 10
45.87267110525474
 20
202.892679453432
 30
0.0
 11
45.87267110525474
 21
202.5586955534319
 31
0.0
  0
LINE
  5
883A
  8
0
 10
47.87508110525474
 20
202.5586955534319
 30
0.0
 11
48.20906595525474
 21
202.5586955534319
 31
0.0
  0
LINE
  5
883B
  8
0
 10
48.20906595525474
 20
202.5586955534319
 30
0.0
 11
48.20906595525474
 21
202.892679453432
 31
0.0
  0
LINE
  5
883C
  8
0
 10
48.20906595525474
 20
202.892679453432
 30
0.0
 11
47.87508110525474
 21
202.892679453432
 31
0.0
  0
LINE
  5
883D
  8
0
 10
47.87508110525474
 20
202.892679453432
 30
0.0
 11
47.87508110525474
 21
202.5586955534319
 31
0.0
  0
LINE
  5
883E
  8
0
 10
48.54274110525472
 20
202.5586955534319
 30
0.0
 11
48.87672595525476
 21
202.5586955534319
 31
0.0
  0
LINE
  5
883F
  8
0
 10
48.87672595525476
 20
202.5586955534319
 30
0.0
 11
48.87672595525476
 21
202.892679453432
 31
0.0
  0
LINE
  5
8840
  8
0
 10
48.87672595525476
 20
202.892679453432
 30
0.0
 11
48.54274110525472
 21
202.892679453432
 31
0.0
  0
LINE
  5
8841
  8
0
 10
48.54274110525472
 20
202.892679453432
 30
0.0
 11
48.54274110525472
 21
202.5586955534319
 31
0.0
  0
LINE
  5
8842
  8
0
 10
49.20992610525474
 20
202.5586955534319
 30
0.0
 11
49.54428145525475
 21
202.5586955534319
 31
0.0
  0
LINE
  5
8843
  8
0
 10
49.54428145525475
 20
202.5586955534319
 30
0.0
 11
49.54428145525475
 21
202.892679453432
 31
0.0
  0
LINE
  5
8844
  8
0
 10
49.54428145525475
 20
202.892679453432
 30
0.0
 11
49.20992610525474
 21
202.892679453432
 31
0.0
  0
LINE
  5
8845
  8
0
 10
49.20992610525474
 20
202.892679453432
 30
0.0
 11
49.20992610525474
 21
202.5586955534319
 31
0.0
  0
LINE
  5
8846
  8
0
 10
49.87749110525473
 20
202.5586955534319
 30
0.0
 11
50.21147500525473
 21
202.5586955534319
 31
0.0
  0
LINE
  5
8847
  8
0
 10
50.21147500525473
 20
202.5586955534319
 30
0.0
 11
50.21147500525473
 21
202.892679453432
 31
0.0
  0
LINE
  5
8848
  8
0
 10
50.21147500525473
 20
202.892679453432
 30
0.0
 11
49.87749110525473
 21
202.892679453432
 31
0.0
  0
LINE
  5
8849
  8
0
 10
49.87749110525473
 20
202.892679453432
 30
0.0
 11
49.87749110525473
 21
202.5586955534319
 31
0.0
  0
LINE
  5
884A
  8
0
 10
50.54591110525473
 20
202.5586955534319
 30
0.0
 11
50.87989595525474
 21
202.5586955534319
 31
0.0
  0
LINE
  5
884B
  8
0
 10
50.87989595525474
 20
202.5586955534319
 30
0.0
 11
50.87989595525474
 21
202.892679453432
 31
0.0
  0
LINE
  5
884C
  8
0
 10
50.87989595525474
 20
202.892679453432
 30
0.0
 11
50.54591110525473
 21
202.892679453432
 31
0.0
  0
LINE
  5
884D
  8
0
 10
50.54591110525473
 20
202.892679453432
 30
0.0
 11
50.54591110525473
 21
202.5586955534319
 31
0.0
  0
LINE
  5
884E
  8
0
 10
51.54673610525475
 20
202.5586955534319
 30
0.0
 11
52.21396290525473
 21
202.5586955534319
 31
0.0
  0
LINE
  5
884F
  8
0
 10
52.21396290525473
 20
202.5586955534319
 30
0.0
 11
52.21396290525473
 21
202.892679453432
 31
0.0
  0
LINE
  5
8850
  8
0
 10
52.21396290525473
 20
202.892679453432
 30
0.0
 11
51.54673610525475
 21
202.892679453432
 31
0.0
  0
LINE
  5
8851
  8
0
 10
51.54673610525475
 20
202.892679453432
 30
0.0
 11
51.54673610525475
 21
202.5586955534319
 31
0.0
  0
LINE
  5
8852
  8
0
 10
52.88158110525472
 20
202.5586955534319
 30
0.0
 11
53.54917840525474
 21
202.5586955534319
 31
0.0
  0
LINE
  5
8853
  8
0
 10
53.54917840525474
 20
202.5586955534319
 30
0.0
 11
53.54917840525474
 21
202.892679453432
 31
0.0
  0
LINE
  5
8854
  8
0
 10
53.54917840525474
 20
202.892679453432
 30
0.0
 11
52.88158110525472
 21
202.892679453432
 31
0.0
  0
LINE
  5
8855
  8
0
 10
52.88158110525472
 20
202.892679453432
 30
0.0
 11
52.88158110525472
 21
202.5586955534319
 31
0.0
  0
LINE
  5
8856
  8
0
 10
42.53437110525473
 20
202.2247705534319
 30
0.0
 11
42.86872645525474
 21
202.2247705534319
 31
0.0
  0
LINE
  5
8857
  8
0
 10
42.86872645525474
 20
202.2247705534319
 30
0.0
 11
42.86872645525474
 21
202.5587554034319
 31
0.0
  0
LINE
  5
8858
  8
0
 10
42.86872645525474
 20
202.5587554034319
 30
0.0
 11
42.53437110525473
 21
202.5587554034319
 31
0.0
  0
LINE
  5
8859
  8
0
 10
42.53437110525473
 20
202.5587554034319
 30
0.0
 11
42.53437110525473
 21
202.2247705534319
 31
0.0
  0
LINE
  5
885A
  8
0
 10
44.53744610525473
 20
202.2247705534319
 30
0.0
 11
44.87143000525472
 21
202.2247705534319
 31
0.0
  0
LINE
  5
885B
  8
0
 10
44.87143000525472
 20
202.2247705534319
 30
0.0
 11
44.87143000525472
 21
202.5587554034319
 31
0.0
  0
LINE
  5
885C
  8
0
 10
44.87143000525472
 20
202.5587554034319
 30
0.0
 11
44.53744610525473
 21
202.5587554034319
 31
0.0
  0
LINE
  5
885D
  8
0
 10
44.53744610525473
 20
202.5587554034319
 30
0.0
 11
44.53744610525473
 21
202.2247705534319
 31
0.0
  0
LINE
  5
885E
  8
0
 10
45.87267110525474
 20
202.2247705534319
 30
0.0
 11
46.53989695525473
 21
202.2247705534319
 31
0.0
  0
LINE
  5
885F
  8
0
 10
46.53989695525473
 20
202.2247705534319
 30
0.0
 11
46.53989695525473
 21
202.5587554034319
 31
0.0
  0
LINE
  5
8860
  8
0
 10
46.53989695525473
 20
202.5587554034319
 30
0.0
 11
45.87267110525474
 21
202.5587554034319
 31
0.0
  0
LINE
  5
8861
  8
0
 10
45.87267110525474
 20
202.5587554034319
 30
0.0
 11
45.87267110525474
 21
202.2247705534319
 31
0.0
  0
LINE
  5
8862
  8
0
 10
47.20751610525474
 20
202.2247705534319
 30
0.0
 11
48.20910110525475
 21
202.2247705534319
 31
0.0
  0
LINE
  5
8863
  8
0
 10
48.20910110525475
 20
202.2247705534319
 30
0.0
 11
48.20910110525475
 21
202.5587554034319
 31
0.0
  0
LINE
  5
8864
  8
0
 10
48.20910110525475
 20
202.5587554034319
 30
0.0
 11
47.20751610525474
 21
202.5587554034319
 31
0.0
  0
LINE
  5
8865
  8
0
 10
47.20751610525474
 20
202.5587554034319
 30
0.0
 11
47.20751610525474
 21
202.2247705534319
 31
0.0
  0
LINE
  5
8866
  8
0
 10
48.87666610525474
 20
202.2247705534319
 30
0.0
 11
49.54426340525472
 21
202.2247705534319
 31
0.0
  0
LINE
  5
8867
  8
0
 10
49.54426340525472
 20
202.2247705534319
 30
0.0
 11
49.54426340525472
 21
202.5587554034319
 31
0.0
  0
LINE
  5
8868
  8
0
 10
49.54426340525472
 20
202.5587554034319
 30
0.0
 11
48.87666610525474
 21
202.5587554034319
 31
0.0
  0
LINE
  5
8869
  8
0
 10
48.87666610525474
 20
202.5587554034319
 30
0.0
 11
48.87666610525474
 21
202.2247705534319
 31
0.0
  0
LINE
  5
886A
  8
0
 10
51.54673610525475
 20
202.2247705534319
 30
0.0
 11
52.88156210525472
 21
202.2247705534319
 31
0.0
  0
LINE
  5
886B
  8
0
 10
52.88156210525472
 20
202.2247705534319
 30
0.0
 11
52.88156210525472
 21
202.5587554034319
 31
0.0
  0
LINE
  5
886C
  8
0
 10
52.88156210525472
 20
202.5587554034319
 30
0.0
 11
51.54673610525475
 21
202.5587554034319
 31
0.0
  0
LINE
  5
886D
  8
0
 10
51.54673610525475
 20
202.5587554034319
 30
0.0
 11
51.54673610525475
 21
202.2247705534319
 31
0.0
  0
LINE
  5
886E
  8
0
 10
42.53437110525473
 20
201.8911305534319
 30
0.0
 11
44.87115260525476
 21
201.8911305534319
 31
0.0
  0
LINE
  5
886F
  8
0
 10
44.87115260525476
 20
201.8911305534319
 30
0.0
 11
44.87115260525476
 21
202.2251154034319
 31
0.0
  0
LINE
  5
8870
  8
0
 10
44.87115260525476
 20
202.2251154034319
 30
0.0
 11
42.53437110525473
 21
202.2251154034319
 31
0.0
  0
LINE
  5
8871
  8
0
 10
42.53437110525473
 20
202.2251154034319
 30
0.0
 11
42.53437110525473
 21
201.8911305534319
 31
0.0
  0
LINE
  5
8872
  8
0
 10
45.20510610525474
 20
201.8911305534319
 30
0.0
 11
45.53909095525475
 21
201.8911305534319
 31
0.0
  0
LINE
  5
8873
  8
0
 10
45.53909095525475
 20
201.8911305534319
 30
0.0
 11
45.53909095525475
 21
202.2251154034319
 31
0.0
  0
LINE
  5
8874
  8
0
 10
45.53909095525475
 20
202.2251154034319
 30
0.0
 11
45.20510610525474
 21
202.2251154034319
 31
0.0
  0
LINE
  5
8875
  8
0
 10
45.20510610525474
 20
202.2251154034319
 30
0.0
 11
45.20510610525474
 21
201.8911305534319
 31
0.0
  0
LINE
  5
8876
  8
0
 10
46.20593110525473
 20
201.8911305534319
 30
0.0
 11
46.53991500525473
 21
201.8911305534319
 31
0.0
  0
LINE
  5
8877
  8
0
 10
46.53991500525473
 20
201.8911305534319
 30
0.0
 11
46.53991500525473
 21
202.2251154034319
 31
0.0
  0
LINE
  5
8878
  8
0
 10
46.53991500525473
 20
202.2251154034319
 30
0.0
 11
46.20593110525473
 21
202.2251154034319
 31
0.0
  0
LINE
  5
8879
  8
0
 10
46.20593110525473
 20
202.2251154034319
 30
0.0
 11
46.20593110525473
 21
201.8911305534319
 31
0.0
  0
LINE
  5
887A
  8
0
 10
47.20751610525474
 20
201.8911305534319
 30
0.0
 11
47.54150000525476
 21
201.8911305534319
 31
0.0
  0
LINE
  5
887B
  8
0
 10
47.54150000525476
 20
201.8911305534319
 30
0.0
 11
47.54150000525476
 21
202.2251154034319
 31
0.0
  0
LINE
  5
887C
  8
0
 10
47.54150000525476
 20
202.2251154034319
 30
0.0
 11
47.20751610525474
 21
202.2251154034319
 31
0.0
  0
LINE
  5
887D
  8
0
 10
47.20751610525474
 20
202.2251154034319
 30
0.0
 11
47.20751610525474
 21
201.8911305534319
 31
0.0
  0
LINE
  5
887E
  8
0
 10
48.20910110525475
 20
201.8911305534319
 30
0.0
 11
48.54308500525474
 21
201.8911305534319
 31
0.0
  0
LINE
  5
887F
  8
0
 10
48.54308500525474
 20
201.8911305534319
 30
0.0
 11
48.54308500525474
 21
202.2251154034319
 31
0.0
  0
LINE
  5
8880
  8
0
 10
48.54308500525474
 20
202.2251154034319
 30
0.0
 11
48.20910110525475
 21
202.2251154034319
 31
0.0
  0
LINE
  5
8881
  8
0
 10
48.20910110525475
 20
202.2251154034319
 30
0.0
 11
48.20910110525475
 21
201.8911305534319
 31
0.0
  0
LINE
  5
8882
  8
0
 10
48.87666610525474
 20
201.8911305534319
 30
0.0
 11
49.21065000525473
 21
201.8911305534319
 31
0.0
  0
LINE
  5
8883
  8
0
 10
49.21065000525473
 20
201.8911305534319
 30
0.0
 11
49.21065000525473
 21
202.2251154034319
 31
0.0
  0
LINE
  5
8884
  8
0
 10
49.21065000525473
 20
202.2251154034319
 30
0.0
 11
48.87666610525474
 21
202.2251154034319
 31
0.0
  0
LINE
  5
8885
  8
0
 10
48.87666610525474
 20
202.2251154034319
 30
0.0
 11
48.87666610525474
 21
201.8911305534319
 31
0.0
  0
LINE
  5
8886
  8
0
 10
49.87749110525473
 20
201.8911305534319
 30
0.0
 11
51.21231710525473
 21
201.8911305534319
 31
0.0
  0
LINE
  5
8887
  8
0
 10
51.21231710525473
 20
201.8911305534319
 30
0.0
 11
51.21231710525473
 21
202.2251154034319
 31
0.0
  0
LINE
  5
8888
  8
0
 10
51.21231710525473
 20
202.2251154034319
 30
0.0
 11
49.87749110525473
 21
202.2251154034319
 31
0.0
  0
LINE
  5
8889
  8
0
 10
49.87749110525473
 20
202.2251154034319
 30
0.0
 11
49.87749110525473
 21
201.8911305534319
 31
0.0
  0
LINE
  5
888A
  8
0
 10
51.54673610525475
 20
201.8911305534319
 30
0.0
 11
51.88072000525474
 21
201.8911305534319
 31
0.0
  0
LINE
  5
888B
  8
0
 10
51.88072000525474
 20
201.8911305534319
 30
0.0
 11
51.88072000525474
 21
202.2251154034319
 31
0.0
  0
LINE
  5
888C
  8
0
 10
51.88072000525474
 20
202.2251154034319
 30
0.0
 11
51.54673610525475
 21
202.2251154034319
 31
0.0
  0
LINE
  5
888D
  8
0
 10
51.54673610525475
 20
202.2251154034319
 30
0.0
 11
51.54673610525475
 21
201.8911305534319
 31
0.0
  0
LINE
  5
888E
  8
0
 10
52.21392110525474
 20
201.8911305534319
 30
0.0
 11
52.54827645525472
 21
201.8911305534319
 31
0.0
  0
LINE
  5
888F
  8
0
 10
52.54827645525472
 20
201.8911305534319
 30
0.0
 11
52.54827645525472
 21
202.2251154034319
 31
0.0
  0
LINE
  5
8890
  8
0
 10
52.54827645525472
 20
202.2251154034319
 30
0.0
 11
52.21392110525474
 21
202.2251154034319
 31
0.0
  0
LINE
  5
8891
  8
0
 10
52.21392110525474
 20
202.2251154034319
 30
0.0
 11
52.21392110525474
 21
201.8911305534319
 31
0.0
  0
LINE
  5
8892
  8
0
 10
52.88158110525472
 20
201.8911305534319
 30
0.0
 11
53.21556500525475
 21
201.8911305534319
 31
0.0
  0
LINE
  5
8893
  8
0
 10
53.21556500525475
 20
201.8911305534319
 30
0.0
 11
53.21556500525475
 21
202.2251154034319
 31
0.0
  0
LINE
  5
8894
  8
0
 10
53.21556500525475
 20
202.2251154034319
 30
0.0
 11
52.88158110525472
 21
202.2251154034319
 31
0.0
  0
LINE
  5
8895
  8
0
 10
52.88158110525472
 20
202.2251154034319
 30
0.0
 11
52.88158110525472
 21
201.8911305534319
 31
0.0
  0
CIRCLE
  5
8A6B
  8
0
 10
63.52186071078958
 20
209.8911305534322
 30
0.0
 40
1.5
  0
LINE
  5
929B
  8
0
 10
50.98249511685671
 20
232.0632815007581
 30
0.0
 11
52.12611815685668
 21
232.0632815007581
 31
0.0
  0
LINE
  5
929C
  8
0
 10
52.12611815685668
 20
232.0632815007581
 30
0.0
 11
52.12611815685668
 21
226.1082616607578
 31
0.0
  0
LINE
  5
929D
  8
0
 10
52.12611815685668
 20
226.1082616607578
 30
0.0
 11
50.98249511685671
 21
226.1082616607578
 31
0.0
  0
LINE
  5
929E
  8
0
 10
50.98249511685671
 20
226.1082616607578
 30
0.0
 11
50.98249511685671
 21
232.0632815007581
 31
0.0
  0
LINE
  5
929F
  8
0
 10
59.90707287685709
 20
230.4252994207578
 30
0.0
 11
61.05049879685666
 21
230.4252994207578
 31
0.0
  0
LINE
  5
92A0
  8
0
 10
61.05049879685666
 20
230.4252994207578
 30
0.0
 11
61.05049879685666
 21
226.1082616607578
 31
0.0
  0
LINE
  5
92A1
  8
0
 10
61.05049879685666
 20
226.1082616607578
 30
0.0
 11
59.90707287685709
 21
226.1082616607578
 31
0.0
  0
LINE
  5
92A2
  8
0
 10
59.90707287685709
 20
226.1082616607578
 30
0.0
 11
59.90707287685709
 21
230.4252994207578
 31
0.0
  0
LINE
  5
92A3
  8
0
 10
60.13497527795889
 20
230.9231323222544
 30
0.0
 11
60.04352135685676
 21
230.8550546207581
 31
0.0
  0
LINE
  5
92A4
  8
0
 10
60.04352135685676
 20
230.8550546207581
 30
0.0
 11
60.06822017909107
 21
230.9527489114604
 31
0.0
  0
LINE
  5
92A5
  8
0
 10
59.87502185810453
 20
231.9529105241596
 30
0.0
 11
59.80713191685672
 21
232.0440511007579
 31
0.0
  0
LINE
  5
92A6
  8
0
 10
59.80713191685672
 20
232.0440511007579
 30
0.0
 11
59.90488425292969
 21
232.0193750599829
 31
0.0
  0
LINE
  5
92A7
  8
0
 10
60.90499310420645
 20
232.2126239242053
 30
0.0
 11
60.99606231685684
 21
232.2804416607583
 31
0.0
  0
LINE
  5
92A8
  8
0
 10
60.99606231685684
 20
232.2804416607583
 30
0.0
 11
60.9713971344614
 21
232.1825614076566
 31
0.0
  0
LINE
  5
92A9
  8
0
 10
61.16516338733126
 20
231.1824817663042
 30
0.0
 11
61.23277767685667
 21
231.0916400607581
 31
0.0
  0
LINE
  5
92AA
  8
0
 10
61.23277767685667
 20
231.0916400607581
 30
0.0
 11
61.13502475627783
 21
231.11629020157
 31
0.0
  0
LINE
  5
92AB
  8
0
 10
60.70367401377379
 20
230.8393284140544
 30
0.0
 11
60.68724023685681
 21
230.7270162207584
 31
0.0
  0
LINE
  5
92AC
  8
0
 10
60.68724023685681
 20
230.7270162207584
 30
0.0
 11
60.63559066998104
 21
230.8135826487529
 31
0.0
  0
LINE
  5
92AD
  8
0
 10
59.79194143583445
 20
231.3841910962179
 30
0.0
 11
59.67922007685647
 21
231.4006581407581
 31
0.0
  0
LINE
  5
92AE
  8
0
 10
59.67922007685647
 20
231.4006581407581
 30
0.0
 11
59.76559718205053
 21
231.452197788704
 31
0.0
  0
LINE
  5
92AF
  8
0
 10
60.3361876644968
 20
232.2960487663582
 30
0.0
 11
60.35266935685658
 21
232.4084823007584
 31
0.0
  0
LINE
  5
92B0
  8
0
 10
60.35266935685658
 20
232.4084823007584
 30
0.0
 11
60.40441033803617
 21
232.321843489413
 31
0.0
  0
LINE
  5
92B1
  8
0
 10
61.24847395617243
 20
231.7516300792846
 30
0.0
 11
61.36068615685699
 21
231.7351663007581
 31
0.0
  0
LINE
  5
92B2
  8
0
 10
61.36068615685699
 20
231.7351663007581
 30
0.0
 11
61.27399198498878
 21
231.6834103993238
 31
0.0
  0
LINE
  5
92B3
  8
0
 10
60.41087208845383
 20
230.8244835509273
 30
0.0
 11
60.35266935685658
 21
230.7270162207584
 31
0.0
  0
LINE
  5
92B4
  8
0
 10
60.35266935685658
 20
230.7270162207584
 30
0.0
 11
60.33810185698039
 21
230.8264183225743
 31
0.0
  0
LINE
  5
92B5
  8
0
 10
59.77699738429519
 20
231.676746994162
 30
0.0
 11
59.67909015685663
 21
231.7351663007581
 31
0.0
  0
LINE
  5
92B6
  8
0
 10
59.67909015685663
 20
231.7351663007581
 30
0.0
 11
59.77881582015388
 21
231.7497329913909
 31
0.0
  0
LINE
  5
92B7
  8
0
 10
60.62891590188346
 20
232.3108971093494
 30
0.0
 11
60.6871763968571
 21
232.4084823007584
 31
0.0
  0
LINE
  5
92B8
  8
0
 10
60.6871763968571
 20
232.4084823007584
 30
0.0
 11
60.70177459553187
 21
232.3088046633462
 31
0.0
  0
LINE
  5
92B9
  8
0
 10
61.26303994635973
 20
231.4587389871936
 30
0.0
 11
61.36068615685699
 21
231.4003960607584
 31
0.0
  0
LINE
  5
92BA
  8
0
 10
60.96847517643855
 20
230.9651891833624
 30
0.0
 11
60.9962583168568
 21
230.8550546207581
 31
0.0
  0
LINE
  5
92BB
  8
0
 10
60.9962583168568
 20
230.8550546207581
 30
0.0
 11
60.9154391013827
 21
230.9152630240993
 31
0.0
  0
LINE
  5
92BC
  8
0
 10
59.91749508680149
 20
231.119511816422
 30
0.0
 11
59.80713191685672
 21
231.0916400607581
 31
0.0
  0
LINE
  5
92BD
  8
0
 10
59.80713191685672
 20
231.0916400607581
 30
0.0
 11
59.86718926716284
 21
231.1722929523908
 31
0.0
  0
LINE
  5
92BE
  8
0
 10
60.07131278011101
 20
232.1704385737099
 30
0.0
 11
60.04352135685676
 21
232.2804416607583
 31
0.0
  0
LINE
  5
92BF
  8
0
 10
60.04352135685676
 20
232.2804416607583
 30
0.0
 11
60.12454461489014
 21
232.220182537351
 31
0.0
  0
LINE
  5
92C0
  8
0
 10
61.12278772418594
 20
232.0163237382281
 30
0.0
 11
61.23277767685667
 21
232.0440511007579
 31
0.0
  0
LINE
  5
92C1
  8
0
 10
61.23277767685667
 20
232.0440511007579
 30
0.0
 11
61.17248734306949
 21
231.9631219808331
 31
0.0
  0
LINE
  5
92C2
  8
0
 10
60.20212488052093
 20
230.8870366465086
 30
0.0
 11
60.1184280768567
 21
230.810396860758
 31
0.0
  0
LINE
  5
92C3
  8
0
 10
60.1184280768567
 20
230.810396860758
 30
0.0
 11
60.13497527795889
 21
230.9231323222544
 31
0.0
  0
LINE
  5
92C4
  8
0
 10
59.83937154461509
 20
231.8856339173886
 30
0.0
 11
59.76266679685668
 21
231.9694031007581
 31
0.0
  0
LINE
  5
92C5
  8
0
 10
59.76266679685668
 20
231.9694031007581
 30
0.0
 11
59.87502185810453
 21
231.9529105241596
 31
0.0
  0
LINE
  5
92C6
  8
0
 10
60.8378803946799
 20
232.2484591360372
 30
0.0
 11
60.92148039685671
 21
232.3250355807582
 31
0.0
  0
LINE
  5
92C7
  8
0
 10
60.92148039685671
 20
232.3250355807582
 30
0.0
 11
60.90499310420645
 21
232.2126239242053
 31
0.0
  0
LINE
  5
92C8
  8
0
 10
61.20051978715091
 20
231.2499231797015
 30
0.0
 11
61.27737159685657
 21
231.1659621407576
 31
0.0
  0
LINE
  5
92C9
  8
0
 10
60.7764312530272
 20
230.8618872433741
 30
0.0
 11
60.77139815685686
 21
230.7482032607582
 31
0.0
  0
LINE
  5
92CA
  8
0
 10
60.77139815685686
 20
230.7482032607582
 30
0.0
 11
60.70367401377379
 21
230.8393284140544
 31
0.0
  0
LINE
  5
92CB
  8
0
 10
59.81396389748951
 20
231.3112435867239
 30
0.0
 11
59.70053367685668
 21
231.316158620758
 31
0.0
  0
LINE
  5
92CC
  8
0
 10
59.70053367685668
 20
231.316158620758
 30
0.0
 11
59.79194143583445
 21
231.3841910962179
 31
0.0
  0
LINE
  5
92CD
  8
0
 10
60.26338708585135
 20
232.2738016952622
 30
0.0
 11
60.2683781568563
 21
232.3871530207581
 31
0.0
  0
LINE
  5
92CE
  8
0
 10
60.2683781568563
 20
232.3871530207581
 30
0.0
 11
60.3361876644968
 21
232.2960487663582
 31
0.0
  0
LINE
  5
92CF
  8
0
 10
61.22605328535528
 20
231.8243820058893
 30
0.0
 11
61.33950135685663
 21
231.8193757407581
 31
0.0
  0
LINE
  5
92D0
  8
0
 10
61.33950135685663
 20
231.8193757407581
 30
0.0
 11
61.24847395617243
 21
231.7516300792846
 31
0.0
  0
LINE
  5
92D1
  8
0
 10
60.48672052814581
 20
230.8175312584923
 30
0.0
 11
60.43852855685654
 21
230.714433020758
 31
0.0
  0
LINE
  5
92D2
  8
0
 10
60.43852855685654
 20
230.714433020758
 30
0.0
 11
60.41087208845383
 21
230.8244835509273
 31
0.0
  0
LINE
  5
92D3
  8
0
 10
59.76945545452972
 20
231.6010058737344
 30
0.0
 11
59.666639116857
 21
231.6489151007578
 31
0.0
  0
LINE
  5
92D4
  8
0
 10
59.666639116857
 20
231.6489151007578
 30
0.0
 11
59.77699738429519
 21
231.676746994162
 31
0.0
  0
LINE
  5
92D5
  8
0
 10
60.55304512097618
 20
232.3182438754226
 30
0.0
 11
60.60105511685705
 21
232.421129340758
 31
0.0
  0
LINE
  5
92D6
  8
0
 10
60.60105511685705
 20
232.421129340758
 30
0.0
 11
60.62891590188346
 21
232.3108971093494
 31
0.0
  0
LINE
  5
92D7
  8
0
 10
61.27050992567692
 20
231.5345235059391
 30
0.0
 11
61.37333655685651
 21
231.4865173407585
 31
0.0
  0
LINE
  5
92D8
  8
0
 10
61.37333655685651
 20
231.4865173407585
 30
0.0
 11
61.26303994635973
 21
231.4587389871936
 31
0.0
  0
LINE
  5
92D9
  8
0
 10
61.02714387091564
 20
231.0136045494424
 30
0.0
 11
61.06588311685672
 21
230.9069498207578
 31
0.0
  0
LINE
  5
92DA
  8
0
 10
59.96570042366201
 20
231.0605824916825
 30
0.0
 11
59.85908983685667
 21
231.0217655007578
 31
0.0
  0
LINE
  5
92DB
  8
0
 10
59.85908983685667
 20
231.0217655007578
 30
0.0
 11
59.91749508680149
 21
231.119511816422
 31
0.0
  0
LINE
  5
92DC
  8
0
 10
60.01288289015392
 20
232.1216525583992
 30
0.0
 11
59.97407351685669
 21
232.2284949407582
 31
0.0
  0
LINE
  5
92DD
  8
0
 10
59.97407351685669
 20
232.2284949407582
 30
0.0
 11
60.07131278011101
 21
232.1704385737099
 31
0.0
  0
LINE
  5
92DE
  8
0
 10
61.07385674956376
 20
232.0746424960749
 30
0.0
 11
61.18093287685642
 21
232.1134899807581
 31
0.0
  0
LINE
  5
92DF
  8
0
 10
61.18093287685642
 20
232.1134899807581
 30
0.0
 11
61.12278772418594
 21
232.0163237382281
 31
0.0
  0
LINE
  5
92E0
  8
0
 10
60.2726993465686
 20
230.8585808403019
 30
0.0
 11
60.19705207685692
 21
230.773759420758
 31
0.0
  0
LINE
  5
92E1
  8
0
 10
60.19705207685692
 20
230.773759420758
 30
0.0
 11
60.20212488052093
 21
230.8870366465086
 31
0.0
  0
LINE
  5
92E2
  8
0
 10
59.81084091319562
 20
231.8150833202377
 30
0.0
 11
59.72602935685663
 21
231.890650300758
 31
0.0
  0
LINE
  5
92E3
  8
0
 10
59.72602935685663
 20
231.890650300758
 30
0.0
 11
59.83937154461509
 21
231.8856339173886
 31
0.0
  0
LINE
  5
92E4
  8
0
 10
60.767197686711
 20
232.276706002359
 30
0.0
 11
60.84292359685659
 21
232.361664060758
 31
0.0
  0
LINE
  5
92E5
  8
0
 10
60.84292359685659
 20
232.361664060758
 30
0.0
 11
60.8378803946799
 21
232.2484591360372
 31
0.0
  0
LINE
  5
92E6
  8
0
 10
61.22923539242456
 20
231.3204965588862
 30
0.0
 11
61.31413559685697
 21
231.2448359007581
 31
0.0
  0
LINE
  5
92E7
  8
0
 10
60.84664274330916
 20
230.8913200737803
 30
0.0
 11
60.85315815685644
 21
230.777998620758
 31
0.0
  0
LINE
  5
92E8
  8
0
 10
60.85315815685644
 20
230.777998620758
 30
0.0
 11
60.7764312530272
 21
230.8618872433741
 31
0.0
  0
LINE
  5
92E9
  8
0
 10
59.84367646117434
 20
231.2411533116357
 30
0.0
 11
59.73020135685701
 21
231.2345543007583
 31
0.0
  0
LINE
  5
92EA
  8
0
 10
59.73020135685701
 20
231.2345543007583
 30
0.0
 11
59.81396389748951
 21
231.3112435867239
 31
0.0
  0
LINE
  5
92EB
  8
0
 10
60.19333142915693
 20
232.2441046650966
 30
0.0
 11
60.18681415685668
 21
232.3574439007581
 31
0.0
  0
LINE
  5
92EC
  8
0
 10
60.18681415685668
 20
232.3574439007581
 30
0.0
 11
60.26338708585135
 21
232.2738016952622
 31
0.0
  0
LINE
  5
92ED
  8
0
 10
61.19674338518789
 20
231.8945244025077
 30
0.0
 11
61.30983367685675
 21
231.9010271007579
 31
0.0
  0
LINE
  5
92EE
  8
0
 10
61.30983367685675
 20
231.9010271007579
 30
0.0
 11
61.22605328535528
 21
231.8243820058893
 31
0.0
  0
LINE
  5
92EF
  8
0
 10
60.56288158759216
 20
230.8177152259801
 30
0.0
 11
60.52556039685678
 21
230.7104559007581
 31
0.0
  0
LINE
  5
92F0
  8
0
 10
60.52556039685678
 20
230.7104559007581
 30
0.0
 11
60.48672052814581
 21
230.8175312584923
 31
0.0
  0
LINE
  5
92F1
  8
0
 10
59.77009028473239
 20
231.5249189801967
 30
0.0
 11
59.66272583685677
 21
231.5622719007584
 31
0.0
  0
LINE
  5
92F2
  8
0
 10
59.66272583685677
 20
231.5622719007584
 30
0.0
 11
59.76945545452972
 21
231.6010058737344
 31
0.0
  0
LINE
  5
92F3
  8
0
 10
60.47702819435708
 20
232.3177964183656
 30
0.0
 11
60.51428199685697
 21
232.4248466207578
 31
0.0
  0
LINE
  5
92F4
  8
0
 10
60.51428199685697
 20
232.4248466207578
 30
0.0
 11
60.55304512097618
 21
232.3182438754226
 31
0.0
  0
LINE
  5
92F5
  8
0
 10
61.2697725973463
 20
231.6106173650965
 30
0.0
 11
61.37711655685652
 21
231.5731605407578
 31
0.0
  0
LINE
  5
92F6
  8
0
 10
61.08069536869752
 20
231.0677951385092
 30
0.0
 11
61.13009943685674
 21
230.9654922207579
 31
0.0
  0
LINE
  5
92F7
  8
0
 10
61.13009943685674
 20
230.9654922207579
 30
0.0
 11
61.02714387091564
 21
231.0136045494424
 31
0.0
  0
LINE
  5
92F8
  8
0
 10
60.01987561762107
 20
231.0071581595163
 30
0.0
 11
59.91763335685673
 21
230.9577395807579
 31
0.0
  0
LINE
  5
92F9
  8
0
 10
59.91763335685673
 20
230.9577395807579
 30
0.0
 11
59.96570042366201
 21
231.0605824916825
 31
0.0
  0
LINE
  5
92FA
  8
0
 10
59.95915664469803
 20
232.0676955215891
 30
0.0
 11
59.90987623685677
 21
232.1696803807577
 31
0.0
  0
LINE
  5
92FB
  8
0
 10
59.90987623685677
 20
232.1696803807577
 30
0.0
 11
60.01288289015392
 21
232.1216525583992
 31
0.0
  0
LINE
  5
92FC
  8
0
 10
61.02014616936921
 20
232.1287756419157
 30
0.0
 11
61.1222123968565
 21
232.1780882207582
 31
0.0
  0
LINE
  5
92FD
  8
0
 10
61.1222123968565
 20
232.1780882207582
 30
0.0
 11
61.07385674956376
 21
232.0746424960749
 31
0.0
  0
LINE
  5
92FE
  8
0
 10
60.33810185698039
 20
230.8264183225743
 30
0.0
 11
60.27919399685706
 21
230.7450739807578
 31
0.0
  0
LINE
  5
92FF
  8
0
 10
60.27919399685706
 20
230.7450739807578
 30
0.0
 11
60.2726993465686
 21
230.8585808403019
 31
0.0
  0
LINE
  5
9300
  8
0
 10
59.77881582015297
 20
231.7497329913909
 30
0.0
 11
59.69740439685629
 21
231.8086371807582
 31
0.0
  0
LINE
  5
9301
  8
0
 10
59.69740439685629
 20
231.8086371807582
 30
0.0
 11
59.81084091319562
 21
231.8150833202377
 31
0.0
  0
LINE
  5
9302
  8
0
 10
60.70177459553187
 20
232.3088046633462
 30
0.0
 11
60.76070887685691
 21
232.3903047007576
 31
0.0
  0
LINE
  5
9303
  8
0
 10
60.76070887685691
 20
232.3903047007576
 30
0.0
 11
60.767197686711
 21
232.276706002359
 31
0.0
  0
LINE
  5
9304
  8
0
 10
61.26134601064049
 20
231.3859148284697
 30
0.0
 11
61.34282663685653
 21
231.3269375007581
 31
0.0
  0
LINE
  5
9305
  8
0
 10
61.34282663685653
 20
231.3269375007581
 30
0.0
 11
61.22923539242456
 21
231.3204965588862
 31
0.0
  0
LINE
  5
9306
  8
0
 10
60.9154391013827
 20
230.9152630240993
 30
0.0
 11
60.93139015685674
 21
230.815678780758
 31
0.0
  0
LINE
  5
9307
  8
0
 10
60.93139015685674
 20
230.815678780758
 30
0.0
 11
60.84664274330916
 21
230.8913200737803
 31
0.0
  0
LINE
  5
9308
  8
0
 10
59.86718926716284
 20
231.1722929523908
 30
0.0
 11
59.76807863685653
 21
231.1563783007583
 31
0.0
  0
LINE
  5
9309
  8
0
 10
59.76807863685653
 20
231.1563783007583
 30
0.0
 11
59.84367646117434
 21
231.2411533116357
 31
0.0
  0
LINE
  5
930A
  8
0
 10
60.12454461489014
 20
232.220182537351
 30
0.0
 11
60.10864823685651
 21
232.3196237407579
 31
0.0
  0
LINE
  5
930B
  8
0
 10
60.10864823685651
 20
232.3196237407579
 30
0.0
 11
60.19333142915693
 21
232.2441046650966
 31
0.0
  0
LINE
  5
930C
  8
0
 10
61.17248734306949
 20
231.9631219808331
 30
0.0
 11
61.27221959685639
 21
231.9790541407579
 31
0.0
  0
LINE
  5
930D
  8
0
 10
61.27221959685639
 20
231.9790541407579
 30
0.0
 11
61.19674338518789
 21
231.8945244025077
 31
0.0
  0
LINE
  5
930E
  8
0
 10
60.63559066998104
 20
230.8135826487529
 30
0.0
 11
60.61220359685657
 21
230.7154130207578
 31
0.0
  0
LINE
  5
930F
  8
0
 10
59.76559718205053
 20
231.452197788704
 30
0.0
 11
59.66761575685686
 21
231.4754987807579
 31
0.0
  0
LINE
  5
9310
  8
0
 10
59.66761575685686
 20
231.4754987807579
 30
0.0
 11
59.77009028473239
 21
231.5249189801967
 31
0.0
  0
LINE
  5
9311
  8
0
 10
60.40441033803617
 20
232.321843489413
 30
0.0
 11
60.42777207685648
 21
232.4198267807584
 31
0.0
  0
LINE
  5
9312
  8
0
 10
60.42777207685648
 20
232.4198267807584
 30
0.0
 11
60.47702819435708
 21
232.3177964183656
 31
0.0
  0
LINE
  5
9313
  8
0
 10
61.27399198498878
 20
231.6834103993238
 30
0.0
 11
61.37216391685669
 21
231.6599963807581
 31
0.0
  0
LINE
  5
9314
  8
0
 10
61.37216391685669
 20
231.6599963807581
 30
0.0
 11
61.2697725973463
 21
231.6106173650965
 31
0.0
  0
LINE
  5
9315
  8
0
 10
61.13502475627783
 20
231.11629020157
 30
0.0
 11
61.18786119685691
 21
231.0303603807584
 31
0.0
  0
LINE
  5
9316
  8
0
 10
60.06822017909107
 20
230.9527489114604
 30
0.0
 11
59.98243431685714
 21
230.8999733407578
 31
0.0
  0
LINE
  5
9317
  8
0
 10
59.98243431685714
 20
230.8999733407578
 30
0.0
 11
60.01987561762107
 21
231.0071581595163
 31
0.0
  0
LINE
  5
9318
  8
0
 10
59.90488425292969
 20
232.0193750599829
 30
0.0
 11
59.85224327685646
 21
232.104942140758
 31
0.0
  0
LINE
  5
9319
  8
0
 10
59.85224327685646
 20
232.104942140758
 30
0.0
 11
59.95915664469803
 21
232.0676955215891
 31
0.0
  0
LINE
  5
931A
  8
0
 10
60.9713971344614
 20
232.1825614076566
 30
0.0
 11
61.0574080768566
 21
232.235459100758
 31
0.0
  0
LINE
  5
931B
  8
0
 10
55.26074279685653
 20
228.170590460758
 30
0.0
 11
55.26074279685653
 21
227.944302300758
 31
0.0
  0
LINE
  5
931C
  8
0
 10
52.69116487685696
 20
229.2818735007582
 30
0.0
 11
53.79990663685621
 21
229.2818735007582
 31
0.0
  0
LINE
  5
931D
  8
0
 10
55.49193319685682
 20
226.1082616607578
 30
0.0
 11
56.62251719685636
 21
226.1082616607578
 31
0.0
  0
LINE
  5
931E
  8
0
 10
58.09508983685654
 20
229.8122864607581
 30
0.0
 11
58.09508983685654
 21
230.4252994207578
 31
0.0
  0
LINE
  5
931F
  8
0
 10
58.09508983685654
 20
230.4252994207578
 30
0.0
 11
57.03530663685669
 21
230.4252994207578
 31
0.0
  0
LINE
  5
9320
  8
0
 10
57.03530663685669
 20
230.4252994207578
 30
0.0
 11
57.03530663685669
 21
226.1082616607578
 31
0.0
  0
LINE
  5
9321
  8
0
 10
57.03530663685669
 20
226.1082616607578
 30
0.0
 11
58.17866647685659
 21
226.1082616607578
 31
0.0
  0
LINE
  5
9322
  8
0
 10
58.17866647685659
 20
226.1082616607578
 30
0.0
 11
58.17866647685659
 21
227.4397075807579
 31
0.0
  0
LINE
  5
9323
  8
0
 10
59.47960023685673
 20
229.3071698207583
 30
0.0
 11
59.47960023685673
 21
230.4555495007577
 31
0.0
  0
LINE
  5
9324
  8
0
 10
64.11745191685677
 20
229.3719080607576
 30
0.0
 11
65.27750199685678
 21
229.3719080607576
 31
0.0
  0
LINE
  5
9325
  8
0
 10
62.59590503685658
 20
227.3287480607583
 30
0.0
 11
61.39726087685685
 21
227.3287480607583
 31
0.0
  0
LINE
  5
9326
  8
0
 10
44.87127447685688
 20
233.695464220758
 30
0.0
 11
45.39836215685645
 21
233.695464220758
 31
0.0
  0
LINE
  5
9327
  8
0
 10
45.43636823685674
 20
229.3110797407577
 30
0.0
 11
44.9345107968571
 21
229.3110797407577
 31
0.0
  0
LINE
  5
9328
  8
0
 10
44.67165127685675
 20
229.6024947807578
 30
0.0
 11
44.67165127685675
 21
233.2240517407577
 31
0.0
  0
LINE
  5
9329
  8
0
 10
44.72243767685686
 20
228.8267592607577
 30
0.0
 11
45.25786935685673
 21
228.8267592607577
 31
0.0
  0
LINE
  5
932A
  8
0
 10
45.70398775685689
 20
234.1801767007579
 30
0.0
 11
42.03314631685643
 21
234.1801767007579
 31
0.0
  0
LINE
  5
932B
  8
0
 10
42.03314631685643
 20
234.1801767007579
 30
0.0
 11
42.03314631685643
 21
233.7337962207581
 31
0.0
  0
LINE
  5
932C
  8
0
 10
42.03314631685643
 20
233.7337962207581
 30
0.0
 11
42.34776887685675
 21
233.7337962207581
 31
0.0
  0
LINE
  5
932D
  8
0
 10
43.11659511685647
 20
232.8588365407582
 30
0.0
 11
43.11659511685647
 21
227.2732677407581
 31
0.0
  0
LINE
  5
932E
  8
0
 10
42.08419143685668
 20
226.3541733407579
 30
0.0
 11
42.08419143685668
 21
225.9081837407581
 31
0.0
  0
LINE
  5
932F
  8
0
 10
42.08419143685668
 20
225.9081837407581
 30
0.0
 11
46.02917079685639
 21
225.9081837407581
 31
0.0
  0
LINE
  5
9330
  8
0
 10
46.02917079685639
 20
225.9081837407581
 30
0.0
 11
46.02917079685639
 21
226.3543021407582
 31
0.0
  0
LINE
  5
9331
  8
0
 10
44.67165127685675
 20
227.3208576607582
 30
0.0
 11
44.67165127685675
 21
228.6230973407579
 31
0.0
  0
LINE
  5
9332
  8
0
  6
CONTINUOUS
 10
60.56288158759216
 20
230.8177152259801
 30
0.0
 11
60.61220359685657
 21
230.7154130207578
 31
0.0
  0
LINE
  5
9333
  8
0
  6
CONTINUOUS
 10
60.96847517643855
 20
230.9651891833624
 30
0.0
 11
61.06588311685672
 21
230.9069498207578
 31
0.0
  0
LINE
  5
9334
  8
0
  6
CONTINUOUS
 10
61.08069536869752
 20
231.0677951385092
 30
0.0
 11
61.18786119685691
 21
231.0303603807584
 31
0.0
  0
LINE
  5
9335
  8
0
  6
CONTINUOUS
 10
61.16516338733126
 20
231.1824817663042
 30
0.0
 11
61.27737159685657
 21
231.1659621407576
 31
0.0
  0
LINE
  5
9336
  8
0
  6
CONTINUOUS
 10
61.20051978715091
 20
231.2499231797015
 30
0.0
 11
61.31413559685697
 21
231.2448359007581
 31
0.0
  0
LINE
  5
9337
  8
0
  6
CONTINUOUS
 10
61.26134601064049
 20
231.3859148284697
 30
0.0
 11
61.36068615685699
 21
231.4003960607584
 31
0.0
  0
LINE
  5
9338
  8
0
  6
CONTINUOUS
 10
61.27050992567692
 20
231.5345235059391
 30
0.0
 11
61.37711655685652
 21
231.5731605407578
 31
0.0
  0
LINE
  5
9339
  8
0
  6
CONTINUOUS
 10
61.0574080768566
 20
232.235459100758
 30
0.0
 11
61.02014616936921
 21
232.1287756419157
 31
0.0
  0
LINE
  5
933A
  8
0
 10
54.6033025479679
 20
238.277961518536
 30
0.0
 11
56.88752193996797
 21
238.7501678545355
 31
0.0
  0
LINE
  5
933B
  8
0
 10
56.88752193996797
 20
238.7501678545355
 30
0.0
 11
54.60338184396787
 21
239.222143022536
 31
0.0
  0
LINE
  5
933C
  8
0
 10
54.60338184396787
 20
239.222143022536
 30
0.0
 11
55.88873505996852
 21
241.0060678225369
 31
0.0
  0
LINE
  5
933D
  8
0
 10
55.88873505996852
 20
241.0060678225369
 30
0.0
 11
54.10465435596788
 21
239.7207939025357
 31
0.0
  0
LINE
  5
933E
  8
0
 10
54.10465435596788
 20
239.7207939025357
 30
0.0
 11
53.8258998404427
 21
241.0698804418322
 31
0.0
  0
LINE
  5
933F
  8
0
 10
53.41422135681077
 20
240.9476317228851
 30
0.0
 11
53.16078465996733
 21
239.7209498065355
 31
0.0
  0
LINE
  5
9340
  8
0
 10
53.16078465996733
 20
239.7209498065355
 30
0.0
 11
52.31630278512066
 21
240.3291980997743
 31
0.0
  0
LINE
  5
9341
  8
0
 10
52.04114494434825
 20
240.083679655119
 30
0.0
 11
52.66189723596753
 21
239.222143022536
 31
0.0
  0
LINE
  5
9342
  8
0
 10
52.66189723596753
 20
239.222143022536
 30
0.0
 11
51.60073220244212
 21
239.0027203523401
 31
0.0
  0
LINE
  5
9343
  8
0
 10
51.62145527260972
 20
238.4931158796304
 30
0.0
 11
52.66213243596812
 21
238.278271982536
 31
0.0
  0
LINE
  5
9344
  8
0
 10
52.66213243596812
 20
238.278271982536
 30
0.0
 11
52.04907205628396
 21
237.4273153051223
 31
0.0
  0
LINE
  5
9345
  8
0
 10
52.28871939702466
 20
237.1510227581662
 30
0.0
 11
53.16078465996733
 21
237.7792299985354
 31
0.0
  0
LINE
  5
9346
  8
0
 10
53.16078465996733
 20
237.7792299985354
 30
0.0
 11
53.4667071036707
 21
236.2986072629515
 31
0.0
  0
LINE
  5
9347
  8
0
 10
53.77137802213255
 20
236.1665628918587
 30
0.0
 11
54.10465435596788
 21
237.7794651985356
 31
0.0
  0
LINE
  5
9348
  8
0
 10
54.10465435596788
 20
237.7794651985356
 30
0.0
 11
55.88889096396733
 21
236.494036718536
 31
0.0
  0
LINE
  5
9349
  8
0
 10
55.88889096396733
 20
236.494036718536
 30
0.0
 11
54.6033025479679
 21
238.277961518536
 31
0.0
  0
LINE
  5
934A
  8
0
 10
58.36152477018967
 20
224.9475037872513
 30
0.0
 11
58.36152477018967
 21
225.4104059629804
 31
0.0
  0
LINE
  5
934B
  8
0
 10
57.58389194420178
 20
224.7931959014337
 30
0.0
 11
57.58389194420178
 21
224.9475037872513
 31
0.0
  0
LINE
  5
934C
  8
0
 10
58.36152477018967
 20
224.9475037872513
 30
0.0
 11
57.58389194420178
 21
224.9475037872513
 31
0.0
  0
LINE
  5
934D
  8
0
 10
58.35782365944405
 20
224.7931959014337
 30
0.0
 11
57.58389194420178
 21
224.7931959014337
 31
0.0
  0
LINE
  5
934E
  8
0
 10
58.75008906553384
 20
225.4104059629804
 30
0.0
 11
58.36152477018967
 21
225.4104059629804
 31
0.0
  0
LINE
  5
934F
  8
0
 10
58.75008906553384
 20
225.4104059629804
 30
0.0
 11
58.75008906553384
 21
224.9401337493315
 31
0.0
  0
LINE
  5
9350
  8
0
 10
59.49780749571673
 20
224.9401337493315
 30
0.0
 11
58.75008906553384
 21
224.9401337493315
 31
0.0
  0
LINE
  5
9351
  8
0
 10
59.49780749571673
 20
224.7907499499844
 30
0.0
 11
59.49780749571673
 21
224.9401337493315
 31
0.0
  0
LINE
  5
9352
  8
0
 10
58.7449879694187
 20
224.7907499499844
 30
0.0
 11
59.49780749571673
 21
224.7907499499844
 31
0.0
  0
ARC
  5
9353
  8
0
 10
56.51468731447912
 20
225.60072893174
 30
0.0
 40
1.78373366193507
 50
310.0456923729903
 51
327.1738262384467
  0
ARC
  5
9354
  8
0
 10
56.25651791752679
 20
224.9441313131125
 30
0.0
 40
1.92069235163314
 50
325.4885178757464
 51
349.9185299046333
  0
LINE
  5
9355
  8
0
 10
58.01359269708936
 20
224.6337809338098
 30
0.0
 11
58.14755447859042
 21
224.6079173420436
 31
0.0
  0
LINE
  5
9356
  8
0
 10
57.45980943199683
 20
224.0921753656063
 30
0.0
 11
57.83919273847786
 21
223.8559219946679
 31
0.0
  0
ARC
  5
9357
  8
0
 10
56.22875497254753
 20
226.0499989372352
 30
0.0
 40
2.312697174244312
 50
302.1611570594345
 51
308.3070197817706
  0
LINE
  5
9358
  8
0
 10
58.35782365944405
 20
224.7931959014337
 30
0.0
 11
58.35782365944405
 21
223.9044433309651
 31
0.0
  0
LINE
  5
9359
  8
0
 10
58.02107968023265
 20
223.9118316205446
 30
0.0
 11
58.02107968023265
 21
223.7651282336452
 31
0.0
  0
LINE
  5
935A
  8
0
 10
58.02107968023265
 20
223.9118316205446
 30
0.0
 11
58.2598841330815
 21
223.8334962724444
 31
0.0
  0
ARC
  5
935B
  8
0
 10
58.28315699277718
 20
223.9044433309651
 30
0.0
 40
0.0746666666666667
 50
251.8388875732299
 51
0.0
  0
LINE
  5
935C
  8
0
 10
58.7449879694187
 20
223.8773297053382
 30
0.0
 11
58.7449879694187
 21
224.7907499499844
 31
0.0
  0
LINE
  5
935D
  8
0
 10
58.3678903094993
 20
223.623796130522
 30
0.0
 11
58.02107968023265
 21
223.7651282336452
 31
0.0
  0
ARC
  5
935E
  8
0
 10
58.47121019164078
 20
223.8773297053382
 30
0.0
 40
0.2737777777777778
 50
247.8281449539039
 51
0.0
  0
LINE
  5
935F
  8
0
 10
59.05427140421952
 20
224.6443668823445
 30
0.0
 11
59.16637915675992
 21
224.5391065219079
 31
0.0
  0
LINE
  5
9360
  8
0
 10
58.93140859331524
 20
224.6028492667848
 30
0.0
 11
59.05427140421952
 21
224.6443668823445
 31
0.0
  0
LINE
  5
9361
  8
0
 10
59.56812368847667
 20
224.0461876491305
 30
0.0
 11
59.13668292439715
 21
223.8598176567585
 31
0.0
  0
ARC
  5
9362
  8
0
 10
56.54297614292645
 20
223.543135756333
 30
0.0
 40
2.61296810051403
 50
6.961145816582685
 51
23.92618042379387
  0
ARC
  5
9363
  8
0
 10
57.49391840801363
 20
222.7841848965701
 30
0.0
 40
2.4279576794027
 50
31.31746538013244
 51
50.00949102187557
  0
LINE
  5
9364
  8
0
 10
61.34510914602433
 20
225.2716692238033
 30
0.0
 11
61.34510914602433
 21
225.1173613379852
 31
0.0
  0
LINE
  5
9365
  8
0
 10
61.34510914602433
 20
225.2716692238033
 30
0.0
 11
59.85344299742437
 21
225.2716692238033
 31
0.0
  0
LINE
  5
9366
  8
0
 10
59.85344299742437
 20
225.1173613379852
 30
0.0
 11
59.85344299742437
 21
225.2716692238033
 31
0.0
  0
LINE
  5
9367
  8
0
 10
61.34510914602433
 20
225.1173613379852
 30
0.0
 11
59.85344299742437
 21
225.1173613379852
 31
0.0
  0
LINE
  5
9368
  8
0
 10
61.48553528862212
 20
224.7953680584302
 30
0.0
 11
59.69599721336553
 21
224.7953680584302
 31
0.0
  0
LINE
  5
9369
  8
0
 10
59.69599721336553
 20
224.6342427233809
 30
0.0
 11
59.69599721336553
 21
224.7953680584302
 31
0.0
  0
LINE
  5
936A
  8
0
 10
60.99630183440976
 20
224.6342427233809
 30
0.0
 11
59.69599721336553
 21
224.6342427233809
 31
0.0
  0
LINE
  5
936B
  8
0
 10
61.48553528862212
 20
224.6564128426158
 30
0.0
 11
61.48553528862212
 21
224.7953680584302
 31
0.0
  0
LINE
  5
936C
  8
0
 10
59.85514070973213
 20
223.7357032432938
 30
0.0
 11
59.90345790072942
 21
223.6109437988558
 31
0.0
  0
ARC
  5
936D
  8
0
 10
59.38489231898129
 20
225.7243520140024
 30
0.0
 40
2.043491493068839
 50
283.3041404476269
 51
312.187984758957
  0
ARC
  5
936E
  8
0
 10
59.72960287778196
 20
225.0690557279919
 30
0.0
 40
1.33924926570833
 50
320.1134675612499
 51
341.0544644537726
  0
ARC
  5
936F
  8
0
 10
60.28015248987785
 20
224.9681531693874
 30
0.0
 40
1.245042056656759
 50
284.1440925346391
 51
345.4996819276624
  0
ARC
  5
9370
  8
0
 10
59.86880951040675
 20
225.3897648792687
 30
0.0
 40
1.77915849408482
 50
271.1158826182763
 51
293.7159784209443
  0
LINE
  5
9371
  8
0
 10
62.14129556700581
 20
224.2933846369311
 30
0.0
 11
62.14129556700581
 21
225.3337184477674
 31
0.0
  0
LINE
  5
9372
  8
0
 10
62.14129556700581
 20
225.3337184477674
 30
0.0
 11
61.73249874100074
 21
225.3337184477674
 31
0.0
  0
LINE
  5
9373
  8
0
 10
61.73249874100074
 20
224.2933846369311
 30
0.0
 11
61.73249874100074
 21
225.3337184477674
 31
0.0
  0
LINE
  5
9374
  8
0
 10
62.14129556700581
 20
224.2933846369311
 30
0.0
 11
61.73249874100074
 21
224.2933846369311
 31
0.0
  0
LINE
  5
9375
  8
0
 10
63.07892191309392
 20
224.5884778722135
 30
0.0
 11
63.07892191309392
 21
225.3337184477674
 31
0.0
  0
LINE
  5
9376
  8
0
 10
62.68049882099294
 20
224.6430884383777
 30
0.0
 11
62.68049882099294
 21
225.3337184477674
 31
0.0
  0
LINE
  5
9377
  8
0
 10
62.68049882099294
 20
225.3337184477674
 30
0.0
 11
63.07892191309392
 21
225.3337184477674
 31
0.0
  0
LINE
  5
9378
  8
0
 10
61.84759125682203
 20
223.6730420670825
 30
0.0
 11
61.93138877212922
 21
223.5654758079741
 31
0.0
  0
ARC
  5
9379
  8
0
 10
61.73526096789109
 20
224.6120932926211
 30
0.0
 40
0.9457458950466363
 50
276.8213681552839
 51
1.878103949386534
  0
ARC
  5
937A
  8
0
 10
61.87426527407351
 20
224.9016208377448
 30
0.0
 40
1.337365557583815
 50
272.4480452339944
 51
323.9127955890404
  0
ARC
  5
937B
  8
0
 10
62.03129566426614
 20
224.6085199367077
 30
0.0
 40
1.047817942956835
 50
331.8321656005633
 51
358.9040121443402
  0
LINE
  5
937C
  8
0
 10
64.71642104433803
 20
225.0632339603145
 30
0.0
 11
64.71642104433803
 21
225.1826662585368
 31
0.0
  0
LINE
  5
937D
  8
0
 10
63.36816650495766
 20
225.0438599963705
 30
0.0
 11
63.36816650495766
 21
225.1826662585368
 31
0.0
  0
LINE
  5
937E
  8
0
 10
64.71642104433803
 20
225.1826662585368
 30
0.0
 11
63.36816650495766
 21
225.1826662585368
 31
0.0
  0
LINE
  5
937F
  8
0
 10
64.23955169759628
 20
225.0438599963705
 30
0.0
 11
63.36816650495766
 21
225.0438599963705
 31
0.0
  0
LINE
  5
9380
  8
0
 10
62.98337905088474
 20
223.7254331166319
 30
0.0
 11
63.06039726727167
 21
223.6054659851021
 31
0.0
  0
ARC
  5
9381
  8
0
 10
62.37740299873084
 20
225.5604382703037
 30
0.0
 40
1.932472739726369
 50
288.2748377643809
 51
344.4954648401278
  0
ARC
  5
9382
  8
0
 10
62.39068372267238
 20
226.1655418042875
 30
0.0
 40
2.646224561861322
 50
284.6600032593546
 51
312.5396667739578
  0
LINE
  5
9383
  8
0
 10
64.81691565058426
 20
223.5841533028784
 30
0.0
 11
65.12240321401222
 21
223.9279820224207
 31
0.0
  0
ARC
  5
9384
  8
0
 10
62.78856148968734
 20
222.175301534268
 30
0.0
 40
2.469632342666266
 50
34.78302390875149
 51
55.71309290050228
  0
ARC
  5
9385
  8
0
 10
62.96248485210171
 20
225.6001365561466
 30
0.0
 40
1.834272761572525
 50
316.4306178633717
 51
342.9799715932805
  0
ARC
  5
9386
  8
0
 10
62.71363163530268
 20
220.0715932115441
 30
0.0
 40
4.546857725842939
 50
58.01034014976546
 51
69.6947510335346
  0
ARC
  5
9891
  8
0
 10
53.62970639697363
 20
238.7350791773657
 30
0.0
 40
5.33214218313847
 50
74.3144994222587
 51
104.1724498576074
  0
ARC
  5
9892
  8
0
 10
53.63719310871346
 20
238.7456085070042
 30
0.0
 40
5.323775476131433
 50
104.2783165563116
 51
166.1870765708273
  0
ARC
  5
9893
  8
0
 10
53.6413319137059
 20
238.7525341703965
 30
0.0
 40
5.326146654840227
 50
166.270054507626
 51
215.0482339935348
  0
ARC
  5
9894
  8
0
 10
53.62940012956003
 20
238.7439029086893
 30
0.0
 40
5.311421839969246
 50
215.0459241187441
 51
273.2408824576858
  0
ARC
  5
9895
  8
0
 10
53.63143619020704
 20
238.7515019295531
 30
0.0
 40
5.318894171081752
 50
273.2143571100679
 51
346.1779060677009
  0
ARC
  5
9896
  8
0
 10
53.64154207740791
 20
238.7440207340858
 30
0.0
 40
5.307295827239366
 50
346.2302669880834
 51
43.78488871851552
  0
ARC
  5
9897
  8
0
 10
55.7042978843202
 20
238.3225561834796
 30
0.0
 40
4.459640505811445
 50
66.63259795322786
 51
109.905871685035
  0
ARC
  5
9898
  8
0
 10
55.48614554150345
 20
238.842788028578
 30
0.0
 40
3.896315762598357
 50
109.4942419685547
 51
167.6530237580676
  0
ARC
  5
9899
  8
0
 10
54.74744579647211
 20
237.3224391305079
 30
0.0
 40
3.866330758866939
 50
121.49327701854
 51
142.503166897339
  0
ARC
  5
989A
  8
0
 10
54.6957598031006
 20
237.3858903547235
 30
0.0
 40
3.78524088928143
 50
91.77940320266768
 51
121.3278955587065
  0
ARC
  5
989B
  8
0
 10
54.68348645526385
 20
237.268225114929
 30
0.0
 40
3.90250076108918
 50
65.20023754136542
 51
91.54565188015083
  0
ARC
  5
989C
  8
0
 10
54.50975541463981
 20
236.9088364453556
 30
0.0
 40
4.301623157105358
 50
30.14973546883468
 51
65.10747394303505
  0
ARC
  5
989D
  8
0
 10
54.29351862566176
 20
236.7694577139305
 30
0.0
 40
4.558626665475829
 50
8.9769926527231
 51
30.2994981683211
  0
ARC
  5
989E
  8
0
 10
55.40717092376011
 20
240.2892949716987
 30
0.0
 40
4.401593171265135
 50
288.3388974970104
 51
320.3520397443187
  0
ARC
  5
989F
  8
0
 10
55.35629633250591
 20
240.3478043311182
 30
0.0
 40
4.473237795108389
 50
252.8403059470309
 51
288.7216405446108
  0
ARC
  5
98A0
  8
0
 10
55.20805891152548
 20
239.9192591559584
 30
0.0
 40
4.020062191481092
 50
209.1938724537275
 51
253.0569803949627
  0
ARC
  5
98A1
  8
0
 10
55.02000816794097
 20
239.7659896212579
 30
0.0
 40
3.781373116886767
 50
175.5970978715927
 51
208.5563260925432
  0
ARC
  5
98A2
  8
0
 10
55.24427287128486
 20
239.7234399685041
 30
0.0
 40
4.008321764107
 50
141.0080554268093
 51
175.2367758980932
  0
ARC
  5
98A3
  8
0
 10
55.58905229317247
 20
239.4514669460113
 30
0.0
 40
4.447428119007347
 50
96.68547469604036
 51
141.0795845301959
  0
ARC
  5
98A4
  8
0
 10
55.3895423654368
 20
238.9015687612092
 30
0.0
 40
3.790160167539093
 50
178.4707117364453
 51
186.1865889351898
  0
ARC
  5
98A5
  8
0
 10
42.35595743418997
 20
231.6312842444588
 30
0.0
 40
2.102527922038834
 50
84.95619996680482
 51
90.22314612645769
  0
ARC
  5
98A6
  8
0
 10
42.48802372906363
 20
232.8785585759047
 30
0.0
 40
0.848754935304436
 50
65.19337763183492
 51
86.43460068621052
  0
ARC
  5
98A7
  8
0
 10
42.64724748005952
 20
233.2638784232336
 30
0.0
 40
0.432524910680116
 50
13.9863879207907
 51
62.92338893732329
  0
ARC
  5
98A8
  8
0
 10
41.97679210851953
 20
233.0598717238057
 30
0.0
 40
1.132979464242894
 50
3.904131892889081
 51
15.80295944671843
  0
ARC
  5
98A9
  8
0
 10
39.91717572266293
 20
232.8893654301298
 30
0.0
 40
3.199565044350259
 50
359.4532997353156
 51
4.439158366316591
  0
ARC
  5
98AA
  8
0
 10
42.09848132486894
 20
228.3160017042074
 30
0.0
 40
1.961880406277173
 50
269.5826669607686
 51
281.2467372863051
  0
ARC
  5
98AB
  8
0
 10
42.3256857985966
 20
227.2422102148996
 30
0.0
 40
0.8645009778283242
 50
280.3576091429006
 51
308.9726038906425
  0
ARC
  5
98AC
  8
0
 10
42.39730952214268
 20
227.0954499230206
 30
0.0
 40
0.7063050293075379
 50
311.9446536813427
 51
353.5803040312001
  0
ARC
  5
98AD
  8
0
 10
41.45875165978418
 20
227.2566781518763
 30
0.0
 40
1.657926458748007
 50
351.6696629683137
 51
0.5733241568768106
  0
ARC
  5
98AE
  8
0
 10
46.7403340145263
 20
232.2628570426363
 30
0.0
 40
5.95119938757511
 50
257.5813101393114
 51
263.136802496719
  0
ARC
  5
98AF
  8
0
 10
45.75063144462843
 20
227.8189296361399
 30
0.0
 40
1.398452974297173
 50
235.2289453505774
 51
258.0263291625699
  0
ARC
  5
98B0
  8
0
 10
45.40572338769647
 20
227.2440316061857
 30
0.0
 40
0.7308682337771808
 50
181.3642075179843
 51
231.7348554842791
  0
ARC
  5
98B1
  8
0
 10
45.95041944077488
 20
227.3199747581851
 30
0.0
 40
1.278768468710234
 50
179.9604411616191
 51
184.1860155147163
  0
ARC
  5
98B2
  8
0
 10
33.22875335713425
 20
228.4535387258883
 30
0.0
 40
11.44415409390602
 50
0.848935483152986
 51
1.690006264274332
  0
ARC
  5
98B3
  8
0
 10
44.7034254774178
 20
228.7937707134794
 30
0.0
 40
0.0356002396173115
 50
132.0995794755948
 51
184.3854082312399
  0
ARC
  5
98B4
  8
0
 10
44.71173765960572
 20
228.7534206346588
 30
0.0
 40
0.0741150757083008
 50
81.69918243476886
 51
115.7331729843349
  0
ARC
  5
98B5
  8
0
 10
44.9183102906585
 20
229.5833971937319
 30
0.0
 40
0.2727989215437704
 50
229.3422064805707
 51
273.4045849244121
  0
ARC
  5
98B6
  8
0
 10
44.94464848448197
 20
229.5524798662993
 30
0.0
 40
0.2695085644996453
 50
184.8442539947764
 51
220.7801867736532
  0
ARC
  5
98B7
  8
0
 10
45.23608322764125
 20
229.6004958610478
 30
0.0
 40
0.5644354903320787
 50
179.7970894737595
 51
187.2033550483905
  0
ARC
  5
98B8
  8
0
 10
45.24423008002896
 20
234.4519769619621
 30
0.0
 40
5.625234236528772
 50
270.1389228840426
 51
282.5749638804127
  0
ARC
  5
98B9
  8
0
 10
45.70357304034968
 20
232.7862898340963
 30
0.0
 40
3.900438044695806
 50
281.31631568977
 51
306.6736079669237
  0
ARC
  5
98BA
  8
0
 10
46.06753711661798
 20
232.0841828171764
 30
0.0
 40
3.122533740917625
 50
309.0122993056879
 51
333.1868714432047
  0
ARC
  5
98BB
  8
0
 10
46.78214621315973
 20
231.6418344893839
 30
0.0
 40
2.286370135056757
 50
335.0025208531055
 51
3.132350940942409
  0
ARC
  5
98BC
  8
0
 10
46.673989016517
 20
231.5562934701772
 30
0.0
 40
2.400356917899017
 50
5.030415615660186
 51
45.8801555680425
  0
ARC
  5
98BD
  8
0
 10
46.02389455579993
 20
230.6135317269899
 30
0.0
 40
3.534812041936091
 50
48.95520224166617
 51
77.68716474380085
  0
ARC
  5
98BE
  8
0
 10
45.74608315557902
 20
229.4284063680192
 30
0.0
 40
4.751956788280896
 50
77.46176455392263
 51
90.50756358638267
  0
ARC
  5
98BF
  8
0
 10
44.8691434581819
 20
233.5626239077253
 30
0.0
 40
0.1328574047888303
 50
89.08094236461791
 51
124.4007292599872
  0
ARC
  5
98C0
  8
0
 10
44.92148369101272
 20
233.5016258116225
 30
0.0
 40
0.2129371461418388
 50
126.7487054586328
 51
162.0338218173676
  0
ARC
  5
98C1
  8
0
 10
45.42921822193563
 20
233.3135055810241
 30
0.0
 40
0.7542713589800576
 50
160.3370642577249
 51
177.7002884087945
  0
ARC
  5
98C2
  8
0
 10
46.36590144124074
 20
233.2287401837842
 30
0.0
 40
1.69425665145904
 50
176.1068976128699
 51
180.1585523306186
  0
ARC
  5
98C3
  8
0
 10
45.37356275037314
 20
231.5294992001326
 30
0.0
 40
2.219308321722258
 50
271.6216628224755
 51
290.5180238120268
  0
ARC
  5
98C4
  8
0
 10
45.55354670475748
 20
230.95965386669
 30
0.0
 40
1.622827402472289
 50
291.6184361004774
 51
329.2928533987833
  0
ARC
  5
98C5
  8
0
 10
44.62443842257289
 20
231.4712978103248
 30
0.0
 40
2.683157532333741
 50
330.0305147082963
 51
359.7069691972517
  0
ARC
  5
98C6
  8
0
 10
44.49651675808985
 20
231.5819226718992
 30
0.0
 40
2.813793035039953
 50
357.4671544818835
 51
18.09389103936943
  0
ARC
  5
98C7
  8
0
 10
45.34875832821618
 20
231.8783520670721
 30
0.0
 40
1.911708557628758
 50
17.58181129013311
 51
44.10613559949745
  0
ARC
  5
98C8
  8
0
 10
45.60837962687495
 20
232.0888184771983
 30
0.0
 40
1.579081423259486
 50
45.17904980442386
 51
71.36379322642686
  0
ARC
  5
98C9
  8
0
 10
45.43169608899944
 20
231.5424040534467
 30
0.0
 40
2.153318191790253
 50
71.55515292962627
 51
90.8869891698155
  0
ARC
  5
98CA
  8
0
 10
48.45918952960557
 20
228.6333824620227
 30
0.0
 40
0.9504697930117868
 50
45.647846390803
 51
90.95907175324457
  0
ARC
  5
98CB
  8
0
 10
48.19057423128965
 20
228.4027580227084
 30
0.0
 40
1.303524477208397
 50
356.286618042267
 51
44.29157541670886
  0
ARC
  5
98CC
  8
0
 10
47.74044742681954
 20
228.2344246542795
 30
0.0
 40
1.752924040513615
 50
332.8282653512692
 51
2.743720271344923
  0
ARC
  5
98CD
  8
0
 10
48.43247162729932
 20
227.9488123400842
 30
0.0
 40
1.008745565207887
 50
281.1029522262585
 51
329.3086861457625
  0
ARC
  5
98CE
  8
0
 10
48.44503473972429
 20
228.021093038352
 30
0.0
 40
1.077573765673208
 50
254.373585711482
 51
279.7072195183877
  0
ARC
  5
98CF
  8
0
 10
48.45865623713573
 20
227.9612150714553
 30
0.0
 40
1.023995873514749
 50
198.078198350464
 51
252.7369026576817
  0
ARC
  5
98D0
  8
0
 10
49.50470998084256
 20
228.2674967066552
 30
0.0
 40
2.113718303506307
 50
164.6942276189751
 51
197.1716014617761
  0
ARC
  5
98D1
  8
0
 10
48.50065069068069
 20
228.5323172105491
 30
0.0
 40
1.07541041250608
 50
123.3084104466157
 51
164.1819940011187
  0
ARC
  5
98D2
  8
0
 10
48.42975451827675
 20
228.623476771804
 30
0.0
 40
0.9603375863241239
 50
89.19299068101529
 51
122.7601092117228
  0
ARC
  5
98D3
  8
0
 10
48.74599718647397
 20
228.2713777018811
 30
0.0
 40
2.529168051565525
 50
164.9665044400625
 51
190.6145490228779
  0
ARC
  5
98D4
  8
0
 10
48.37943253112851
 20
228.0951938837565
 30
0.0
 40
2.13903317801624
 50
187.7835408718215
 51
220.8538282758054
  0
ARC
  5
98D5
  8
0
 10
48.36290865327183
 20
228.2577171277839
 30
0.0
 40
2.23684800464541
 50
224.28151327257
 51
262.3352180838968
  0
ARC
  5
98D6
  8
0
 10
48.44410295745786
 20
228.4258813396647
 30
0.0
 40
2.415036709056927
 50
260.9581187463501
 51
295.9617934482585
  0
ARC
  5
98D7
  8
0
 10
48.46881443093596
 20
228.1923695900654
 30
0.0
 40
2.195729658493223
 50
298.0499757225368
 51
338.9010076102918
  0
ARC
  5
98D8
  8
0
 10
48.07925792781018
 20
228.2778053487778
 30
0.0
 40
2.590632549888452
 50
340.2397223934027
 51
12.59603457387198
  0
ARC
  5
98D9
  8
0
 10
48.55389651119862
 20
228.3963443719012
 30
0.0
 40
2.101602444292964
 50
12.26400142418705
 51
42.00204460106953
  0
ARC
  5
98DA
  8
0
 10
48.5534054065557
 20
228.423830220292
 30
0.0
 40
2.083678402800012
 50
41.43135548057312
 51
84.31090183999093
  0
ARC
  5
98DB
  8
0
 10
54.44238830636203
 20
228.9527668504953
 30
0.0
 40
0.7218683279506627
 50
130.1010359850342
 51
152.8765297157266
  0
ARC
  5
98DC
  8
0
 10
54.38442435428126
 20
228.9390510155793
 30
0.0
 40
0.6970539232955045
 50
93.6216075869979
 51
125.7261982466873
  0
ARC
  5
98DD
  8
0
 10
54.49550482082105
 20
227.9945750539562
 30
0.0
 40
1.647456117640462
 50
86.1442592668663
 51
95.40251107253543
  0
ARC
  5
98DE
  8
0
 10
54.54423721877021
 20
228.166369787758
 30
0.0
 40
1.473239699002557
 50
75.78444603343868
 51
87.58609443775997
  0
ARC
  5
98DF
  8
0
 10
54.80892063113754
 20
229.1635997876939
 30
0.0
 40
0.4417023764257507
 50
38.65642909797035
 51
77.30076056537806
  0
ARC
  5
98E0
  8
0
 10
54.63722881674153
 20
229.0930918918851
 30
0.0
 40
0.622013293909289
 50
359.8735965182385
 51
33.84363804094146
  0
ARC
  5
98E1
  8
0
 10
51.67911811270645
 20
228.9728257407578
 30
0.0
 40
3.582096140528945
 50
359.0859929973961
 51
1.902062204167362
  0
ARC
  5
98E2
  8
0
 10
54.32177715937533
 20
231.2426084262958
 30
0.0
 40
2.509234634269819
 50
284.9657500733399
 51
291.97550982172
  0
ARC
  5
98E3
  8
0
 10
52.64245385887477
 20
237.390445939989
 30
0.0
 40
8.882278806531481
 50
280.2043110183695
 51
285.1898042810342
  0
ARC
  5
98E4
  8
0
 10
55.10755945142208
 20
223.491049350137
 30
0.0
 40
5.234101951295329
 50
99.80708673503382
 51
108.9029002183753
  0
ARC
  5
98E5
  8
0
 10
53.80234854898916
 20
227.2414458348544
 30
0.0
 40
1.263280702218469
 50
108.0038789458568
 51
139.5346921255566
  0
ARC
  5
98E6
  8
0
 10
53.74244764032562
 20
227.3252826245356
 30
0.0
 40
1.163565746446632
 50
140.7612947780745
 51
168.9659435881561
  0
ARC
  5
98E7
  8
0
 10
53.9768152382901
 20
227.2835816858868
 30
0.0
 40
1.401587473098195
 50
169.1264415873884
 51
196.8129880402175
  0
ARC
  5
98E8
  8
0
 10
53.77683507748731
 20
227.2500626224388
 30
0.0
 40
1.200736629503124
 50
198.0421705376476
 51
235.7348582477584
  0
ARC
  5
98E9
  8
0
 10
53.933694722436
 20
227.5481088409723
 30
0.0
 40
1.535844315416191
 50
237.1590292494215
 51
270.7198132743666
  0
ARC
  5
98EA
  8
0
 10
54.01363110535334
 20
227.8221211265084
 30
0.0
 40
1.810751131158588
 50
268.0808101764746
 51
292.8635926074776
  0
ARC
  5
98EB
  8
0
 10
53.88282183575745
 20
228.0491272461555
 30
0.0
 40
2.070998767971581
 50
293.7580989581123
 51
314.7899657835182
  0
ARC
  5
98EC
  8
0
 10
58.8620047300009
 20
227.2175701992454
 30
0.0
 40
2.499173832420186
 50
192.2727471956715
 51
206.3510707099188
  0
ARC
  5
98ED
  8
0
 10
60.82763071078571
 20
227.3923893023749
 30
0.0
 40
4.463878389973498
 50
178.3054146575074
 51
189.1007693226514
  0
ARC
  5
98EE
  8
0
 10
-122.3404779120986
 20
230.4452539548088
 30
0.0
 40
178.7300508439498
 50
359.0636135939208
 51
359.5331222948618
  0
ARC
  5
98EF
  8
0
 10
53.30452549634907
 20
228.9884361109757
 30
0.0
 40
3.07911375910394
 50
0.0082366020401114
 51
13.70501902078777
  0
ARC
  5
98F0
  8
0
 10
55.44388379996929
 20
229.4575672493231
 30
0.0
 40
0.8909843556742496
 50
16.99219239725965
 51
58.15468777164725
  0
ARC
  5
98F1
  8
0
 10
54.97608523618609
 20
228.7979983115237
 30
0.0
 40
1.698813368729804
 50
56.4891308086457
 51
88.52476597508146
  0
ARC
  5
98F2
  8
0
 10
54.61316639129561
 20
226.2209993784611
 30
0.0
 40
4.294545824498953
 50
84.56646884241289
 51
99.63736677787178
  0
ARC
  5
98F3
  8
0
 10
54.13967752931245
 20
229.0002978670913
 30
0.0
 40
1.475204576717583
 50
99.5783577095598
 51
133.4108128523484
  0
ARC
  5
98F4
  8
0
 10
54.39336012037575
 20
228.8599291577558
 30
0.0
 40
1.753711970549818
 50
136.2812462218209
 51
166.0780026216429
  0
ARC
  5
98F5
  8
0
 10
53.27121216602623
 20
234.6295008831589
 30
0.0
 40
6.758384124597473
 50
280.6962555586759
 51
287.1203411217375
  0
ARC
  5
98F6
  8
0
 10
55.23844411769088
 20
224.5367709859032
 30
0.0
 40
3.524614443440088
 50
101.6686696910115
 51
109.1101391117779
  0
ARC
  5
98F7
  8
0
 10
54.24780114577186
 20
227.3431119964025
 30
0.0
 40
0.5488788980844314
 50
107.304431562489
 51
142.6785974978667
  0
ARC
  5
98F8
  8
0
 10
54.16061746956549
 20
227.4055040549011
 30
0.0
 40
0.4417308257590526
 50
142.258199201179
 51
180.7216068092584
  0
ARC
  5
98F9
  8
0
 10
54.26475672049054
 20
227.3946850728161
 30
0.0
 40
0.5458603467606972
 50
179.4483220443287
 51
220.6412737198986
  0
ARC
  5
98FA
  8
0
 10
54.31853279352936
 20
227.4229259357962
 30
0.0
 40
0.6052123636331186
 50
219.3540008203597
 51
262.049369939488
  0
ARC
  5
98FB
  8
0
 10
54.35795008110853
 20
227.7219463409625
 30
0.0
 40
0.9068136346841665
 50
262.1960849641753
 51
288.4736708280099
  0
ARC
  5
98FC
  8
0
 10
54.31018420135027
 20
227.865275507021
 30
0.0
 40
1.057892482791887
 50
288.4676009339713
 51
313.9760865401699
  0
ARC
  5
98FD
  8
0
 10
54.56843688096319
 20
227.5823882474473
 30
0.0
 40
0.6750814753682137
 50
314.873968361606
 51
353.3371743964237
  0
ARC
  5
98FE
  8
0
 10
51.80432293624364
 20
227.8946719332125
 30
0.0
 40
3.456776160850171
 50
353.5117984853132
 51
0.8226475095749395
  0
ARC
  5
98FF
  8
0
 10
62.41484515251648
 20
228.5730990184375
 30
0.0
 40
7.34861436909221
 50
195.7421928264704
 51
199.597791318071
  0
ARC
  5
9900
  8
0
 10
75.18631218033333
 20
227.4760610202651
 30
0.0
 40
17.00768455573995
 50
177.5431527159519
 51
180.1224681839423
  0
ARC
  5
9901
  8
0
 10
62.17308935800017
 20
228.0814552515267
 30
0.0
 40
3.98074969577439
 50
168.3575610519279
 51
178.2196605600729
  0
ARC
  5
9902
  8
0
 10
59.26394801097683
 20
228.6605458832271
 30
0.0
 40
1.014793522696064
 50
138.3863021467757
 51
167.2340218536034
  0
ARC
  5
9903
  8
0
 10
58.90834637183784
 20
228.8937652857263
 30
0.0
 40
0.5972547683434593
 50
96.77586538956423
 51
132.447773558299
  0
ARC
  5
9904
  8
0
 10
58.93913971537421
 20
228.7418654966127
 30
0.0
 40
0.7518332906437697
 50
71.72267914677889
 51
97.74042030460187
  0
ARC
  5
9905
  8
0
 10
58.76568800754001
 20
228.2300664274694
 30
0.0
 40
1.29221607752043
 50
56.46328333653608
 51
71.5367949068469
  0
ARC
  5
9906
  8
0
 10
60.69935289574343
 20
228.2080386491241
 30
0.0
 40
3.058724754046294
 50
139.5470247594357
 51
148.3665835328131
  0
ARC
  5
9907
  8
0
 10
59.04756343606115
 20
229.6400038299172
 30
0.0
 40
0.8729050829687197
 50
109.5979517564685
 51
140.7231812093455
  0
ARC
  5
9908
  8
0
 10
59.07795105936688
 20
229.5124905120666
 30
0.0
 40
1.003323721815536
 50
86.36469047660621
 51
108.7902753767986
  0
ARC
  5
9909
  8
0
 10
59.07698552933516
 20
229.1373123272498
 30
0.0
 40
1.377997254265745
 50
78.84643697971657
 51
87.31376656527279
  0
ARC
  5
990A
  8
0
 10
59.06326719858239
 20
229.0675829553123
 30
0.0
 40
1.449063259500479
 50
73.30291166206497
 51
78.8475905402678
  0
ARC
  5
990B
  8
0
 10
63.66424728098914
 20
228.9259216841451
 30
0.0
 40
1.673766598535952
 50
15.45353000298215
 51
35.65921843237705
  0
ARC
  5
990C
  8
0
 10
63.94936654552882
 20
229.115629469595
 30
0.0
 40
1.331569712949468
 50
36.17886961743995
 51
65.18032133965713
  0
ARC
  5
990D
  8
0
 10
63.5660837597957
 20
228.0470215875747
 30
0.0
 40
2.464419661937123
 50
67.52176510600175
 51
89.95176516883794
  0
ARC
  5
990E
  8
0
 10
63.38651319318038
 20
226.785499011621
 30
0.0
 40
3.730366476747655
 50
87.208954205559
 51
101.0994306540248
  0
ARC
  5
990F
  8
0
 10
62.94850651561228
 20
228.9845505981864
 30
0.0
 40
1.488141506149253
 50
100.8503522773502
 51
133.1120733601343
  0
ARC
  5
9910
  8
0
 10
62.7614570774476
 20
229.1943249557834
 30
0.0
 40
1.207186880999289
 50
133.4355814373259
 51
160.5403057677102
  0
ARC
  5
9911
  8
0
 10
62.85913337287172
 20
229.1871470422864
 30
0.0
 40
1.30192991328094
 50
161.6745785399147
 51
192.4880693726293
  0
ARC
  5
9912
  8
0
 10
62.6254391311889
 20
229.1332113610572
 30
0.0
 40
1.06210390647494
 50
192.3733574320922
 51
226.4953370670944
  0
ARC
  5
9913
  8
0
 10
62.78676830254699
 20
229.2884779125553
 30
0.0
 40
1.285822665205259
 50
226.0440591685035
 51
249.5155775654873
  0
ARC
  5
9914
  8
0
 10
64.7335790577373
 20
234.189234043749
 30
0.0
 40
6.558883186265355
 50
248.5661847695234
 51
256.364882331747
  0
ARC
  5
9915
  8
0
 10
73.4859980123208
 20
269.2980397774415
 30
0.0
 40
42.74209767946007
 50
256.0575388595495
 51
257.0500330678841
  0
ARC
  5
9916
  8
0
 10
63.76554476188178
 20
226.9182204248266
 30
0.0
 40
0.738586693301286
 50
53.94494987543574
 51
78.91973275289719
  0
ARC
  5
9917
  8
0
 10
63.97533764177848
 20
227.3050302823203
 30
0.0
 40
0.3079156393342173
 50
351.7054337157878
 51
43.07738885190844
  0
ARC
  5
9918
  8
0
 10
63.92301508296151
 20
227.2876820308278
 30
0.0
 40
0.3580422081846633
 50
305.5545895016557
 51
355.6635972446031
  0
ARC
  5
9919
  8
0
 10
63.60152364599213
 20
227.808389435958
 30
0.0
 40
0.9694871848616392
 50
270.6346537603557
 51
303.1173831021145
  0
ARC
  5
991A
  8
0
 10
63.47389066174804
 20
228.3682917542283
 30
0.0
 40
1.535577099296554
 50
255.0528385911238
 51
275.1699625266891
  0
ARC
  5
991B
  8
0
 10
63.27465533834271
 20
227.5786276580062
 30
0.0
 40
0.72133028502093
 50
220.3482025964622
 51
254.1645624218323
  0
ARC
  5
991C
  8
0
 10
63.35127921402275
 20
227.630656979816
 30
0.0
 40
0.8134735047535518
 50
201.7856653156537
 51
219.6469566048348
  0
ARC
  5
991D
  8
0
 10
63.02558367137098
 20
227.7410983067227
 30
0.0
 40
1.679722551042641
 50
194.210622631723
 51
218.9435761559325
  0
ARC
  5
991E
  8
0
 10
63.03591206439521
 20
227.7783782170214
 30
0.0
 40
1.711336039747307
 50
219.6970036238806
 51
248.5406571485441
  0
ARC
  5
991F
  8
0
 10
63.33653074007503
 20
228.6338602289409
 30
0.0
 40
2.617702860846573
 50
249.2671616286075
 51
267.747025064058
  0
ARC
  5
9920
  8
0
 10
63.46981174030472
 20
229.1618119726299
 30
0.0
 40
3.152491240768179
 50
265.7033250605309
 51
289.3905439589275
  0
ARC
  5
9921
  8
0
 10
63.94426730960427
 20
227.604321476098
 30
0.0
 40
1.527408099999837
 50
292.0004687572242
 51
331.7243378576275
  0
ARC
  5
9922
  8
0
 10
64.1336025560156
 20
227.4613597918996
 30
0.0
 40
1.293448633509429
 50
333.3286501185839
 51
10.01278361973784
  0
ARC
  5
9923
  8
0
 10
64.43045511397321
 20
227.5489674599988
 30
0.0
 40
0.9864943557164728
 50
7.999299177210515
 51
56.09544702440798
  0
ARC
  5
9924
  8
0
 10
63.41324836749413
 20
225.8489943850872
 30
0.0
 40
2.966650730685512
 50
58.1047262069082
 51
77.57165611660318
  0
ARC
  5
9925
  8
0
 10
69.64394504281992
 20
253.1738827191122
 30
0.0
 40
25.05969444260865
 50
254.9920383624129
 51
257.1055378385226
  0
ARC
  5
9926
  8
0
 10
63.57116716342517
 20
230.708273959277
 30
0.0
 40
1.788471967299355
 50
241.9968666432906
 51
256.5329008491028
  0
ARC
  5
9927
  8
0
 10
62.87463969629837
 20
229.3424936078977
 30
0.0
 40
0.2569089219111538
 50
181.4229295114256
 51
236.1252737546306
  0
ARC
  5
9928
  8
0
 10
62.88986033395861
 20
229.3369872218309
 30
0.0
 40
0.272051738584831
 50
114.9382961617164
 51
180.1839102890763
  0
ARC
  5
9929
  8
0
 10
63.29184761236081
 20
228.4278829374175
 30
0.0
 40
1.266027764923893
 50
87.40586972974698
 51
114.0870118917362
  0
ARC
  5
992A
  8
0
 10
63.39235586872039
 20
228.1086631681016
 30
0.0
 40
1.584539315298479
 50
81.26152734193053
 51
91.56252783870202
  0
ARC
  5
992B
  8
0
 10
63.52585264114884
 20
228.9144502103375
 30
0.0
 40
0.767883455285971
 50
58.63150134670214
 51
81.97250411125933
  0
ARC
  5
992C
  8
0
 10
63.58578561950705
 20
229.0491396893431
 30
0.0
 40
0.6219714409278794
 50
31.26144626097709
 51
56.88664282448718
  0
ARC
  5
992D
  8
0
 10
59.23256996357833
 20
225.2464495055173
 30
0.0
 40
0.1450093835969383
 50
152.3324835633369
 51
201.6883497501618
  0
ARC
  5
992E
  8
0
 10
59.28284993014142
 20
225.213465283212
 30
0.0
 40
0.2049400430791757
 50
94.26849177823954
 51
150.6923636878295
  0
ARC
  5
992F
  8
0
 10
59.29528997282733
 20
225.17585537944
 30
0.0
 40
0.2435610534233947
 50
65.67526895000145
 51
96.52886377923876
  0
ARC
  5
9930
  8
0
 10
59.32619666219077
 20
225.2323523627057
 30
0.0
 40
0.1794155440342952
 50
15.00501194484098
 51
67.2375225199484
  0
ARC
  5
9931
  8
0
 10
59.35879971028913
 20
225.2461975372264
 30
0.0
 40
0.1444238304842776
 50
334.5475718261126
 51
13.04798857661176
  0
ARC
  5
9932
  8
0
 10
59.31704976757635
 20
225.2690688743269
 30
0.0
 40
0.1919699607925253
 50
283.3392084596457
 51
333.7390166514077
  0
ARC
  5
9933
  8
0
 10
59.29549833912466
 20
225.3182098397072
 30
0.0
 40
0.2449468824808138
 50
249.2475068279205
 51
285.5929160340207
  0
ARC
  5
9934
  8
0
 10
59.27216905525677
 20
225.2681369500757
 30
0.0
 40
0.1899001165681578
 50
203.3534454850997
 51
250.4765665943434
  0
ARC
  5
9935
  8
0
 10
59.23345617450275
 20
225.2463878243933
 30
0.0
 40
0.220563220518459
 50
149.5924277991477
 51
208.5026443066654
  0
ARC
  5
9936
  8
0
 10
59.28313473185256
 20
225.2113940332115
 30
0.0
 40
0.2811654578303905
 50
99.15226556107618
 51
148.5662219609118
  0
ARC
  5
9937
  8
0
 10
59.29525052237452
 20
225.1742789339952
 30
0.0
 40
0.3197925578412533
 50
69.2643536209876
 51
100.2377265552896
  0
ARC
  5
9938
  8
0
 10
59.31447537002504
 20
225.2179414712464
 30
0.0
 40
0.2721632922277281
 50
34.33047436698014
 51
69.79498100628884
  0
ARC
  5
9939
  8
0
 10
59.35674565701993
 20
225.2465086653635
 30
0.0
 40
0.2211457863352724
 50
330.8904082426623
 51
34.39478799471744
  0
ARC
  5
993A
  8
0
 10
59.31254421196303
 20
225.2747249428306
 30
0.0
 40
0.2735090128067355
 50
281.5278040705555
 51
330.2307053142199
  0
ARC
  5
993B
  8
0
 10
59.29551632932058
 20
225.3182147573563
 30
0.0
 40
0.3196244185618837
 50
249.2057013607624
 51
282.9608191978189
  0
ARC
  5
993C
  8
0
 10
59.27496521886653
 20
225.2723053689389
 30
0.0
 40
0.2694253491506349
 50
209.133855782525
 51
249.8253936421853
  0
LINE
  5
99CA
  8
D002
 10
77.32347425020461
 20
202.7911305534324
 30
0.0
 11
77.32347425020461
 21
203.3375771628391
 31
0.0
1001
GENIUS_GENODEF_13
1002
{
1000
HIER
1070
     0
1002
}
1002
{
1000
MANEDIT
1070
     0
1002
}
1002
{
1000
NOSEL
1070
     0
1002
}
1002
{
1000
BEHIND
1070
     0
1002
}
1002
{
1000
OTHER
1070
     0
1002
}
1002
{
1000
REACTOR
1002
}
1001
GENIUS_GENOBJ-N-CEN_13
1002
{
1000
OWNER
1000
GEN
1002
}
1001
GENIUS_GENCEN_19
1002
{
1040
3.0
1002
}
  0
LINE
  5
99CB
  8
D002
 10
77.6234742502048
 20
202.7911305534324
 30
0.0
 11
77.6234742502048
 21
203.3375771628391
 31
0.0
1001
GENIUS_GENODEF_13
1002
{
1000
HIER
1070
     0
1002
}
1002
{
1000
MANEDIT
1070
     0
1002
}
1002
{
1000
NOSEL
1070
     0
1002
}
1002
{
1000
BEHIND
1070
     0
1002
}
1002
{
1000
OTHER
1070
     0
1002
}
1002
{
1000
REACTOR
1002
}
1001
GENIUS_GENOBJ-N-CEN_13
1002
{
1000
OWNER
1000
GEN
1002
}
1001
GENIUS_GENCEN_19
1002
{
1040
3.0
1002
}
  0
LINE
  5
99CC
  8
D002
 10
77.6234742502048
 20
206.8911305534325
 30
0.0
 11
78.26930105515166
 21
207.5369573583795
 31
0.0
  0
LINE
  5
99CD
  8
D002
 10
77.6234742502048
 20
207.3911305534325
 30
0.0
 11
78.01930105515166
 21
207.7869573583795
 31
0.0
  0
ARC
  5
99CE
  8
D002
 10
77.4734742502047
 20
208.9911305534324
 30
0.0
 40
0.1499999999999773
 50
0.0
 51
180.0
  0
ARC
  5
99CF
  8
D002
 10
78.14430105515166
 20
207.6619573583795
 30
0.0
 40
0.1767766952966168
 50
315.0000000000228
 51
134.9999999999967
  0
LINE
  5
99D0
  8
D002
 10
77.32347425020461
 20
206.8911305534325
 30
0.0
 11
76.67764744525775
 21
207.5369573583795
 31
0.0
  0
LINE
  5
99D1
  8
D002
 10
77.32347425020461
 20
207.3911305534325
 30
0.0
 11
76.92764744525775
 21
207.7869573583795
 31
0.0
  0
ARC
  5
99D2
  8
D002
 10
76.80264744525775
 20
207.6619573583795
 30
0.0
 40
0.1767766952966168
 50
45.00000000000327
 51
224.9999999999772
  0
LINE
  5
99D3
  8
D002
 10
77.6234742502048
 20
208.0911305534324
 30
0.0
 11
78.02226014742618
 21
208.4899164506538
 31
0.0
  0
LINE
  5
99D4
  8
D002
 10
77.6234742502048
 20
208.4446839440257
 30
0.0
 11
77.84548345212951
 21
208.6666931459504
 31
0.0
  0
ARC
  5
99D5
  8
D002
 10
77.93387179977762
 20
208.5783047983023
 30
0.0
 40
0.1249999999999206
 50
314.9999999998848
 51
134.9999999999217
  0
LINE
  5
99D6
  8
D002
 10
79.30373013853054
 20
204.6612267428649
 30
0.0
 11
79.44969590758441
 21
204.1164750765895
 31
0.0
  0
LINE
  5
99D7
  8
D002
 10
79.60991635637842
 20
204.4844500475682
 30
0.0
 11
79.69117736415669
 21
204.1811798378652
 31
0.0
  0
ARC
  5
99D8
  8
D002
 10
80.0308341854437
 20
204.9462594047679
 30
0.0
 40
0.1249999999999206
 50
285.0000000000046
 51
105.0000000000046
  0
LINE
  5
99D9
  8
D002
 10
77.6234742502048
 20
204.8911305534325
 30
0.0
 11
77.6234742502048
 21
205.2836137180432
 31
0.0
1001
GENIUS_GENODEF_13
1002
{
1000
HIER
1070
     0
1002
}
1002
{
1000
MANEDIT
1070
     0
1002
}
1002
{
1000
NOSEL
1070
     0
1002
}
1002
{
1000
BEHIND
1070
     0
1002
}
1002
{
1000
OTHER
1070
     0
1002
}
1002
{
1000
REACTOR
1002
}
1001
GENIUS_GENOBJ-N-CEN_13
1002
{
1000
OWNER
1000
GEN
1002
}
1001
GENIUS_GENCEN_19
1002
{
1040
3.0
1002
}
  0
LINE
  5
99DA
  8
D002
 10
79.75991635637828
 20
204.7442576687035
 30
0.0
 11
80.0631865660815
 21
204.8255186764819
 31
0.0
  0
ARC
  5
99DB
  8
D002
 10
79.57043663587078
 20
204.1488274572273
 30
0.0
 40
0.1249999999999206
 50
194.9999999999509
 51
15.00000000000457
  0
LINE
  5
99DC
  8
D002
 10
79.4537301385304
 20
204.9210343640002
 30
0.0
 11
79.99848180480589
 21
205.0670001330542
 31
0.0
  0
LINE
  5
99DD
  8
D002
 10
77.6234742502048
 20
203.6911305534325
 30
0.0
 11
77.6234742502048
 21
204.3911305534325
 31
0.0
1001
GENIUS_GENODEF_13
1002
{
1000
HIER
1070
     0
1002
}
1002
{
1000
MANEDIT
1070
     0
1002
}
1002
{
1000
NOSEL
1070
     0
1002
}
1002
{
1000
BEHIND
1070
     0
1002
}
1002
{
1000
OTHER
1070
     0
1002
}
1002
{
1000
REACTOR
1002
}
1001
GENIUS_GENOBJ-N-CEN_13
1002
{
1000
OWNER
1000
GEN
1002
}
1001
GENIUS_GENCEN_19
1002
{
1040
3.0
1002
}
  0
LINE
  5
99DE
  8
D002
 10
77.32347425020461
 20
203.6911305534325
 30
0.0
 11
77.32347425020461
 21
204.3911305534325
 31
0.0
1001
GENIUS_GENODEF_13
1002
{
1000
HIER
1070
     0
1002
}
1002
{
1000
MANEDIT
1070
     0
1002
}
1002
{
1000
NOSEL
1070
     0
1002
}
1002
{
1000
BEHIND
1070
     0
1002
}
1002
{
1000
OTHER
1070
     0
1002
}
1002
{
1000
REACTOR
1002
}
1001
GENIUS_GENOBJ-N-CEN_13
1002
{
1000
OWNER
1000
GEN
1002
}
1001
GENIUS_GENCEN_19
1002
{
1040
3.0
1002
}
  0
LINE
  5
99DF
  8
D002
 10
77.32347425020461
 20
208.4446839440257
 30
0.0
 11
77.32347425020461
 21
208.9911305534324
 31
0.0
1001
GENIUS_GENODEF_13
1002
{
1000
HIER
1070
     0
1002
}
1002
{
1000
MANEDIT
1070
     0
1002
}
1002
{
1000
NOSEL
1070
     0
1002
}
1002
{
1000
BEHIND
1070
     0
1002
}
1002
{
1000
OTHER
1070
     0
1002
}
1002
{
1000
REACTOR
1002
}
1001
GENIUS_GENOBJ-N-CEN_13
1002
{
1000
OWNER
1000
GEN
1002
}
1001
GENIUS_GENCEN_19
1002
{
1040
3.0
1002
}
  0
LINE
  5
99E0
  8
D002
 10
77.6234742502048
 20
208.4446839440257
 30
0.0
 11
77.6234742502048
 21
208.9911305534324
 31
0.0
1001
GENIUS_GENODEF_13
1002
{
1000
HIER
1070
     0
1002
}
1002
{
1000
MANEDIT
1070
     0
1002
}
1002
{
1000
NOSEL
1070
     0
1002
}
1002
{
1000
BEHIND
1070
     0
1002
}
1002
{
1000
OTHER
1070
     0
1002
}
1002
{
1000
REACTOR
1002
}
1001
GENIUS_GENOBJ-N-CEN_13
1002
{
1000
OWNER
1000
GEN
1002
}
1001
GENIUS_GENCEN_19
1002
{
1040
3.0
1002
}
  0
ARC
  5
99E1
  8
D002
 10
77.01307670063179
 20
208.5783047983023
 30
0.0
 40
0.1249999999999206
 50
45.00000000007829
 51
224.9999999999677
  0
LINE
  5
99E2
  8
D002
 10
77.32347425020461
 20
208.4446839440257
 30
0.0
 11
77.10146504827989
 21
208.6666931459504
 31
0.0
  0
LINE
  5
99E3
  8
D002
 10
77.32347425020461
 20
208.0911305534324
 30
0.0
 11
76.92468835298322
 21
208.4899164506538
 31
0.0
  0
LINE
  5
99E4
  8
D002
 10
77.6234742502048
 20
207.3911305534325
 30
0.0
 11
77.6234742502048
 21
208.0911305534324
 31
0.0
1001
GENIUS_GENODEF_13
1002
{
1000
HIER
1070
     0
1002
}
1002
{
1000
MANEDIT
1070
     0
1002
}
1002
{
1000
NOSEL
1070
     0
1002
}
1002
{
1000
BEHIND
1070
     0
1002
}
1002
{
1000
OTHER
1070
     0
1002
}
1002
{
1000
REACTOR
1002
}
1001
GENIUS_GENOBJ-N-CEN_13
1002
{
1000
OWNER
1000
GEN
1002
}
1001
GENIUS_GENCEN_19
1002
{
1040
3.0
1002
}
  0
LINE
  5
99E5
  8
D002
 10
77.32347425020461
 20
207.3911305534325
 30
0.0
 11
77.32347425020461
 21
208.0911305534324
 31
0.0
1001
GENIUS_GENODEF_13
1002
{
1000
HIER
1070
     0
1002
}
1002
{
1000
MANEDIT
1070
     0
1002
}
1002
{
1000
NOSEL
1070
     0
1002
}
1002
{
1000
BEHIND
1070
     0
1002
}
1002
{
1000
OTHER
1070
     0
1002
}
1002
{
1000
REACTOR
1002
}
1001
GENIUS_GENOBJ-N-CEN_13
1002
{
1000
OWNER
1000
GEN
1002
}
1001
GENIUS_GENCEN_19
1002
{
1040
3.0
1002
}
  0
LINE
  5
99E6
  8
D002
 10
77.6234742502048
 20
203.3375771628391
 30
0.0
 11
77.84548345212951
 21
203.1155679609144
 31
0.0
  0
LINE
  5
99E7
  8
D002
 10
77.32347425020461
 20
204.3911305534325
 30
0.0
 11
76.92764744525775
 21
203.9953037484854
 31
0.0
  0
ARC
  5
99E8
  8
D002
 10
77.4734742502047
 20
202.7911305534324
 30
0.0
 40
0.1499999999999773
 50
180.0
 51
0.0
  0
ARC
  5
99E9
  8
D002
 10
78.14430105515166
 20
204.1203037484854
 30
0.0
 40
0.1767766952966168
 50
225.0000000000032
 51
45.00000000000327
  0
ARC
  5
99EA
  8
D002
 10
76.80264744525775
 20
204.1203037484854
 30
0.0
 40
0.1767766952966168
 50
134.9999999999967
 51
314.9999999999968
  0
LINE
  5
99EB
  8
D002
 10
77.6234742502048
 20
204.3911305534325
 30
0.0
 11
78.01930105515166
 21
203.9953037484854
 31
0.0
  0
LINE
  5
99EC
  8
D002
 10
77.32347425020461
 20
204.8911305534325
 30
0.0
 11
76.67764744525775
 21
204.2453037484854
 31
0.0
  0
ARC
  5
99ED
  8
D002
 10
77.93387179977762
 20
203.2039563085626
 30
0.0
 40
0.1249999999999206
 50
225.0000000000783
 51
44.99999999996776
  0
LINE
  5
99EE
  8
D002
 10
77.32347425020461
 20
203.6911305534325
 30
0.0
 11
76.92468835298322
 21
203.2923446562111
 31
0.0
  0
LINE
  5
99EF
  8
D002
 10
77.6234742502048
 20
203.6911305534325
 30
0.0
 11
78.02226014742618
 21
203.2923446562111
 31
0.0
  0
LINE
  5
99F0
  8
D002
 10
77.6234742502048
 20
204.8911305534325
 30
0.0
 11
78.26930105515166
 21
204.2453037484854
 31
0.0
  0
ARC
  5
99F1
  8
D002
 10
77.01307670063179
 20
203.2039563085626
 30
0.0
 40
0.1249999999999206
 50
134.9999999998849
 51
314.9999999998848
  0
LINE
  5
99F2
  8
D002
 10
77.32347425020461
 20
203.3375771628391
 30
0.0
 11
77.10146504827989
 21
203.1155679609144
 31
0.0
  0
LINE
  5
99F3
  8
D002
 10
78.69751235588146
 20
206.7710343640001
 30
0.0
 11
78.84239502199088
 21
207.3117438350565
 31
0.0
  0
ARC
  5
99F4
  8
D002
 10
78.67164184651787
 20
207.3574970105296
 30
0.0
 40
0.1767766952966168
 50
344.9999999999747
 51
164.9999999999747
  0
LINE
  5
99F5
  8
D002
 10
75.33703214403099
 20
204.4844500475682
 30
0.0
 11
74.86379549847297
 21
204.2112267428648
 31
0.0
1001
GENIUS_GENODEF_13
1002
{
1000
HIER
1070
     0
1002
}
1002
{
1000
MANEDIT
1070
     0
1002
}
1002
{
1000
NOSEL
1070
     0
1002
}
1002
{
1000
BEHIND
1070
     0
1002
}
1002
{
1000
OTHER
1070
     0
1002
}
1002
{
1000
REACTOR
1002
}
1001
GENIUS_GENOBJ-N-CEN_13
1002
{
1000
OWNER
1000
GEN
1002
}
1001
GENIUS_GENCEN_19
1002
{
1040
3.0
1002
}
  0
LINE
  5
99F6
  8
D002
 10
78.41449965398905
 20
206.2612267428648
 30
0.0
 11
79.29671547599182
 21
206.0248377258092
 31
0.0
  0
LINE
  5
99F7
  8
D002
 10
79.4537301385304
 20
206.8612267428648
 30
0.0
 11
79.99848180480589
 21
206.7152609738108
 31
0.0
  0
LINE
  5
99F8
  8
D002
 10
79.75991635637828
 20
207.0380034381615
 30
0.0
 11
80.0631865660815
 21
206.9567424303831
 31
0.0
  0
ARC
  5
99F9
  8
D002
 10
80.0308341854437
 20
206.8360017020971
 30
0.0
 40
0.1249999999999206
 50
254.9999999999954
 51
74.99999999999544
  0
LINE
  5
99FA
  8
D002
 10
79.30373013853054
 20
207.1210343640001
 30
0.0
 11
79.44969590758441
 21
207.6657860302755
 31
0.0
  0
LINE
  5
99FB
  8
D002
 10
76.09943614452808
 20
205.2710343640001
 30
0.0
 11
75.493218361879
 21
204.9210343640001
 31
0.0
1001
GENIUS_GENODEF_13
1002
{
1000
HIER
1070
     0
1002
}
1002
{
1000
MANEDIT
1070
     0
1002
}
1002
{
1000
NOSEL
1070
     0
1002
}
1002
{
1000
BEHIND
1070
     0
1002
}
1002
{
1000
OTHER
1070
     0
1002
}
1002
{
1000
REACTOR
1002
}
1001
GENIUS_GENOBJ-N-CEN_13
1002
{
1000
OWNER
1000
GEN
1002
}
1001
GENIUS_GENCEN_19
1002
{
1040
3.0
1002
}
  0
ARC
  5
99FC
  8
D002
 10
76.27530665389153
 20
204.4247640963353
 30
0.0
 40
0.1767766952966168
 50
164.9999999999747
 51
345.0000000000139
  0
LINE
  5
99FD
  8
D002
 10
76.09943614452808
 20
205.2710343640001
 30
0.0
 11
75.55872667347157
 21
205.4159170301095
 31
0.0
  0
ARC
  5
99FE
  8
D002
 10
80.15815300193648
 20
207.4411305534325
 30
0.0
 40
0.1499999999999773
 50
300.0000000000254
 51
120.0000000000254
  0
LINE
  5
99FF
  8
D002
 10
78.41449965398905
 20
206.2612267428648
 30
0.0
 11
78.07459926287842
 21
206.0649851605593
 31
0.0
1001
GENIUS_GENODEF_13
1002
{
1000
HIER
1070
     0
1002
}
1002
{
1000
MANEDIT
1070
     0
1002
}
1002
{
1000
NOSEL
1070
     0
1002
}
1002
{
1000
BEHIND
1070
     0
1002
}
1002
{
1000
OTHER
1070
     0
1002
}
1002
{
1000
REACTOR
1002
}
1001
GENIUS_GENOBJ-N-CEN_13
1002
{
1000
OWNER
1000
GEN
1002
}
1001
GENIUS_GENCEN_19
1002
{
1040
3.0
1002
}
  0
LINE
  5
9A00
  8
D002
 10
78.26449965398919
 20
206.5210343640001
 30
0.0
 11
77.92459926287856
 21
206.3247927816947
 31
0.0
1001
GENIUS_GENODEF_13
1002
{
1000
HIER
1070
     0
1002
}
1002
{
1000
MANEDIT
1070
     0
1002
}
1002
{
1000
NOSEL
1070
     0
1002
}
1002
{
1000
BEHIND
1070
     0
1002
}
1002
{
1000
OTHER
1070
     0
1002
}
1002
{
1000
REACTOR
1002
}
1001
GENIUS_GENOBJ-N-CEN_13
1002
{
1000
OWNER
1000
GEN
1002
}
1001
GENIUS_GENCEN_19
1002
{
1040
3.0
1002
}
  0
LINE
  5
9A01
  8
D002
 10
76.24943614452795
 20
205.0112267428648
 30
0.0
 11
76.10455347841852
 21
204.4705172718084
 31
0.0
  0
LINE
  5
9A02
  8
D002
 10
76.68244884642021
 20
205.2612267428648
 30
0.0
 11
76.44605982936477
 21
204.3790109208622
 31
0.0
  0
LINE
  5
9A03
  8
D002
 10
80.23315300193653
 20
207.3112267428648
 30
0.0
 11
79.75991635637828
 21
207.0380034381615
 31
0.0
1001
GENIUS_GENODEF_13
1002
{
1000
HIER
1070
     0
1002
}
1002
{
1000
MANEDIT
1070
     0
1002
}
1002
{
1000
NOSEL
1070
     0
1002
}
1002
{
1000
BEHIND
1070
     0
1002
}
1002
{
1000
OTHER
1070
     0
1002
}
1002
{
1000
REACTOR
1002
}
1001
GENIUS_GENOBJ-N-CEN_13
1002
{
1000
OWNER
1000
GEN
1002
}
1001
GENIUS_GENCEN_19
1002
{
1040
3.0
1002
}
  0
ARC
  5
9A04
  8
D002
 10
74.78879549847292
 20
204.3411305534324
 30
0.0
 40
0.1499999999999773
 50
120.0000000000254
 51
300.0000000000254
  0
ARC
  5
9A05
  8
D002
 10
75.60447984894458
 20
205.5866702055825
 30
0.0
 40
0.1767766952966168
 50
75.0000000000127
 51
255.0000000000127
  0
LINE
  5
9A06
  8
D002
 10
80.08315300193644
 20
207.5710343640002
 30
0.0
 11
79.60991635637842
 21
207.2978110592968
 31
0.0
1001
GENIUS_GENODEF_13
1002
{
1000
HIER
1070
     0
1002
}
1002
{
1000
MANEDIT
1070
     0
1002
}
1002
{
1000
NOSEL
1070
     0
1002
}
1002
{
1000
BEHIND
1070
     0
1002
}
1002
{
1000
OTHER
1070
     0
1002
}
1002
{
1000
REACTOR
1002
}
1001
GENIUS_GENOBJ-N-CEN_13
1002
{
1000
OWNER
1000
GEN
1002
}
1001
GENIUS_GENCEN_19
1002
{
1040
3.0
1002
}
  0
LINE
  5
9A07
  8
D002
 10
79.30373013853054
 20
207.1210343640001
 30
0.0
 11
78.69751235588146
 21
206.7710343640001
 31
0.0
1001
GENIUS_GENODEF_13
1002
{
1000
HIER
1070
     0
1002
}
1002
{
1000
MANEDIT
1070
     0
1002
}
1002
{
1000
NOSEL
1070
     0
1002
}
1002
{
1000
BEHIND
1070
     0
1002
}
1002
{
1000
OTHER
1070
     0
1002
}
1002
{
1000
REACTOR
1002
}
1001
GENIUS_GENOBJ-N-CEN_13
1002
{
1000
OWNER
1000
GEN
1002
}
1001
GENIUS_GENCEN_19
1002
{
1040
3.0
1002
}
  0
LINE
  5
9A08
  8
D002
 10
75.18703214403112
 20
204.7442576687035
 30
0.0
 11
74.71379549847288
 21
204.4710343640002
 31
0.0
1001
GENIUS_GENODEF_13
1002
{
1000
HIER
1070
     0
1002
}
1002
{
1000
MANEDIT
1070
     0
1002
}
1002
{
1000
NOSEL
1070
     0
1002
}
1002
{
1000
BEHIND
1070
     0
1002
}
1002
{
1000
OTHER
1070
     0
1002
}
1002
{
1000
REACTOR
1002
}
1001
GENIUS_GENOBJ-N-CEN_13
1002
{
1000
OWNER
1000
GEN
1002
}
1001
GENIUS_GENCEN_19
1002
{
1040
3.0
1002
}
  0
LINE
  5
9A09
  8
D002
 10
79.4537301385304
 20
206.8612267428648
 30
0.0
 11
78.84751235588132
 21
206.5112267428648
 31
0.0
1001
GENIUS_GENODEF_13
1002
{
1000
HIER
1070
     0
1002
}
1002
{
1000
MANEDIT
1070
     0
1002
}
1002
{
1000
NOSEL
1070
     0
1002
}
1002
{
1000
BEHIND
1070
     0
1002
}
1002
{
1000
OTHER
1070
     0
1002
}
1002
{
1000
REACTOR
1002
}
1001
GENIUS_GENOBJ-N-CEN_13
1002
{
1000
OWNER
1000
GEN
1002
}
1001
GENIUS_GENCEN_19
1002
{
1040
3.0
1002
}
  0
LINE
  5
9A0A
  8
D002
 10
75.64321836187887
 20
204.6612267428648
 30
0.0
 11
75.49725259282499
 21
204.1164750765894
 31
0.0
  0
LINE
  5
9A0B
  8
D002
 10
75.33703214403099
 20
204.4844500475682
 30
0.0
 11
75.25577113625272
 21
204.1811798378651
 31
0.0
  0
ARC
  5
9A0C
  8
D002
 10
75.37651186453863
 20
204.1488274572272
 30
0.0
 40
0.1249999999999206
 50
164.9999999999954
 51
345.0000000001045
  0
LINE
  5
9A0D
  8
D002
 10
75.493218361879
 20
204.9210343640001
 30
0.0
 11
74.94846669560351
 21
205.0670001330541
 31
0.0
  0
LINE
  5
9A0E
  8
D002
 10
75.18703214403112
 20
204.7442576687035
 30
0.0
 11
74.88376193432791
 21
204.8255186764818
 31
0.0
  0
LINE
  5
9A0F
  8
D002
 10
76.24943614452795
 20
205.0112267428648
 30
0.0
 11
75.64321836187887
 21
204.6612267428648
 31
0.0
1001
GENIUS_GENODEF_13
1002
{
1000
HIER
1070
     0
1002
}
1002
{
1000
MANEDIT
1070
     0
1002
}
1002
{
1000
NOSEL
1070
     0
1002
}
1002
{
1000
BEHIND
1070
     0
1002
}
1002
{
1000
OTHER
1070
     0
1002
}
1002
{
1000
REACTOR
1002
}
1001
GENIUS_GENOBJ-N-CEN_13
1002
{
1000
OWNER
1000
GEN
1002
}
1001
GENIUS_GENCEN_19
1002
{
1040
3.0
1002
}
  0
LINE
  5
9A10
  8
D002
 10
76.53244884642035
 20
205.5210343640001
 30
0.0
 11
75.65023302441759
 21
205.7574233810557
 31
0.0
  0
ARC
  5
9A11
  8
D002
 10
74.91611431496571
 20
204.9462594047678
 30
0.0
 40
0.1249999999999206
 50
74.99999999999544
 51
254.9999999999954
  0
LINE
  5
9A12
  8
D002
 10
78.84751235588132
 20
206.5112267428648
 30
0.0
 11
79.38822182693784
 21
206.3663440767554
 31
0.0
  0
ARC
  5
9A13
  8
D002
 10
79.34246865146483
 20
206.1955909012823
 30
0.0
 40
0.1767766952966168
 50
255.0000000000127
 51
75.0000000000127
  0
LINE
  5
9A14
  8
D002
 10
78.26449965398919
 20
206.5210343640001
 30
0.0
 11
78.50088867104486
 21
207.4032501860027
 31
0.0
  0
LINE
  5
9A15
  8
D002
 10
77.32347425020461
 20
204.8911305534325
 30
0.0
 11
77.32347425020461
 21
205.2836137180432
 31
0.0
1001
GENIUS_GENODEF_13
1002
{
1000
HIER
1070
     0
1002
}
1002
{
1000
MANEDIT
1070
     0
1002
}
1002
{
1000
NOSEL
1070
     0
1002
}
1002
{
1000
BEHIND
1070
     0
1002
}
1002
{
1000
OTHER
1070
     0
1002
}
1002
{
1000
REACTOR
1002
}
1001
GENIUS_GENOBJ-N-CEN_13
1002
{
1000
OWNER
1000
GEN
1002
}
1001
GENIUS_GENCEN_19
1002
{
1040
3.0
1002
}
  0
LINE
  5
9A16
  8
D002
 10
79.60991635637842
 20
207.2978110592968
 30
0.0
 11
79.69117736415669
 21
207.6010812689998
 31
0.0
  0
ARC
  5
9A17
  8
D002
 10
79.57043663587078
 20
207.6334336496377
 30
0.0
 40
0.1249999999999206
 50
344.9999999999954
 51
165.0000000001046
  0
LINE
  5
9A18
  8
D002
 10
75.33703214403099
 20
207.2978110592968
 30
0.0
 11
75.25577113625272
 21
207.6010812689999
 31
0.0
  0
LINE
  5
9A19
  8
D002
 10
75.493218361879
 20
206.8612267428648
 30
0.0
 11
74.94846669560351
 21
206.7152609738108
 31
0.0
  0
LINE
  5
9A1A
  8
D002
 10
75.18703214403112
 20
207.0380034381615
 30
0.0
 11
74.88376193432791
 21
206.9567424303832
 31
0.0
  0
LINE
  5
9A1B
  8
D002
 10
79.30373013853054
 20
204.6612267428649
 30
0.0
 11
78.69751235588146
 21
205.0112267428649
 31
0.0
1001
GENIUS_GENODEF_13
1002
{
1000
HIER
1070
     0
1002
}
1002
{
1000
MANEDIT
1070
     0
1002
}
1002
{
1000
NOSEL
1070
     0
1002
}
1002
{
1000
BEHIND
1070
     0
1002
}
1002
{
1000
OTHER
1070
     0
1002
}
1002
{
1000
REACTOR
1002
}
1001
GENIUS_GENOBJ-N-CEN_13
1002
{
1000
OWNER
1000
GEN
1002
}
1001
GENIUS_GENCEN_19
1002
{
1040
3.0
1002
}
  0
LINE
  5
9A1C
  8
D002
 10
79.4537301385304
 20
204.9210343640002
 30
0.0
 11
78.84751235588132
 21
205.2710343640002
 31
0.0
1001
GENIUS_GENODEF_13
1002
{
1000
HIER
1070
     0
1002
}
1002
{
1000
MANEDIT
1070
     0
1002
}
1002
{
1000
NOSEL
1070
     0
1002
}
1002
{
1000
BEHIND
1070
     0
1002
}
1002
{
1000
OTHER
1070
     0
1002
}
1002
{
1000
REACTOR
1002
}
1001
GENIUS_GENOBJ-N-CEN_13
1002
{
1000
OWNER
1000
GEN
1002
}
1001
GENIUS_GENCEN_19
1002
{
1040
3.0
1002
}
  0
ARC
  5
9A1D
  8
D002
 10
75.37651186453863
 20
207.6334336496377
 30
0.0
 40
0.1249999999999206
 50
14.99999999995087
 51
194.9999999999509
  0
ARC
  5
9A1E
  8
D002
 10
74.91611431496571
 20
206.8360017020971
 30
0.0
 40
0.1249999999999206
 50
105.0000000000046
 51
285.0000000000046
  0
LINE
  5
9A1F
  8
D002
 10
78.26449965398919
 20
205.2612267428649
 30
0.0
 11
77.92459926287856
 21
205.4574683251702
 31
0.0
1001
GENIUS_GENODEF_13
1002
{
1000
HIER
1070
     0
1002
}
1002
{
1000
MANEDIT
1070
     0
1002
}
1002
{
1000
NOSEL
1070
     0
1002
}
1002
{
1000
BEHIND
1070
     0
1002
}
1002
{
1000
OTHER
1070
     0
1002
}
1002
{
1000
REACTOR
1002
}
1001
GENIUS_GENOBJ-N-CEN_13
1002
{
1000
OWNER
1000
GEN
1002
}
1001
GENIUS_GENCEN_19
1002
{
1040
3.0
1002
}
  0
LINE
  5
9A20
  8
D002
 10
75.33703214403099
 20
207.2978110592968
 30
0.0
 11
74.86379549847297
 21
207.5710343640002
 31
0.0
1001
GENIUS_GENODEF_13
1002
{
1000
HIER
1070
     0
1002
}
1002
{
1000
MANEDIT
1070
     0
1002
}
1002
{
1000
NOSEL
1070
     0
1002
}
1002
{
1000
BEHIND
1070
     0
1002
}
1002
{
1000
OTHER
1070
     0
1002
}
1002
{
1000
REACTOR
1002
}
1001
GENIUS_GENOBJ-N-CEN_13
1002
{
1000
OWNER
1000
GEN
1002
}
1001
GENIUS_GENCEN_19
1002
{
1040
3.0
1002
}
  0
LINE
  5
9A21
  8
D002
 10
76.24943614452795
 20
206.7710343640002
 30
0.0
 11
76.10455347841852
 21
207.3117438350566
 31
0.0
  0
LINE
  5
9A22
  8
D002
 10
78.41449965398905
 20
205.5210343640002
 30
0.0
 11
79.29671547599182
 21
205.7574233810557
 31
0.0
  0
ARC
  5
9A23
  8
D002
 10
76.27530665389153
 20
207.3574970105296
 30
0.0
 40
0.1767766952966168
 50
15.00000000002528
 51
194.9999999999861
  0
LINE
  5
9A24
  8
D002
 10
80.08315300193644
 20
204.2112267428648
 30
0.0
 11
79.60991635637842
 21
204.4844500475682
 31
0.0
1001
GENIUS_GENODEF_13
1002
{
1000
HIER
1070
     0
1002
}
1002
{
1000
MANEDIT
1070
     0
1002
}
1002
{
1000
NOSEL
1070
     0
1002
}
1002
{
1000
BEHIND
1070
     0
1002
}
1002
{
1000
OTHER
1070
     0
1002
}
1002
{
1000
REACTOR
1002
}
1001
GENIUS_GENOBJ-N-CEN_13
1002
{
1000
OWNER
1000
GEN
1002
}
1001
GENIUS_GENCEN_19
1002
{
1040
3.0
1002
}
  0
LINE
  5
9A25
  8
D002
 10
76.53244884642035
 20
206.2612267428649
 30
0.0
 11
75.65023302441759
 21
206.0248377258093
 31
0.0
  0
LINE
  5
9A26
  8
D002
 10
78.41449965398905
 20
205.5210343640002
 30
0.0
 11
78.07459926287842
 21
205.7172759463056
 31
0.0
1001
GENIUS_GENODEF_13
1002
{
1000
HIER
1070
     0
1002
}
1002
{
1000
MANEDIT
1070
     0
1002
}
1002
{
1000
NOSEL
1070
     0
1002
}
1002
{
1000
BEHIND
1070
     0
1002
}
1002
{
1000
OTHER
1070
     0
1002
}
1002
{
1000
REACTOR
1002
}
1001
GENIUS_GENOBJ-N-CEN_13
1002
{
1000
OWNER
1000
GEN
1002
}
1001
GENIUS_GENCEN_19
1002
{
1040
3.0
1002
}
  0
LINE
  5
9A27
  8
D002
 10
80.23315300193653
 20
204.4710343640002
 30
0.0
 11
79.75991635637828
 21
204.7442576687035
 31
0.0
1001
GENIUS_GENODEF_13
1002
{
1000
HIER
1070
     0
1002
}
1002
{
1000
MANEDIT
1070
     0
1002
}
1002
{
1000
NOSEL
1070
     0
1002
}
1002
{
1000
BEHIND
1070
     0
1002
}
1002
{
1000
OTHER
1070
     0
1002
}
1002
{
1000
REACTOR
1002
}
1001
GENIUS_GENOBJ-N-CEN_13
1002
{
1000
OWNER
1000
GEN
1002
}
1001
GENIUS_GENCEN_19
1002
{
1040
3.0
1002
}
  0
LINE
  5
9A28
  8
D002
 10
75.64321836187887
 20
207.1210343640001
 30
0.0
 11
75.49725259282499
 21
207.6657860302755
 31
0.0
  0
ARC
  5
9A29
  8
D002
 10
75.60447984894458
 20
206.1955909012823
 30
0.0
 40
0.1767766952966168
 50
104.9999999999873
 51
284.9999999999873
  0
ARC
  5
9A2A
  8
D002
 10
74.78879549847292
 20
207.4411305534326
 30
0.0
 40
0.1499999999999773
 50
59.99999999997465
 51
239.9999999999746
  0
LINE
  5
9A2B
  8
D002
 10
78.84751235588132
 20
205.2710343640002
 30
0.0
 11
79.38822182693784
 21
205.4159170301095
 31
0.0
  0
LINE
  5
9A2C
  8
D002
 10
76.24943614452795
 20
206.7710343640002
 30
0.0
 11
75.64321836187887
 21
207.1210343640001
 31
0.0
1001
GENIUS_GENODEF_13
1002
{
1000
HIER
1070
     0
1002
}
1002
{
1000
MANEDIT
1070
     0
1002
}
1002
{
1000
NOSEL
1070
     0
1002
}
1002
{
1000
BEHIND
1070
     0
1002
}
1002
{
1000
OTHER
1070
     0
1002
}
1002
{
1000
REACTOR
1002
}
1001
GENIUS_GENOBJ-N-CEN_13
1002
{
1000
OWNER
1000
GEN
1002
}
1001
GENIUS_GENCEN_19
1002
{
1040
3.0
1002
}
  0
ARC
  5
9A2D
  8
D002
 10
80.15815300193648
 20
204.3411305534325
 30
0.0
 40
0.1499999999999773
 50
239.9999999999746
 51
59.99999999997465
  0
ARC
  5
9A2E
  8
D002
 10
79.34246865146483
 20
205.5866702055827
 30
0.0
 40
0.1767766952966168
 50
284.9999999999873
 51
104.9999999999873
  0
LINE
  5
9A2F
  8
D002
 10
78.26449965398919
 20
205.2612267428649
 30
0.0
 11
78.50088867104486
 21
204.3790109208622
 31
0.0
  0
LINE
  5
9A30
  8
D002
 10
75.18703214403112
 20
207.0380034381615
 30
0.0
 11
74.71379549847288
 21
207.3112267428648
 31
0.0
1001
GENIUS_GENODEF_13
1002
{
1000
HIER
1070
     0
1002
}
1002
{
1000
MANEDIT
1070
     0
1002
}
1002
{
1000
NOSEL
1070
     0
1002
}
1002
{
1000
BEHIND
1070
     0
1002
}
1002
{
1000
OTHER
1070
     0
1002
}
1002
{
1000
REACTOR
1002
}
1001
GENIUS_GENOBJ-N-CEN_13
1002
{
1000
OWNER
1000
GEN
1002
}
1001
GENIUS_GENCEN_19
1002
{
1040
3.0
1002
}
  0
LINE
  5
9A31
  8
D002
 10
78.69751235588146
 20
205.0112267428649
 30
0.0
 11
78.84239502199088
 21
204.4705172718084
 31
0.0
  0
LINE
  5
9A32
  8
D002
 10
76.09943614452808
 20
206.5112267428649
 30
0.0
 11
75.55872667347157
 21
206.3663440767555
 31
0.0
  0
LINE
  5
9A33
  8
D002
 10
76.68244884642021
 20
206.5210343640002
 30
0.0
 11
76.44605982936477
 21
207.4032501860028
 31
0.0
  0
ARC
  5
9A34
  8
D002
 10
78.67164184651787
 20
204.4247640963354
 30
0.0
 40
0.1767766952966168
 50
195.0000000000253
 51
14.99999999998613
  0
LINE
  5
9A35
  8
D002
 10
76.09943614452808
 20
206.5112267428649
 30
0.0
 11
75.493218361879
 21
206.8612267428648
 31
0.0
1001
GENIUS_GENODEF_13
1002
{
1000
HIER
1070
     0
1002
}
1002
{
1000
MANEDIT
1070
     0
1002
}
1002
{
1000
NOSEL
1070
     0
1002
}
1002
{
1000
BEHIND
1070
     0
1002
}
1002
{
1000
OTHER
1070
     0
1002
}
1002
{
1000
REACTOR
1002
}
1001
GENIUS_GENOBJ-N-CEN_13
1002
{
1000
OWNER
1000
GEN
1002
}
1001
GENIUS_GENCEN_19
1002
{
1040
3.0
1002
}
  0
LINE
  5
9A3B
  8
D002
 10
76.87234923753098
 20
206.0649851605594
 30
0.0
 11
76.53244884642035
 21
206.2612267428649
 31
0.0
1001
GENIUS_GENODEF_13
1002
{
1000
HIER
1070
     0
1002
}
1002
{
1000
MANEDIT
1070
     0
1002
}
1002
{
1000
NOSEL
1070
     0
1002
}
1002
{
1000
BEHIND
1070
     0
1002
}
1002
{
1000
OTHER
1070
     0
1002
}
1002
{
1000
REACTOR
1002
}
1001
GENIUS_GENOBJ-N-CEN_13
1002
{
1000
OWNER
1000
GEN
1002
}
1001
GENIUS_GENCEN_19
1002
{
1040
3.0
1002
}
  0
LINE
  5
9A3C
  8
D002
 10
77.02234923753085
 20
205.4574683251701
 30
0.0
 11
76.68244884642021
 21
205.2612267428648
 31
0.0
1001
GENIUS_GENODEF_13
1002
{
1000
HIER
1070
     0
1002
}
1002
{
1000
MANEDIT
1070
     0
1002
}
1002
{
1000
NOSEL
1070
     0
1002
}
1002
{
1000
BEHIND
1070
     0
1002
}
1002
{
1000
OTHER
1070
     0
1002
}
1002
{
1000
REACTOR
1002
}
1001
GENIUS_GENOBJ-N-CEN_13
1002
{
1000
OWNER
1000
GEN
1002
}
1001
GENIUS_GENCEN_19
1002
{
1040
3.0
1002
}
  0
LINE
  5
9A3D
  8
D002
 10
77.6234742502048
 20
206.4986473888217
 30
0.0
 11
77.6234742502048
 21
206.8911305534325
 31
0.0
1001
GENIUS_GENODEF_13
1002
{
1000
HIER
1070
     0
1002
}
1002
{
1000
MANEDIT
1070
     0
1002
}
1002
{
1000
NOSEL
1070
     0
1002
}
1002
{
1000
BEHIND
1070
     0
1002
}
1002
{
1000
OTHER
1070
     0
1002
}
1002
{
1000
REACTOR
1002
}
1001
GENIUS_GENOBJ-N-CEN_13
1002
{
1000
OWNER
1000
GEN
1002
}
1001
GENIUS_GENCEN_19
1002
{
1040
3.0
1002
}
  0
LINE
  5
9A3E
  8
D002
 10
76.87234923753098
 20
205.7172759463054
 30
0.0
 11
76.53244884642035
 21
205.5210343640001
 31
0.0
1001
GENIUS_GENODEF_13
1002
{
1000
HIER
1070
     0
1002
}
1002
{
1000
MANEDIT
1070
     0
1002
}
1002
{
1000
NOSEL
1070
     0
1002
}
1002
{
1000
BEHIND
1070
     0
1002
}
1002
{
1000
OTHER
1070
     0
1002
}
1002
{
1000
REACTOR
1002
}
1001
GENIUS_GENOBJ-N-CEN_13
1002
{
1000
OWNER
1000
GEN
1002
}
1001
GENIUS_GENCEN_19
1002
{
1040
3.0
1002
}
  0
LINE
  5
9A3F
  8
D002
 10
77.02234923753107
 20
206.3247927816948
 30
0.0
 11
76.68244884642021
 21
206.5210343640002
 31
0.0
1001
GENIUS_GENODEF_13
1002
{
1000
HIER
1070
     0
1002
}
1002
{
1000
MANEDIT
1070
     0
1002
}
1002
{
1000
NOSEL
1070
     0
1002
}
1002
{
1000
BEHIND
1070
     0
1002
}
1002
{
1000
OTHER
1070
     0
1002
}
1002
{
1000
REACTOR
1002
}
1001
GENIUS_GENOBJ-N-CEN_13
1002
{
1000
OWNER
1000
GEN
1002
}
1001
GENIUS_GENCEN_19
1002
{
1040
3.0
1002
}
  0
LINE
  5
9A40
  8
D002
 10
77.32347425020461
 20
206.4986473888217
 30
0.0
 11
77.32347425020461
 21
206.8911305534325
 31
0.0
1001
GENIUS_GENODEF_13
1002
{
1000
HIER
1070
     0
1002
}
1002
{
1000
MANEDIT
1070
     0
1002
}
1002
{
1000
NOSEL
1070
     0
1002
}
1002
{
1000
BEHIND
1070
     0
1002
}
1002
{
1000
OTHER
1070
     0
1002
}
1002
{
1000
REACTOR
1002
}
1001
GENIUS_GENOBJ-N-CEN_13
1002
{
1000
OWNER
1000
GEN
1002
}
1001
GENIUS_GENCEN_19
1002
{
1040
3.0
1002
}
  0
POINT
  5
9A41
  8
D002
 10
77.4734742502047
 20
205.8911305534325
 30
0.0
  0
LINE
  5
9A43
  8
0
 10
42.75219384681608
 20
200.4403648812289
 30
0.0
 11
41.53975828151792
 21
198.3403648812285
 31
0.0
  0
ARC
  5
9A44
  8
0
 10
41.62636082189624
 20
198.2903648812287
 30
0.0
 40
0.0999999999998077
 50
150.0000000000498
 51
270.0000000000499
  0
LINE
  5
9A45
  8
0
 10
41.62636082189633
 20
198.1903648812289
 30
0.0
 11
44.05123195249266
 21
198.1903648812289
 31
0.0
  0
ARC
  5
9A46
  8
0
 10
44.05123195249274
 20
198.2903648812287
 30
0.0
 40
0.0999999999998075
 50
269.9999999999499
 51
29.9999999999503
  0
LINE
  5
9A47
  8
0
 10
44.13783449287106
 20
198.3403648812285
 30
0.0
 11
42.9253989275729
 21
200.4403648812289
 31
0.0
  0
ARC
  5
9A48
  8
0
 10
42.83879638719449
 20
200.3903648812289
 30
0.0
 40
0.0999999999999585
 50
29.99999999999998
 51
150.0
  0
LINE
  5
9A49
  8
0
 10
42.7954951177006
 20
200.3153648812289
 30
0.0
 11
41.66966209211782
 21
198.36536488124
 31
0.0
  0
ARC
  5
9A4A
  8
0
 10
41.71296336230077
 20
198.3403648812286
 30
0.0
 40
0.0500000000002611
 50
149.9999999851142
 51
269.9999999998677
  0
LINE
  5
9A4B
  8
0
 10
41.71296336230066
 20
198.2903648812284
 30
0.0
 11
43.96462941214017
 21
198.2903648812284
 31
0.0
  0
ARC
  5
9A4C
  8
0
 10
43.96462941214011
 20
198.3403648812284
 30
0.0
 40
0.0500000000000013
 50
270.0000000000688
 51
29.99999998531542
  0
LINE
  5
9A4D
  8
0
 10
44.00793068233574
 20
198.3653648812173
 30
0.0
 11
42.882097658079
 21
200.3153648812289
 31
0.0
  0
ARC
  5
9A4E
  8
0
 10
42.8387963878898
 20
200.2903648812289
 30
0.0
 40
0.0499999999999793
 50
30.00000000000012
 51
149.9999999999999
  0
LINE
  5
9A4F
  8
D002
 10
77.4734742502047
 20
206.2009970022327
 30
0.0
 11
77.2051220337631
 21
206.0460637778326
 31
0.0
  0
LINE
  5
9A50
  8
D002
 10
77.2051220337631
 20
206.0460637778326
 30
0.0
 11
77.2051220337631
 21
205.7361973290323
 31
0.0
  0
LINE
  5
9A51
  8
D002
 10
77.2051220337631
 20
205.7361973290323
 30
0.0
 11
77.4734742502047
 21
205.5812641046322
 31
0.0
  0
LINE
  5
9A52
  8
D002
 10
77.4734742502047
 20
205.5812641046322
 30
0.0
 11
77.7418264666463
 21
205.7361973290323
 31
0.0
  0
LINE
  5
9A53
  8
D002
 10
77.7418264666463
 20
205.7361973290323
 30
0.0
 11
77.7418264666463
 21
206.0460637778326
 31
0.0
  0
LINE
  5
9A54
  8
D002
 10
77.7418264666463
 20
206.0460637778326
 30
0.0
 11
77.4734742502047
 21
206.2009970022327
 31
0.0
  0
LINE
  5
9A55
  8
D002
 10
77.32347425020461
 20
206.4986473888217
 30
0.0
 11
77.02234923753107
 21
206.3247927816948
 31
0.0
  0
LINE
  5
9A56
  8
D002
 10
77.92459926287856
 20
206.3247927816947
 30
0.0
 11
77.6234742502048
 21
206.4986473888217
 31
0.0
  0
LINE
  5
9A57
  8
D002
 10
77.02234923753085
 20
205.4574683251701
 30
0.0
 11
77.32347425020461
 21
205.2836137180432
 31
0.0
  0
LINE
  5
9A58
  8
D002
 10
77.6234742502048
 20
205.2836137180432
 30
0.0
 11
77.92459926287856
 21
205.4574683251702
 31
0.0
  0
LINE
  5
9A59
  8
D002
 10
78.07459926287842
 20
205.7172759463056
 30
0.0
 11
78.07459926287842
 21
206.0649851605593
 31
0.0
  0
LINE
  5
9A5A
  8
D002
 10
76.87234923753098
 20
206.0649851605594
 30
0.0
 11
76.87234923753098
 21
205.7172759463054
 31
0.0
  0
VIEWPORT
  5
22
 67
     1
  8
0
 10
5.269134197284911
 20
5.545311567251436
 30
0.0
 40
11.13808705479925
 41
12.32365374410561
 68
     1
 69
     1
1001
GENIUS_GENSCREG_15
1000
PF
1040
1.0
1000
DF
1040
1.0
1000
MIN
1011
-0.2999093301147138
1021
-0.6165153048013714
1031
0.0
1021
-0.6165153048013714
1031
0.0
1000
MAX
1011
10.83817772468454
1021
11.70713843930424
1031
0.0
1021
11.70713843930424
1031
0.0
1000
FLAGS
1070
     4
1001
GENIUS_GENODEF_13
1002
{
1000
HIER
1070
     0
1002
}
1002
{
1000
MANEDIT
1070
     0
1002
}
1002
{
1000
NOSEL
1070
     0
1002
}
1002
{
1000
BEHIND
1070
     0
1002
}
1002
{
1000
OTHER
1070
     0
1002
}
1002
{
1000
REACTOR
1002
}
1001
GENIUS_GENOBJ-N-SDF_13
1002
{
1000
OWNER
1000
GEN
1002
}
1001
ACAD
1000
MVIEW
1002
{
1070
    16
1010
0.0
1020
0.0
1030
0.0
1020
0.0
1030
0.0
1010
0.0
1020
0.0
1030
1.0
1020
0.0
1030
1.0
1040
0.0
1040
12.32365374410561
1040
5.269134197284911
1040
5.545311567251436
1040
50.0
1040
0.0
1040
0.0
1070
     0
1070
   100
1070
     0
1070
     1
1070
     0
1070
     0
1070
     0
1070
     0
1040
0.0
1040
0.0
1040
0.0
1040
1.0
1040
1.0
1040
10.0
1040
10.0
1070
     0
1002
{
1002
}
1002
}
  0
ENDSEC
  0
EOF
