  0
SECTION
  2
HEADER
  9
$ACADVER
  1
AC1009
  9
$DWGCODEPAGE
  3
ansi_932
  9
$INSBASE
 10
0.0
 20
0.0
 30
0.0
  9
$EXTMIN
 10
0.0
 20
0.0
 30
0.0
  9
$EXTMAX
 10
288.0
 20
331.6512522343075
 30
0.0
  9
$LIMMIN
 10
0.0
 20
0.0
  9
$LIMMAX
 10
420.0
 20
420.0
  9
$ORTHOMODE
 70
     0
  9
$REGENMODE
 70
     1
  9
$FILLMODE
 70
     1
  9
$QTEXTMODE
 70
     0
  9
$MIRRTEXT
 70
     0
  9
$DRAGMODE
 70
     2
  9
$LTSCALE
 40
10.0
  9
$OSMODE
 70
 15359
  9
$ATTMODE
 70
     1
  9
$TEXTSIZE
 40
3.5
  9
$TRACEWID
 40
1.0
  9
$TEXTSTYLE
  7
STANDARD
  9
$CLAYER
  8
0
  9
$CELTYPE
  6
BYLAYER
  9
$CECOLOR
 62
   256
  9
$DIMSCALE
 40
1.0
  9
$DIMASZ
 40
2.5
  9
$DIMEXO
 40
1.0
  9
$DIMDLI
 40
7.0
  9
$DIMRND
 40
0.0
  9
$DIMDLE
 40
0.0
  9
$DIMEXE
 40
1.0
  9
$DIMTP
 40
0.1
  9
$DIMTM
 40
0.1
  9
$DIMTXT
 40
3.0
  9
$DIMCEN
 40
0.0
  9
$DIMTSZ
 40
0.0
  9
$DIMTOL
 70
     0
  9
$DIMLIM
 70
     0
  9
$DIMTIH
 70
     0
  9
$DIMTOH
 70
     0
  9
$DIMSE1
 70
     0
  9
$DIMSE2
 70
     0
  9
$DIMTAD
 70
     3
  9
$DIMZIN
 70
     8
  9
$DIMBLK
  1
OPEN
  9
$DIMASO
 70
     1
  9
$DIMSHO
 70
     1
  9
$DIMPOST
  1

  9
$DIMAPOST
  1
"
  9
$DIMALT
 70
     0
  9
$DIMALTD
 70
     2
  9
$DIMALTF
 40
0.0393701
  9
$DIMLFAC
 40
1.0
  9
$DIMTOFL
 70
     1
  9
$DIMTVP
 40
0.0
  9
$DIMTIX
 70
     0
  9
$DIMSOXD
 70
     0
  9
$DIMSAH
 70
     0
  9
$DIMBLK1
  1

  9
$DIMBLK2
  1

  9
$DIMSTYLE
  2
AM_JIS
  9
$DIMCLRD
 70
   256
  9
$DIMCLRE
 70
   256
  9
$DIMCLRT
 70
     2
  9
$DIMTFAC
 40
0.71
  9
$DIMGAP
 40
1.0
  9
$LUNITS
 70
     2
  9
$LUPREC
 70
     2
  9
$SKETCHINC
 40
1.0
  9
$FILLETRAD
 40
2.5
  9
$AUNITS
 70
     0
  9
$AUPREC
 70
     0
  9
$MENU
  1
.
  9
$ELEVATION
 40
0.0
  9
$PELEVATION
 40
0.0
  9
$THICKNESS
 40
0.0
  9
$LIMCHECK
 70
     0
  9
$CHAMFERA
 40
2.5
  9
$CHAMFERB
 40
2.5
  9
$SKPOLY
 70
     1
  9
$TDCREATE
 40
2460208.774112222
  9
$TDUPDATE
 40
2460210.744903785
  9
$TDINDWG
 40
0.1277579282
  9
$TDUSRTIMER
 40
0.1276606597
  9
$USRTIMER
 70
     1
  9
$ANGBASE
 50
0.0
  9
$ANGDIR
 70
     0
  9
$PDMODE
 70
     0
  9
$PDSIZE
 40
0.0
  9
$PLINEWID
 40
0.0
  9
$COORDS
 70
     2
  9
$SPLFRAME
 70
     0
  9
$SPLINETYPE
 70
     6
  9
$SPLINESEGS
 70
     8
  9
$ATTDIA
 70
     1
  9
$ATTREQ
 70
     1
  9
$HANDLING
 70
     1
  9
$HANDSEED
  5
293A
  9
$SURFTAB1
 70
     6
  9
$SURFTAB2
 70
     6
  9
$SURFTYPE
 70
     6
  9
$SURFU
 70
     6
  9
$SURFV
 70
     6
  9
$UCSNAME
  2

  9
$UCSORG
 10
0.0
 20
0.0
 30
0.0
  9
$UCSXDIR
 10
1.0
 20
0.0
 30
0.0
  9
$UCSYDIR
 10
0.0
 20
1.0
 30
0.0
  9
$PUCSNAME
  2

  9
$PUCSORG
 10
0.0
 20
0.0
 30
0.0
  9
$PUCSXDIR
 10
1.0
 20
0.0
 30
0.0
  9
$PUCSYDIR
 10
0.0
 20
1.0
 30
0.0
  9
$USERI1
 70
     0
  9
$USERI2
 70
     0
  9
$USERI3
 70
     0
  9
$USERI4
 70
     0
  9
$USERI5
 70
     0
  9
$USERR1
 40
0.0
  9
$USERR2
 40
0.0
  9
$USERR3
 40
0.0
  9
$USERR4
 40
0.0
  9
$USERR5
 40
0.0
  9
$WORLDVIEW
 70
     1
  9
$SHADEDGE
 70
     3
  9
$SHADEDIF
 70
    70
  9
$TILEMODE
 70
     1
  9
$MAXACTVP
 70
    48
  9
$PLIMCHECK
 70
     0
  9
$PEXTMIN
 10
1.000000000000000E+20
 20
1.000000000000000E+20
 30
1.000000000000000E+20
  9
$PEXTMAX
 10
-1.000000000000000E+20
 20
-1.000000000000000E+20
 30
-1.000000000000000E+20
  9
$PLIMMIN
 10
-0.2500002402958907
 20
-0.2499999962453767
  9
$PLIMMAX
 10
10.74999951940822
 20
8.249999763458732
  9
$UNITMODE
 70
     0
  9
$VISRETAIN
 70
     1
  9
$PLINEGEN
 70
     0
  9
$PSLTSCALE
 70
     1
  0
ENDSEC
  0
SECTION
  2
TABLES
  0
TABLE
  2
VPORT
 70
     1
  0
VPORT
  2
*ACTIVE
 70
     0
 10
0.0
 20
0.0
 11
1.0
 21
1.0
 12
144.0000000000002
 22
165.8256261171539
 13
0.0
 23
0.0
 14
2.5
 24
2.5
 15
10.0
 25
10.0
 16
0.0
 26
0.0
 36
1.0
 17
0.0
 27
0.0
 37
0.0
 40
334.6357404433906
 41
2.16499442586399
 42
50.0
 43
0.0
 44
0.0
 50
0.0
 51
0.0
 71
     0
 72
   100
 73
     1
 74
     3
 75
     0
 76
     0
 77
     0
 78
     0
  0
ENDTAB
  0
TABLE
  2
LTYPE
 70
    14
  0
LTYPE
  2
CONTINUOUS
 70
     0
  3
Solid line
 72
    65
 73
     0
 40
0.0
  0
LTYPE
  2
PHANTOM2
 70
     0
  3
___ _ _ ___ _ _ ___ _ _ ___ _ _ ___ _ _ ___ _ _
 72
    65
 73
     6
 40
1.25
 49
0.625
 49
-0.125
 49
0.125
 49
-0.125
 49
0.125
 49
-0.125
  0
LTYPE
  2
ACJISTGB
 70
     0
  3
__ . . __ . .
 72
    65
 73
     6
 40
9.0
 49
4.0
 49
-1.0
 49
1.0
 49
-1.0
 49
1.0
 49
-1.0
  0
LTYPE
  2
ACJISTGL
 70
     0
  3
_ _ _ _ _
 72
    65
 73
     2
 40
3.0
 49
2.0
 49
-1.0
  0
LTYPE
  2
AM_ISO02W050
 70
     0
  3
__ __ __ __ __ __ __ __ __ __ __ __ __ __ __
 72
    65
 73
     2
 40
7.5
 49
6.0
 49
-1.5
  0
LTYPE
  2
AM_ISO08W050
 70
     0
  3
____ . ____ . ____ . ____ . ____ . ____ . ____
 72
    65
 73
     4
 40
18.0
 49
12.0
 49
-1.5
 49
3.0
 49
-1.5
  0
LTYPE
  2
AM_ISO09W050
 70
     0
  3
_____ . . _____ . . _____ . . ____ .. ____
 72
    65
 73
     6
 40
22.5
 49
12.0
 49
-1.5
 49
3.0
 49
-1.5
 49
3.0
 49
-1.5
  0
LTYPE
  2
AM_ISO02W050X2
 70
     0
  3
 _ _ _ _ _ _ _ _ _ _ _ _
 72
    65
 73
     2
 40
3.75
 49
3.0
 49
-0.75
  0
LTYPE
  2
AM_ISO08W050X2
 70
     0
  3
__ . __ . __ . __ . __ . __
 72
    65
 73
     4
 40
9.0
 49
6.0
 49
-0.75
 49
1.5
 49
-0.75
  0
LTYPE
  2
AMZIGZAG
 70
     0
  3
/\/-/\/-/\/-/\/-/\/-/\/
 72
    65
 73
     2
 40
11.0001
 49
0.0001
 49
-11.0
  0
LTYPE
  2
AMCONSTR
 70
     0
  3
_______________________
 72
    65
 73
     2
 40
9999.0
 49
9999.0
 49
0.0
  0
LTYPE
  2
CENTER2
 70
     0
  3
Center (.5x) ___ _ ___ _ ___ _ ___ _ ___ _ ___
 72
    65
 73
     4
 40
1.125
 49
0.75
 49
-0.125
 49
0.125
 49
-0.125
  0
LTYPE
  2
HIDDEN2
 70
     0
  3
Hidden (.5x) _ _ _ _ _ _ _ _ _ _ _ _ _ _ _ _ _
 72
    65
 73
     2
 40
0.1875
 49
0.125
 49
-0.0625
  0
LTYPE
  2
ACJISWELD
 70
     0
  3
_ _ _ _ _
 72
    65
 73
     2
 40
2.0
 49
2.0
 49
-1.0
  0
ENDTAB
  0
TABLE
  2
LAYER
 70
     4
  0
LAYER
  2
0
 70
     0
 62
     7
  6
CONTINUOUS
  0
LAYER
  2
7
 70
     0
 62
     4
  6
CENTER2
  0
LAYER
  2
AM_0
 70
     0
 62
     7
  6
CONTINUOUS
  0
LAYER
  2
10
 70
     0
 62
     2
  6
CONTINUOUS
  0
ENDTAB
  0
TABLE
  2
STYLE
 70
     4
  0
STYLE
  2
STANDARD
 70
     0
 40
0.0
 41
1.0
 50
0.0
 71
     0
 42
3.5
  3
isocp.shx
  4
extfont.shx
  0
STYLE
  2
ACJISTS
 70
     0
 40
1.0
 41
1.0
 50
0.0
 71
     0
 42
3.5
  3
isocp.shx
  4
extfont.shx
  0
STYLE
  2
ACJISGDT
 70
     0
 40
0.0
 41
1.0
 50
0.0
 71
     0
 42
3.5
  3
amgdt.shx
  4
extfont.shx
  0
STYLE
  2

 70
     1
 40
0.0
 41
1.0
 50
0.0
 71
     0
 42
3.5
  3
ltypeshp.shx
  4

  0
ENDTAB
  0
TABLE
  2
VIEW
 70
     3
  0
VIEW
  2
AMDTVIEW1
 70
     0
 40
329.0721649484536
 10
210.0
 20
164.5360824742268
 41
420.0
 11
0.0
 21
0.0
 31
1.0
 12
0.0
 22
0.0
 32
0.0
 42
50.0
 43
0.0
 44
0.0
 50
0.0
 71
     0
  0
VIEW
  2
AMDTVIEW2
 70
     0
 40
329.0721649484536
 10
210.0
 20
164.5360824742268
 41
420.0
 11
0.0
 21
0.0
 31
1.0
 12
0.0
 22
0.0
 32
0.0
 42
50.0
 43
0.0
 44
0.0
 50
0.0
 71
     0
  0
VIEW
  2
AMDTVIEW3
 70
     0
 40
329.0721649484536
 10
210.0
 20
164.5360824742268
 41
420.0
 11
0.0
 21
0.0
 31
1.0
 12
0.0
 22
0.0
 32
0.0
 42
50.0
 43
0.0
 44
0.0
 50
0.0
 71
     0
  0
ENDTAB
  0
TABLE
  2
UCS
 70
     0
  0
ENDTAB
  0
TABLE
  2
APPID
 70
    66
  0
APPID
  2
ACAD
 70
     0
  0
APPID
  2
AD_DRAW
 70
     0
  0
APPID
  2
DESIGNERASSEMBLIES
 70
     0
  0
APPID
  2
MCAD_NO_VIS
 70
     0
  0
APPID
  2
ASURF_PCURVE_APPNAME
 70
     0
  0
APPID
  2
ACAD_TEMP_GRAPHIC
 70
     0
  0
APPID
  2
ACATTRIBSERVICES
 70
     0
  0
APPID
  2
ACADM_DIM_EDIT
 70
     0
  0
APPID
  2
GENIUS_GENDIM_13
 70
     0
  0
APPID
  2
GENIUS_GENDTOL_13
 70
     0
  0
APPID
  2
GENIUS_GE3DTOL_13
 70
     0
  0
APPID
  2
AMG_3D2D_5_0
 70
     0
  0
APPID
  2
AMDT_DM_ADJ
 70
     0
  0
APPID
  2
ACAD_PSEXT
 70
     0
  0
APPID
  2
ACAD_DSTYLE_DIMTEXT_FILL
 70
     0
  0
APPID
  2
ACAECLAYERSTANDARD
 70
     0
  0
APPID
  2
GENIUS_GENREC_14
 70
     0
  0
APPID
  2
GENIUS_GENODEF_13
 70
     0
  0
APPID
  2
GENIUS_GENOBJ-N-REC_13
 70
     0
  0
APPID
  2
DCO15
 70
     0
  0
APPID
  2
ACAD_DSTYLE_DIMJAG
 70
     0
  0
APPID
  2
ACAD_DSTYLE_DIMTALN
 70
     0
  0
APPID
  2
ACAD_MLEADERVER
 70
     0
  0
APPID
  2
GENIUS_GENSCREG_15
 70
     0
  0
APPID
  2
GENIUS_GENOBJ-N-SDF_13
 70
     0
  0
APPID
  2
ACAD_NAV_VCDISPLAY
 70
     0
  0
APPID
  2
ACAD_EXEMPT_FROM_CAD_STAND
 70
     0
  0
APPID
  2
ACCMTRANSPARENCY
 70
     0
  0
APPID
  2
HC_SUPERPART
 70
     0
  0
APPID
  2
HC_SP4BLOCK
 70
     0
  0
APPID
  2
HC_XDATA_SPRING
 70
     0
  0
APPID
  2
HCCAD_FRAME
 70
     0
  0
APPID
  2
GENIUS_GENOLIS_13
 70
     0
  0
APPID
  2
GENIUS_GENOENT_13
 70
     0
  0
APPID
  2
GENIUS_GENOREF_13
 70
     0
  0
APPID
  2
GENIUS_GENOBJ-N-TIT_13
 70
     0
  0
APPID
  2
GENIUS_GENOBJ-N-ZOO_13
 70
     0
  0
APPID
  2
GENIUS_GENTITLE_13
 70
     0
  0
APPID
  2
GENIUS_GENSYMENT_13
 70
     0
  0
APPID
  2
GENIUS_GENSCSYM_13
 70
     0
  0
APPID
  2
GENIUS_GENOBJ-N-REV_13
 70
     0
  0
APPID
  2
GENIUS_GENOBJ-N-RSSYM_13
 70
     0
  0
APPID
  2
GENIUS_GENREV_15
 70
     0
  0
APPID
  2
HRA
 70
     0
  0
APPID
  2
HTIT
 70
     0
  0
APPID
  2
GENIUS_GENZOO_17
 70
     0
  0
APPID
  2
GENIUS_GENOBJ-N-CEN_13
 70
     0
  0
APPID
  2
GENIUS_GENCEN_19
 70
     0
  0
APPID
  2
GENIUS_GENOBJ-N-CRS_13
 70
     0
  0
APPID
  2
GENIUS_GENCRS_20
 70
     0
  0
APPID
  2
GENIUS_GENOBJ-N-CRC_13
 70
     0
  0
APPID
  2
GENIUS_GENCRC_14
 70
     0
  0
APPID
  2
GENIUS_GENFIL_13
 70
     0
  0
APPID
  2
GENIUS_GENOBJ-N-CHA_13
 70
     0
  0
APPID
  2
GENIUS_GENOBJ-N-FIL_13
 70
     0
  0
APPID
  2
GENIUS_GENHATCH_13
 70
     0
  0
APPID
  2
GENIUS_GENOBJ-N-HTC_13
 70
     0
  0
APPID
  2
GENIUS_GENOBJ-N-DIM_13
 70
     0
  0
APPID
  2
GENIUS_GENOBJ-N-DIMLI_13
 70
     0
  0
APPID
  2
GENIUS_GENOBJ-N-FITL_13
 70
     0
  0
APPID
  2
GENIUS_GENFITL_13
 70
     0
  0
APPID
  2
GENLAYCOLOR
 70
     0
  0
APPID
  2
ACAD_DSTYLE_DIMBREAK
 70
     0
  0
APPID
  2
ACADANNOTATIVE
 70
     0
  0
APPID
  2
ACADANNOPO
 70
     0
  0
APPID
  2
PLOTTRANSPARENCY
 70
     0
  0
ENDTAB
  0
TABLE
  2
DIMSTYLE
 70
     8
  0
DIMSTYLE
  2
STANDARD
 70
     0
  3

  4

  5

  6

  7

 40
1.0
 41
2.5
 42
0.625
 43
3.75
 44
1.25
 45
0.0
 46
0.0
 47
0.0
 48
0.0
140
2.5
141
2.5
142
0.0
143
0.0394
144
1.0
145
0.0
146
1.0
147
0.625
 71
     0
 72
     0
 73
     0
 74
     0
 75
     0
 76
     0
 77
     1
 78
     8
170
     0
171
     4
172
     1
173
     0
174
     0
175
     0
176
     0
177
     0
178
     0
  0
DIMSTYLE
  2
ISO-25
 70
     0
  3

  4

  5

  6

  7

 40
1.0
 41
2.5
 42
0.625
 43
3.75
 44
1.25
 45
0.0
 46
0.0
 47
0.0
 48
0.0
140
2.5
141
2.5
142
0.0
143
0.0394
144
1.0
145
0.0
146
1.0
147
0.625
 71
     0
 72
     0
 73
     0
 74
     0
 75
     0
 76
     0
 77
     1
 78
     8
170
     0
171
     4
172
     1
173
     0
174
     0
175
     0
176
     0
177
     0
178
     0
  0
DIMSTYLE
  2
AM_JIS
 70
     0
  3

  4
"
  5
OPEN
  6

  7

 40
1.0
 41
2.5
 42
1.0
 43
7.0
 44
1.0
 45
0.0
 46
0.0
 47
0.1
 48
0.1
140
3.0
141
0.0
142
0.0
143
0.0393701
144
1.0
145
0.0
146
0.71
147
1.0
 71
     0
 72
     0
 73
     0
 74
     0
 75
     0
 76
     0
 77
     3
 78
     8
170
     0
171
     2
172
     1
173
     0
174
     0
175
     0
176
   256
177
   256
178
     2
  0
DIMSTYLE
  2
AM_JIS$3
 70
     0
  3

  4
"
  5
OPEN
  6

  7

 40
1.0
 41
2.5
 42
1.0
 43
10.0
 44
1.0
 45
0.0
 46
0.0
 47
0.1
 48
0.1
140
3.0
141
0.0
142
0.0
143
0.0393701
144
1.0
145
0.0
146
0.71
147
1.0
 71
     0
 72
     0
 73
     0
 74
     0
 75
     0
 76
     0
 77
     3
 78
     8
170
     0
171
     2
172
     1
173
     0
174
     0
175
     0
176
   256
177
   256
178
     2
  0
DIMSTYLE
  2
AM_JIS$4
 70
     0
  3

  4
"
  5

  6
OPEN30
  7
OPEN
 40
1.0
 41
2.5
 42
1.0
 43
10.0
 44
1.0
 45
0.0
 46
0.0
 47
0.1
 48
0.1
140
3.0
141
0.0
142
0.0
143
0.0393701
144
1.0
145
0.0
146
0.71
147
1.0
 71
     0
 72
     0
 73
     0
 74
     0
 75
     1
 76
     0
 77
     3
 78
     8
170
     0
171
     2
172
     1
173
     1
174
     0
175
     0
176
   256
177
   256
178
     2
  0
DIMSTYLE
  2
AM_JIS$6
 70
     0
  3

  4
"
  5
OPEN30
  6
OPEN30
  7
OPEN30
 40
1.0
 41
2.5
 42
1.0
 43
10.0
 44
1.0
 45
0.0
 46
0.0
 47
0.1
 48
0.1
140
3.5
141
0.0
142
0.0
143
0.0393701
144
1.0
145
0.0
146
0.71
147
1.5
 71
     0
 72
     0
 73
     0
 74
     0
 75
     0
 76
     0
 77
     0
 78
     8
170
     0
171
     2
172
     1
173
     0
174
     0
175
     0
176
   256
177
   256
178
     2
  0
DIMSTYLE
  2
AM_JIS$7
 70
     0
  3

  4
"
  5
OPEN30
  6

  7

 40
1.0
 41
2.5
 42
1.0
 43
10.0
 44
1.0
 45
0.0
 46
0.0
 47
0.1
 48
0.1
140
3.0
141
0.0
142
0.0
143
0.0393701
144
1.0
145
0.0
146
0.71
147
1.0
 71
     0
 72
     0
 73
     0
 74
     0
 75
     0
 76
     0
 77
     3
 78
     8
170
     0
171
     2
172
     1
173
     0
174
     0
175
     0
176
   256
177
   256
178
     2
  0
DIMSTYLE
  2
AM_JIS$0
 70
     0
  3

  4
"
  5
OPEN
  6

  7

 40
1.0
 41
2.5
 42
1.0
 43
7.0
 44
1.0
 45
0.0
 46
0.0
 47
0.1
 48
0.1
140
3.0
141
0.0
142
0.0
143
0.0393701
144
1.0
145
0.0
146
0.71
147
1.0
 71
     0
 72
     0
 73
     0
 74
     0
 75
     0
 76
     0
 77
     3
 78
     8
170
     0
171
     2
172
     1
173
     0
174
     0
175
     0
176
   256
177
   256
178
     2
  0
ENDTAB
  0
ENDSEC
  0
SECTION
  2
BLOCKS
  0
BLOCK
  8
0
  2
$MODEL_SPACE
 70
     0
 10
0.0
 20
0.0
 30
0.0
  3
$MODEL_SPACE
  1

  0
ENDBLK
  5
1C
  8
0
  0
BLOCK
 67
     1
  8
0
  2
$PAPER_SPACE
 70
     0
 10
0.0
 20
0.0
 30
0.0
  3
$PAPER_SPACE
  1

  0
ENDBLK
  5
19
 67
     1
  8
0
  0
BLOCK
  8
0
  2
_OPEN30
 70
     0
 10
0.0
 20
0.0
 30
0.0
  3
_OPEN30
  1

  0
LINE
  5
2EF
  8
0
  6
BYBLOCK
 62
     0
 10
-1.0
 20
0.26794919
 30
0.0
 11
0.0
 21
0.0
 31
0.0
  0
LINE
  5
2F0
  8
0
  6
BYBLOCK
 62
     0
 10
0.0
 20
0.0
 30
0.0
 11
-1.0
 21
-0.26794919
 31
0.0
  0
LINE
  5
2F1
  8
0
  6
BYBLOCK
 62
     0
 10
0.0
 20
0.0
 30
0.0
 11
-1.0
 21
0.0
 31
0.0
  0
ENDBLK
  5
2F3
  8
0
  0
BLOCK
  8
0
  2
_OPEN
 70
     0
 10
0.0
 20
0.0
 30
0.0
  3
_OPEN
  1

  0
LINE
  5
597
  8
0
  6
BYBLOCK
 62
     0
 10
-1.0
 20
0.1666666666666667
 30
0.0
 11
0.0
 21
0.0
 31
0.0
  0
LINE
  5
598
  8
0
  6
BYBLOCK
 62
     0
 10
-1.0
 20
-0.1666666666666667
 30
0.0
 11
0.0
 21
0.0
 31
0.0
  0
LINE
  5
599
  8
0
  6
BYBLOCK
 62
     0
 10
0.0
 20
0.0
 30
0.0
 11
-1.0
 21
0.0
 31
0.0
  0
ENDBLK
  5
59B
  8
0
  0
BLOCK
  8
0
  2
_TAGCIRCLE
 70
     2
 10
0.0
 20
0.0
 30
0.0
  3
_TAGCIRCLE
  1

  0
CIRCLE
  5
1151
  8
0
  6
BYBLOCK
 62
     0
 10
0.0
 20
0.0
 30
0.0
 40
4.0
  0
ATTDEF
  5
1152
  8
0
 62
     0
 10
-7.1
 20
-1.5
 30
0.0
 40
3.0
  1
タグ番号
 72
     1
 11
0.0
 21
-1.5
 31
0.0
  3
タグ番号を入力
  2
タグ番号
 70
     0
  0
ENDBLK
  5
1154
  8
0
  0
BLOCK
  8
AM_0
  2
_ACMOPEN30
 70
     0
 10
0.0
 20
0.0
 30
0.0
  3
_ACMOPEN30
  1
Acad:XRef
  0
LINE
  5
1CA4
  8
AM_0
 62
     0
 10
-1.0
 20
0.0
 30
0.0
 11
0.0
 21
0.0
 31
0.0
  0
LINE
  5
1CA5
  8
AM_0
 62
     0
 10
-1.0
 20
-0.2679491924311227
 30
0.0
 11
0.0
 21
0.0
 31
0.0
  0
LINE
  5
1CA6
  8
AM_0
 62
     0
 10
-1.0
 20
0.2679491924311227
 30
0.0
 11
0.0
 21
0.0
 31
0.0
  0
ENDBLK
  5
1CA7
  8
AM_0
  0
ENDSEC
  0
SECTION
  2
ENTITIES
  0
LINE
  5
2841
  8
0
  6
CONTINUOUS
 10
136.0676230169684
 20
307.8572574564976
 30
0.0
 11
127.1916614080055
 21
307.5783191255837
 31
0.0
  0
LINE
  5
2842
  8
0
  6
CONTINUOUS
 10
142.191661408006
 20
306.8877131162342
 30
0.0
 11
127.191661408006
 21
306.4163191255836
 31
0.0
  0
LINE
  5
2843
  8
0
  6
CONTINUOUS
 10
136.0676230169684
 20
286.8572574564976
 30
0.0
 11
127.1916614080055
 21
287.1361957874112
 31
0.0
  0
LINE
  5
2844
  8
0
  6
CONTINUOUS
 10
142.191661408006
 20
287.8268017967609
 30
0.0
 11
127.191661408006
 21
288.2981957874113
 31
0.0
  0
LINE
  5
2845
  8
0
  6
CONTINUOUS
 10
136.0676230169684
 20
93.21293081472982
 30
0.0
 11
127.1916614080055
 21
92.93399248381616
 31
0.0
  0
LINE
  5
2846
  8
0
  6
CONTINUOUS
 10
142.191661408006
 20
92.24338647446643
 30
0.0
 11
127.191661408006
 21
91.77199248381612
 31
0.0
  0
LINE
  5
2847
  8
0
  6
CONTINUOUS
 10
136.0676230169684
 20
72.21293081473004
 30
0.0
 11
127.1916614080055
 21
72.4918691456437
 31
0.0
  0
LINE
  5
2848
  8
0
  6
CONTINUOUS
 10
142.191661408006
 20
73.18247515499343
 30
0.0
 11
127.191661408006
 21
73.65386914564374
 31
0.0
  0
LINE
  5
2849
  8
0
  6
CONTINUOUS
 10
127.1916614080055
 20
72.4918691456437
 30
0.0
 11
127.1916614080055
 21
92.93399248381616
 31
0.0
  0
LINE
  5
284A
  8
0
  6
CONTINUOUS
 10
69.94462611097197
 20
83.85635675243066
 30
0.0
 11
69.94462611097197
 21
70.56950487702898
 31
0.0
  0
LINE
  5
284B
  8
0
  6
CONTINUOUS
 10
69.44462611097197
 20
73.76400164229062
 30
0.0
 11
69.44462611097197
 21
91.66185998716901
 31
0.0
1001
GENIUS_GENODEF_13
1002
{
1000
HIER
1070
     0
1002
}
1002
{
1000
MANEDIT
1070
     0
1002
}
1002
{
1000
NOSEL
1070
     0
1002
}
1002
{
1000
BEHIND
1070
     0
1002
}
1002
{
1000
REACTOR
1002
}
1001
GENIUS_GENOBJ-N-CEN_13
1002
{
1000
OWNER
1000
GEN
1002
}
  0
CIRCLE
  5
284C
  8
0
 10
53.94462611097197
 20
82.71293081472982
 30
0.0
 40
9.059061669086189
  0
CIRCLE
  5
284D
  8
0
 10
53.94462611097197
 20
82.71293081472982
 30
0.0
 40
10.22106166908628
  0
CIRCLE
  5
284E
  8
0
 10
53.94462611097197
 20
82.71293081472982
 30
0.0
 40
6.0
  0
LINE
  5
284F
  8
0
  6
CONTINUOUS
 10
37.94462611097197
 20
83.85635675243066
 30
0.0
 11
37.94462611097197
 21
70.56950487702898
 31
0.0
  0
LINE
  5
2850
  8
0
  6
CONTINUOUS
 10
38.44462611097197
 20
91.66185998716901
 30
0.0
 11
38.44462611097197
 21
73.76400164229062
 31
0.0
1001
GENIUS_GENODEF_13
1002
{
1000
HIER
1070
     0
1002
}
1002
{
1000
MANEDIT
1070
     0
1002
}
1002
{
1000
NOSEL
1070
     0
1002
}
1002
{
1000
BEHIND
1070
     0
1002
}
1002
{
1000
REACTOR
1002
}
1001
GENIUS_GENOBJ-N-CEN_13
1002
{
1000
OWNER
1000
GEN
1002
}
  0
CIRCLE
  5
2851
  8
0
 10
53.94462611097197
 20
82.71293081472982
 30
0.0
 40
15.49999999999997
  0
LINE
  5
2852
  8
0
  6
CONTINUOUS
 10
53.94462611097197
 20
64.81507246985143
 30
0.0
 11
69.44462611097197
 21
73.76400164229062
 31
0.0
1001
GENIUS_GENODEF_13
1002
{
1000
HIER
1070
     0
1002
}
1002
{
1000
MANEDIT
1070
     0
1002
}
1002
{
1000
NOSEL
1070
     0
1002
}
1002
{
1000
BEHIND
1070
     0
1002
}
1002
{
1000
REACTOR
1002
}
1001
GENIUS_GENOBJ-N-CEN_13
1002
{
1000
OWNER
1000
GEN
1002
}
  0
LINE
  5
2853
  8
0
  6
CONTINUOUS
 10
40.72412611097207
 20
60.71293081472982
 30
0.0
 11
67.16512611097187
 21
60.71293081472982
 31
0.0
  0
LINE
  5
2854
  8
0
  6
CONTINUOUS
 10
40.72412611097207
 20
47.71293081472982
 30
0.0
 11
67.16512611097187
 21
47.71293081472982
 31
0.0
  0
LINE
  5
2855
  8
0
  6
CONTINUOUS
 10
38.44462611097197
 20
73.76400164229062
 30
0.0
 11
53.94462611097197
 21
64.81507246985143
 31
0.0
1001
GENIUS_GENODEF_13
1002
{
1000
HIER
1070
     0
1002
}
1002
{
1000
MANEDIT
1070
     0
1002
}
1002
{
1000
NOSEL
1070
     0
1002
}
1002
{
1000
BEHIND
1070
     0
1002
}
1002
{
1000
REACTOR
1002
}
1001
GENIUS_GENOBJ-N-CEN_13
1002
{
1000
OWNER
1000
GEN
1002
}
  0
LINE
  5
2856
  8
0
  6
CONTINUOUS
 10
40.72412611097207
 20
60.71293081472982
 30
0.0
 11
40.72412611097207
 21
69.28464378358012
 31
0.0
  0
LINE
  5
2857
  8
0
  6
CONTINUOUS
 10
41.88612611097187
 20
60.71293081472982
 30
0.0
 11
41.88612611097187
 21
47.71293081472982
 31
0.0
1001
GENIUS_GENODEF_13
1002
{
1000
HIER
1070
     0
1002
}
1002
{
1000
MANEDIT
1070
     0
1002
}
1002
{
1000
NOSEL
1070
     0
1002
}
1002
{
1000
BEHIND
1070
     0
1002
}
1002
{
1000
REACTOR
1002
}
1001
GENIUS_GENOBJ-N-CEN_13
1002
{
1000
OWNER
1000
GEN
1002
}
  0
LINE
  5
2858
  8
0
  6
CONTINUOUS
 10
40.72412611097207
 20
60.71293081472982
 30
0.0
 11
40.72412611097207
 21
47.71293081472982
 31
0.0
1001
GENIUS_GENODEF_13
1002
{
1000
HIER
1070
     0
1002
}
1002
{
1000
MANEDIT
1070
     0
1002
}
1002
{
1000
NOSEL
1070
     0
1002
}
1002
{
1000
BEHIND
1070
     0
1002
}
1002
{
1000
REACTOR
1002
}
1001
GENIUS_GENOBJ-N-CEN_13
1002
{
1000
OWNER
1000
GEN
1002
}
  0
LINE
  5
2859
  8
0
  6
CONTINUOUS
 10
37.94462611097197
 20
70.56950487702898
 30
0.0
 11
40.72412611097207
 21
69.28464378358012
 31
0.0
  0
LINE
  5
285A
  8
0
  6
CONTINUOUS
 10
67.16512611097187
 20
60.71293081472982
 30
0.0
 11
67.16512611097187
 21
69.28464378358012
 31
0.0
  0
LINE
  5
285B
  8
0
  6
CONTINUOUS
 10
67.16512611097187
 20
60.71293081472982
 30
0.0
 11
67.16512611097187
 21
47.71293081472982
 31
0.0
1001
GENIUS_GENODEF_13
1002
{
1000
HIER
1070
     0
1002
}
1002
{
1000
MANEDIT
1070
     0
1002
}
1002
{
1000
NOSEL
1070
     0
1002
}
1002
{
1000
BEHIND
1070
     0
1002
}
1002
{
1000
REACTOR
1002
}
1001
GENIUS_GENOBJ-N-CEN_13
1002
{
1000
OWNER
1000
GEN
1002
}
  0
LINE
  5
285C
  8
0
  6
CONTINUOUS
 10
66.0031261109716
 20
60.71293081472982
 30
0.0
 11
66.0031261109716
 21
47.71293081472982
 31
0.0
1001
GENIUS_GENODEF_13
1002
{
1000
HIER
1070
     0
1002
}
1002
{
1000
MANEDIT
1070
     0
1002
}
1002
{
1000
NOSEL
1070
     0
1002
}
1002
{
1000
BEHIND
1070
     0
1002
}
1002
{
1000
REACTOR
1002
}
1001
GENIUS_GENOBJ-N-CEN_13
1002
{
1000
OWNER
1000
GEN
1002
}
  0
LINE
  5
285D
  8
0
  6
CONTINUOUS
 10
69.94462611097197
 20
70.56950487702898
 30
0.0
 11
67.16512611097187
 21
69.28464378358012
 31
0.0
  0
LINE
  5
285E
  8
0
  6
CONTINUOUS
 10
59.94462611097197
 20
153.7129308147298
 30
0.0
 11
59.94462611097197
 21
154.7130003795269
 31
0.0
  0
LINE
  5
285F
  8
0
  6
CONTINUOUS
 10
47.94462611097197
 20
153.7129308147298
 30
0.0
 11
47.94462611097197
 21
154.7130003795269
 31
0.0
  0
LINE
  5
2860
  8
0
  6
CONTINUOUS
 10
43.94462611097197
 20
153.7129308147298
 30
0.0
 11
63.94462611097197
 21
153.7129308147298
 31
0.0
  0
LINE
  5
2861
  8
0
  6
CONTINUOUS
 10
40.94462611097197
 20
137.7129308147298
 30
0.0
 11
66.94462611097197
 21
137.7129308147298
 31
0.0
  0
LINE
  5
2862
  8
0
  6
CONTINUOUS
 10
37.94462611097197
 20
117.7129308147298
 30
0.0
 11
69.94462611097197
 21
117.7129308147298
 31
0.0
  0
LINE
  5
2863
  8
0
  6
CONTINUOUS
 10
42.82468603920961
 20
102.1593318071475
 30
0.0
 11
65.12126506475443
 21
102.1593318071475
 31
0.0
  0
LINE
  5
2864
  8
0
  6
CONTINUOUS
 10
69.44462611097197
 20
91.66185998716901
 30
0.0
 11
53.94462611097197
 21
100.6107891596084
 31
0.0
1001
GENIUS_GENODEF_13
1002
{
1000
HIER
1070
     0
1002
}
1002
{
1000
MANEDIT
1070
     0
1002
}
1002
{
1000
NOSEL
1070
     0
1002
}
1002
{
1000
BEHIND
1070
     0
1002
}
1002
{
1000
REACTOR
1002
}
1001
GENIUS_GENOBJ-N-CEN_13
1002
{
1000
OWNER
1000
GEN
1002
}
  0
LINE
  5
2865
  8
0
  6
CONTINUOUS
 10
37.94462611097197
 20
135.7129308147298
 30
0.0
 11
37.94462611097197
 21
117.7129308147298
 31
0.0
1001
GENIUS_GENODEF_13
1002
{
1000
HIER
1070
     0
1002
}
1002
{
1000
MANEDIT
1070
     0
1002
}
1002
{
1000
NOSEL
1070
     0
1002
}
1002
{
1000
BEHIND
1070
     0
1002
}
1002
{
1000
REACTOR
1002
}
1001
GENIUS_GENOBJ-N-CEN_13
1002
{
1000
OWNER
1000
GEN
1002
}
  0
LINE
  5
2866
  8
0
  6
CONTINUOUS
 10
53.94462611097197
 20
100.6107891596084
 30
0.0
 11
38.44462611097197
 21
91.66185998716901
 31
0.0
1001
GENIUS_GENODEF_13
1002
{
1000
HIER
1070
     0
1002
}
1002
{
1000
MANEDIT
1070
     0
1002
}
1002
{
1000
NOSEL
1070
     0
1002
}
1002
{
1000
BEHIND
1070
     0
1002
}
1002
{
1000
REACTOR
1002
}
1001
GENIUS_GENOBJ-N-CEN_13
1002
{
1000
OWNER
1000
GEN
1002
}
  0
LINE
  5
2867
  8
0
  6
CONTINUOUS
 10
40.72412611097207
 20
92.97792992578684
 30
0.0
 11
40.72412611097207
 21
100.2846437835803
 31
0.0
  0
LINE
  5
2868
  8
0
  6
CONTINUOUS
 10
38.44462611097197
 20
84.08748844760044
 30
0.0
 11
37.94462611097197
 21
83.85635675243066
 31
0.0
  0
LINE
  5
2869
  8
0
  6
CONTINUOUS
 10
37.94462611097197
 20
117.7129308147298
 30
0.0
 11
37.94462611097197
 21
101.5695048770292
 31
0.0
  0
LINE
  5
286A
  8
0
  6
CONTINUOUS
 10
37.94462611097197
 20
101.5695048770292
 30
0.0
 11
40.72412611097207
 21
100.2846437835803
 31
0.0
  0
LINE
  5
286B
  8
0
  6
CONTINUOUS
 10
37.94462611097197
 20
135.7129308147298
 30
0.0
 11
40.94462611097197
 21
137.7129308147298
 31
0.0
  0
LINE
  5
286C
  8
0
 10
40.94462611097197
 20
150.7129308147298
 30
0.0
 11
43.94462611097197
 21
153.7129308147298
 31
0.0
  0
LINE
  5
286D
  8
0
  6
CONTINUOUS
 10
40.94462611097197
 20
150.7129308147298
 30
0.0
 11
40.94462611097197
 21
137.7129308147298
 31
0.0
  0
LINE
  5
286E
  8
0
  6
CONTINUOUS
 10
69.94462611097197
 20
135.7129308147298
 30
0.0
 11
69.94462611097197
 21
117.7129308147298
 31
0.0
1001
GENIUS_GENODEF_13
1002
{
1000
HIER
1070
     0
1002
}
1002
{
1000
MANEDIT
1070
     0
1002
}
1002
{
1000
NOSEL
1070
     0
1002
}
1002
{
1000
BEHIND
1070
     0
1002
}
1002
{
1000
REACTOR
1002
}
1001
GENIUS_GENOBJ-N-CEN_13
1002
{
1000
OWNER
1000
GEN
1002
}
  0
LINE
  5
286F
  8
0
  6
CONTINUOUS
 10
67.16512611097187
 20
92.97792992578684
 30
0.0
 11
67.16512611097187
 21
100.2846437835803
 31
0.0
  0
LINE
  5
2870
  8
0
  6
CONTINUOUS
 10
69.44462611097197
 20
84.08748844760044
 30
0.0
 11
69.94462611097197
 21
83.85635675243066
 31
0.0
  0
LINE
  5
2871
  8
0
  6
CONTINUOUS
 10
69.94462611097197
 20
117.7129308147298
 30
0.0
 11
69.94462611097197
 21
101.5695048770292
 31
0.0
  0
LINE
  5
2872
  8
0
  6
CONTINUOUS
 10
69.94462611097197
 20
101.5695048770292
 30
0.0
 11
67.16512611097187
 21
100.2846437835803
 31
0.0
  0
LINE
  5
2873
  8
0
  6
CONTINUOUS
 10
69.94462611097197
 20
135.7129308147298
 30
0.0
 11
66.94462611097197
 21
137.7129308147298
 31
0.0
  0
LINE
  5
2874
  8
0
 10
63.94462611097197
 20
153.7129308147298
 30
0.0
 11
66.94462611097197
 21
150.7129308147298
 31
0.0
  0
LINE
  5
2875
  8
0
  6
CONTINUOUS
 10
66.94462611097197
 20
150.7129308147298
 30
0.0
 11
66.94462611097197
 21
137.7129308147298
 31
0.0
  0
LINE
  5
2876
  8
0
  6
CONTINUOUS
 10
127.1916614080055
 20
287.1361957874112
 30
0.0
 11
127.1916614080055
 21
307.5783191255837
 31
0.0
  0
LINE
  5
2877
  8
0
 10
221.1916614080051
 20
117.7129308147298
 30
0.0
 11
224.1916614080055
 21
120.7129308147298
 31
0.0
  0
LINE
  5
2878
  8
0
  6
CONTINUOUS
 10
224.1916614080055
 20
134.71293081473
 30
0.0
 11
219.6916614080055
 21
137.7129308147298
 31
0.0
  0
LINE
  5
2879
  8
0
  6
CONTINUOUS
 10
190.6916614080055
 20
117.7129308147298
 30
0.0
 11
222.6916614080055
 21
117.7129308147298
 31
0.0
  0
LINE
  5
287A
  8
0
  6
CONTINUOUS
 10
222.6916614080055
 20
101.5695048770292
 30
0.0
 11
219.9121614080059
 21
100.2846437835803
 31
0.0
  0
LINE
  5
287B
  8
0
  6
CONTINUOUS
 10
219.9121614080059
 20
85.14121784587951
 30
0.0
 11
222.6916614080055
 21
83.85635675243066
 31
0.0
  0
LINE
  5
287C
  8
0
  6
CONTINUOUS
 10
222.6916614080055
 20
70.5695048770292
 30
0.0
 11
219.9121614080059
 21
69.28464378358035
 31
0.0
  0
LINE
  5
287D
  8
0
  6
CONTINUOUS
 10
177.691658768892
 20
67.21293081472982
 30
0.0
 11
177.691658768892
 21
98.21293081473004
 31
0.0
  0
LINE
  5
287E
  8
0
  6
CONTINUOUS
 10
182.6916614080055
 20
95.93343081472972
 30
0.0
 11
182.6916614080055
 21
69.49243081472991
 31
0.0
  0
ARC
  5
287F
  8
0
  6
CONTINUOUS
 10
-169.4211170699173
 20
82.57066510366076
 30
0.0
 40
27.64480620941191
 50
154.1946832642435
 51
204.6204263514446
210
0.0
220
0.0
230
-1.0
  0
LINE
  5
2880
  8
0
  6
CONTINUOUS
 10
159.691658768892
 20
67.21293081473004
 30
0.0
 11
159.691658768892
 21
98.21293081473004
 31
0.0
  0
LINE
  5
2881
  8
0
  6
CONTINUOUS
 10
142.191661408006
 20
72.21293081472982
 30
0.0
 11
142.191661408006
 21
93.21293081473004
 31
0.0
  0
LINE
  5
2882
  8
0
  6
CONTINUOUS
 10
175.2938004240136
 20
64.81507246985143
 30
0.0
 11
177.691658768892
 21
67.21293081472982
 31
0.0
  0
LINE
  5
2883
  8
0
  6
CONTINUOUS
 10
159.691658768892
 20
72.21293081472982
 30
0.0
 11
136.0676230169684
 21
72.21293081473004
 31
0.0
  0
LINE
  5
2884
  8
0
  6
CONTINUOUS
 10
162.0895171137709
 20
64.81507246985143
 30
0.0
 11
175.2938004240136
 21
64.81507246985143
 31
0.0
  0
LINE
  5
2885
  8
0
  6
CONTINUOUS
 10
162.0895171137709
 20
64.81507246985143
 30
0.0
 11
159.691658768892
 21
67.21293081473004
 31
0.0
  0
LINE
  5
2886
  8
0
  6
CONTINUOUS
 10
198.5717213362432
 20
70.61789223008304
 30
0.0
 11
217.868300361788
 21
70.61789223008304
 31
0.0
  0
LINE
  5
2887
  8
0
  6
CONTINUOUS
 10
193.4711614080056
 20
47.71293081472982
 30
0.0
 11
219.9121614080059
 21
47.71293081472982
 31
0.0
  0
LINE
  5
2888
  8
0
  6
CONTINUOUS
 10
193.4711614080056
 20
60.71293081472982
 30
0.0
 11
219.9121614080059
 21
60.71293081472982
 31
0.0
  0
LINE
  5
2889
  8
0
  6
CONTINUOUS
 10
182.6916614080055
 20
69.49243081472991
 30
0.0
 11
193.4711614080056
 21
69.49243081472991
 31
0.0
  0
LINE
  5
288A
  8
0
  6
CONTINUOUS
 10
182.6916614080055
 20
69.49243081472991
 30
0.0
 11
177.691658768892
 21
69.49243081472991
 31
0.0
1001
GENIUS_GENODEF_13
1002
{
1000
HIER
1070
     0
1002
}
1002
{
1000
MANEDIT
1070
     0
1002
}
1002
{
1000
NOSEL
1070
     0
1002
}
1002
{
1000
BEHIND
1070
     0
1002
}
1002
{
1000
REACTOR
1002
}
1001
GENIUS_GENOBJ-N-CEN_13
1002
{
1000
OWNER
1000
GEN
1002
}
  0
LINE
  5
288B
  8
0
  6
CONTINUOUS
 10
182.6916614080055
 20
70.65443081472995
 30
0.0
 11
177.691658768892
 21
70.65443081472995
 31
0.0
1001
GENIUS_GENODEF_13
1002
{
1000
HIER
1070
     0
1002
}
1002
{
1000
MANEDIT
1070
     0
1002
}
1002
{
1000
NOSEL
1070
     0
1002
}
1002
{
1000
BEHIND
1070
     0
1002
}
1002
{
1000
REACTOR
1002
}
1001
GENIUS_GENOBJ-N-CEN_13
1002
{
1000
OWNER
1000
GEN
1002
}
  0
LINE
  5
288C
  8
0
  6
CONTINUOUS
 10
193.4711614080056
 20
60.71293081472982
 30
0.0
 11
193.4711614080056
 21
69.49243081472991
 31
0.0
  0
LINE
  5
288D
  8
0
  6
CONTINUOUS
 10
193.4711614080056
 20
60.71293081472982
 30
0.0
 11
193.4711614080056
 21
47.71293081472982
 31
0.0
1001
GENIUS_GENODEF_13
1002
{
1000
HIER
1070
     0
1002
}
1002
{
1000
MANEDIT
1070
     0
1002
}
1002
{
1000
NOSEL
1070
     0
1002
}
1002
{
1000
BEHIND
1070
     0
1002
}
1002
{
1000
REACTOR
1002
}
1001
GENIUS_GENOBJ-N-CEN_13
1002
{
1000
OWNER
1000
GEN
1002
}
  0
LINE
  5
288E
  8
0
  6
CONTINUOUS
 10
194.6331614080054
 20
60.71293081472982
 30
0.0
 11
194.6331614080054
 21
47.71293081472982
 31
0.0
1001
GENIUS_GENODEF_13
1002
{
1000
HIER
1070
     0
1002
}
1002
{
1000
MANEDIT
1070
     0
1002
}
1002
{
1000
NOSEL
1070
     0
1002
}
1002
{
1000
BEHIND
1070
     0
1002
}
1002
{
1000
REACTOR
1002
}
1001
GENIUS_GENOBJ-N-CEN_13
1002
{
1000
OWNER
1000
GEN
1002
}
  0
LINE
  5
288F
  8
0
  6
CONTINUOUS
 10
219.9121614080059
 20
60.71293081472982
 30
0.0
 11
219.9121614080059
 21
69.28464378358035
 31
0.0
  0
LINE
  5
2890
  8
0
  6
CONTINUOUS
 10
219.9121614080059
 20
60.71293081472982
 30
0.0
 11
219.9121614080059
 21
47.71293081472982
 31
0.0
1001
GENIUS_GENODEF_13
1002
{
1000
HIER
1070
     0
1002
}
1002
{
1000
MANEDIT
1070
     0
1002
}
1002
{
1000
NOSEL
1070
     0
1002
}
1002
{
1000
BEHIND
1070
     0
1002
}
1002
{
1000
REACTOR
1002
}
1001
GENIUS_GENOBJ-N-CEN_13
1002
{
1000
OWNER
1000
GEN
1002
}
  0
LINE
  5
2891
  8
0
  6
CONTINUOUS
 10
218.7501614080056
 20
60.71293081472982
 30
0.0
 11
218.7501614080056
 21
47.71293081472982
 31
0.0
1001
GENIUS_GENODEF_13
1002
{
1000
HIER
1070
     0
1002
}
1002
{
1000
MANEDIT
1070
     0
1002
}
1002
{
1000
NOSEL
1070
     0
1002
}
1002
{
1000
BEHIND
1070
     0
1002
}
1002
{
1000
REACTOR
1002
}
1001
GENIUS_GENOBJ-N-CEN_13
1002
{
1000
OWNER
1000
GEN
1002
}
  0
LINE
  5
2892
  8
0
  6
CONTINUOUS
 10
175.2938004240136
 20
100.6107891596084
 30
0.0
 11
177.691658768892
 21
98.21293081473004
 31
0.0
  0
LINE
  5
2893
  8
0
  6
CONTINUOUS
 10
159.691658768892
 20
93.21293081473004
 30
0.0
 11
136.0676230169684
 21
93.21293081472982
 31
0.0
  0
LINE
  5
2894
  8
0
  6
CONTINUOUS
 10
162.0895171137709
 20
100.6107891596084
 30
0.0
 11
175.2938004240136
 21
100.6107891596084
 31
0.0
  0
LINE
  5
2895
  8
0
  6
CONTINUOUS
 10
162.0895171137709
 20
100.6107891596084
 30
0.0
 11
159.691658768892
 21
98.21293081472982
 31
0.0
  0
LINE
  5
2896
  8
0
  6
CONTINUOUS
 10
200.6916614080055
 20
153.7129308147298
 30
0.0
 11
200.6916614080055
 21
154.7130003795287
 31
0.0
  0
LINE
  5
2897
  8
0
  6
CONTINUOUS
 10
212.6916614080055
 20
153.7129308147298
 30
0.0
 11
212.6916614080055
 21
154.7130003795287
 31
0.0
  0
LINE
  5
2898
  8
0
  6
CONTINUOUS
 10
196.6916614080055
 20
153.7129308147298
 30
0.0
 11
216.6916614080055
 21
153.7129308147298
 31
0.0
  0
LINE
  5
2899
  8
0
  6
CONTINUOUS
 10
193.6916614080055
 20
137.7129308147298
 30
0.0
 11
219.6916614080055
 21
137.7129308147298
 31
0.0
  0
LINE
  5
289A
  8
0
  6
CONTINUOUS
 10
198.5717213362432
 20
83.39914709535014
 30
0.0
 11
217.868300361788
 21
83.39914709535014
 31
0.0
  0
LINE
  5
289B
  8
0
  6
CONTINUOUS
 10
195.5717213362432
 20
102.1593318071475
 30
0.0
 11
217.868300361788
 21
102.1593318071475
 31
0.0
  0
LINE
  5
289C
  8
0
 10
189.1916614080055
 20
120.7129308147287
 30
0.0
 11
192.1916614080064
 21
117.7129308147298
 31
0.0
  0
LINE
  5
289D
  8
0
  6
CONTINUOUS
 10
182.6916614080055
 20
95.93343081472995
 30
0.0
 11
193.4711614080056
 21
95.93343081472995
 31
0.0
  0
LINE
  5
289E
  8
0
  6
CONTINUOUS
 10
182.6916614080055
 20
94.77143081472991
 30
0.0
 11
177.691658768892
 21
94.77143081472991
 31
0.0
1001
GENIUS_GENODEF_13
1002
{
1000
HIER
1070
     0
1002
}
1002
{
1000
MANEDIT
1070
     0
1002
}
1002
{
1000
NOSEL
1070
     0
1002
}
1002
{
1000
BEHIND
1070
     0
1002
}
1002
{
1000
REACTOR
1002
}
1001
GENIUS_GENOBJ-N-CEN_13
1002
{
1000
OWNER
1000
GEN
1002
}
  0
LINE
  5
289F
  8
0
  6
CONTINUOUS
 10
182.6916614080055
 20
95.93343081472995
 30
0.0
 11
177.691658768892
 21
95.93343081472995
 31
0.0
1001
GENIUS_GENODEF_13
1002
{
1000
HIER
1070
     0
1002
}
1002
{
1000
MANEDIT
1070
     0
1002
}
1002
{
1000
NOSEL
1070
     0
1002
}
1002
{
1000
BEHIND
1070
     0
1002
}
1002
{
1000
REACTOR
1002
}
1001
GENIUS_GENOBJ-N-CEN_13
1002
{
1000
OWNER
1000
GEN
1002
}
  0
LINE
  5
28A0
  8
0
  6
CONTINUOUS
 10
193.4711614080056
 20
95.93343081472995
 30
0.0
 11
193.4711614080056
 21
100.2846437835803
 31
0.0
  0
LINE
  5
28A1
  8
0
  6
CONTINUOUS
 10
190.6916614080055
 20
101.5695048770292
 30
0.0
 11
193.4711614080056
 21
100.2846437835803
 31
0.0
  0
LINE
  5
28A2
  8
0
  6
CONTINUOUS
 10
190.6916614080055
 20
117.7129308147298
 30
0.0
 11
190.6916614080055
 21
101.5695048770292
 31
0.0
  0
LINE
  5
28A3
  8
0
  6
CONTINUOUS
 10
189.1916614080055
 20
134.71293081473
 30
0.0
 11
193.6916614080055
 21
137.7129308147298
 31
0.0
  0
LINE
  5
28A4
  8
0
  6
CONTINUOUS
 10
189.1916614080055
 20
134.71293081473
 30
0.0
 11
189.1916614080055
 21
120.7129308147298
 31
0.0
  0
LINE
  5
28A5
  8
0
  6
CONTINUOUS
 10
193.6916614080055
 20
150.7129308147298
 30
0.0
 11
193.6916614080055
 21
137.7129308147298
 31
0.0
  0
LINE
  5
28A6
  8
0
 10
193.6916614080055
 20
150.7129308147298
 30
0.0
 11
196.6916614080055
 21
153.7129308147298
 31
0.0
  0
LINE
  5
28A7
  8
0
  6
CONTINUOUS
 10
219.9121614080059
 20
85.14121784587951
 30
0.0
 11
219.9121614080059
 21
100.2846437835803
 31
0.0
  0
LINE
  5
28A8
  8
0
  6
CONTINUOUS
 10
219.6916614080055
 20
150.7129308147298
 30
0.0
 11
219.6916614080055
 21
137.7129308147298
 31
0.0
  0
LINE
  5
28A9
  8
0
 10
216.6916614080055
 20
153.7129308147298
 30
0.0
 11
219.6916614080055
 21
150.7129308147298
 31
0.0
  0
LINE
  5
28AA
  8
0
  6
CONTINUOUS
 10
222.6916614080055
 20
83.85635675243066
 30
0.0
 11
222.6916614080055
 21
70.5695048770292
 31
0.0
  0
LINE
  5
28AB
  8
0
  6
CONTINUOUS
 10
222.6916614080055
 20
117.7129308147298
 30
0.0
 11
222.6916614080055
 21
101.5695048770292
 31
0.0
  0
LINE
  5
28AC
  8
0
  6
CONTINUOUS
 10
224.1916614080055
 20
134.71293081473
 30
0.0
 11
224.1916614080055
 21
120.7129308147298
 31
0.0
  0
LINE
  5
28AD
  8
0
  6
CONTINUOUS
 10
177.691658768892
 20
312.8572574565051
 30
0.0
 11
159.691658768892
 21
312.857257456505
 31
0.0
  0
LINE
  5
28AE
  8
0
  6
CONTINUOUS
 10
159.691658768892
 20
281.857257456505
 30
0.0
 11
177.691658768892
 21
281.8572574565051
 31
0.0
  0
LINE
  5
28AF
  8
0
  6
CONTINUOUS
 10
142.191661408006
 20
286.8572574564975
 30
0.0
 11
142.191661408006
 21
307.8572574564976
 31
0.0
  0
LINE
  5
28B0
  8
0
  6
CONTINUOUS
 10
159.691658768892
 20
312.857257456505
 30
0.0
 11
159.691658768892
 21
281.857257456505
 31
0.0
  0
LINE
  5
28B1
  8
0
  6
CONTINUOUS
 10
159.691658768892
 20
286.8572574564975
 30
0.0
 11
136.0676230169684
 21
286.8572574564976
 31
0.0
  0
LINE
  5
28B2
  8
0
  6
CONTINUOUS
 10
159.691658768892
 20
307.8572574564976
 30
0.0
 11
136.0676230169684
 21
307.8572574564976
 31
0.0
  0
TEXT
  5
28B3
  8
10
 10
-1.5
 20
0.5
 30
0.0
 40
10.0
  1
2023.09.19 LD3-13[丸ハンドル][片側チックナット付]
 11
-1.5
 21
0.5
 31
0.0
 73
     1
  0
LINE
  5
28B4
  8
7
 10
35.6506261109721
 20
82.71293081472982
 30
0.0
 11
72.23862611097184
 21
82.71293081472982
 31
0.0
1001
GENIUS_GENODEF_13
1002
{
1000
HIER
1070
     0
1002
}
1002
{
1000
MANEDIT
1070
     0
1002
}
1002
{
1000
NOSEL
1070
     0
1002
}
1002
{
1000
BEHIND
1070
     0
1002
}
1002
{
1000
OTHER
1070
     0
1002
}
1002
{
1000
REACTOR
1002
}
1001
GENIUS_GENOBJ-N-CEN_13
1002
{
1000
OWNER
1000
GEN
1002
}
1001
GENIUS_GENCEN_19
1002
{
1040
2.794
1002
}
  0
LINE
  5
28B5
  8
7
 10
53.94462611097197
 20
44.91893081472972
 30
0.0
 11
53.94462611097197
 21
201.5069308147297
 31
0.0
1001
GENIUS_GENODEF_13
1002
{
1000
HIER
1070
     0
1002
}
1002
{
1000
MANEDIT
1070
     0
1002
}
1002
{
1000
NOSEL
1070
     0
1002
}
1002
{
1000
BEHIND
1070
     0
1002
}
1002
{
1000
OTHER
1070
     0
1002
}
1002
{
1000
REACTOR
1002
}
1001
GENIUS_GENOBJ-N-CEN_13
1002
{
1000
OWNER
1000
GEN
1002
}
1001
GENIUS_GENCEN_19
1002
{
1040
2.794
1002
}
  0
LINE
  5
28B6
  8
7
 10
206.6916614080055
 20
201.5069308147298
 30
0.0
 11
206.691661408006
 21
44.91893081472972
 31
0.0
1001
GENIUS_GENOBJ-N-CEN_13
1002
{
1000
OWNER
1000
GEN
1002
}
1001
GENIUS_GENODEF_13
1002
{
1000
HIER
1070
     0
1002
}
1002
{
1000
MANEDIT
1070
     0
1002
}
1002
{
1000
NOSEL
1070
     0
1002
}
1002
{
1000
BEHIND
1070
     0
1002
}
1002
{
1000
OTHER
1070
     0
1002
}
1002
{
1000
REACTOR
1002
}
1001
GENIUS_GENCEN_19
1002
{
1040
2.794
1002
}
  0
LINE
  5
28B7
  8
7
 10
124.3976614080057
 20
82.71293081473004
 30
0.0
 11
185.4856614080054
 21
82.71293081472982
 31
0.0
1001
GENIUS_GENOBJ-N-CEN_13
1002
{
1000
OWNER
1000
GEN
1002
}
1001
GENIUS_GENODEF_13
1002
{
1000
HIER
1070
     0
1002
}
1002
{
1000
MANEDIT
1070
     0
1002
}
1002
{
1000
NOSEL
1070
     0
1002
}
1002
{
1000
BEHIND
1070
     0
1002
}
1002
{
1000
OTHER
1070
     0
1002
}
1002
{
1000
REACTOR
1002
}
1001
GENIUS_GENCEN_19
1002
{
1040
2.794
1002
}
  0
LINE
  5
28B8
  8
7
 10
124.3976614080057
 20
297.3572561173825
 30
0.0
 11
240.9856561858164
 21
297.3573119959542
 31
0.0
1001
GENIUS_GENODEF_13
1002
{
1000
HIER
1070
     0
1002
}
1002
{
1000
MANEDIT
1070
     0
1002
}
1002
{
1000
NOSEL
1070
     0
1002
}
1002
{
1000
BEHIND
1070
     0
1002
}
1002
{
1000
OTHER
1070
     0
1002
}
1002
{
1000
REACTOR
1002
}
1001
GENIUS_GENOBJ-N-CEN_13
1002
{
1000
OWNER
1000
GEN
1002
}
1001
GENIUS_GENCEN_19
1002
{
1040
2.794
1002
}
  0
LINE
  5
28B9
  8
7
 10
206.6916637648287
 20
263.0632626786427
 30
0.0
 11
206.6916059087889
 21
331.6512522343075
 31
0.0
1001
GENIUS_GENODEF_13
1002
{
1000
HIER
1070
     0
1002
}
1002
{
1000
MANEDIT
1070
     0
1002
}
1002
{
1000
NOSEL
1070
     0
1002
}
1002
{
1000
BEHIND
1070
     0
1002
}
1002
{
1000
OTHER
1070
     0
1002
}
1002
{
1000
REACTOR
1002
}
1001
GENIUS_GENOBJ-N-CEN_13
1002
{
1000
OWNER
1000
GEN
1002
}
1001
GENIUS_GENCEN_19
1002
{
1040
2.794
1002
}
  0
LINE
  5
28BA
  8
0
  6
CONTINUOUS
 10
178.1330305552103
 20
285.2987955594342
 30
0.0
 11
177.6916094241134
 21
285.2987955594342
 31
0.0
1001
GENIUS_GENODEF_13
1002
{
1000
HIER
1070
     0
1002
}
1002
{
1000
MANEDIT
1070
     0
1002
}
1002
{
1000
NOSEL
1070
     0
1002
}
1002
{
1000
BEHIND
1070
     0
1002
}
1002
{
1000
REACTOR
1002
}
1001
GENIUS_GENOBJ-N-CEN_13
1002
{
1000
OWNER
1000
GEN
1002
}
  0
LINE
  5
28BB
  8
0
  6
CONTINUOUS
 10
178.6520261220968
 20
284.1367955594341
 30
0.0
 11
177.6916094241134
 21
284.1367955594341
 31
0.0
1001
GENIUS_GENODEF_13
1002
{
1000
HIER
1070
     0
1002
}
1002
{
1000
MANEDIT
1070
     0
1002
}
1002
{
1000
NOSEL
1070
     0
1002
}
1002
{
1000
BEHIND
1070
     0
1002
}
1002
{
1000
REACTOR
1002
}
1001
GENIUS_GENOBJ-N-CEN_13
1002
{
1000
OWNER
1000
GEN
1002
}
  0
LINE
  5
28BC
  8
0
  6
CONTINUOUS
 10
177.6916094241134
 20
297.357295559434
 30
0.0
 11
177.6916094241134
 21
290.4810483984455
 31
0.0
  0
LINE
  5
28BD
  8
0
  6
CONTINUOUS
 10
177.6916094241134
 20
286.4028513959253
 30
0.0
 11
177.6916094241134
 21
281.8572955594415
 31
0.0
  0
LINE
  5
28BE
  8
0
  6
CONTINUOUS
 10
178.6520261220971
 20
310.577795559434
 30
0.0
 11
177.6916094241134
 21
310.577795559434
 31
0.0
1001
GENIUS_GENODEF_13
1002
{
1000
HIER
1070
     0
1002
}
1002
{
1000
MANEDIT
1070
     0
1002
}
1002
{
1000
NOSEL
1070
     0
1002
}
1002
{
1000
BEHIND
1070
     0
1002
}
1002
{
1000
REACTOR
1002
}
1001
GENIUS_GENOBJ-N-CEN_13
1002
{
1000
OWNER
1000
GEN
1002
}
  0
LINE
  5
28BF
  8
0
  6
CONTINUOUS
 10
178.1330305552108
 20
309.4157955594341
 30
0.0
 11
177.6916094241134
 21
309.4157955594341
 31
0.0
1001
GENIUS_GENODEF_13
1002
{
1000
HIER
1070
     0
1002
}
1002
{
1000
MANEDIT
1070
     0
1002
}
1002
{
1000
NOSEL
1070
     0
1002
}
1002
{
1000
BEHIND
1070
     0
1002
}
1002
{
1000
REACTOR
1002
}
1001
GENIUS_GENOBJ-N-CEN_13
1002
{
1000
OWNER
1000
GEN
1002
}
  0
LINE
  5
28C0
  8
0
  6
CONTINUOUS
 10
177.6916094241134
 20
312.8572955594415
 30
0.0
 11
177.6916094241134
 21
308.311739722942
 31
0.0
  0
LINE
  5
28C1
  8
0
  6
CONTINUOUS
 10
177.6916094241134
 20
304.2335427204217
 30
0.0
 11
177.6916094241134
 21
297.357295559434
 31
0.0
  0
POLYLINE
  5
28C2
  8
0
 66
     1
 10
0.0
 20
0.0
 30
0.0
 70
     1
  0
VERTEX
  5
2921
  8
0
 10
213.7132536885744
 20
327.5516087472701
 30
0.0
 42
0.1147433684531263
  0
VERTEX
  5
2922
  8
0
 10
199.6699704378785
 20
327.5516087472701
 30
0.0
 42
0.3169980516087132
  0
VERTEX
  5
2923
  8
0
 10
198.1360524298985
 20
325.8318877314127
 30
0.0
 42
-0.5034443575988989
  0
VERTEX
  5
2924
  8
0
 10
186.3096716965553
 20
319.0039236314782
 30
0.0
 42
0.3169980516087056
  0
VERTEX
  5
2925
  8
0
 10
184.0533906054103
 20
318.5353721771739
 30
0.0
 42
0.1147433684531285
  0
VERTEX
  5
2926
  8
0
 10
177.0317489800624
 20
306.3735321295302
 30
0.0
 42
0.3169980516087055
  0
VERTEX
  5
2927
  8
0
 10
177.7541120632264
 20
304.1852596593685
 30
0.0
 42
-0.5034443575988864
  0
VERTEX
  5
2928
  8
0
 10
177.7541120632264
 20
290.5293314594987
 30
0.0
 42
0.3169980516087206
  0
VERTEX
  5
2929
  8
0
 10
177.0317489800624
 20
288.3410589893369
 30
0.0
 42
0.1147433684531274
  0
VERTEX
  5
292A
  8
0
 10
184.0533906054103
 20
276.1792189416942
 30
0.0
 42
0.3169980516087066
  0
VERTEX
  5
292B
  8
0
 10
186.3096716965553
 20
275.7106674873889
 30
0.0
 42
-0.503444357598898
  0
VERTEX
  5
292C
  8
0
 10
198.1360524298985
 20
268.8827033874545
 30
0.0
 42
0.316998051608725
  0
VERTEX
  5
292D
  8
0
 10
199.6699704378785
 20
267.162982371597
 30
0.0
 42
0.1147433684531251
  0
VERTEX
  5
292E
  8
0
 10
213.7132536885744
 20
267.162982371597
 30
0.0
 42
0.3169980516087174
  0
VERTEX
  5
292F
  8
0
 10
215.2471716965543
 20
268.8827033874545
 30
0.0
 42
-0.503444357598898
  0
VERTEX
  5
2930
  8
0
 10
227.0735524298976
 20
275.7106674873889
 30
0.0
 42
0.3169980516087068
  0
VERTEX
  5
2931
  8
0
 10
229.3298335210426
 20
276.1792189416942
 30
0.0
 42
0.1147433684531273
  0
VERTEX
  5
2932
  8
0
 10
236.3514751463905
 20
288.3410589893369
 30
0.0
 42
0.3169980516087207
  0
VERTEX
  5
2933
  8
0
 10
235.6291120632264
 20
290.5293314594987
 30
0.0
 42
-0.5034443575988866
  0
VERTEX
  5
2934
  8
0
 10
235.6291120632264
 20
304.1852596593685
 30
0.0
 42
0.3169980516087057
  0
VERTEX
  5
2935
  8
0
 10
236.3514751463905
 20
306.3735321295302
 30
0.0
 42
0.1147433684531281
  0
VERTEX
  5
2936
  8
0
 10
229.3298335210426
 20
318.5353721771739
 30
0.0
 42
0.3169980516087061
  0
VERTEX
  5
2937
  8
0
 10
227.0735524298976
 20
319.0039236314782
 30
0.0
 42
-0.5034443575988988
  0
VERTEX
  5
2938
  8
0
 10
215.2471716965543
 20
325.8318877314127
 30
0.0
 42
0.3169980516087095
  0
SEQEND
  5
2939
  8
0
  0
CIRCLE
  5
28C3
  8
0
 10
206.6916120632264
 20
297.357295559434
 30
0.0
 40
11.0
  0
ARC
  5
28C4
  8
0
 10
51.9056632082079
 20
162.9165058312965
 30
0.0
 40
30.91919402524992
 50
78.72967692071798
 51
86.21889213639939
  0
LINE
  5
28C5
  8
0
 10
40.94462611096446
 20
195.7130003795269
 30
0.0
 11
66.94462611097538
 21
195.7130003795196
 31
0.0
  0
LINE
  5
28C6
  8
0
 10
31.44462611096446
 20
154.7130003795269
 30
0.0
 11
76.44462611096361
 21
154.7130003795269
 31
0.0
  0
LINE
  5
28C7
  8
0
 10
29.44462611096446
 20
162.4546701303293
 30
0.0
 11
78.44462611096361
 21
162.4546701303293
 31
0.0
  0
ARC
  5
28C8
  8
0
 10
53.98945142959531
 20
167.8909593006529
 30
0.0
 40
3.704509570427573
 50
269.3066925052582
 51
329.9640267076166
  0
LINE
  5
28C9
  8
0
 10
22.94462611096446
 20
188.2091539980715
 30
0.0
 11
22.94462611096446
 21
173.7130003795287
 31
0.0
  0
LINE
  5
28CA
  8
0
 10
23.71959123203692
 20
173.7130003795287
 30
0.0
 11
23.71959123203692
 21
190.2929979196902
 31
0.0
  0
LINE
  5
28CB
  8
0
 10
47.11666201103731
 20
191.434142578511
 30
0.0
 11
47.11666201103731
 21
173.7130003795287
 31
0.0
  0
LINE
  5
28CC
  8
0
 10
32.38260548815038
 20
173.7130003795287
 30
0.0
 11
32.38260548815038
 21
191.434142578511
 31
0.0
  0
ARC
  5
28CD
  8
0
 10
31.59117520202585
 20
164.8308978355313
 30
0.0
 40
0.5000000000001373
 50
246.2367264954113
 51
357.253232453353
1001
GENIUS_GENODEF_13
1002
{
1000
HIER
1070
     0
1002
}
1002
{
1000
MANEDIT
1070
     0
1002
}
1002
{
1000
NOSEL
1070
     0
1002
}
1002
{
1000
BEHIND
1070
     0
1002
}
1002
{
1000
REACTOR
1002
}
1001
GENIUS_GENOBJ-N-FIL_13
1002
{
1000
OWNER
1000
GEN
1002
}
  0
ARC
  5
28CE
  8
0
 10
31.44462611096446
 20
156.7130003795269
 30
0.0
 40
2.0
 50
180.0
 51
270.0
1001
GENIUS_GENODEF_13
1002
{
1000
HIER
1070
     0
1002
}
1002
{
1000
MANEDIT
1070
     0
1002
}
1002
{
1000
NOSEL
1070
     0
1002
}
1002
{
1000
BEHIND
1070
     0
1002
}
1002
{
1000
REACTOR
1002
}
1001
GENIUS_GENOBJ-N-FIL_13
1002
{
1000
OWNER
1000
GEN
1002
}
  0
LINE
  5
28CF
  8
0
 10
29.44462611096446
 20
162.4546701303293
 30
0.0
 11
29.44462611096446
 21
156.713000379526
 31
0.0
  0
LINE
  5
28D0
  8
0
 10
29.44462611096446
 20
162.4546701303293
 30
0.0
 11
22.94462611096446
 21
173.7130003795287
 31
0.0
  0
ARC
  5
28D1
  8
0
 10
34.83306257723177
 20
171.6962627220996
 30
0.0
 40
8.092139528442901
 50
218.3219467238784
 51
244.8164215542301
  0
ARC
  5
28D2
  8
0
 10
60.29547265945905
 20
193.3569137569431
 30
0.0
 40
41.51720649287704
 50
208.2390387289535
 51
219.9850051421011
  0
LINE
  5
28D3
  8
0
 10
33.38260548815038
 20
173.7241624052799
 30
0.0
 11
46.11666201103731
 21
173.713000379526
 31
0.0
  0
ARC
  5
28D4
  8
0
 10
-148.3671298912537
 20
173.4647389964977
 30
0.0
 40
180.6652985045642
 50
357.2532324534187
 51
0.0787330719278605
  0
ARC
  5
28D5
  8
0
 10
53.8998007923484
 20
167.8909593006529
 30
0.0
 40
3.704509570427561
 50
210.0359732923834
 51
270.6933074947418
  0
ARC
  5
28D6
  8
0
 10
63.26343867050389
 20
176.5640335421595
 30
0.0
 40
16.39654800819768
 50
190.0134925743618
 51
219.9445765225451
  0
ARC
  5
28D7
  8
0
 10
40.94462611096446
 20
155.7130003795294
 30
0.0
 40
39.99999999999841
 50
90.0
 51
111.8037479893856
  0
ARC
  5
28D8
  8
0
 10
28.49765443762885
 20
188.4989995734724
 30
0.0
 40
4.869076824715424
 50
37.07163361014624
 51
88.33534575517591
  0
ARC
  5
28D9
  8
0
 10
27.94462611096424
 20
188.2091539980715
 30
0.0
 40
4.999999999999826
 50
111.803747989381
 51
180.0
1001
GENIUS_GENODEF_13
1002
{
1000
HIER
1070
     0
1002
}
1002
{
1000
MANEDIT
1070
     0
1002
}
1002
{
1000
NOSEL
1070
     0
1002
}
1002
{
1000
BEHIND
1070
     0
1002
}
1002
{
1000
REACTOR
1002
}
1001
GENIUS_GENOBJ-N-FIL_13
1002
{
1000
OWNER
1000
GEN
1002
}
  0
ARC
  5
28DA
  8
0
 10
30.29327494857012
 20
185.2436474307748
 30
0.0
 40
8.289104774638442
 50
101.5112441720059
 51
142.4715634063257
  0
LINE
  5
28DB
  8
0
 10
33.38260548815038
 20
191.434142578511
 30
0.0
 11
46.11666201103731
 21
191.434142578511
 31
0.0
  0
ARC
  5
28DC
  8
0
 10
55.98358901373615
 20
162.9165058312931
 30
0.0
 40
30.91919402525333
 50
93.78110786360082
 51
101.2703230792818
  0
ARC
  5
28DD
  8
0
 10
50.30195398157662
 20
189.5628598137912
 30
0.0
 40
3.694290746966676
 50
95.61023783028725
 51
149.5667841226169
  0
LINE
  5
28DE
  8
0
 10
84.94462611096452
 20
188.2091539980706
 30
0.0
 11
84.94462611096452
 21
173.7130003795287
 31
0.0
  0
LINE
  5
28DF
  8
0
 10
75.50664673379316
 20
173.7130003795287
 30
0.0
 11
75.50664673379316
 21
191.434142578511
 31
0.0
  0
LINE
  5
28E0
  8
0
 10
84.16966098990662
 20
173.7130003795287
 30
0.0
 11
84.16966098990662
 21
190.2929979196902
 31
0.0
  0
LINE
  5
28E1
  8
0
 10
60.77259021090708
 20
191.434142578511
 30
0.0
 11
60.77259021090708
 21
173.7130003795287
 31
0.0
  0
LINE
  5
28E2
  8
0
 10
78.44462611096361
 20
162.4546701303284
 30
0.0
 11
84.94462611096452
 21
173.7130003795287
 31
0.0
  0
ARC
  5
28E3
  8
0
 10
47.59377956247806
 20
193.3569137569481
 30
0.0
 40
41.51720649288583
 50
320.0149948579001
 51
331.7609612710451
  0
ARC
  5
28E4
  8
0
 10
76.44462611096367
 20
156.7130003795269
 30
0.0
 40
2.0
 50
269.9999999999984
 51
0.0
1001
GENIUS_GENODEF_13
1002
{
1000
HIER
1070
     0
1002
}
1002
{
1000
MANEDIT
1070
     0
1002
}
1002
{
1000
NOSEL
1070
     0
1002
}
1002
{
1000
BEHIND
1070
     0
1002
}
1002
{
1000
REACTOR
1002
}
1001
GENIUS_GENOBJ-N-FIL_13
1002
{
1000
OWNER
1000
GEN
1002
}
  0
LINE
  5
28E5
  8
0
 10
74.59125418301693
 20
173.7130003795287
 30
0.0
 11
61.77259021090708
 21
173.7130003795287
 31
0.0
  0
ARC
  5
28E6
  8
0
 10
44.625813551443
 20
176.5640335421577
 30
0.0
 40
16.39654800819415
 50
320.0554234774524
 51
349.9865074256933
  0
LINE
  5
28E7
  8
0
 10
78.44462611096361
 20
162.4546701303284
 30
0.0
 11
78.44462611096361
 21
156.713000379526
 31
0.0
  0
ARC
  5
28E8
  8
0
 10
256.2563821131972
 20
173.4647389964997
 30
0.0
 40
180.6652985045639
 50
179.9212669280768
 51
182.7467675465875
  0
ARC
  5
28E9
  8
0
 10
73.05618964471279
 20
171.6962627220996
 30
0.0
 40
8.092139528442887
 50
295.1835784457699
 51
321.6780532761216
  0
ARC
  5
28EA
  8
0
 10
76.2980770199186
 20
164.8308978355312
 30
0.0
 40
0.5000000000000417
 50
182.7467675466345
 51
293.763273504594
1001
GENIUS_GENODEF_13
1002
{
1000
HIER
1070
     0
1002
}
1002
{
1000
MANEDIT
1070
     0
1002
}
1002
{
1000
NOSEL
1070
     0
1002
}
1002
{
1000
BEHIND
1070
     0
1002
}
1002
{
1000
REACTOR
1002
}
1001
GENIUS_GENOBJ-N-FIL_13
1002
{
1000
OWNER
1000
GEN
1002
}
  0
ARC
  5
28EB
  8
0
 10
66.94462611096355
 20
155.7130003795279
 30
0.0
 40
39.99999999999903
 50
68.19625201061444
 51
90.0
  0
ARC
  5
28EC
  8
0
 10
77.59597727337444
 20
185.2436474307748
 30
0.0
 40
8.289104774638432
 50
37.52843659367432
 51
78.48875582799408
  0
LINE
  5
28ED
  8
0
 10
74.59125418301693
 20
191.4341425785101
 30
0.0
 11
61.77259021090708
 21
191.434142578511
 31
0.0
  0
ARC
  5
28EE
  8
0
 10
57.58729824036686
 20
189.5628598137912
 30
0.0
 40
3.69429074696669
 50
30.43321587738312
 51
84.38976216971281
  0
ARC
  5
28EF
  8
0
 10
79.39159778431565
 20
188.4989995734724
 30
0.0
 40
4.869076824715402
 50
91.66465424482342
 51
142.9283663898531
  0
ARC
  5
28F0
  8
0
 10
79.9446261109648
 20
188.2091539980707
 30
0.0
 40
4.999999999999716
 50
0.0
 51
68.19625201061926
1001
GENIUS_GENODEF_13
1002
{
1000
HIER
1070
     0
1002
}
1002
{
1000
MANEDIT
1070
     0
1002
}
1002
{
1000
NOSEL
1070
     0
1002
}
1002
{
1000
BEHIND
1070
     0
1002
}
1002
{
1000
REACTOR
1002
}
1001
GENIUS_GENOBJ-N-FIL_13
1002
{
1000
OWNER
1000
GEN
1002
}
  0
LINE
  5
28F1
  8
0
 10
182.1916614080001
 20
162.4546701303302
 30
0.0
 11
231.1916614079992
 21
162.4546701303302
 31
0.0
  0
LINE
  5
28F2
  8
0
 10
184.1916614080001
 20
154.7130003795287
 30
0.0
 11
229.1916614079992
 21
154.7130003795287
 31
0.0
  0
LINE
  5
28F3
  8
0
 10
193.6916614080001
 20
195.7130003795287
 30
0.0
 11
219.691661408011
 21
195.7130003795205
 31
0.0
  0
ARC
  5
28F4
  8
0
 10
193.4553987755936
 20
187.8204481001856
 30
0.0
 40
5.951205005509391
 50
37.38880691368475
 51
97.21420027622548
  0
ARC
  5
28F5
  8
0
 10
193.5857344287369
 20
166.7062174210683
 30
0.0
 40
2.565357953936887
 50
240.6774080382692
 51
316.523877554376
  0
LINE
  5
28F6
  8
0
 10
176.9453378785956
 20
171.5415690362047
 30
0.0
 11
176.9453378785965
 21
191.520507197753
 31
0.0
  0
LINE
  5
28F7
  8
0
 10
185.1296407852024
 20
173.7130003795296
 30
0.0
 11
185.1296407852014
 21
191.4341425785119
 31
0.0
  0
ARC
  5
28F8
  8
0
 10
184.191661408
 20
156.7130003795287
 30
0.0
 40
1.999999999999943
 50
180.0
 51
270.0000000000032
1001
GENIUS_GENODEF_13
1002
{
1000
HIER
1070
     0
1002
}
1002
{
1000
MANEDIT
1070
     0
1002
}
1002
{
1000
NOSEL
1070
     0
1002
}
1002
{
1000
BEHIND
1070
     0
1002
}
1002
{
1000
REACTOR
1002
}
1001
GENIUS_GENOBJ-N-FIL_13
1002
{
1000
OWNER
1000
GEN
1002
}
  0
LINE
  5
28F9
  8
0
 10
178.3575083503238
 20
173.7130003795305
 30
0.0
 11
184.129640785186
 21
173.7130003795305
 31
0.0
  0
LINE
  5
28FA
  8
0
 10
182.1916614080001
 20
162.4546701303302
 30
0.0
 11
176.9453378785956
 21
171.5415690362038
 31
0.0
  0
LINE
  5
28FB
  8
0
 10
182.1916614080001
 20
162.4546701303302
 30
0.0
 11
182.1916614080001
 21
156.7130003795278
 31
0.0
  0
ARC
  5
28FC
  8
0
 10
197.9202592502016
 20
176.249974785988
 30
0.0
 40
13.03979140386123
 50
191.2188087997439
 51
244.6115597288426
  0
LINE
  5
28FD
  8
0
 10
178.2134341325573
 20
191.4341425785119
 30
0.0
 11
184.129640785186
 21
191.4341425785119
 31
0.0
  0
ARC
  5
28FE
  8
0
 10
193.6916614080001
 20
155.7130003795273
 30
0.0
 40
40.00000000000136
 50
90.0
 51
111.8037479893841
  0
ARC
  5
28FF
  8
0
 10
180.691661407999
 20
188.2091539980738
 30
0.0
 40
4.999999999998328
 50
111.8037479893809
 51
138.5267245313354
1001
GENIUS_GENODEF_13
1002
{
1000
HIER
1070
     0
1002
}
1002
{
1000
MANEDIT
1070
     0
1002
}
1002
{
1000
NOSEL
1070
     0
1002
}
1002
{
1000
BEHIND
1070
     0
1002
}
1002
{
1000
REACTOR
1002
}
1001
GENIUS_GENOBJ-N-FIL_13
1002
{
1000
OWNER
1000
GEN
1002
}
  0
ARC
  5
2900
  8
0
 10
192.0946317971938
 20
182.0713850598703
 30
0.0
 40
11.66928995911952
 50
86.98674223133894
 51
126.6456998178236
  0
LINE
  5
2901
  8
0
 10
236.4379849374191
 20
171.5415690362047
 30
0.0
 11
236.4379849374191
 21
191.520507197753
 31
0.0
  0
LINE
  5
2902
  8
0
 10
198.1838290896521
 20
191.4341425785119
 30
0.0
 11
198.183829089653
 21
173.7130003795305
 31
0.0
  0
LINE
  5
2903
  8
0
 10
215.1994937263626
 20
191.4341425785119
 30
0.0
 11
215.1994937263626
 21
173.7130003795305
 31
0.0
  0
LINE
  5
2904
  8
0
 10
228.2536820308133
 20
173.7130003795296
 30
0.0
 11
228.2536820308133
 21
191.4341425785119
 31
0.0
  0
ARC
  5
2905
  8
0
 10
219.7975883872778
 20
166.7062174210683
 30
0.0
 40
2.565357953936903
 50
223.476122445623
 51
299.3225919617305
  0
LINE
  5
2906
  8
0
 10
199.1838290896376
 20
173.7130003795305
 30
0.0
 11
214.1994937263626
 21
173.7130003795305
 31
0.0
  0
ARC
  5
2907
  8
0
 10
174.437265822876
 20
176.308290394417
 30
0.0
 40
23.88796343861021
 50
331.5850581069332
 51
353.7628312294631
  0
ARC
  5
2908
  8
0
 10
238.9460569931384
 20
176.3082903944171
 30
0.0
 40
23.88796343861022
 50
186.2371687705372
 51
208.4149418930669
  0
ARC
  5
2909
  8
0
 10
229.1916614079992
 20
156.7130003795287
 30
0.0
 40
2.0
 50
270.0
 51
0.0
1001
GENIUS_GENODEF_13
1002
{
1000
HIER
1070
     0
1002
}
1002
{
1000
MANEDIT
1070
     0
1002
}
1002
{
1000
NOSEL
1070
     0
1002
}
1002
{
1000
BEHIND
1070
     0
1002
}
1002
{
1000
REACTOR
1002
}
1001
GENIUS_GENOBJ-N-FIL_13
1002
{
1000
OWNER
1000
GEN
1002
}
  0
LINE
  5
290A
  8
0
 10
234.9041869035136
 20
173.7130003795305
 30
0.0
 11
229.2536820308133
 21
173.7130003795305
 31
0.0
  0
ARC
  5
290B
  8
0
 10
215.4630635658129
 20
176.249974785988
 30
0.0
 40
13.03979140386123
 50
295.3884402711568
 51
348.7811912002558
  0
LINE
  5
290C
  8
0
 10
231.1916614079992
 20
162.4546701303302
 30
0.0
 11
231.1916614079992
 21
156.7130003795269
 31
0.0
  0
LINE
  5
290D
  8
0
 10
231.1916614079992
 20
162.4546701303302
 30
0.0
 11
236.4379849374191
 21
171.5415690362302
 31
0.0
  0
ARC
  5
290E
  8
0
 10
219.9279240404221
 20
187.8204481001852
 30
0.0
 40
5.951205005509814
 50
82.78579972377723
 51
142.6111930863144
  0
LINE
  5
290F
  8
0
 10
199.1838290896376
 20
191.4341425785119
 30
0.0
 11
214.1994937263626
 21
191.4341425785119
 31
0.0
  0
LINE
  5
2910
  8
0
 10
235.169888683442
 20
191.4341425785119
 30
0.0
 11
229.2536820308133
 21
191.4341425785119
 31
0.0
  0
ARC
  5
2911
  8
0
 10
219.6916614079989
 20
155.7130003795273
 30
0.0
 40
40.00000000000134
 50
68.1962520106157
 51
89.99999999999969
  0
ARC
  5
2912
  8
0
 10
221.2886910188217
 20
182.0713850598703
 30
0.0
 40
11.66928995911953
 50
53.35430018217581
 51
93.01325776866108
  0
ARC
  5
2913
  8
0
 10
232.6916614080158
 20
188.2091539980742
 30
0.0
 40
4.99999999999799
 50
41.47327546866229
 51
68.19625201061902
1001
GENIUS_GENODEF_13
1002
{
1000
HIER
1070
     0
1002
}
1002
{
1000
MANEDIT
1070
     0
1002
}
1002
{
1000
NOSEL
1070
     0
1002
}
1002
{
1000
BEHIND
1070
     0
1002
}
1002
{
1000
REACTOR
1002
}
1001
GENIUS_GENOBJ-N-FIL_13
1002
{
1000
OWNER
1000
GEN
1002
}
  0
VIEWPORT
  5
22
 67
     1
  8
0
 10
5.269134197284911
 20
5.545311567251436
 30
0.0
 40
11.13808705479925
 41
12.32365374410561
 68
     1
 69
     1
1001
GENIUS_GENSCREG_15
1000
PF
1040
1.0
1000
DF
1040
1.0
1000
MIN
1011
-0.2999093301147138
1021
-0.6165153048013714
1031
0.0
1021
-0.6165153048013714
1031
0.0
1000
MAX
1011
10.83817772468454
1021
11.70713843930424
1031
0.0
1021
11.70713843930424
1031
0.0
1000
FLAGS
1070
     4
1001
GENIUS_GENODEF_13
1002
{
1000
HIER
1070
     0
1002
}
1002
{
1000
MANEDIT
1070
     0
1002
}
1002
{
1000
NOSEL
1070
     0
1002
}
1002
{
1000
BEHIND
1070
     0
1002
}
1002
{
1000
OTHER
1070
     0
1002
}
1002
{
1000
REACTOR
1002
}
1001
GENIUS_GENOBJ-N-SDF_13
1002
{
1000
OWNER
1000
GEN
1002
}
1001
ACAD
1000
MVIEW
1002
{
1070
    16
1010
0.0
1020
0.0
1030
0.0
1020
0.0
1030
0.0
1010
0.0
1020
0.0
1030
1.0
1020
0.0
1030
1.0
1040
0.0
1040
12.32365374410561
1040
5.269134197284911
1040
5.545311567251436
1040
50.0
1040
0.0
1040
0.0
1070
     0
1070
   100
1070
     0
1070
     1
1070
     0
1070
     0
1070
     0
1070
     0
1040
0.0
1040
0.0
1040
0.0
1040
1.0
1040
1.0
1040
10.0
1040
10.0
1070
     0
1002
{
1002
}
1002
}
  0
ENDSEC
  0
EOF
