  0
SECTION
  2
HEADER
  9
$ACADVER
  1
AC1009
  9
$DWGCODEPAGE
  3
ansi_932
  9
$INSBASE
 10
0.0
 20
0.0
 30
0.0
  9
$EXTMIN
 10
0.0
 20
0.0
 30
0.0
  9
$EXTMAX
 10
290.0
 20
325.0247240177155
 30
0.0
  9
$LIMMIN
 10
0.0
 20
0.0
  9
$LIMMAX
 10
420.0
 20
420.0
  9
$ORTHOMODE
 70
     0
  9
$REGENMODE
 70
     1
  9
$FILLMODE
 70
     1
  9
$QTEXTMODE
 70
     0
  9
$MIRRTEXT
 70
     0
  9
$DRAGMODE
 70
     2
  9
$LTSCALE
 40
10.0
  9
$OSMODE
 70
 15359
  9
$ATTMODE
 70
     1
  9
$TEXTSIZE
 40
3.5
  9
$TRACEWID
 40
1.0
  9
$TEXTSTYLE
  7
STANDARD
  9
$CLAYER
  8
0
  9
$CELTYPE
  6
BYLAYER
  9
$CECOLOR
 62
   256
  9
$DIMSCALE
 40
1.0
  9
$DIMASZ
 40
2.5
  9
$DIMEXO
 40
1.0
  9
$DIMDLI
 40
7.0
  9
$DIMRND
 40
0.0
  9
$DIMDLE
 40
0.0
  9
$DIMEXE
 40
1.0
  9
$DIMTP
 40
0.1
  9
$DIMTM
 40
0.1
  9
$DIMTXT
 40
3.0
  9
$DIMCEN
 40
0.0
  9
$DIMTSZ
 40
0.0
  9
$DIMTOL
 70
     0
  9
$DIMLIM
 70
     0
  9
$DIMTIH
 70
     0
  9
$DIMTOH
 70
     0
  9
$DIMSE1
 70
     0
  9
$DIMSE2
 70
     0
  9
$DIMTAD
 70
     3
  9
$DIMZIN
 70
     8
  9
$DIMBLK
  1
OPEN
  9
$DIMASO
 70
     1
  9
$DIMSHO
 70
     1
  9
$DIMPOST
  1

  9
$DIMAPOST
  1
"
  9
$DIMALT
 70
     0
  9
$DIMALTD
 70
     2
  9
$DIMALTF
 40
0.0393701
  9
$DIMLFAC
 40
1.0
  9
$DIMTOFL
 70
     1
  9
$DIMTVP
 40
0.0
  9
$DIMTIX
 70
     0
  9
$DIMSOXD
 70
     0
  9
$DIMSAH
 70
     0
  9
$DIMBLK1
  1

  9
$DIMBLK2
  1

  9
$DIMSTYLE
  2
AM_JIS
  9
$DIMCLRD
 70
   256
  9
$DIMCLRE
 70
   256
  9
$DIMCLRT
 70
     2
  9
$DIMTFAC
 40
0.71
  9
$DIMGAP
 40
1.0
  9
$LUNITS
 70
     2
  9
$LUPREC
 70
     2
  9
$SKETCHINC
 40
1.0
  9
$FILLETRAD
 40
2.5
  9
$AUNITS
 70
     0
  9
$AUPREC
 70
     0
  9
$MENU
  1
.
  9
$ELEVATION
 40
0.0
  9
$PELEVATION
 40
0.0
  9
$THICKNESS
 40
0.0
  9
$LIMCHECK
 70
     0
  9
$CHAMFERA
 40
2.5
  9
$CHAMFERB
 40
2.5
  9
$SKPOLY
 70
     1
  9
$TDCREATE
 40
2460208.774540151
  9
$TDUPDATE
 40
2460210.744774155
  9
$TDINDWG
 40
0.1276555787
  9
$TDUSRTIMER
 40
0.1275585417
  9
$USRTIMER
 70
     1
  9
$ANGBASE
 50
0.0
  9
$ANGDIR
 70
     0
  9
$PDMODE
 70
     0
  9
$PDSIZE
 40
0.0
  9
$PLINEWID
 40
0.0
  9
$COORDS
 70
     2
  9
$SPLFRAME
 70
     0
  9
$SPLINETYPE
 70
     6
  9
$SPLINESEGS
 70
     8
  9
$ATTDIA
 70
     1
  9
$ATTREQ
 70
     1
  9
$HANDLING
 70
     1
  9
$HANDSEED
  5
2948
  9
$SURFTAB1
 70
     6
  9
$SURFTAB2
 70
     6
  9
$SURFTYPE
 70
     6
  9
$SURFU
 70
     6
  9
$SURFV
 70
     6
  9
$UCSNAME
  2

  9
$UCSORG
 10
0.0
 20
0.0
 30
0.0
  9
$UCSXDIR
 10
1.0
 20
0.0
 30
0.0
  9
$UCSYDIR
 10
0.0
 20
1.0
 30
0.0
  9
$PUCSNAME
  2

  9
$PUCSORG
 10
0.0
 20
0.0
 30
0.0
  9
$PUCSXDIR
 10
1.0
 20
0.0
 30
0.0
  9
$PUCSYDIR
 10
0.0
 20
1.0
 30
0.0
  9
$USERI1
 70
     0
  9
$USERI2
 70
     0
  9
$USERI3
 70
     0
  9
$USERI4
 70
     0
  9
$USERI5
 70
     0
  9
$USERR1
 40
0.0
  9
$USERR2
 40
0.0
  9
$USERR3
 40
0.0
  9
$USERR4
 40
0.0
  9
$USERR5
 40
0.0
  9
$WORLDVIEW
 70
     1
  9
$SHADEDGE
 70
     3
  9
$SHADEDIF
 70
    70
  9
$TILEMODE
 70
     1
  9
$MAXACTVP
 70
    48
  9
$PLIMCHECK
 70
     0
  9
$PEXTMIN
 10
1.000000000000000E+20
 20
1.000000000000000E+20
 30
1.000000000000000E+20
  9
$PEXTMAX
 10
-1.000000000000000E+20
 20
-1.000000000000000E+20
 30
-1.000000000000000E+20
  9
$PLIMMIN
 10
-0.2500002402958907
 20
-0.2499999962453767
  9
$PLIMMAX
 10
10.74999951940822
 20
8.249999763458732
  9
$UNITMODE
 70
     0
  9
$VISRETAIN
 70
     1
  9
$PLINEGEN
 70
     0
  9
$PSLTSCALE
 70
     1
  0
ENDSEC
  0
SECTION
  2
TABLES
  0
TABLE
  2
VPORT
 70
     1
  0
VPORT
  2
*ACTIVE
 70
     0
 10
0.0
 20
0.0
 11
1.0
 21
1.0
 12
145.0
 22
162.5123620088577
 13
0.0
 23
0.0
 14
2.5
 24
2.5
 15
10.0
 25
10.0
 16
0.0
 26
0.0
 36
1.0
 17
0.0
 27
0.0
 37
0.0
 40
327.9495809267612
 41
2.164994425863991
 42
50.0
 43
0.0
 44
0.0
 50
0.0
 51
0.0
 71
     0
 72
   100
 73
     1
 74
     3
 75
     0
 76
     0
 77
     0
 78
     0
  0
ENDTAB
  0
TABLE
  2
LTYPE
 70
    14
  0
LTYPE
  2
CONTINUOUS
 70
     0
  3
Solid line
 72
    65
 73
     0
 40
0.0
  0
LTYPE
  2
PHANTOM2
 70
     0
  3
___ _ _ ___ _ _ ___ _ _ ___ _ _ ___ _ _ ___ _ _
 72
    65
 73
     6
 40
1.25
 49
0.625
 49
-0.125
 49
0.125
 49
-0.125
 49
0.125
 49
-0.125
  0
LTYPE
  2
ACJISTGB
 70
     0
  3
__ . . __ . .
 72
    65
 73
     6
 40
9.0
 49
4.0
 49
-1.0
 49
1.0
 49
-1.0
 49
1.0
 49
-1.0
  0
LTYPE
  2
ACJISTGL
 70
     0
  3
_ _ _ _ _
 72
    65
 73
     2
 40
3.0
 49
2.0
 49
-1.0
  0
LTYPE
  2
AM_ISO02W050
 70
     0
  3
__ __ __ __ __ __ __ __ __ __ __ __ __ __ __
 72
    65
 73
     2
 40
7.5
 49
6.0
 49
-1.5
  0
LTYPE
  2
AM_ISO08W050
 70
     0
  3
____ . ____ . ____ . ____ . ____ . ____ . ____
 72
    65
 73
     4
 40
18.0
 49
12.0
 49
-1.5
 49
3.0
 49
-1.5
  0
LTYPE
  2
AM_ISO09W050
 70
     0
  3
_____ . . _____ . . _____ . . ____ .. ____
 72
    65
 73
     6
 40
22.5
 49
12.0
 49
-1.5
 49
3.0
 49
-1.5
 49
3.0
 49
-1.5
  0
LTYPE
  2
AM_ISO02W050X2
 70
     0
  3
 _ _ _ _ _ _ _ _ _ _ _ _
 72
    65
 73
     2
 40
3.75
 49
3.0
 49
-0.75
  0
LTYPE
  2
AM_ISO08W050X2
 70
     0
  3
__ . __ . __ . __ . __ . __
 72
    65
 73
     4
 40
9.0
 49
6.0
 49
-0.75
 49
1.5
 49
-0.75
  0
LTYPE
  2
AMZIGZAG
 70
     0
  3
/\/-/\/-/\/-/\/-/\/-/\/
 72
    65
 73
     2
 40
11.0001
 49
0.0001
 49
-11.0
  0
LTYPE
  2
AMCONSTR
 70
     0
  3
_______________________
 72
    65
 73
     2
 40
9999.0
 49
9999.0
 49
0.0
  0
LTYPE
  2
CENTER2
 70
     0
  3
Center (.5x) ___ _ ___ _ ___ _ ___ _ ___ _ ___
 72
    65
 73
     4
 40
1.125
 49
0.75
 49
-0.125
 49
0.125
 49
-0.125
  0
LTYPE
  2
HIDDEN2
 70
     0
  3
Hidden (.5x) _ _ _ _ _ _ _ _ _ _ _ _ _ _ _ _ _
 72
    65
 73
     2
 40
0.1875
 49
0.125
 49
-0.0625
  0
LTYPE
  2
ACJISWELD
 70
     0
  3
_ _ _ _ _
 72
    65
 73
     2
 40
2.0
 49
2.0
 49
-1.0
  0
ENDTAB
  0
TABLE
  2
LAYER
 70
     5
  0
LAYER
  2
0
 70
     0
 62
     7
  6
CONTINUOUS
  0
LAYER
  2
7
 70
     0
 62
     4
  6
CENTER2
  0
LAYER
  2
AM_7
 70
     0
 62
     4
  6
CENTER2
  0
LAYER
  2
AM_0
 70
     0
 62
     7
  6
CONTINUOUS
  0
LAYER
  2
10
 70
     0
 62
     2
  6
CONTINUOUS
  0
ENDTAB
  0
TABLE
  2
STYLE
 70
     4
  0
STYLE
  2
STANDARD
 70
     0
 40
0.0
 41
1.0
 50
0.0
 71
     0
 42
3.5
  3
isocp.shx
  4
extfont.shx
  0
STYLE
  2
ACJISTS
 70
     0
 40
1.0
 41
1.0
 50
0.0
 71
     0
 42
3.5
  3
isocp.shx
  4
extfont.shx
  0
STYLE
  2
ACJISGDT
 70
     0
 40
0.0
 41
1.0
 50
0.0
 71
     0
 42
3.5
  3
amgdt.shx
  4
extfont.shx
  0
STYLE
  2

 70
     1
 40
0.0
 41
1.0
 50
0.0
 71
     0
 42
3.5
  3
ltypeshp.shx
  4

  0
ENDTAB
  0
TABLE
  2
VIEW
 70
     3
  0
VIEW
  2
AMDTVIEW1
 70
     0
 40
329.0721649484536
 10
210.0
 20
164.5360824742268
 41
420.0
 11
0.0
 21
0.0
 31
1.0
 12
0.0
 22
0.0
 32
0.0
 42
50.0
 43
0.0
 44
0.0
 50
0.0
 71
     0
  0
VIEW
  2
AMDTVIEW2
 70
     0
 40
329.0721649484536
 10
210.0
 20
164.5360824742268
 41
420.0
 11
0.0
 21
0.0
 31
1.0
 12
0.0
 22
0.0
 32
0.0
 42
50.0
 43
0.0
 44
0.0
 50
0.0
 71
     0
  0
VIEW
  2
AMDTVIEW3
 70
     0
 40
329.0721649484536
 10
210.0
 20
164.5360824742268
 41
420.0
 11
0.0
 21
0.0
 31
1.0
 12
0.0
 22
0.0
 32
0.0
 42
50.0
 43
0.0
 44
0.0
 50
0.0
 71
     0
  0
ENDTAB
  0
TABLE
  2
UCS
 70
     0
  0
ENDTAB
  0
TABLE
  2
APPID
 70
    66
  0
APPID
  2
ACAD
 70
     0
  0
APPID
  2
AD_DRAW
 70
     0
  0
APPID
  2
DESIGNERASSEMBLIES
 70
     0
  0
APPID
  2
MCAD_NO_VIS
 70
     0
  0
APPID
  2
ASURF_PCURVE_APPNAME
 70
     0
  0
APPID
  2
ACAD_TEMP_GRAPHIC
 70
     0
  0
APPID
  2
ACATTRIBSERVICES
 70
     0
  0
APPID
  2
ACADM_DIM_EDIT
 70
     0
  0
APPID
  2
GENIUS_GENDIM_13
 70
     0
  0
APPID
  2
GENIUS_GENDTOL_13
 70
     0
  0
APPID
  2
GENIUS_GE3DTOL_13
 70
     0
  0
APPID
  2
AMG_3D2D_5_0
 70
     0
  0
APPID
  2
AMDT_DM_ADJ
 70
     0
  0
APPID
  2
ACAD_PSEXT
 70
     0
  0
APPID
  2
ACAD_DSTYLE_DIMTEXT_FILL
 70
     0
  0
APPID
  2
ACAECLAYERSTANDARD
 70
     0
  0
APPID
  2
GENIUS_GENREC_14
 70
     0
  0
APPID
  2
GENIUS_GENODEF_13
 70
     0
  0
APPID
  2
GENIUS_GENOBJ-N-REC_13
 70
     0
  0
APPID
  2
DCO15
 70
     0
  0
APPID
  2
ACAD_DSTYLE_DIMJAG
 70
     0
  0
APPID
  2
ACAD_DSTYLE_DIMTALN
 70
     0
  0
APPID
  2
ACAD_MLEADERVER
 70
     0
  0
APPID
  2
GENIUS_GENSCREG_15
 70
     0
  0
APPID
  2
GENIUS_GENOBJ-N-SDF_13
 70
     0
  0
APPID
  2
ACAD_NAV_VCDISPLAY
 70
     0
  0
APPID
  2
ACAD_EXEMPT_FROM_CAD_STAND
 70
     0
  0
APPID
  2
ACCMTRANSPARENCY
 70
     0
  0
APPID
  2
HC_SUPERPART
 70
     0
  0
APPID
  2
HC_SP4BLOCK
 70
     0
  0
APPID
  2
HC_XDATA_SPRING
 70
     0
  0
APPID
  2
HCCAD_FRAME
 70
     0
  0
APPID
  2
GENIUS_GENOLIS_13
 70
     0
  0
APPID
  2
GENIUS_GENOENT_13
 70
     0
  0
APPID
  2
GENIUS_GENOREF_13
 70
     0
  0
APPID
  2
GENIUS_GENOBJ-N-TIT_13
 70
     0
  0
APPID
  2
GENIUS_GENOBJ-N-ZOO_13
 70
     0
  0
APPID
  2
GENIUS_GENTITLE_13
 70
     0
  0
APPID
  2
GENIUS_GENSYMENT_13
 70
     0
  0
APPID
  2
GENIUS_GENSCSYM_13
 70
     0
  0
APPID
  2
GENIUS_GENOBJ-N-REV_13
 70
     0
  0
APPID
  2
GENIUS_GENOBJ-N-RSSYM_13
 70
     0
  0
APPID
  2
GENIUS_GENREV_15
 70
     0
  0
APPID
  2
HRA
 70
     0
  0
APPID
  2
HTIT
 70
     0
  0
APPID
  2
GENIUS_GENZOO_17
 70
     0
  0
APPID
  2
GENIUS_GENOBJ-N-CEN_13
 70
     0
  0
APPID
  2
GENIUS_GENCEN_19
 70
     0
  0
APPID
  2
GENIUS_GENOBJ-N-CRS_13
 70
     0
  0
APPID
  2
GENIUS_GENCRS_20
 70
     0
  0
APPID
  2
GENIUS_GENOBJ-N-CRC_13
 70
     0
  0
APPID
  2
GENIUS_GENCRC_14
 70
     0
  0
APPID
  2
GENIUS_GENFIL_13
 70
     0
  0
APPID
  2
GENIUS_GENOBJ-N-CHA_13
 70
     0
  0
APPID
  2
GENIUS_GENOBJ-N-FIL_13
 70
     0
  0
APPID
  2
GENIUS_GENHATCH_13
 70
     0
  0
APPID
  2
GENIUS_GENOBJ-N-HTC_13
 70
     0
  0
APPID
  2
GENIUS_GENOBJ-N-DIM_13
 70
     0
  0
APPID
  2
GENIUS_GENOBJ-N-DIMLI_13
 70
     0
  0
APPID
  2
GENIUS_GENOBJ-N-FITL_13
 70
     0
  0
APPID
  2
GENIUS_GENFITL_13
 70
     0
  0
APPID
  2
GENLAYCOLOR
 70
     0
  0
APPID
  2
ACAD_DSTYLE_DIMBREAK
 70
     0
  0
APPID
  2
ACADANNOTATIVE
 70
     0
  0
APPID
  2
ACADANNOPO
 70
     0
  0
APPID
  2
PLOTTRANSPARENCY
 70
     0
  0
ENDTAB
  0
TABLE
  2
DIMSTYLE
 70
     8
  0
DIMSTYLE
  2
STANDARD
 70
     0
  3

  4

  5

  6

  7

 40
1.0
 41
2.5
 42
0.625
 43
3.75
 44
1.25
 45
0.0
 46
0.0
 47
0.0
 48
0.0
140
2.5
141
2.5
142
0.0
143
0.0394
144
1.0
145
0.0
146
1.0
147
0.625
 71
     0
 72
     0
 73
     0
 74
     0
 75
     0
 76
     0
 77
     1
 78
     8
170
     0
171
     4
172
     1
173
     0
174
     0
175
     0
176
     0
177
     0
178
     0
  0
DIMSTYLE
  2
ISO-25
 70
     0
  3

  4

  5

  6

  7

 40
1.0
 41
2.5
 42
0.625
 43
3.75
 44
1.25
 45
0.0
 46
0.0
 47
0.0
 48
0.0
140
2.5
141
2.5
142
0.0
143
0.0394
144
1.0
145
0.0
146
1.0
147
0.625
 71
     0
 72
     0
 73
     0
 74
     0
 75
     0
 76
     0
 77
     1
 78
     8
170
     0
171
     4
172
     1
173
     0
174
     0
175
     0
176
     0
177
     0
178
     0
  0
DIMSTYLE
  2
AM_JIS
 70
     0
  3

  4
"
  5
OPEN
  6

  7

 40
1.0
 41
2.5
 42
1.0
 43
7.0
 44
1.0
 45
0.0
 46
0.0
 47
0.1
 48
0.1
140
3.0
141
0.0
142
0.0
143
0.0393701
144
1.0
145
0.0
146
0.71
147
1.0
 71
     0
 72
     0
 73
     0
 74
     0
 75
     0
 76
     0
 77
     3
 78
     8
170
     0
171
     2
172
     1
173
     0
174
     0
175
     0
176
   256
177
   256
178
     2
  0
DIMSTYLE
  2
AM_JIS$3
 70
     0
  3

  4
"
  5
OPEN
  6

  7

 40
1.0
 41
2.5
 42
1.0
 43
10.0
 44
1.0
 45
0.0
 46
0.0
 47
0.1
 48
0.1
140
3.0
141
0.0
142
0.0
143
0.0393701
144
1.0
145
0.0
146
0.71
147
1.0
 71
     0
 72
     0
 73
     0
 74
     0
 75
     0
 76
     0
 77
     3
 78
     8
170
     0
171
     2
172
     1
173
     0
174
     0
175
     0
176
   256
177
   256
178
     2
  0
DIMSTYLE
  2
AM_JIS$4
 70
     0
  3

  4
"
  5

  6
OPEN30
  7
OPEN
 40
1.0
 41
2.5
 42
1.0
 43
10.0
 44
1.0
 45
0.0
 46
0.0
 47
0.1
 48
0.1
140
3.0
141
0.0
142
0.0
143
0.0393701
144
1.0
145
0.0
146
0.71
147
1.0
 71
     0
 72
     0
 73
     0
 74
     0
 75
     1
 76
     0
 77
     3
 78
     8
170
     0
171
     2
172
     1
173
     1
174
     0
175
     0
176
   256
177
   256
178
     2
  0
DIMSTYLE
  2
AM_JIS$6
 70
     0
  3

  4
"
  5
OPEN30
  6
OPEN30
  7
OPEN30
 40
1.0
 41
2.5
 42
1.0
 43
10.0
 44
1.0
 45
0.0
 46
0.0
 47
0.1
 48
0.1
140
3.5
141
0.0
142
0.0
143
0.0393701
144
1.0
145
0.0
146
0.71
147
1.5
 71
     0
 72
     0
 73
     0
 74
     0
 75
     0
 76
     0
 77
     0
 78
     8
170
     0
171
     2
172
     1
173
     0
174
     0
175
     0
176
   256
177
   256
178
     2
  0
DIMSTYLE
  2
AM_JIS$7
 70
     0
  3

  4
"
  5
OPEN30
  6

  7

 40
1.0
 41
2.5
 42
1.0
 43
10.0
 44
1.0
 45
0.0
 46
0.0
 47
0.1
 48
0.1
140
3.0
141
0.0
142
0.0
143
0.0393701
144
1.0
145
0.0
146
0.71
147
1.0
 71
     0
 72
     0
 73
     0
 74
     0
 75
     0
 76
     0
 77
     3
 78
     8
170
     0
171
     2
172
     1
173
     0
174
     0
175
     0
176
   256
177
   256
178
     2
  0
DIMSTYLE
  2
AM_JIS$0
 70
     0
  3

  4
"
  5
OPEN
  6

  7

 40
1.0
 41
2.5
 42
1.0
 43
7.0
 44
1.0
 45
0.0
 46
0.0
 47
0.1
 48
0.1
140
3.0
141
0.0
142
0.0
143
0.0393701
144
1.0
145
0.0
146
0.71
147
1.0
 71
     0
 72
     0
 73
     0
 74
     0
 75
     0
 76
     0
 77
     3
 78
     8
170
     0
171
     2
172
     1
173
     0
174
     0
175
     0
176
   256
177
   256
178
     2
  0
ENDTAB
  0
ENDSEC
  0
SECTION
  2
BLOCKS
  0
BLOCK
  8
0
  2
$MODEL_SPACE
 70
     0
 10
0.0
 20
0.0
 30
0.0
  3
$MODEL_SPACE
  1

  0
ENDBLK
  5
1C
  8
0
  0
BLOCK
 67
     1
  8
0
  2
$PAPER_SPACE
 70
     0
 10
0.0
 20
0.0
 30
0.0
  3
$PAPER_SPACE
  1

  0
ENDBLK
  5
19
 67
     1
  8
0
  0
BLOCK
  8
0
  2
_OPEN30
 70
     0
 10
0.0
 20
0.0
 30
0.0
  3
_OPEN30
  1

  0
LINE
  5
2EF
  8
0
  6
BYBLOCK
 62
     0
 10
-1.0
 20
0.26794919
 30
0.0
 11
0.0
 21
0.0
 31
0.0
  0
LINE
  5
2F0
  8
0
  6
BYBLOCK
 62
     0
 10
0.0
 20
0.0
 30
0.0
 11
-1.0
 21
-0.26794919
 31
0.0
  0
LINE
  5
2F1
  8
0
  6
BYBLOCK
 62
     0
 10
0.0
 20
0.0
 30
0.0
 11
-1.0
 21
0.0
 31
0.0
  0
ENDBLK
  5
2F3
  8
0
  0
BLOCK
  8
0
  2
_OPEN
 70
     0
 10
0.0
 20
0.0
 30
0.0
  3
_OPEN
  1

  0
LINE
  5
597
  8
0
  6
BYBLOCK
 62
     0
 10
-1.0
 20
0.1666666666666667
 30
0.0
 11
0.0
 21
0.0
 31
0.0
  0
LINE
  5
598
  8
0
  6
BYBLOCK
 62
     0
 10
-1.0
 20
-0.1666666666666667
 30
0.0
 11
0.0
 21
0.0
 31
0.0
  0
LINE
  5
599
  8
0
  6
BYBLOCK
 62
     0
 10
0.0
 20
0.0
 30
0.0
 11
-1.0
 21
0.0
 31
0.0
  0
ENDBLK
  5
59B
  8
0
  0
BLOCK
  8
0
  2
_TAGCIRCLE
 70
     2
 10
0.0
 20
0.0
 30
0.0
  3
_TAGCIRCLE
  1

  0
CIRCLE
  5
1151
  8
0
  6
BYBLOCK
 62
     0
 10
0.0
 20
0.0
 30
0.0
 40
4.0
  0
ATTDEF
  5
1152
  8
0
 62
     0
 10
-7.1
 20
-1.5
 30
0.0
 40
3.0
  1
タグ番号
 72
     1
 11
0.0
 21
-1.5
 31
0.0
  3
タグ番号を入力
  2
タグ番号
 70
     0
  0
ENDBLK
  5
1154
  8
0
  0
BLOCK
  8
AM_0
  2
_ACMOPEN30
 70
     0
 10
0.0
 20
0.0
 30
0.0
  3
_ACMOPEN30
  1
Acad:XRef
  0
LINE
  5
1CA4
  8
AM_0
 62
     0
 10
-1.0
 20
0.0
 30
0.0
 11
0.0
 21
0.0
 31
0.0
  0
LINE
  5
1CA5
  8
AM_0
 62
     0
 10
-1.0
 20
-0.2679491924311227
 30
0.0
 11
0.0
 21
0.0
 31
0.0
  0
LINE
  5
1CA6
  8
AM_0
 62
     0
 10
-1.0
 20
0.2679491924311227
 30
0.0
 11
0.0
 21
0.0
 31
0.0
  0
ENDBLK
  5
1CA7
  8
AM_0
  0
ENDSEC
  0
SECTION
  2
ENTITIES
  0
LINE
  5
284A
  8
0
  6
CONTINUOUS
 10
153.0530455035969
 20
303.0393114594057
 30
0.0
 11
136.3616277231431
 21
302.456434306604
 31
0.0
  0
LINE
  5
284B
  8
0
  6
CONTINUOUS
 10
151.9302542385522
 20
304.1621027244516
 30
0.0
 11
136.3616277231431
 21
303.6184343066038
 31
0.0
  0
LINE
  5
284C
  8
0
  6
CONTINUOUS
 10
153.0530455035969
 20
278.4221470203149
 30
0.0
 11
136.3616277231431
 21
279.0050241731166
 31
0.0
  0
LINE
  5
284D
  8
0
  6
CONTINUOUS
 10
151.9302542385522
 20
277.2993557552688
 30
0.0
 11
136.3616277231431
 21
277.8430241731166
 31
0.0
  0
LINE
  5
284E
  8
0
  6
CONTINUOUS
 10
153.0530481427104
 20
95.02151296627198
 30
0.0
 11
136.3616303622566
 21
94.43863581347023
 31
0.0
  0
LINE
  5
284F
  8
0
  6
CONTINUOUS
 10
151.9302568776657
 20
96.14430423131785
 30
0.0
 11
136.3616303622566
 21
95.60063581347026
 31
0.0
  0
LINE
  5
2850
  8
0
  6
CONTINUOUS
 10
153.0530481427104
 20
70.40434852718113
 30
0.0
 11
136.3616303622566
 21
70.98722567998288
 31
0.0
  0
LINE
  5
2851
  8
0
  6
CONTINUOUS
 10
151.9302568776657
 20
69.28155726213527
 30
0.0
 11
136.3616303622566
 21
69.82522567998285
 31
0.0
  0
CIRCLE
  5
2852
  8
0
  6
CONTINUOUS
 10
72.2185374451492
 20
82.71293074672667
 30
0.0
 40
15.50000000000004
  0
LINE
  5
2853
  8
0
  6
CONTINUOUS
 10
56.2185374451492
 20
135.7129307467267
 30
0.0
 11
59.2185374451492
 21
137.7129307467264
 31
0.0
  0
LINE
  5
2854
  8
0
  6
CONTINUOUS
 10
56.2185374451492
 20
117.7129307467264
 30
0.0
 11
88.2185374451492
 21
117.7129307467264
 31
0.0
  0
LINE
  5
2855
  8
0
  6
CONTINUOUS
 10
56.2185374451492
 20
101.5695048090258
 30
0.0
 11
58.99803744514975
 21
100.284643715577
 31
0.0
  0
LINE
  5
2856
  8
0
  6
CONTINUOUS
 10
72.2185374451492
 20
100.6107890916051
 30
0.0
 11
56.7185374451492
 21
91.66185991916586
 31
0.0
1001
GENIUS_GENODEF_13
1002
{
1000
HIER
1070
     0
1002
}
1002
{
1000
MANEDIT
1070
     0
1002
}
1002
{
1000
NOSEL
1070
     0
1002
}
1002
{
1000
BEHIND
1070
     0
1002
}
1002
{
1000
REACTOR
1002
}
1001
GENIUS_GENOBJ-N-CEN_13
1002
{
1000
OWNER
1000
GEN
1002
}
  0
LINE
  5
2857
  8
0
  6
CONTINUOUS
 10
56.2185374451492
 20
70.56950480902583
 30
0.0
 11
58.99803744514975
 21
69.28464371557698
 31
0.0
  0
LINE
  5
2858
  8
0
  6
CONTINUOUS
 10
56.7185374451492
 20
73.76400157428748
 30
0.0
 11
72.2185374451492
 21
64.81507240184828
 31
0.0
1001
GENIUS_GENODEF_13
1002
{
1000
HIER
1070
     0
1002
}
1002
{
1000
MANEDIT
1070
     0
1002
}
1002
{
1000
NOSEL
1070
     0
1002
}
1002
{
1000
BEHIND
1070
     0
1002
}
1002
{
1000
REACTOR
1002
}
1001
GENIUS_GENOBJ-N-CEN_13
1002
{
1000
OWNER
1000
GEN
1002
}
  0
LINE
  5
2859
  8
0
  6
CONTINUOUS
 10
56.7185374451492
 20
91.66185991916586
 30
0.0
 11
56.7185374451492
 21
73.76400157428748
 31
0.0
1001
GENIUS_GENODEF_13
1002
{
1000
HIER
1070
     0
1002
}
1002
{
1000
MANEDIT
1070
     0
1002
}
1002
{
1000
NOSEL
1070
     0
1002
}
1002
{
1000
BEHIND
1070
     0
1002
}
1002
{
1000
REACTOR
1002
}
1001
GENIUS_GENOBJ-N-CEN_13
1002
{
1000
OWNER
1000
GEN
1002
}
  0
LINE
  5
285A
  8
0
  6
CONTINUOUS
 10
56.2185374451492
 20
83.85635668442728
 30
0.0
 11
56.2185374451492
 21
70.56950480902583
 31
0.0
  0
LINE
  5
285B
  8
0
  6
CONTINUOUS
 10
56.7185374451492
 20
84.08748837959706
 30
0.0
 11
56.2185374451492
 21
83.85635668442728
 31
0.0
  0
LINE
  5
285C
  8
0
  6
CONTINUOUS
 10
56.2185374451492
 20
135.7129307467267
 30
0.0
 11
56.2185374451492
 21
117.7129307467264
 31
0.0
1001
GENIUS_GENODEF_13
1002
{
1000
HIER
1070
     0
1002
}
1002
{
1000
MANEDIT
1070
     0
1002
}
1002
{
1000
NOSEL
1070
     0
1002
}
1002
{
1000
BEHIND
1070
     0
1002
}
1002
{
1000
REACTOR
1002
}
1001
GENIUS_GENOBJ-N-CEN_13
1002
{
1000
OWNER
1000
GEN
1002
}
  0
LINE
  5
285D
  8
0
  6
CONTINUOUS
 10
56.2185374451492
 20
117.7129307467264
 30
0.0
 11
56.2185374451492
 21
101.5695048090258
 31
0.0
  0
LINE
  5
285E
  8
0
  6
CONTINUOUS
 10
136.3616303622566
 20
95.60063581347026
 30
0.0
 11
136.3616303622566
 21
69.82522567998285
 31
0.0
  0
LINE
  5
285F
  8
0
  6
CONTINUOUS
 10
87.7185374451492
 20
73.76400157428725
 30
0.0
 11
87.7185374451492
 21
91.66185991916586
 31
0.0
1001
GENIUS_GENODEF_13
1002
{
1000
HIER
1070
     0
1002
}
1002
{
1000
MANEDIT
1070
     0
1002
}
1002
{
1000
NOSEL
1070
     0
1002
}
1002
{
1000
BEHIND
1070
     0
1002
}
1002
{
1000
REACTOR
1002
}
1001
GENIUS_GENOBJ-N-CEN_13
1002
{
1000
OWNER
1000
GEN
1002
}
  0
CIRCLE
  5
2860
  8
0
  6
CONTINUOUS
 10
72.2185374451492
 20
82.71293074672667
 30
0.0
 40
11.72570506674367
  0
CIRCLE
  5
2861
  8
0
  6
CONTINUOUS
 10
72.2185374451492
 20
82.71293074672667
 30
0.0
 40
12.88770506674365
  0
CIRCLE
  5
2862
  8
0
  6
CONTINUOUS
 10
72.2185374451492
 20
82.71293074672667
 30
0.0
 40
9.5
  0
LINE
  5
2863
  8
0
  6
CONTINUOUS
 10
58.99803744514975
 20
60.71293074672667
 30
0.0
 11
85.43903744515046
 21
60.71293074672667
 31
0.0
  0
LINE
  5
2864
  8
0
  6
CONTINUOUS
 10
58.99803744514975
 20
47.71293074672667
 30
0.0
 11
85.43903744515046
 21
47.71293074672667
 31
0.0
  0
LINE
  5
2865
  8
0
  6
CONTINUOUS
 10
72.2185374451492
 20
64.81507240184828
 30
0.0
 11
87.7185374451492
 21
73.76400157428725
 31
0.0
1001
GENIUS_GENODEF_13
1002
{
1000
HIER
1070
     0
1002
}
1002
{
1000
MANEDIT
1070
     0
1002
}
1002
{
1000
NOSEL
1070
     0
1002
}
1002
{
1000
BEHIND
1070
     0
1002
}
1002
{
1000
REACTOR
1002
}
1001
GENIUS_GENOBJ-N-CEN_13
1002
{
1000
OWNER
1000
GEN
1002
}
  0
LINE
  5
2866
  8
0
  6
CONTINUOUS
 10
60.16003744515001
 20
60.71293074672667
 30
0.0
 11
60.16003744515001
 21
47.71293074672667
 31
0.0
1001
GENIUS_GENODEF_13
1002
{
1000
HIER
1070
     0
1002
}
1002
{
1000
MANEDIT
1070
     0
1002
}
1002
{
1000
NOSEL
1070
     0
1002
}
1002
{
1000
BEHIND
1070
     0
1002
}
1002
{
1000
REACTOR
1002
}
1001
GENIUS_GENOBJ-N-CEN_13
1002
{
1000
OWNER
1000
GEN
1002
}
  0
LINE
  5
2867
  8
0
  6
CONTINUOUS
 10
58.99803744514975
 20
60.71293074672667
 30
0.0
 11
58.99803744514975
 21
47.71293074672667
 31
0.0
1001
GENIUS_GENODEF_13
1002
{
1000
HIER
1070
     0
1002
}
1002
{
1000
MANEDIT
1070
     0
1002
}
1002
{
1000
NOSEL
1070
     0
1002
}
1002
{
1000
BEHIND
1070
     0
1002
}
1002
{
1000
REACTOR
1002
}
1001
GENIUS_GENOBJ-N-CEN_13
1002
{
1000
OWNER
1000
GEN
1002
}
  0
CIRCLE
  5
2868
  8
0
  6
CONTINUOUS
 10
72.2185374451492
 20
82.71293074672667
 30
0.0
 40
6.0
  0
LINE
  5
2869
  8
0
  6
CONTINUOUS
 10
58.99803744514975
 20
60.71293074672667
 30
0.0
 11
58.99803744514975
 21
69.28464371557698
 31
0.0
  0
LINE
  5
286A
  8
0
  6
CONTINUOUS
 10
84.2770374451502
 20
60.71293074672667
 30
0.0
 11
84.2770374451502
 21
47.71293074672667
 31
0.0
1001
GENIUS_GENODEF_13
1002
{
1000
HIER
1070
     0
1002
}
1002
{
1000
MANEDIT
1070
     0
1002
}
1002
{
1000
NOSEL
1070
     0
1002
}
1002
{
1000
BEHIND
1070
     0
1002
}
1002
{
1000
REACTOR
1002
}
1001
GENIUS_GENOBJ-N-CEN_13
1002
{
1000
OWNER
1000
GEN
1002
}
  0
LINE
  5
286B
  8
0
  6
CONTINUOUS
 10
85.43903744515046
 20
60.71293074672667
 30
0.0
 11
85.43903744515046
 21
47.71293074672667
 31
0.0
1001
GENIUS_GENODEF_13
1002
{
1000
HIER
1070
     0
1002
}
1002
{
1000
MANEDIT
1070
     0
1002
}
1002
{
1000
NOSEL
1070
     0
1002
}
1002
{
1000
BEHIND
1070
     0
1002
}
1002
{
1000
REACTOR
1002
}
1001
GENIUS_GENOBJ-N-CEN_13
1002
{
1000
OWNER
1000
GEN
1002
}
  0
LINE
  5
286C
  8
0
  6
CONTINUOUS
 10
88.2185374451492
 20
83.85635668442728
 30
0.0
 11
88.2185374451492
 21
70.56950480902583
 31
0.0
  0
LINE
  5
286D
  8
0
  6
CONTINUOUS
 10
88.2185374451492
 20
70.56950480902583
 30
0.0
 11
85.43903744515046
 21
69.28464371557698
 31
0.0
  0
LINE
  5
286E
  8
0
  6
CONTINUOUS
 10
85.43903744515046
 20
60.71293074672667
 30
0.0
 11
85.43903744515046
 21
69.28464371557698
 31
0.0
  0
LINE
  5
286F
  8
0
  6
CONTINUOUS
 10
87.7185374451492
 20
84.08748837959706
 30
0.0
 11
88.2185374451492
 21
83.85635668442728
 31
0.0
  0
LINE
  5
2870
  8
0
  6
CONTINUOUS
 10
59.2185374451492
 20
137.7129307467264
 30
0.0
 11
85.2185374451492
 21
137.7129307467264
 31
0.0
  0
LINE
  5
2871
  8
0
  6
CONTINUOUS
 10
62.2185374451492
 20
153.7129307467264
 30
0.0
 11
82.2185374451492
 21
153.7129307467264
 31
0.0
  0
LINE
  5
2872
  8
0
  6
CONTINUOUS
 10
61.09859737338775
 20
102.1593317391441
 30
0.0
 11
83.39517639893165
 21
102.1593317391441
 31
0.0
  0
LINE
  5
2873
  8
0
  6
CONTINUOUS
 10
87.7185374451492
 20
91.66185991916586
 30
0.0
 11
72.2185374451492
 21
100.6107890916051
 31
0.0
1001
GENIUS_GENODEF_13
1002
{
1000
HIER
1070
     0
1002
}
1002
{
1000
MANEDIT
1070
     0
1002
}
1002
{
1000
NOSEL
1070
     0
1002
}
1002
{
1000
BEHIND
1070
     0
1002
}
1002
{
1000
REACTOR
1002
}
1001
GENIUS_GENOBJ-N-CEN_13
1002
{
1000
OWNER
1000
GEN
1002
}
  0
LINE
  5
2874
  8
0
  6
CONTINUOUS
 10
58.99803744514975
 20
92.97792985778369
 30
0.0
 11
58.99803744514975
 21
100.284643715577
 31
0.0
  0
LINE
  5
2875
  8
0
  6
CONTINUOUS
 10
59.2185374451492
 20
150.7129307467264
 30
0.0
 11
59.2185374451492
 21
137.7129307467264
 31
0.0
  0
LINE
  5
2876
  8
0
 10
62.2185374451492
 20
153.7129307467264
 30
0.0
 11
59.2185374451492
 21
150.7129307467264
 31
0.0
  0
LINE
  5
2877
  8
0
  6
CONTINUOUS
 10
88.2185374451492
 20
135.7129307467264
 30
0.0
 11
88.2185374451492
 21
117.7129307467264
 31
0.0
1001
GENIUS_GENODEF_13
1002
{
1000
HIER
1070
     0
1002
}
1002
{
1000
MANEDIT
1070
     0
1002
}
1002
{
1000
NOSEL
1070
     0
1002
}
1002
{
1000
BEHIND
1070
     0
1002
}
1002
{
1000
REACTOR
1002
}
1001
GENIUS_GENOBJ-N-CEN_13
1002
{
1000
OWNER
1000
GEN
1002
}
  0
LINE
  5
2878
  8
0
  6
CONTINUOUS
 10
88.2185374451492
 20
117.7129307467264
 30
0.0
 11
88.2185374451492
 21
101.5695048090258
 31
0.0
  0
LINE
  5
2879
  8
0
  6
CONTINUOUS
 10
88.2185374451492
 20
101.5695048090258
 30
0.0
 11
85.43903744515046
 21
100.284643715577
 31
0.0
  0
LINE
  5
287A
  8
0
  6
CONTINUOUS
 10
85.43903744515046
 20
92.97792985778369
 30
0.0
 11
85.43903744515046
 21
100.284643715577
 31
0.0
  0
LINE
  5
287B
  8
0
  6
CONTINUOUS
 10
85.2185374451492
 20
150.7129307467264
 30
0.0
 11
85.2185374451492
 21
137.7129307467264
 31
0.0
  0
LINE
  5
287C
  8
0
  6
CONTINUOUS
 10
88.2185374451492
 20
135.7129307467264
 30
0.0
 11
85.2185374451492
 21
137.7129307467264
 31
0.0
  0
LINE
  5
287D
  8
0
 10
82.2185374451492
 20
153.7129307467264
 30
0.0
 11
85.2185374451492
 21
150.7129307467264
 31
0.0
  0
LINE
  5
287E
  8
0
  6
CONTINUOUS
 10
136.3616277231431
 20
303.6184343066038
 30
0.0
 11
136.3616277231431
 21
277.8430241731166
 31
0.0
  0
LINE
  5
287F
  8
0
  6
CONTINUOUS
 10
234.0821303622561
 20
85.14121777787614
 30
0.0
 11
234.0821303622561
 21
100.284643715577
 31
0.0
  0
ARC
  5
2880
  8
0
  6
CONTINUOUS
 10
-183.5910860241675
 20
82.57066503565738
 30
0.0
 40
27.64480620941191
 50
154.1946832642897
 51
204.6204263514446
210
0.0
220
0.0
230
-1.0
  0
LINE
  5
2881
  8
0
  6
CONTINUOUS
 10
153.375645402095
 20
70.7269457865641
 30
0.0
 11
153.375645402095
 21
94.69891570688901
 31
0.0
  0
LINE
  5
2882
  8
0
  6
CONTINUOUS
 10
191.8616303622566
 20
67.21293074672644
 30
0.0
 11
191.8616303622566
 21
98.21293074672667
 31
0.0
  0
LINE
  5
2883
  8
0
  6
CONTINUOUS
 10
173.8616303622566
 20
67.21293074672667
 30
0.0
 11
173.8616303622566
 21
98.21293074672667
 31
0.0
  0
LINE
  5
2884
  8
0
  6
CONTINUOUS
 10
196.8616303622566
 20
95.93343074672657
 30
0.0
 11
196.8616303622566
 21
69.49243074672677
 31
0.0
  0
LINE
  5
2885
  8
0
  6
CONTINUOUS
 10
196.8616303622566
 20
70.65443074672658
 30
0.0
 11
191.8616277231431
 21
70.65443074672658
 31
0.0
1001
GENIUS_GENODEF_13
1002
{
1000
HIER
1070
     0
1002
}
1002
{
1000
MANEDIT
1070
     0
1002
}
1002
{
1000
NOSEL
1070
     0
1002
}
1002
{
1000
BEHIND
1070
     0
1002
}
1002
{
1000
REACTOR
1002
}
1001
GENIUS_GENOBJ-N-CEN_13
1002
{
1000
OWNER
1000
GEN
1002
}
  0
LINE
  5
2886
  8
0
  6
CONTINUOUS
 10
196.8616303622566
 20
69.49243074672654
 30
0.0
 11
191.8616277231431
 21
69.49243074672654
 31
0.0
1001
GENIUS_GENODEF_13
1002
{
1000
HIER
1070
     0
1002
}
1002
{
1000
MANEDIT
1070
     0
1002
}
1002
{
1000
NOSEL
1070
     0
1002
}
1002
{
1000
BEHIND
1070
     0
1002
}
1002
{
1000
REACTOR
1002
}
1001
GENIUS_GENOBJ-N-CEN_13
1002
{
1000
OWNER
1000
GEN
1002
}
  0
LINE
  5
2887
  8
0
  6
CONTINUOUS
 10
153.375645402095
 20
72.71293074672667
 30
0.0
 11
173.8616303622566
 21
72.71293074672667
 31
0.0
  0
LINE
  5
2888
  8
0
  6
CONTINUOUS
 10
153.375645402095
 20
70.7269457865641
 30
0.0
 11
151.9302568776657
 21
69.28155726213527
 31
0.0
  0
LINE
  5
2889
  8
0
  6
CONTINUOUS
 10
176.2594887071355
 20
64.81507240184806
 30
0.0
 11
189.4637720173778
 21
64.81507240184806
 31
0.0
  0
LINE
  5
288A
  8
0
  6
CONTINUOUS
 10
176.2594887071355
 20
64.81507240184806
 30
0.0
 11
173.8616303622566
 21
67.21293074672667
 31
0.0
  0
LINE
  5
288B
  8
0
  6
CONTINUOUS
 10
189.4637720173778
 20
64.81507240184806
 30
0.0
 11
191.8616303622566
 21
67.21293074672644
 31
0.0
  0
LINE
  5
288C
  8
0
  6
CONTINUOUS
 10
212.7416902904934
 20
70.61789216207967
 30
0.0
 11
232.0382693160391
 21
70.61789216207967
 31
0.0
  0
LINE
  5
288D
  8
0
  6
CONTINUOUS
 10
212.7416902904934
 20
83.39914702734677
 30
0.0
 11
232.0382693160391
 21
83.39914702734677
 31
0.0
  0
LINE
  5
288E
  8
0
  6
CONTINUOUS
 10
207.6411303622572
 20
47.71293074672667
 30
0.0
 11
234.0821303622561
 21
47.71293074672667
 31
0.0
  0
LINE
  5
288F
  8
0
  6
CONTINUOUS
 10
207.6411303622572
 20
60.71293074672667
 30
0.0
 11
234.0821303622561
 21
60.71293074672667
 31
0.0
  0
LINE
  5
2890
  8
0
  6
CONTINUOUS
 10
208.8031303622574
 20
60.71293074672667
 30
0.0
 11
208.8031303622574
 21
47.71293074672667
 31
0.0
1001
GENIUS_GENODEF_13
1002
{
1000
HIER
1070
     0
1002
}
1002
{
1000
MANEDIT
1070
     0
1002
}
1002
{
1000
NOSEL
1070
     0
1002
}
1002
{
1000
BEHIND
1070
     0
1002
}
1002
{
1000
REACTOR
1002
}
1001
GENIUS_GENOBJ-N-CEN_13
1002
{
1000
OWNER
1000
GEN
1002
}
  0
LINE
  5
2891
  8
0
  6
CONTINUOUS
 10
207.6411303622572
 20
60.71293074672667
 30
0.0
 11
207.6411303622572
 21
47.71293074672667
 31
0.0
1001
GENIUS_GENODEF_13
1002
{
1000
HIER
1070
     0
1002
}
1002
{
1000
MANEDIT
1070
     0
1002
}
1002
{
1000
NOSEL
1070
     0
1002
}
1002
{
1000
BEHIND
1070
     0
1002
}
1002
{
1000
REACTOR
1002
}
1001
GENIUS_GENOBJ-N-CEN_13
1002
{
1000
OWNER
1000
GEN
1002
}
  0
LINE
  5
2892
  8
0
  6
CONTINUOUS
 10
196.8616303622566
 20
69.49243074672677
 30
0.0
 11
207.6411303622572
 21
69.49243074672654
 31
0.0
  0
LINE
  5
2893
  8
0
  6
CONTINUOUS
 10
207.6411303622572
 20
60.71293074672667
 30
0.0
 11
207.6411303622572
 21
69.49243074672654
 31
0.0
  0
LINE
  5
2894
  8
0
  6
CONTINUOUS
 10
234.0821303622561
 20
60.71293074672667
 30
0.0
 11
234.0821303622561
 21
47.71293074672667
 31
0.0
1001
GENIUS_GENODEF_13
1002
{
1000
HIER
1070
     0
1002
}
1002
{
1000
MANEDIT
1070
     0
1002
}
1002
{
1000
NOSEL
1070
     0
1002
}
1002
{
1000
BEHIND
1070
     0
1002
}
1002
{
1000
REACTOR
1002
}
1001
GENIUS_GENOBJ-N-CEN_13
1002
{
1000
OWNER
1000
GEN
1002
}
  0
LINE
  5
2895
  8
0
  6
CONTINUOUS
 10
232.9201303622558
 20
60.71293074672667
 30
0.0
 11
232.9201303622558
 21
47.71293074672667
 31
0.0
1001
GENIUS_GENODEF_13
1002
{
1000
HIER
1070
     0
1002
}
1002
{
1000
MANEDIT
1070
     0
1002
}
1002
{
1000
NOSEL
1070
     0
1002
}
1002
{
1000
BEHIND
1070
     0
1002
}
1002
{
1000
REACTOR
1002
}
1001
GENIUS_GENOBJ-N-CEN_13
1002
{
1000
OWNER
1000
GEN
1002
}
  0
LINE
  5
2896
  8
0
  6
CONTINUOUS
 10
236.8616303622566
 20
83.85635668442728
 30
0.0
 11
236.8616303622566
 21
70.56950480902583
 31
0.0
  0
LINE
  5
2897
  8
0
  6
CONTINUOUS
 10
236.8616303622566
 20
70.56950480902583
 30
0.0
 11
234.0821303622561
 21
69.28464371557698
 31
0.0
  0
LINE
  5
2898
  8
0
  6
CONTINUOUS
 10
234.0821303622561
 20
60.71293074672667
 30
0.0
 11
234.0821303622561
 21
69.28464371557698
 31
0.0
  0
LINE
  5
2899
  8
0
  6
CONTINUOUS
 10
234.0821303622561
 20
85.14121777787614
 30
0.0
 11
236.8616303622566
 21
83.85635668442728
 31
0.0
  0
LINE
  5
289A
  8
0
  6
CONTINUOUS
 10
196.8616303622566
 20
94.77143074672654
 30
0.0
 11
191.8616277231431
 21
94.77143074672654
 31
0.0
1001
GENIUS_GENODEF_13
1002
{
1000
HIER
1070
     0
1002
}
1002
{
1000
MANEDIT
1070
     0
1002
}
1002
{
1000
NOSEL
1070
     0
1002
}
1002
{
1000
BEHIND
1070
     0
1002
}
1002
{
1000
REACTOR
1002
}
1001
GENIUS_GENOBJ-N-CEN_13
1002
{
1000
OWNER
1000
GEN
1002
}
  0
LINE
  5
289B
  8
0
  6
CONTINUOUS
 10
196.8616303622566
 20
95.93343074672657
 30
0.0
 11
191.8616277231431
 21
95.93343074672657
 31
0.0
1001
GENIUS_GENODEF_13
1002
{
1000
HIER
1070
     0
1002
}
1002
{
1000
MANEDIT
1070
     0
1002
}
1002
{
1000
NOSEL
1070
     0
1002
}
1002
{
1000
BEHIND
1070
     0
1002
}
1002
{
1000
REACTOR
1002
}
1001
GENIUS_GENOBJ-N-CEN_13
1002
{
1000
OWNER
1000
GEN
1002
}
  0
LINE
  5
289C
  8
0
  6
CONTINUOUS
 10
153.375645402095
 20
92.71293074672667
 30
0.0
 11
173.8616303622566
 21
92.71293074672667
 31
0.0
  0
LINE
  5
289D
  8
0
  6
CONTINUOUS
 10
153.375645402095
 20
94.69891570688901
 30
0.0
 11
151.9302568776657
 21
96.14430423131785
 31
0.0
  0
LINE
  5
289E
  8
0
  6
CONTINUOUS
 10
176.2594887071355
 20
100.6107890916051
 30
0.0
 11
189.4637720173778
 21
100.6107890916051
 31
0.0
  0
LINE
  5
289F
  8
0
  6
CONTINUOUS
 10
176.2594887071355
 20
100.6107890916051
 30
0.0
 11
173.8616303622566
 21
98.21293074672644
 31
0.0
  0
LINE
  5
28A0
  8
0
  6
CONTINUOUS
 10
189.4637720173778
 20
100.6107890916051
 30
0.0
 11
191.8616303622566
 21
98.21293074672667
 31
0.0
  0
LINE
  5
28A1
  8
0
  6
CONTINUOUS
 10
210.8616303622566
 20
153.7129307467264
 30
0.0
 11
230.8616303622566
 21
153.7129307467264
 31
0.0
  0
LINE
  5
28A2
  8
0
  6
CONTINUOUS
 10
207.8616303622566
 20
137.7129307467264
 30
0.0
 11
233.8616303622566
 21
137.7129307467264
 31
0.0
  0
LINE
  5
28A3
  8
0
  6
CONTINUOUS
 10
204.8616303622566
 20
117.7129307467264
 30
0.0
 11
236.8616303622566
 21
117.7129307467264
 31
0.0
  0
LINE
  5
28A4
  8
0
  6
CONTINUOUS
 10
209.7416902904934
 20
102.1593317391441
 30
0.0
 11
232.0382693160391
 21
102.1593317391441
 31
0.0
  0
LINE
  5
28A5
  8
0
  6
CONTINUOUS
 10
203.3616303622566
 20
134.7129307467267
 30
0.0
 11
203.3616303622566
 21
120.7129307467264
 31
0.0
  0
LINE
  5
28A6
  8
0
  6
CONTINUOUS
 10
204.8616303622566
 20
117.7129307467264
 30
0.0
 11
204.8616303622566
 21
101.5695048090258
 31
0.0
  0
LINE
  5
28A7
  8
0
  6
CONTINUOUS
 10
196.8616303622566
 20
95.93343074672657
 30
0.0
 11
207.6411303622572
 21
95.93343074672657
 31
0.0
  0
LINE
  5
28A8
  8
0
  6
CONTINUOUS
 10
207.6411303622572
 20
95.93343074672657
 30
0.0
 11
207.6411303622572
 21
100.284643715577
 31
0.0
  0
LINE
  5
28A9
  8
0
  6
CONTINUOUS
 10
204.8616303622566
 20
101.5695048090258
 30
0.0
 11
207.6411303622572
 21
100.284643715577
 31
0.0
  0
LINE
  5
28AA
  8
0
 10
203.3616303622566
 20
120.7129307467264
 30
0.0
 11
206.3616303622566
 21
117.7129307467264
 31
0.0
  0
LINE
  5
28AB
  8
0
  6
CONTINUOUS
 10
203.3616303622566
 20
134.7129307467267
 30
0.0
 11
207.8616303622566
 21
137.7129307467264
 31
0.0
  0
LINE
  5
28AC
  8
0
  6
CONTINUOUS
 10
207.8616303622566
 20
150.7129307467264
 30
0.0
 11
207.8616303622566
 21
137.7129307467264
 31
0.0
  0
LINE
  5
28AD
  8
0
 10
210.8616303622566
 20
153.7129307467264
 30
0.0
 11
207.8616303622566
 21
150.7129307467264
 31
0.0
  0
LINE
  5
28AE
  8
0
  6
CONTINUOUS
 10
238.3616303622566
 20
134.7129307467267
 30
0.0
 11
238.3616303622566
 21
120.7129307467264
 31
0.0
  0
LINE
  5
28AF
  8
0
  6
CONTINUOUS
 10
236.8616303622566
 20
117.7129307467264
 30
0.0
 11
236.8616303622566
 21
101.5695048090258
 31
0.0
  0
LINE
  5
28B0
  8
0
  6
CONTINUOUS
 10
236.8616303622566
 20
101.5695048090258
 30
0.0
 11
234.0821303622561
 21
100.284643715577
 31
0.0
  0
LINE
  5
28B1
  8
0
 10
238.3616303622566
 20
120.7129307467264
 30
0.0
 11
235.3616303622566
 21
117.7129307467264
 31
0.0
  0
LINE
  5
28B2
  8
0
 10
230.8616303622566
 20
153.7129307467264
 30
0.0
 11
233.8616303622566
 21
150.7129307467264
 31
0.0
  0
LINE
  5
28B3
  8
0
  6
CONTINUOUS
 10
233.8616303622566
 20
150.7129307467264
 30
0.0
 11
233.8616303622566
 21
137.7129307467264
 31
0.0
  0
LINE
  5
28B4
  8
0
  6
CONTINUOUS
 10
238.3616303622566
 20
134.7129307467267
 30
0.0
 11
233.8616303622566
 21
137.7129307467264
 31
0.0
  0
LINE
  5
28B5
  8
0
  6
CONTINUOUS
 10
153.3756427629814
 20
280.7307292398602
 30
0.0
 11
173.8616277231431
 21
280.7307292398602
 31
0.0
  0
LINE
  5
28B6
  8
0
  6
CONTINUOUS
 10
153.3756427629814
 20
300.7307292398602
 30
0.0
 11
173.8616277231431
 21
300.7307292398602
 31
0.0
  0
LINE
  5
28B7
  8
0
  6
CONTINUOUS
 10
153.3756427629814
 20
278.7447442796978
 30
0.0
 11
153.3756427629814
 21
302.7167142000227
 31
0.0
  0
LINE
  5
28B8
  8
0
  6
CONTINUOUS
 10
153.3756427629814
 20
278.7447442796978
 30
0.0
 11
151.9302542385522
 21
277.2993557552688
 31
0.0
  0
LINE
  5
28B9
  8
0
  6
CONTINUOUS
 10
153.3756427629814
 20
302.7167142000227
 30
0.0
 11
151.9302542385522
 21
304.1621027244516
 31
0.0
  0
LINE
  5
28BA
  8
0
  6
CONTINUOUS
 10
191.8616277231431
 20
306.2307292398677
 30
0.0
 11
173.8616277231431
 21
306.2307292398677
 31
0.0
  0
LINE
  5
28BB
  8
0
  6
CONTINUOUS
 10
173.8616277231431
 20
275.2307292398677
 30
0.0
 11
191.8616277231431
 21
275.2307292398677
 31
0.0
  0
LINE
  5
28BC
  8
0
  6
CONTINUOUS
 10
173.8616277231431
 20
306.2307292398677
 30
0.0
 11
173.8616277231431
 21
275.2307292398677
 31
0.0
  0
TEXT
  5
28BD
  8
10
 10
-1.5
 20
0.5
 30
0.0
 40
10.0
  1
2023.09.19 LD3-20[丸ハンドル][片側チックナット付]
 11
-1.5
 21
0.5
 31
0.0
 73
     1
  0
LINE
  5
28BE
  8
7
 10
72.2185374451492
 20
44.91893074672657
 30
0.0
 11
72.2185374451492
 21
201.5069307467265
 31
0.0
1001
GENIUS_GENODEF_13
1002
{
1000
HIER
1070
     0
1002
}
1002
{
1000
MANEDIT
1070
     0
1002
}
1002
{
1000
NOSEL
1070
     0
1002
}
1002
{
1000
BEHIND
1070
     0
1002
}
1002
{
1000
OTHER
1070
     0
1002
}
1002
{
1000
REACTOR
1002
}
1001
GENIUS_GENOBJ-N-CEN_13
1002
{
1000
OWNER
1000
GEN
1002
}
1001
GENIUS_GENCEN_19
1002
{
1040
2.794
1002
}
  0
LINE
  5
28BF
  8
7
 10
133.5676303622568
 20
82.71293074672667
 30
0.0
 11
199.6556303622565
 21
82.71293074672667
 31
0.0
1001
GENIUS_GENODEF_13
1002
{
1000
HIER
1070
     0
1002
}
1002
{
1000
MANEDIT
1070
     0
1002
}
1002
{
1000
NOSEL
1070
     0
1002
}
1002
{
1000
BEHIND
1070
     0
1002
}
1002
{
1000
OTHER
1070
     0
1002
}
1002
{
1000
REACTOR
1002
}
1001
GENIUS_GENOBJ-N-CEN_13
1002
{
1000
OWNER
1000
GEN
1002
}
1001
GENIUS_GENCEN_19
1002
{
1040
2.794
1002
}
  0
LINE
  5
28C0
  8
7
 10
53.92453744514933
 20
82.71293074672667
 30
0.0
 11
90.51253744514906
 21
82.71293074672667
 31
0.0
1001
GENIUS_GENODEF_13
1002
{
1000
HIER
1070
     0
1002
}
1002
{
1000
MANEDIT
1070
     0
1002
}
1002
{
1000
NOSEL
1070
     0
1002
}
1002
{
1000
BEHIND
1070
     0
1002
}
1002
{
1000
OTHER
1070
     0
1002
}
1002
{
1000
REACTOR
1002
}
1001
GENIUS_GENOBJ-N-CEN_13
1002
{
1000
OWNER
1000
GEN
1002
}
1001
GENIUS_GENCEN_19
1002
{
1040
2.794
1002
}
  0
LINE
  5
28C1
  8
7
 10
220.8616303622566
 20
44.91893074672657
 30
0.0
 11
220.8616303622566
 21
201.5069307467265
 31
0.0
1001
GENIUS_GENODEF_13
1002
{
1000
HIER
1070
     0
1002
}
1002
{
1000
MANEDIT
1070
     0
1002
}
1002
{
1000
NOSEL
1070
     0
1002
}
1002
{
1000
BEHIND
1070
     0
1002
}
1002
{
1000
OTHER
1070
     0
1002
}
1002
{
1000
REACTOR
1002
}
1001
GENIUS_GENOBJ-N-CEN_13
1002
{
1000
OWNER
1000
GEN
1002
}
1001
GENIUS_GENCEN_19
1002
{
1040
2.794
1002
}
  0
LINE
  5
28C2
  8
7
 10
220.8616779293425
 20
256.4367344620379
 30
0.0
 11
220.861628342278
 21
325.0247240177154
 31
0.0
1001
GENIUS_GENODEF_13
1002
{
1000
HIER
1070
     0
1002
}
1002
{
1000
MANEDIT
1070
     0
1002
}
1002
{
1000
NOSEL
1070
     0
1002
}
1002
{
1000
BEHIND
1070
     0
1002
}
1002
{
1000
OTHER
1070
     0
1002
}
1002
{
1000
REACTOR
1002
}
1001
GENIUS_GENOBJ-N-CEN_13
1002
{
1000
OWNER
1000
GEN
1002
}
1001
GENIUS_GENCEN_19
1002
{
1040
2.794
1002
}
  0
LINE
  5
28C3
  8
0
  6
CONTINUOUS
 10
78.21853744515715
 20
153.7129307467264
 30
0.0
 11
78.21853744515715
 21
154.7130003115234
 31
0.0
  0
LINE
  5
28C4
  8
0
  6
CONTINUOUS
 10
66.21853744515715
 20
153.7129307467264
 30
0.0
 11
66.21853744515715
 21
154.7130003115234
 31
0.0
  0
LINE
  5
28C5
  8
0
  6
CONTINUOUS
 10
214.8616303622566
 20
153.7129307467264
 30
0.0
 11
214.8616303622566
 21
154.7130003115253
 31
0.0
  0
LINE
  5
28C6
  8
0
  6
CONTINUOUS
 10
226.8616303622566
 20
153.7129307467264
 30
0.0
 11
226.8616303622566
 21
154.7130003115253
 31
0.0
  0
LINE
  5
28C7
  8
0
  6
CONTINUOUS
 10
192.3029995094614
 20
278.6722292398678
 30
0.0
 11
191.8615783783644
 21
278.6722292398678
 31
0.0
1001
GENIUS_GENODEF_13
1002
{
1000
HIER
1070
     0
1002
}
1002
{
1000
MANEDIT
1070
     0
1002
}
1002
{
1000
NOSEL
1070
     0
1002
}
1002
{
1000
BEHIND
1070
     0
1002
}
1002
{
1000
REACTOR
1002
}
1001
GENIUS_GENOBJ-N-CEN_13
1002
{
1000
OWNER
1000
GEN
1002
}
  0
LINE
  5
28C8
  8
0
  6
CONTINUOUS
 10
192.8219950763478
 20
277.5102292398678
 30
0.0
 11
191.8615783783644
 21
277.5102292398678
 31
0.0
1001
GENIUS_GENODEF_13
1002
{
1000
HIER
1070
     0
1002
}
1002
{
1000
MANEDIT
1070
     0
1002
}
1002
{
1000
NOSEL
1070
     0
1002
}
1002
{
1000
BEHIND
1070
     0
1002
}
1002
{
1000
REACTOR
1002
}
1001
GENIUS_GENOBJ-N-CEN_13
1002
{
1000
OWNER
1000
GEN
1002
}
  0
LINE
  5
28C9
  8
0
  6
CONTINUOUS
 10
191.8615783783644
 20
290.7307292398677
 30
0.0
 11
191.8615783783644
 21
283.8544820788792
 31
0.0
  0
LINE
  5
28CA
  8
0
  6
CONTINUOUS
 10
191.8615783783644
 20
279.776285076359
 30
0.0
 11
191.8615783783644
 21
275.2307292398752
 31
0.0
  0
LINE
  5
28CB
  8
0
  6
CONTINUOUS
 10
192.8219950763482
 20
303.9512292398678
 30
0.0
 11
191.8615783783644
 21
303.9512292398678
 31
0.0
1001
GENIUS_GENODEF_13
1002
{
1000
HIER
1070
     0
1002
}
1002
{
1000
MANEDIT
1070
     0
1002
}
1002
{
1000
NOSEL
1070
     0
1002
}
1002
{
1000
BEHIND
1070
     0
1002
}
1002
{
1000
REACTOR
1002
}
1001
GENIUS_GENOBJ-N-CEN_13
1002
{
1000
OWNER
1000
GEN
1002
}
  0
LINE
  5
28CC
  8
0
  6
CONTINUOUS
 10
192.3029995094619
 20
302.7892292398678
 30
0.0
 11
191.8615783783644
 21
302.7892292398678
 31
0.0
1001
GENIUS_GENODEF_13
1002
{
1000
HIER
1070
     0
1002
}
1002
{
1000
MANEDIT
1070
     0
1002
}
1002
{
1000
NOSEL
1070
     0
1002
}
1002
{
1000
BEHIND
1070
     0
1002
}
1002
{
1000
REACTOR
1002
}
1001
GENIUS_GENOBJ-N-CEN_13
1002
{
1000
OWNER
1000
GEN
1002
}
  0
LINE
  5
28CD
  8
0
  6
CONTINUOUS
 10
191.8615783783644
 20
306.2307292398752
 30
0.0
 11
191.8615783783644
 21
301.6851734033757
 31
0.0
  0
LINE
  5
28CE
  8
0
  6
CONTINUOUS
 10
191.8615783783644
 20
297.6069764008554
 30
0.0
 11
191.8615783783644
 21
290.7307292398677
 31
0.0
  0
POLYLINE
  5
28CF
  8
0
 66
     1
 10
0.0
 20
0.0
 30
0.0
 70
     1
  0
VERTEX
  5
292F
  8
0
 10
227.8832226428253
 20
320.9250424277038
 30
0.0
 42
0.1147433684531263
  0
VERTEX
  5
2930
  8
0
 10
213.8399393921295
 20
320.9250424277038
 30
0.0
 42
0.3169980516087132
  0
VERTEX
  5
2931
  8
0
 10
212.3060213841495
 20
319.2053214118463
 30
0.0
 42
-0.5034443575988989
  0
VERTEX
  5
2932
  8
0
 10
200.4796406508062
 20
312.3773573119119
 30
0.0
 42
0.3169980516087056
  0
VERTEX
  5
2933
  8
0
 10
198.2233595596613
 20
311.9088058576075
 30
0.0
 42
0.1147433684531285
  0
VERTEX
  5
2934
  8
0
 10
191.2017179343134
 20
299.7469658099639
 30
0.0
 42
0.3169980516087055
  0
VERTEX
  5
2935
  8
0
 10
191.9240810174774
 20
297.5586933398021
 30
0.0
 42
-0.5034443575988864
  0
VERTEX
  5
2936
  8
0
 10
191.9240810174774
 20
283.9027651399323
 30
0.0
 42
0.3169980516087206
  0
VERTEX
  5
2937
  8
0
 10
191.2017179343134
 20
281.7144926697706
 30
0.0
 42
0.1147433684531274
  0
VERTEX
  5
2938
  8
0
 10
198.2233595596613
 20
269.5526526221278
 30
0.0
 42
0.3169980516087066
  0
VERTEX
  5
2939
  8
0
 10
200.4796406508062
 20
269.0841011678226
 30
0.0
 42
-0.503444357598898
  0
VERTEX
  5
293A
  8
0
 10
212.3060213841495
 20
262.2561370678881
 30
0.0
 42
0.316998051608725
  0
VERTEX
  5
293B
  8
0
 10
213.8399393921295
 20
260.5364160520307
 30
0.0
 42
0.1147433684531251
  0
VERTEX
  5
293C
  8
0
 10
227.8832226428253
 20
260.5364160520307
 30
0.0
 42
0.3169980516087174
  0
VERTEX
  5
293D
  8
0
 10
229.4171406508053
 20
262.2561370678881
 30
0.0
 42
-0.503444357598898
  0
VERTEX
  5
293E
  8
0
 10
241.2435213841486
 20
269.0841011678226
 30
0.0
 42
0.3169980516087068
  0
VERTEX
  5
293F
  8
0
 10
243.4998024752936
 20
269.5526526221278
 30
0.0
 42
0.1147433684531273
  0
VERTEX
  5
2940
  8
0
 10
250.5214441006415
 20
281.7144926697706
 30
0.0
 42
0.3169980516087207
  0
VERTEX
  5
2941
  8
0
 10
249.7990810174774
 20
283.9027651399323
 30
0.0
 42
-0.5034443575988866
  0
VERTEX
  5
2942
  8
0
 10
249.7990810174774
 20
297.5586933398021
 30
0.0
 42
0.3169980516087057
  0
VERTEX
  5
2943
  8
0
 10
250.5214441006415
 20
299.7469658099639
 30
0.0
 42
0.1147433684531281
  0
VERTEX
  5
2944
  8
0
 10
243.4998024752936
 20
311.9088058576075
 30
0.0
 42
0.3169980516087061
  0
VERTEX
  5
2945
  8
0
 10
241.2435213841486
 20
312.3773573119119
 30
0.0
 42
-0.5034443575988988
  0
VERTEX
  5
2946
  8
0
 10
229.4171406508053
 20
319.2053214118463
 30
0.0
 42
0.3169980516087095
  0
SEQEND
  5
2947
  8
0
  0
CIRCLE
  5
28D0
  8
0
 10
220.8615810174774
 20
290.7307292398677
 30
0.0
 40
11.0
  0
ARC
  5
28D1
  8
0
 10
70.17957454239308
 20
162.9165057632931
 30
0.0
 40
30.91919402524992
 50
78.72967692071798
 51
86.21889213639939
  0
LINE
  5
28D2
  8
0
 10
59.21853744514965
 20
195.7130003115234
 30
0.0
 11
85.21853744516056
 21
195.7130003115162
 31
0.0
  0
LINE
  5
28D3
  8
0
 10
49.71853744514965
 20
154.7130003115234
 30
0.0
 11
94.71853744514874
 21
154.7130003115234
 31
0.0
  0
LINE
  5
28D4
  8
0
 10
47.71853744514965
 20
162.4546700623259
 30
0.0
 11
96.71853744514874
 21
162.4546700623259
 31
0.0
  0
ARC
  5
28D5
  8
0
 10
72.26336276378038
 20
167.8909592326494
 30
0.0
 40
3.704509570427573
 50
269.3066925052599
 51
329.964026707619
  0
LINE
  5
28D6
  8
0
 10
41.21853744514965
 20
188.2091539300681
 30
0.0
 11
41.21853744514965
 21
173.7130003115253
 31
0.0
  0
LINE
  5
28D7
  8
0
 10
41.99350256622211
 20
173.7130003115253
 30
0.0
 11
41.99350256622211
 21
190.2929978516867
 31
0.0
  0
LINE
  5
28D8
  8
0
 10
65.39057334522249
 20
191.4341425105076
 30
0.0
 11
65.39057334522249
 21
173.7130003115253
 31
0.0
  0
LINE
  5
28D9
  8
0
 10
50.65651682233556
 20
173.7130003115253
 30
0.0
 11
50.65651682233556
 21
191.4341425105076
 31
0.0
  0
ARC
  5
28DA
  8
0
 10
49.86508653621104
 20
164.830897767528
 30
0.0
 40
0.5000000000001373
 50
246.2367264954172
 51
357.2532324533396
1001
GENIUS_GENODEF_13
1002
{
1000
HIER
1070
     0
1002
}
1002
{
1000
MANEDIT
1070
     0
1002
}
1002
{
1000
NOSEL
1070
     0
1002
}
1002
{
1000
BEHIND
1070
     0
1002
}
1002
{
1000
REACTOR
1002
}
1001
GENIUS_GENOBJ-N-FIL_13
1002
{
1000
OWNER
1000
GEN
1002
}
  0
ARC
  5
28DB
  8
0
 10
49.71853744514965
 20
156.7130003115234
 30
0.0
 40
2.0
 50
180.0
 51
270.0
1001
GENIUS_GENODEF_13
1002
{
1000
HIER
1070
     0
1002
}
1002
{
1000
MANEDIT
1070
     0
1002
}
1002
{
1000
NOSEL
1070
     0
1002
}
1002
{
1000
BEHIND
1070
     0
1002
}
1002
{
1000
REACTOR
1002
}
1001
GENIUS_GENOBJ-N-FIL_13
1002
{
1000
OWNER
1000
GEN
1002
}
  0
LINE
  5
28DC
  8
0
 10
47.71853744514965
 20
162.4546700623259
 30
0.0
 11
47.71853744514965
 21
156.7130003115225
 31
0.0
  0
LINE
  5
28DD
  8
0
 10
47.71853744514965
 20
162.4546700623259
 30
0.0
 11
41.21853744514965
 21
173.7130003115253
 31
0.0
  0
ARC
  5
28DE
  8
0
 10
53.10697391141707
 20
171.6962626540962
 30
0.0
 40
8.092139528442901
 50
218.3219467238773
 51
244.816421554229
  0
ARC
  5
28DF
  8
0
 10
78.56938399364412
 20
193.3569136889398
 30
0.0
 40
41.51720649287704
 50
208.2390387289538
 51
219.9850051421013
  0
LINE
  5
28E0
  8
0
 10
51.65651682233556
 20
173.7241623372765
 30
0.0
 11
64.39057334522249
 21
173.7130003115225
 31
0.0
  0
ARC
  5
28E1
  8
0
 10
-130.0932185570684
 20
173.4647389284943
 30
0.0
 40
180.6652985045642
 50
357.2532324534187
 51
0.0787330719278605
  0
ARC
  5
28E2
  8
0
 10
72.17371212653347
 20
167.8909592326494
 30
0.0
 40
3.704509570427561
 50
210.0359732923834
 51
270.6933074947436
  0
ARC
  5
28E3
  8
0
 10
81.53735000468919
 20
176.564033474156
 30
0.0
 40
16.39654800819768
 50
190.0134925743615
 51
219.9445765225445
  0
ARC
  5
28E4
  8
0
 10
59.21853744514965
 20
155.7130003115259
 30
0.0
 40
39.99999999999841
 50
90.0
 51
111.8037479893856
  0
ARC
  5
28E5
  8
0
 10
46.77156577181404
 20
188.498999505469
 30
0.0
 40
4.869076824715424
 50
37.07163361014477
 51
88.33534575517591
  0
ARC
  5
28E6
  8
0
 10
46.21853744514942
 20
188.2091539300681
 30
0.0
 40
4.999999999999826
 50
111.803747989381
 51
180.0
1001
GENIUS_GENODEF_13
1002
{
1000
HIER
1070
     0
1002
}
1002
{
1000
MANEDIT
1070
     0
1002
}
1002
{
1000
NOSEL
1070
     0
1002
}
1002
{
1000
BEHIND
1070
     0
1002
}
1002
{
1000
REACTOR
1002
}
1001
GENIUS_GENOBJ-N-FIL_13
1002
{
1000
OWNER
1000
GEN
1002
}
  0
ARC
  5
28E7
  8
0
 10
48.5671862827553
 20
185.2436473627715
 30
0.0
 40
8.289104774638442
 50
101.5112441720059
 51
142.4715634063265
  0
LINE
  5
28E8
  8
0
 10
51.65651682233556
 20
191.4341425105076
 30
0.0
 11
64.39057334522249
 21
191.4341425105076
 31
0.0
  0
ARC
  5
28E9
  8
0
 10
74.25750034792122
 20
162.9165057632896
 30
0.0
 40
30.91919402525333
 50
93.78110786360062
 51
101.2703230792816
  0
ARC
  5
28EA
  8
0
 10
68.5758653157618
 20
189.5628597457878
 30
0.0
 40
3.694290746966676
 50
95.61023783028725
 51
149.5667841226169
  0
LINE
  5
28EB
  8
0
 10
103.2185374451497
 20
188.2091539300672
 30
0.0
 11
103.2185374451497
 21
173.7130003115253
 31
0.0
  0
LINE
  5
28EC
  8
0
 10
93.78055806797829
 20
173.7130003115253
 30
0.0
 11
93.78055806797829
 21
191.4341425105076
 31
0.0
  0
LINE
  5
28ED
  8
0
 10
102.4435723240917
 20
173.7130003115253
 30
0.0
 11
102.4435723240917
 21
190.2929978516867
 31
0.0
  0
LINE
  5
28EE
  8
0
 10
79.04650154509227
 20
191.4341425105076
 30
0.0
 11
79.04650154509227
 21
173.7130003115253
 31
0.0
  0
LINE
  5
28EF
  8
0
 10
96.71853744514874
 20
162.454670062325
 30
0.0
 11
103.2185374451497
 21
173.7130003115253
 31
0.0
  0
ARC
  5
28F0
  8
0
 10
65.86769089666336
 20
193.3569136889448
 30
0.0
 40
41.51720649288583
 50
320.0149948578997
 51
331.7609612710449
  0
ARC
  5
28F1
  8
0
 10
94.71853744514897
 20
156.7130003115234
 30
0.0
 40
2.0
 50
269.9999999999935
 51
0.0
1001
GENIUS_GENODEF_13
1002
{
1000
HIER
1070
     0
1002
}
1002
{
1000
MANEDIT
1070
     0
1002
}
1002
{
1000
NOSEL
1070
     0
1002
}
1002
{
1000
BEHIND
1070
     0
1002
}
1002
{
1000
REACTOR
1002
}
1001
GENIUS_GENOBJ-N-FIL_13
1002
{
1000
OWNER
1000
GEN
1002
}
  0
LINE
  5
28F2
  8
0
 10
92.86516551720206
 20
173.7130003115253
 30
0.0
 11
80.04650154509227
 21
173.7130003115253
 31
0.0
  0
ARC
  5
28F3
  8
0
 10
62.8997248856283
 20
176.5640334741544
 30
0.0
 40
16.39654800819415
 50
320.0554234774518
 51
349.9865074256929
  0
LINE
  5
28F4
  8
0
 10
96.71853744514874
 20
162.454670062325
 30
0.0
 11
96.71853744514874
 21
156.7130003115225
 31
0.0
  0
ARC
  5
28F5
  8
0
 10
274.5302934473825
 20
173.4647389284964
 30
0.0
 40
180.6652985045639
 50
179.9212669280768
 51
182.7467675465875
  0
ARC
  5
28F6
  8
0
 10
91.33010097889792
 20
171.6962626540962
 30
0.0
 40
8.092139528442887
 50
295.1835784457709
 51
321.6780532761227
  0
ARC
  5
28F7
  8
0
 10
94.57198835410372
 20
164.8308977675278
 30
0.0
 40
0.5000000000000417
 50
182.7467675466345
 51
293.763273504594
1001
GENIUS_GENODEF_13
1002
{
1000
HIER
1070
     0
1002
}
1002
{
1000
MANEDIT
1070
     0
1002
}
1002
{
1000
NOSEL
1070
     0
1002
}
1002
{
1000
BEHIND
1070
     0
1002
}
1002
{
1000
REACTOR
1002
}
1001
GENIUS_GENOBJ-N-FIL_13
1002
{
1000
OWNER
1000
GEN
1002
}
  0
ARC
  5
28F8
  8
0
 10
85.21853744514874
 20
155.7130003115246
 30
0.0
 40
39.99999999999903
 50
68.19625201061437
 51
90.0
  0
ARC
  5
28F9
  8
0
 10
95.86988860755969
 20
185.2436473627715
 30
0.0
 40
8.289104774638432
 50
37.52843659367347
 51
78.48875582799408
  0
LINE
  5
28FA
  8
0
 10
92.86516551720206
 20
191.4341425105067
 30
0.0
 11
80.04650154509227
 21
191.4341425105076
 31
0.0
  0
ARC
  5
28FB
  8
0
 10
75.86120957455205
 20
189.5628597457878
 30
0.0
 40
3.69429074696669
 50
30.43321587738312
 51
84.38976216971277
  0
ARC
  5
28FC
  8
0
 10
97.66550911850095
 20
188.498999505469
 30
0.0
 40
4.869076824715402
 50
91.6646542448241
 51
142.9283663898552
  0
ARC
  5
28FD
  8
0
 10
98.21853744514988
 20
188.2091539300674
 30
0.0
 40
4.999999999999716
 50
0.0
 51
68.19625201061795
1001
GENIUS_GENODEF_13
1002
{
1000
HIER
1070
     0
1002
}
1002
{
1000
MANEDIT
1070
     0
1002
}
1002
{
1000
NOSEL
1070
     0
1002
}
1002
{
1000
BEHIND
1070
     0
1002
}
1002
{
1000
REACTOR
1002
}
1001
GENIUS_GENOBJ-N-FIL_13
1002
{
1000
OWNER
1000
GEN
1002
}
  0
LINE
  5
28FE
  8
0
 10
196.3616303622512
 20
162.4546700623268
 30
0.0
 11
245.3616303622503
 21
162.4546700623268
 31
0.0
  0
LINE
  5
28FF
  8
0
 10
198.3616303622512
 20
154.7130003115253
 30
0.0
 11
243.3616303622503
 21
154.7130003115253
 31
0.0
  0
LINE
  5
2900
  8
0
 10
207.8616303622512
 20
195.7130003115253
 30
0.0
 11
233.8616303622621
 21
195.7130003115171
 31
0.0
  0
ARC
  5
2901
  8
0
 10
207.6253677298446
 20
187.8204480321821
 30
0.0
 40
5.951205005509391
 50
37.38880691368453
 51
97.21420027622331
  0
ARC
  5
2902
  8
0
 10
207.755703382988
 20
166.706217353065
 30
0.0
 40
2.565357953936887
 50
240.6774080382689
 51
316.5238775543725
  0
LINE
  5
2903
  8
0
 10
191.1153068328467
 20
171.5415689682013
 30
0.0
 11
191.1153068328476
 21
191.5205071297495
 31
0.0
  0
LINE
  5
2904
  8
0
 10
199.2996097394534
 20
173.7130003115262
 30
0.0
 11
199.2996097394525
 21
191.4341425105085
 31
0.0
  0
ARC
  5
2905
  8
0
 10
198.3616303622512
 20
156.7130003115253
 30
0.0
 40
1.999999999999943
 50
180.0
 51
270.0
1001
GENIUS_GENODEF_13
1002
{
1000
HIER
1070
     0
1002
}
1002
{
1000
MANEDIT
1070
     0
1002
}
1002
{
1000
NOSEL
1070
     0
1002
}
1002
{
1000
BEHIND
1070
     0
1002
}
1002
{
1000
REACTOR
1002
}
1001
GENIUS_GENOBJ-N-FIL_13
1002
{
1000
OWNER
1000
GEN
1002
}
  0
LINE
  5
2906
  8
0
 10
192.5274773045749
 20
173.7130003115271
 30
0.0
 11
198.2996097394371
 21
173.7130003115271
 31
0.0
  0
LINE
  5
2907
  8
0
 10
196.3616303622512
 20
162.4546700623268
 30
0.0
 11
191.1153068328467
 21
171.5415689682004
 31
0.0
  0
LINE
  5
2908
  8
0
 10
196.3616303622512
 20
162.4546700623268
 30
0.0
 11
196.3616303622512
 21
156.7130003115244
 31
0.0
  0
ARC
  5
2909
  8
0
 10
212.0902282044526
 20
176.2499747179847
 30
0.0
 40
13.03979140386123
 50
191.2188087997441
 51
244.6115597288438
  0
LINE
  5
290A
  8
0
 10
192.3834030868084
 20
191.4341425105085
 30
0.0
 11
198.2996097394371
 21
191.4341425105085
 31
0.0
  0
ARC
  5
290B
  8
0
 10
207.8616303622512
 20
155.7130003115239
 30
0.0
 40
40.00000000000136
 50
90.0
 51
111.8037479893843
  0
ARC
  5
290C
  8
0
 10
194.8616303622503
 20
188.2091539300704
 30
0.0
 40
4.999999999998328
 50
111.8037479893824
 51
138.5267245313365
1001
GENIUS_GENODEF_13
1002
{
1000
HIER
1070
     0
1002
}
1002
{
1000
MANEDIT
1070
     0
1002
}
1002
{
1000
NOSEL
1070
     0
1002
}
1002
{
1000
BEHIND
1070
     0
1002
}
1002
{
1000
REACTOR
1002
}
1001
GENIUS_GENOBJ-N-FIL_13
1002
{
1000
OWNER
1000
GEN
1002
}
  0
ARC
  5
290D
  8
0
 10
206.264600751445
 20
182.071384991867
 30
0.0
 40
11.66928995911952
 50
86.98674223133894
 51
126.6456998178245
  0
LINE
  5
290E
  8
0
 10
250.6079538916701
 20
171.5415689682013
 30
0.0
 11
250.6079538916701
 21
191.5205071297495
 31
0.0
  0
LINE
  5
290F
  8
0
 10
212.3537980439032
 20
191.4341425105085
 30
0.0
 11
212.3537980439041
 21
173.7130003115271
 31
0.0
  0
LINE
  5
2910
  8
0
 10
229.3694626806137
 20
191.4341425105085
 30
0.0
 11
229.3694626806137
 21
173.7130003115271
 31
0.0
  0
LINE
  5
2911
  8
0
 10
242.4236509850643
 20
173.7130003115262
 30
0.0
 11
242.4236509850643
 21
191.4341425105085
 31
0.0
  0
ARC
  5
2912
  8
0
 10
233.9675573415288
 20
166.706217353065
 30
0.0
 40
2.565357953936903
 50
223.4761224456275
 51
299.3225919617299
  0
LINE
  5
2913
  8
0
 10
213.3537980438887
 20
173.7130003115271
 30
0.0
 11
228.3694626806137
 21
173.7130003115271
 31
0.0
  0
ARC
  5
2914
  8
0
 10
188.6072347771271
 20
176.3082903264137
 30
0.0
 40
23.88796343861021
 50
331.5850581069332
 51
353.7628312294629
  0
ARC
  5
2915
  8
0
 10
253.1160259473895
 20
176.3082903264137
 30
0.0
 40
23.88796343861022
 50
186.2371687705372
 51
208.4149418930671
  0
ARC
  5
2916
  8
0
 10
243.3616303622503
 20
156.7130003115253
 30
0.0
 40
2.0
 50
270.0
 51
0.0
1001
GENIUS_GENODEF_13
1002
{
1000
HIER
1070
     0
1002
}
1002
{
1000
MANEDIT
1070
     0
1002
}
1002
{
1000
NOSEL
1070
     0
1002
}
1002
{
1000
BEHIND
1070
     0
1002
}
1002
{
1000
REACTOR
1002
}
1001
GENIUS_GENOBJ-N-FIL_13
1002
{
1000
OWNER
1000
GEN
1002
}
  0
LINE
  5
2917
  8
0
 10
249.0741558577647
 20
173.7130003115271
 30
0.0
 11
243.4236509850643
 21
173.7130003115271
 31
0.0
  0
ARC
  5
2918
  8
0
 10
229.633032520064
 20
176.2499747179847
 30
0.0
 40
13.03979140386123
 50
295.3884402711573
 51
348.7811912002554
  0
LINE
  5
2919
  8
0
 10
245.3616303622503
 20
162.4546700623268
 30
0.0
 11
245.3616303622503
 21
156.7130003115234
 31
0.0
  0
LINE
  5
291A
  8
0
 10
245.3616303622503
 20
162.4546700623268
 30
0.0
 11
250.6079538916701
 21
171.5415689682267
 31
0.0
  0
ARC
  5
291B
  8
0
 10
234.0978929946732
 20
187.8204480321819
 30
0.0
 40
5.951205005509814
 50
82.78579972377723
 51
142.6111930863149
  0
LINE
  5
291C
  8
0
 10
213.3537980438887
 20
191.4341425105085
 30
0.0
 11
228.3694626806137
 21
191.4341425105085
 31
0.0
  0
LINE
  5
291D
  8
0
 10
249.3398576376931
 20
191.4341425105085
 30
0.0
 11
243.4236509850643
 21
191.4341425105085
 31
0.0
  0
ARC
  5
291E
  8
0
 10
233.86163036225
 20
155.7130003115239
 30
0.0
 40
40.00000000000134
 50
68.19625201061534
 51
89.99999999999969
  0
ARC
  5
291F
  8
0
 10
235.4586599730728
 20
182.071384991867
 30
0.0
 40
11.66928995911953
 50
53.35430018217556
 51
93.01325776866108
  0
ARC
  5
2920
  8
0
 10
246.8616303622669
 20
188.2091539300708
 30
0.0
 40
4.99999999999799
 50
41.47327546866413
 51
68.19625201061902
1001
GENIUS_GENODEF_13
1002
{
1000
HIER
1070
     0
1002
}
1002
{
1000
MANEDIT
1070
     0
1002
}
1002
{
1000
NOSEL
1070
     0
1002
}
1002
{
1000
BEHIND
1070
     0
1002
}
1002
{
1000
REACTOR
1002
}
1001
GENIUS_GENOBJ-N-FIL_13
1002
{
1000
OWNER
1000
GEN
1002
}
  0
LINE
  5
2921
  8
AM_7
 10
253.0314334542591
 20
290.7307292398677
 30
0.0
 11
132.6271952500333
 21
290.7307292398677
 31
0.0
1001
GENIUS_GENODEF_13
1002
{
1000
HIER
1070
     0
1002
}
1002
{
1000
MANEDIT
1070
     0
1002
}
1002
{
1000
NOSEL
1070
     0
1002
}
1002
{
1000
BEHIND
1070
     0
1002
}
1002
{
1000
OTHER
1070
     0
1002
}
1002
{
1000
REACTOR
1002
}
1001
GENIUS_GENOBJ-N-CEN_13
1002
{
1000
OWNER
1000
GEN
1002
}
1001
GENIUS_GENCEN_19
1002
{
1040
3.0
1002
}
  0
VIEWPORT
  5
22
 67
     1
  8
0
 10
5.269134197284911
 20
5.545311567251436
 30
0.0
 40
11.13808705479925
 41
12.32365374410561
 68
     1
 69
     1
1001
GENIUS_GENSCREG_15
1000
PF
1040
1.0
1000
DF
1040
1.0
1000
MIN
1011
-0.2999093301147138
1021
-0.6165153048013714
1031
0.0
1021
-0.6165153048013714
1031
0.0
1000
MAX
1011
10.83817772468454
1021
11.70713843930424
1031
0.0
1021
11.70713843930424
1031
0.0
1000
FLAGS
1070
     4
1001
GENIUS_GENODEF_13
1002
{
1000
HIER
1070
     0
1002
}
1002
{
1000
MANEDIT
1070
     0
1002
}
1002
{
1000
NOSEL
1070
     0
1002
}
1002
{
1000
BEHIND
1070
     0
1002
}
1002
{
1000
OTHER
1070
     0
1002
}
1002
{
1000
REACTOR
1002
}
1001
GENIUS_GENOBJ-N-SDF_13
1002
{
1000
OWNER
1000
GEN
1002
}
1001
ACAD
1000
MVIEW
1002
{
1070
    16
1010
0.0
1020
0.0
1030
0.0
1020
0.0
1030
0.0
1010
0.0
1020
0.0
1030
1.0
1020
0.0
1030
1.0
1040
0.0
1040
12.32365374410561
1040
5.269134197284911
1040
5.545311567251436
1040
50.0
1040
0.0
1040
0.0
1070
     0
1070
   100
1070
     0
1070
     1
1070
     0
1070
     0
1070
     0
1070
     0
1040
0.0
1040
0.0
1040
0.0
1040
1.0
1040
1.0
1040
10.0
1040
10.0
1070
     0
1002
{
1002
}
1002
}
  0
ENDSEC
  0
EOF
