  0
SECTION
  2
HEADER
  9
$ACADVER
  1
AC1009
  9
$DWGCODEPAGE
  3
ansi_932
  9
$INSBASE
 10
0.0
 20
0.0
 30
0.0
  9
$EXTMIN
 10
11.027407943242
 20
9.520603351081618
 30
0.0
  9
$EXTMAX
 10
383.8488165042082
 20
467.600097757873
 30
0.0
  9
$LIMMIN
 10
0.0
 20
0.0
  9
$LIMMAX
 10
297.0
 20
210.0
  9
$ORTHOMODE
 70
     0
  9
$REGENMODE
 70
     1
  9
$FILLMODE
 70
     1
  9
$QTEXTMODE
 70
     0
  9
$MIRRTEXT
 70
     0
  9
$DRAGMODE
 70
     2
  9
$LTSCALE
 40
10.0
  9
$OSMODE
 70
 15359
  9
$ATTMODE
 70
     1
  9
$TEXTSIZE
 40
1.0
  9
$TRACEWID
 40
1.0
  9
$TEXTSTYLE
  7
STANDARD
  9
$CLAYER
  8
AM_7
  9
$CELTYPE
  6
BYLAYER
  9
$CECOLOR
 62
   256
  9
$DIMSCALE
 40
1.0
  9
$DIMASZ
 40
2.5
  9
$DIMEXO
 40
1.0
  9
$DIMDLI
 40
7.0
  9
$DIMRND
 40
0.0
  9
$DIMDLE
 40
0.0
  9
$DIMEXE
 40
1.0
  9
$DIMTP
 40
0.1
  9
$DIMTM
 40
0.1
  9
$DIMTXT
 40
3.0
  9
$DIMCEN
 40
0.0
  9
$DIMTSZ
 40
0.0
  9
$DIMTOL
 70
     0
  9
$DIMLIM
 70
     0
  9
$DIMTIH
 70
     0
  9
$DIMTOH
 70
     0
  9
$DIMSE1
 70
     0
  9
$DIMSE2
 70
     0
  9
$DIMTAD
 70
     3
  9
$DIMZIN
 70
     8
  9
$DIMBLK
  1
OPEN
  9
$DIMASO
 70
     1
  9
$DIMSHO
 70
     1
  9
$DIMPOST
  1

  9
$DIMAPOST
  1
"
  9
$DIMALT
 70
     0
  9
$DIMALTD
 70
     2
  9
$DIMALTF
 40
0.0393701
  9
$DIMLFAC
 40
1.0
  9
$DIMTOFL
 70
     1
  9
$DIMTVP
 40
0.0
  9
$DIMTIX
 70
     0
  9
$DIMSOXD
 70
     0
  9
$DIMSAH
 70
     0
  9
$DIMBLK1
  1

  9
$DIMBLK2
  1

  9
$DIMSTYLE
  2
AM_JIS
  9
$DIMCLRD
 70
   256
  9
$DIMCLRE
 70
   256
  9
$DIMCLRT
 70
     2
  9
$DIMTFAC
 40
0.71
  9
$DIMGAP
 40
1.0
  9
$LUNITS
 70
     2
  9
$LUPREC
 70
     2
  9
$SKETCHINC
 40
1.0
  9
$FILLETRAD
 40
2.5
  9
$AUNITS
 70
     0
  9
$AUPREC
 70
     0
  9
$MENU
  1
.
  9
$ELEVATION
 40
0.0
  9
$PELEVATION
 40
0.0
  9
$THICKNESS
 40
0.0
  9
$LIMCHECK
 70
     0
  9
$CHAMFERA
 40
2.5
  9
$CHAMFERB
 40
2.5
  9
$SKPOLY
 70
     1
  9
$TDCREATE
 40
2457290.694702847
  9
$TDUPDATE
 40
2460210.727395486
  9
$TDINDWG
 40
0.098393287
  9
$TDUSRTIMER
 40
0.0983887037
  9
$USRTIMER
 70
     1
  9
$ANGBASE
 50
0.0
  9
$ANGDIR
 70
     0
  9
$PDMODE
 70
     0
  9
$PDSIZE
 40
0.0
  9
$PLINEWID
 40
0.0
  9
$COORDS
 70
     2
  9
$SPLFRAME
 70
     0
  9
$SPLINETYPE
 70
     6
  9
$SPLINESEGS
 70
     8
  9
$ATTDIA
 70
     1
  9
$ATTREQ
 70
     1
  9
$HANDLING
 70
     1
  9
$HANDSEED
  5
258A
  9
$SURFTAB1
 70
     6
  9
$SURFTAB2
 70
     6
  9
$SURFTYPE
 70
     6
  9
$SURFU
 70
     6
  9
$SURFV
 70
     6
  9
$UCSNAME
  2

  9
$UCSORG
 10
0.0
 20
0.0
 30
0.0
  9
$UCSXDIR
 10
1.0
 20
0.0
 30
0.0
  9
$UCSYDIR
 10
0.0
 20
1.0
 30
0.0
  9
$PUCSNAME
  2

  9
$PUCSORG
 10
0.0
 20
0.0
 30
0.0
  9
$PUCSXDIR
 10
1.0
 20
0.0
 30
0.0
  9
$PUCSYDIR
 10
0.0
 20
1.0
 30
0.0
  9
$USERI1
 70
     0
  9
$USERI2
 70
     0
  9
$USERI3
 70
     0
  9
$USERI4
 70
     0
  9
$USERI5
 70
     0
  9
$USERR1
 40
0.0
  9
$USERR2
 40
0.0
  9
$USERR3
 40
0.0
  9
$USERR4
 40
0.0
  9
$USERR5
 40
0.0
  9
$WORLDVIEW
 70
     1
  9
$SHADEDGE
 70
     3
  9
$SHADEDIF
 70
    70
  9
$TILEMODE
 70
     1
  9
$MAXACTVP
 70
    48
  9
$PLIMCHECK
 70
     0
  9
$PEXTMIN
 10
1.000000000000000E+20
 20
1.000000000000000E+20
 30
1.000000000000000E+20
  9
$PEXTMAX
 10
-1.000000000000000E+20
 20
-1.000000000000000E+20
 30
-1.000000000000000E+20
  9
$PLIMMIN
 10
-0.2500002402958907
 20
-0.2499999962453767
  9
$PLIMMAX
 10
10.74999951940822
 20
8.249999763458732
  9
$UNITMODE
 70
     0
  9
$VISRETAIN
 70
     1
  9
$PLINEGEN
 70
     0
  9
$PSLTSCALE
 70
     1
  0
ENDSEC
  0
SECTION
  2
TABLES
  0
TABLE
  2
VPORT
 70
     1
  0
VPORT
  2
*ACTIVE
 70
     0
 10
0.0
 20
0.0
 11
1.0
 21
1.0
 12
361.0657106120739
 22
223.6180502947532
 13
0.0
 23
0.0
 14
2.5
 24
2.5
 15
10.0
 25
10.0
 16
0.0
 26
0.0
 36
1.0
 17
0.0
 27
0.0
 37
0.0
 40
815.4327691257151
 41
2.295429208472687
 42
50.0
 43
0.0
 44
0.0
 50
0.0
 51
0.0
 71
     0
 72
   100
 73
     1
 74
     3
 75
     0
 76
     0
 77
     0
 78
     0
  0
ENDTAB
  0
TABLE
  2
LTYPE
 70
    26
  0
LTYPE
  2
CONTINUOUS
 70
     0
  3
Solid line
 72
    65
 73
     0
 40
0.0
  0
LTYPE
  2
PHANTOM2
 70
     0
  3
___ _ _ ___ _ _ ___ _ _ ___ _ _ ___ _ _ ___ _ _
 72
    65
 73
     6
 40
1.25
 49
0.625
 49
-0.125
 49
0.125
 49
-0.125
 49
0.125
 49
-0.125
  0
LTYPE
  2
CENTER
 70
     0
  3
____ _ ____ _ ____ _ ____ _ ____ _ ____ _ ____ 
 72
    65
 73
     4
 40
2.0
 49
1.25
 49
-0.25
 49
0.25
 49
-0.25
  0
LTYPE
  2
ACJISTGB
 70
     0
  3
__ . . __ . .
 72
    65
 73
     6
 40
9.0
 49
4.0
 49
-1.0
 49
1.0
 49
-1.0
 49
1.0
 49
-1.0
  0
LTYPE
  2
ACJISTGL
 70
     0
  3
_ _ _ _ _
 72
    65
 73
     2
 40
3.0
 49
2.0
 49
-1.0
  0
LTYPE
  2
ACISOWELD
 70
     0
  3
_ _ _ _ _
 72
    65
 73
     2
 40
2.0
 49
2.0
 49
-1.0
  0
LTYPE
  2
ACISOTGB
 70
     0
  3
__ . . __ . .
 72
    65
 73
     6
 40
9.0
 49
4.0
 49
-1.0
 49
1.0
 49
-1.0
 49
1.0
 49
-1.0
  0
LTYPE
  2
ACISOTGL
 70
     0
  3
_ _ _ _ _
 72
    65
 73
     2
 40
3.0
 49
2.0
 49
-1.0
  0
LTYPE
  2
AM_ISO02W050
 70
     0
  3
__ __ __ __ __ __ __ __ __ __ __ __ __ __ __
 72
    65
 73
     2
 40
7.5
 49
6.0
 49
-1.5
  0
LTYPE
  2
AM_ISO08W050
 70
     0
  3
____ . ____ . ____ . ____ . ____ . ____ . ____
 72
    65
 73
     4
 40
18.0
 49
12.0
 49
-1.5
 49
3.0
 49
-1.5
  0
LTYPE
  2
AM_ISO09W050
 70
     0
  3
_____ . . _____ . . _____ . . ____ .. ____
 72
    65
 73
     6
 40
22.5
 49
12.0
 49
-1.5
 49
3.0
 49
-1.5
 49
3.0
 49
-1.5
  0
LTYPE
  2
AM_ISO02W050X2
 70
     0
  3
 _ _ _ _ _ _ _ _ _ _ _ _
 72
    65
 73
     2
 40
3.75
 49
3.0
 49
-0.75
  0
LTYPE
  2
AM_ISO08W050X2
 70
     0
  3
__ . __ . __ . __ . __ . __
 72
    65
 73
     4
 40
9.0
 49
6.0
 49
-0.75
 49
1.5
 49
-0.75
  0
LTYPE
  2
AMZIGZAG
 70
     0
  3
/\/-/\/-/\/-/\/-/\/-/\/
 72
    65
 73
     2
 40
11.0001
 49
0.0001
 49
-11.0
  0
LTYPE
  2
AMCONSTR
 70
     0
  3
_______________________
 72
    65
 73
     2
 40
9999.0
 49
9999.0
 49
0.0
  0
LTYPE
  2
CENTER2
 70
     0
  3
Center (.5x) ___ _ ___ _ ___ _ ___ _ ___ _ ___
 72
    65
 73
     4
 40
1.125
 49
0.75
 49
-0.125
 49
0.125
 49
-0.125
  0
LTYPE
  2
HIDDEN2
 70
     0
  3
Hidden (.5x) _ _ _ _ _ _ _ _ _ _ _ _ _ _ _ _ _
 72
    65
 73
     2
 40
0.1875
 49
0.125
 49
-0.0625
  0
LTYPE
  2
ACANSTGBM
 70
     0
  3
__ . . __ . .
 72
    65
 73
     6
 40
9.0
 49
4.0
 49
-1.0
 49
1.0
 49
-1.0
 49
1.0
 49
-1.0
  0
LTYPE
  2
ACANSTGLM
 70
     0
  3
_ _ _ _ _
 72
    65
 73
     2
 40
3.0
 49
2.0
 49
-1.0
  0
LTYPE
  2
ACJISWELD
 70
     0
  3
_ _ _ _ _
 72
    65
 73
     2
 40
2.0
 49
2.0
 49
-1.0
  0
LTYPE
  2
GEN3
 70
     0
  3
-- -- -- -- -- -- -- -- -- -- -- -- -- -- --
 72
    65
 73
     2
 40
6.25
 49
4.75
 49
-1.5
  0
LTYPE
  2
GEN7
 70
     0
  3
____ . ____ . ____ . ____ . ____ . ____ . ____
 72
    65
 73
     4
 40
13.75
 49
9.75
 49
-1.5
 49
1.0
 49
-1.5
  0
LTYPE
  2
GEN3A
 70
     0
  3
 - - - - -
 72
    65
 73
     2
 40
3.125
 49
2.25
 49
-0.875
  0
LTYPE
  2
GEN7A
 70
     0
  3
__ . __ . __
 72
    65
 73
     4
 40
6.875
 49
4.75
 49
-0.875
 49
0.375
 49
-0.875
  0
LTYPE
  2
GEN4A
 70
     0
  3
_____ . . _____ . . _____ . . ____ .. ____
 72
    65
 73
     6
 40
16.25
 49
9.75
 49
-1.5
 49
1.0
 49
-1.5
 49
1.0
 49
-1.5
  0
LTYPE
  2
GENZIGZAG
 70
     0
  3
/\/-/\/-/\/-/\/-/\/-/\/
 72
    65
 73
     2
 40
12.0001
 49
0.0001
 49
-12.0
  0
ENDTAB
  0
TABLE
  2
LAYER
 70
     5
  0
LAYER
  2
0
 70
     0
 62
     7
  6
CONTINUOUS
  0
LAYER
  2
AM_7
 70
     0
 62
     4
  6
CENTER2
  0
LAYER
  2
10
 70
     0
 62
     2
  6
CONTINUOUS
  0
LAYER
  2
DEFPOINTS
 70
     0
 62
     7
  6
CONTINUOUS
  0
LAYER
  2
AM_0
 70
     0
 62
     7
  6
CONTINUOUS
  0
ENDTAB
  0
TABLE
  2
STYLE
 70
     9
  0
STYLE
  2
STANDARD
 70
     0
 40
0.0
 41
1.0
 50
0.0
 71
     0
 42
1.0
  3
ISOCP.SHX
  4
EXTFONT.SHX
  0
STYLE
  2
ACJISTS
 70
     0
 40
1.0
 41
1.0
 50
0.0
 71
     0
 42
3.5
  3
isocp.shx
  4
extfont.shx
  0
STYLE
  2
ACJISGDT
 70
     0
 40
0.0
 41
1.0
 50
0.0
 71
     0
 42
3.5
  3
amgdt.shx
  4
extfont.shx
  0
STYLE
  2
ACANSGDT
 70
     0
 40
0.0
 41
1.0
 50
0.0
 71
     0
 42
3.5
  3
amgdt.shx
  4
extfont.shx
  0
STYLE
  2
ACISOTS
 70
     0
 40
1.0
 41
1.0
 50
0.0
 71
     0
 42
1.0
  3
isocp.shx
  4
extfont.shx
  0
STYLE
  2
ACISOGDT
 70
     0
 40
0.0
 41
1.0
 50
0.0
 71
     0
 42
3.5
  3
amgdt.shx
  4
extfont.shx
  0
STYLE
  2

 70
     1
 40
0.0
 41
1.0
 50
0.0
 71
     0
 42
3.5
  3
ltypeshp.shx
  4

  0
STYLE
  2
ACANSTS
 70
     0
 40
1.0
 41
1.0
 50
0.0
 71
     0
 42
3.5
  3
romans.shx
  4
extfont.shx
  0
STYLE
  2

 70
     1
 40
0.0
 41
1.0
 50
0.0
 71
     0
 42
15.0
  3
genltshp.shx
  4

  0
ENDTAB
  0
TABLE
  2
VIEW
 70
     3
  0
VIEW
  2
AMDTVIEW1
 70
     0
 40
329.0721649484536
 10
210.0
 20
164.5360824742268
 41
420.0
 11
0.0
 21
0.0
 31
1.0
 12
0.0
 22
0.0
 32
0.0
 42
50.0
 43
0.0
 44
0.0
 50
0.0
 71
     0
  0
VIEW
  2
AMDTVIEW2
 70
     0
 40
329.0721649484536
 10
210.0
 20
164.5360824742268
 41
420.0
 11
0.0
 21
0.0
 31
1.0
 12
0.0
 22
0.0
 32
0.0
 42
50.0
 43
0.0
 44
0.0
 50
0.0
 71
     0
  0
VIEW
  2
AMDTVIEW3
 70
     0
 40
329.0721649484536
 10
210.0
 20
164.5360824742268
 41
420.0
 11
0.0
 21
0.0
 31
1.0
 12
0.0
 22
0.0
 32
0.0
 42
50.0
 43
0.0
 44
0.0
 50
0.0
 71
     0
  0
ENDTAB
  0
TABLE
  2
UCS
 70
     0
  0
ENDTAB
  0
TABLE
  2
APPID
 70
    72
  0
APPID
  2
ACAD
 70
     0
  0
APPID
  2
AD_DRAW
 70
     0
  0
APPID
  2
DESIGNERASSEMBLIES
 70
     0
  0
APPID
  2
MCAD_NO_VIS
 70
     0
  0
APPID
  2
ASURF_PCURVE_APPNAME
 70
     0
  0
APPID
  2
ACAD_TEMP_GRAPHIC
 70
     0
  0
APPID
  2
ACATTRIBSERVICES
 70
     0
  0
APPID
  2
ACADM_DIM_EDIT
 70
     0
  0
APPID
  2
GENIUS_GENDIM_13
 70
     0
  0
APPID
  2
GENIUS_GENDTOL_13
 70
     0
  0
APPID
  2
GENIUS_GE3DTOL_13
 70
     0
  0
APPID
  2
AMG_3D2D_5_0
 70
     0
  0
APPID
  2
AMDT_DM_ADJ
 70
     0
  0
APPID
  2
ACAD_PSEXT
 70
     0
  0
APPID
  2
ACAD_DSTYLE_DIMTEXT_FILL
 70
     0
  0
APPID
  2
ACAECLAYERSTANDARD
 70
     0
  0
APPID
  2
GENIUS_GENREC_14
 70
     0
  0
APPID
  2
GENIUS_GENODEF_13
 70
     0
  0
APPID
  2
GENIUS_GENOBJ-N-REC_13
 70
     0
  0
APPID
  2
DCO15
 70
     0
  0
APPID
  2
ACAD_DSTYLE_DIMJAG
 70
     0
  0
APPID
  2
ACAD_DSTYLE_DIMTALN
 70
     0
  0
APPID
  2
ACAD_MLEADERVER
 70
     0
  0
APPID
  2
GENIUS_GENSCREG_15
 70
     0
  0
APPID
  2
GENIUS_GENOBJ-N-SDF_13
 70
     0
  0
APPID
  2
ACAD_NAV_VCDISPLAY
 70
     0
  0
APPID
  2
ACCMTRANSPARENCY
 70
     0
  0
APPID
  2
ACAD_EXEMPT_FROM_CAD_STAND
 70
     0
  0
APPID
  2
ACAD_DSTYLE_DIMINSPECT
 70
     0
  0
APPID
  2
GENIUS_GENFIL_13
 70
     0
  0
APPID
  2
GENIUS_GENOBJ-N-FIL_13
 70
     0
  0
APPID
  2
GENIUS_GENOBJ-N-CHA_13
 70
     0
  0
APPID
  2
GENIUS_GENOENT_13
 70
     0
  0
APPID
  2
GENIUS_GENHINW_13
 70
     0
  0
APPID
  2
GENIUS_FIRSTVISTXT_14
 70
     0
  0
APPID
  2
GENIUS_GENOBJ-N-LEADER_13
 70
     0
  0
APPID
  2
GENIUS_GENOREF_13
 70
     0
  0
APPID
  2
GENIUS_GENOLIS_13
 70
     0
  0
APPID
  2
GRPNAME
 70
     0
  0
APPID
  2
GENIUS_GENOBJ-N-CEN_13
 70
     0
  0
APPID
  2
GENIUS_GENOBJ-N-HTC_13
 70
     0
  0
APPID
  2
GENIUS_GENHATCH_13
 70
     0
  0
APPID
  2
GENIUS_GENCEN_19
 70
     0
  0
APPID
  2
GRADIENTCOLOR1ACI
 70
     0
  0
APPID
  2
GRADIENTCOLOR2ACI
 70
     0
  0
APPID
  2
GENIUS_GENDREL_13
 70
     0
  0
APPID
  2
HC_SUPERPART
 70
     0
  0
APPID
  2
HC_SP4BLOCK
 70
     0
  0
APPID
  2
HC_XDATA_SPRING
 70
     0
  0
APPID
  2
HCCAD_FRAME
 70
     0
  0
APPID
  2
GENIUS_GENOBJ-N-TIT_13
 70
     0
  0
APPID
  2
GENIUS_GENOBJ-N-ZOO_13
 70
     0
  0
APPID
  2
GENIUS_GENTITLE_13
 70
     0
  0
APPID
  2
GENIUS_GENSYMENT_13
 70
     0
  0
APPID
  2
GENIUS_GENSCSYM_13
 70
     0
  0
APPID
  2
GENIUS_GENOBJ-N-REV_13
 70
     0
  0
APPID
  2
GENIUS_GENOBJ-N-RSSYM_13
 70
     0
  0
APPID
  2
GENIUS_GENREV_15
 70
     0
  0
APPID
  2
HRA
 70
     0
  0
APPID
  2
HTIT
 70
     0
  0
APPID
  2
GENIUS_GENZOO_17
 70
     0
  0
APPID
  2
GENIUS_GENOBJ-N-CRS_13
 70
     0
  0
APPID
  2
GENIUS_GENCRS_20
 70
     0
  0
APPID
  2
GENIUS_GENOBJ-N-CRC_13
 70
     0
  0
APPID
  2
GENIUS_GENCRC_14
 70
     0
  0
APPID
  2
GENIUS_GENOBJ-N-DIM_13
 70
     0
  0
APPID
  2
GENIUS_GENOBJ-N-DIMLI_13
 70
     0
  0
APPID
  2
GENIUS_GENOBJ-N-FITL_13
 70
     0
  0
APPID
  2
GENIUS_GENFITL_13
 70
     0
  0
APPID
  2
GENLAYCOLOR
 70
     0
  0
APPID
  2
ACADANNOTATIVE
 70
     0
  0
APPID
  2
PLOTTRANSPARENCY
 70
     0
  0
ENDTAB
  0
TABLE
  2
DIMSTYLE
 70
    24
  0
DIMSTYLE
  2
STANDARD
 70
     0
  3

  4

  5

  6

  7

 40
1.0
 41
2.5
 42
0.625
 43
3.75
 44
1.25
 45
0.0
 46
0.0
 47
0.0
 48
0.0
140
2.5
141
2.5
142
0.0
143
0.0394
144
1.0
145
0.0
146
1.0
147
0.625
 71
     0
 72
     0
 73
     0
 74
     0
 75
     0
 76
     0
 77
     1
 78
     8
170
     0
171
     4
172
     1
173
     0
174
     0
175
     0
176
     0
177
     0
178
     0
  0
DIMSTYLE
  2
AM_JIS
 70
     0
  3

  4
"
  5
OPEN
  6

  7

 40
1.0
 41
2.5
 42
1.0
 43
7.0
 44
1.0
 45
0.0
 46
0.0
 47
0.1
 48
0.1
140
3.0
141
0.0
142
0.0
143
0.0393701
144
1.0
145
0.0
146
0.71
147
1.0
 71
     0
 72
     0
 73
     0
 74
     0
 75
     0
 76
     0
 77
     3
 78
     8
170
     0
171
     2
172
     1
173
     0
174
     0
175
     0
176
   256
177
   256
178
     2
  0
DIMSTYLE
  2
AM_JIS$3
 70
     0
  3

  4
"
  5
OPEN
  6

  7

 40
1.0
 41
2.5
 42
1.0
 43
10.0
 44
1.0
 45
0.0
 46
0.0
 47
0.1
 48
0.1
140
3.0
141
0.0
142
0.0
143
0.0393701
144
1.0
145
0.0
146
0.71
147
1.0
 71
     0
 72
     0
 73
     0
 74
     0
 75
     0
 76
     0
 77
     3
 78
     8
170
     0
171
     2
172
     1
173
     0
174
     0
175
     0
176
   256
177
   256
178
     2
  0
DIMSTYLE
  2
AM_JIS$4
 70
     0
  3

  4
"
  5

  6
OPEN30
  7
OPEN
 40
1.0
 41
2.5
 42
1.0
 43
10.0
 44
1.0
 45
0.0
 46
0.0
 47
0.1
 48
0.1
140
3.0
141
0.0
142
0.0
143
0.0393701
144
1.0
145
0.0
146
0.71
147
1.0
 71
     0
 72
     0
 73
     0
 74
     0
 75
     0
 76
     0
 77
     3
 78
     8
170
     0
171
     2
172
     1
173
     1
174
     0
175
     0
176
   256
177
   256
178
     2
  0
DIMSTYLE
  2
AM_JIS$6
 70
     0
  3

  4
"
  5
OPEN30
  6
OPEN30
  7
OPEN30
 40
1.0
 41
2.5
 42
1.0
 43
10.0
 44
1.0
 45
0.0
 46
0.0
 47
0.1
 48
0.1
140
3.5
141
0.0
142
0.0
143
0.0393701
144
1.0
145
0.0
146
0.71
147
1.5
 71
     0
 72
     0
 73
     0
 74
     0
 75
     0
 76
     0
 77
     0
 78
     8
170
     0
171
     2
172
     1
173
     0
174
     0
175
     0
176
   256
177
   256
178
     2
  0
DIMSTYLE
  2
AM_JIS$7
 70
     0
  3

  4
"
  5
OPEN30
  6

  7

 40
1.0
 41
2.5
 42
1.0
 43
10.0
 44
1.0
 45
0.0
 46
0.0
 47
0.1
 48
0.1
140
3.0
141
0.0
142
0.0
143
0.0393701
144
1.0
145
0.0
146
0.71
147
1.0
 71
     0
 72
     0
 73
     0
 74
     0
 75
     0
 76
     0
 77
     3
 78
     8
170
     0
171
     2
172
     1
173
     0
174
     0
175
     0
176
   256
177
   256
178
     2
  0
DIMSTYLE
  2
AM_JIS$SF
 70
     0
  3

  4
"
  5
OPEN
  6

  7

 40
1.0
 41
2.5
 42
1.0
 43
7.0
 44
1.0
 45
0.0
 46
0.0
 47
0.1
 48
0.1
140
3.5
141
0.0
142
0.0
143
0.0393701
144
1.0
145
0.0
146
0.71
147
1.5
 71
     0
 72
     0
 73
     0
 74
     0
 75
     1
 76
     1
 77
     3
 78
     8
170
     0
171
     2
172
     1
173
     0
174
     0
175
     0
176
   256
177
   256
178
     2
  0
DIMSTYLE
  2
AM_JIS$SH
 70
     0
  3

  4
"
  5

  6
GENAXEH
  7
OPEN
 40
1.0
 41
2.5
 42
1.0
 43
7.0
 44
1.0
 45
0.0
 46
0.0
 47
0.1
 48
0.1
140
3.5
141
0.0
142
0.0
143
0.0393701
144
2.0
145
0.0
146
0.71
147
1.5
 71
     0
 72
     0
 73
     0
 74
     0
 75
     1
 76
     1
 77
     3
 78
     8
170
     0
171
     2
172
     1
173
     1
174
     0
175
     0
176
   256
177
   256
178
     2
  0
DIMSTYLE
  2
AM_ISO
 70
     0
  3

  4
"
  5

  6

  7

 40
1.0
 41
2.5
 42
1.0
 43
10.0
 44
1.0
 45
0.0
 46
0.0
 47
0.1
 48
0.1
140
3.5
141
0.0
142
0.0
143
0.0393701
144
1.0
145
0.0
146
0.71
147
1.5
 71
     0
 72
     0
 73
     0
 74
     0
 75
     0
 76
     0
 77
     1
 78
     8
170
     0
171
     2
172
     1
173
     0
174
     0
175
     0
176
   256
177
   256
178
     2
  0
DIMSTYLE
  2
AM_ISO$3
 70
     0
  3

  4
"
  5

  6

  7

 40
1.0
 41
2.5
 42
1.0
 43
10.0
 44
1.0
 45
0.0
 46
0.0
 47
0.1
 48
0.1
140
3.5
141
0.0
142
0.0
143
0.0393701
144
1.0
145
0.0
146
0.71
147
1.5
 71
     0
 72
     0
 73
     0
 74
     1
 75
     0
 76
     0
 77
     1
 78
     8
170
     0
171
     2
172
     0
173
     0
174
     0
175
     0
176
   256
177
   256
178
     2
  0
DIMSTYLE
  2
AM_ISO$4
 70
     0
  3

  4
"
  5

  6

  7

 40
1.0
 41
2.5
 42
1.0
 43
10.0
 44
1.0
 45
0.0
 46
0.0
 47
0.1
 48
0.1
140
3.5
141
0.0
142
0.0
143
0.0393701
144
1.0
145
0.0
146
0.71
147
1.5
 71
     0
 72
     0
 73
     0
 74
     1
 75
     0
 76
     0
 77
     1
 78
     8
170
     0
171
     2
172
     0
173
     0
174
     0
175
     0
176
   256
177
   256
178
     2
  0
DIMSTYLE
  2
AM_ISO$6
 70
     0
  3

  4
"
  5

  6

  7

 40
1.0
 41
2.5
 42
1.0
 43
10.0
 44
1.0
 45
0.0
 46
0.0
 47
0.1
 48
0.1
140
3.5
141
0.0
142
0.0
143
0.0393701
144
1.0
145
0.0
146
0.71
147
1.5
 71
     0
 72
     0
 73
     0
 74
     0
 75
     0
 76
     0
 77
     0
 78
     8
170
     0
171
     2
172
     1
173
     0
174
     0
175
     0
176
   256
177
   256
178
     2
  0
DIMSTYLE
  2
AM_ISO$7
 70
     0
  3

  4
"
  5

  6

  7

 40
1.0
 41
2.5
 42
1.0
 43
10.0
 44
1.0
 45
0.0
 46
0.0
 47
0.1
 48
0.1
140
5.0
141
0.0
142
0.0
143
0.0393701
144
1.0
145
0.0
146
0.71
147
1.5
 71
     0
 72
     0
 73
     0
 74
     0
 75
     0
 76
     0
 77
     1
 78
     8
170
     0
171
     2
172
     1
173
     0
174
     0
175
     0
176
   256
177
   256
178
     2
  0
DIMSTYLE
  2
AM_ISO$SF
 70
     0
  3

  4
"
  5

  6

  7

 40
1.0
 41
2.5
 42
1.0
 43
10.0
 44
1.0
 45
0.0
 46
0.0
 47
0.1
 48
0.1
140
3.5
141
0.0
142
0.0
143
0.0393701
144
1.0
145
0.0
146
0.71
147
1.5
 71
     0
 72
     0
 73
     0
 74
     0
 75
     1
 76
     1
 77
     1
 78
     8
170
     0
171
     2
172
     1
173
     0
174
     0
175
     0
176
   256
177
   256
178
     2
  0
DIMSTYLE
  2
AM_ISO$SH
 70
     0
  3

  4
"
  5

  6
GENAXEH
  7

 40
1.0
 41
2.5
 42
1.0
 43
10.0
 44
1.0
 45
0.0
 46
0.0
 47
0.1
 48
0.1
140
3.5
141
0.0
142
0.0
143
0.0393701
144
2.0
145
0.0
146
0.71
147
1.5
 71
     0
 72
     0
 73
     0
 74
     0
 75
     1
 76
     1
 77
     1
 78
     8
170
     0
171
     2
172
     1
173
     1
174
     0
175
     0
176
   256
177
   256
178
     2
  0
DIMSTYLE
  2
AM_JIS$2
 70
     0
  3

  4
"
  5
OPEN
  6

  7

 40
1.0
 41
2.5
 42
1.0
 43
7.0
 44
1.0
 45
0.0
 46
0.0
 47
0.1
 48
0.1
140
3.0
141
0.0
142
0.0
143
0.0393701
144
1.0
145
0.0
146
0.71
147
1.0
 71
     0
 72
     0
 73
     0
 74
     0
 75
     0
 76
     0
 77
     3
 78
     8
170
     0
171
     2
172
     1
173
     0
174
     0
175
     0
176
   256
177
   256
178
     2
  0
DIMSTYLE
  2
AM_JIS$0
 70
     0
  3

  4
"
  5
OPEN
  6

  7

 40
1.0
 41
2.5
 42
1.0
 43
7.0
 44
1.0
 45
0.0
 46
0.0
 47
0.1
 48
0.1
140
3.0
141
0.0
142
0.0
143
0.0393701
144
1.0
145
0.0
146
0.71
147
1.0
 71
     0
 72
     0
 73
     0
 74
     0
 75
     0
 76
     0
 77
     3
 78
     8
170
     0
171
     2
172
     1
173
     0
174
     0
175
     0
176
   256
177
   256
178
     2
  0
DIMSTYLE
  2
GEN-ANSI
 70
     0
  3
<>
  4
"
  5

  6
OPEN
  7
OPEN
 40
1.0
 41
2.5
 42
1.0
 43
10.0
 44
1.0
 45
0.0
 46
0.0
 47
0.1
 48
0.1
140
10.0
141
0.0
142
0.0
143
0.0393701
144
1.0
145
0.0
146
0.71
147
1.0
 71
     0
 72
     0
 73
     1
 74
     1
 75
     0
 76
     0
 77
     0
 78
     8
170
     0
171
     2
172
     1
173
     1
174
     0
175
     0
176
   256
177
   256
178
     2
  0
DIMSTYLE
  2
GEN-ANSI$3
 70
     0
  3
<>
  4
"
  5

  6
OPEN
  7
OPEN
 40
1.0
 41
2.5
 42
1.0
 43
10.0
 44
1.0
 45
0.0
 46
0.0
 47
0.1
 48
0.1
140
10.0
141
0.0
142
0.0
143
0.0393701
144
1.0
145
0.0
146
0.71
147
1.0
 71
     0
 72
     0
 73
     1
 74
     1
 75
     0
 76
     0
 77
     0
 78
     8
170
     0
171
     2
172
     0
173
     1
174
     0
175
     0
176
   256
177
   256
178
     2
  0
DIMSTYLE
  2
GEN-ANSI$4
 70
     0
  3
<>
  4
"
  5

  6
OPEN
  7
OPEN
 40
1.0
 41
2.5
 42
1.0
 43
10.0
 44
1.0
 45
0.0
 46
0.0
 47
0.1
 48
0.1
140
10.0
141
0.0
142
0.0
143
0.0393701
144
1.0
145
0.0
146
0.71
147
1.0
 71
     0
 72
     0
 73
     1
 74
     1
 75
     0
 76
     0
 77
     0
 78
     8
170
     0
171
     2
172
     0
173
     1
174
     0
175
     0
176
   256
177
   256
178
     2
  0
DIMSTYLE
  2
GEN-ANSI$6
 70
     0
  3
<>
  4
"
  5

  6
OPEN
  7
OPEN
 40
1.0
 41
2.5
 42
1.0
 43
10.0
 44
1.0
 45
0.0
 46
0.0
 47
0.1
 48
0.1
140
10.0
141
0.0
142
0.0
143
0.0393701
144
1.0
145
0.0
146
0.71
147
1.0
 71
     0
 72
     0
 73
     1
 74
     1
 75
     0
 76
     0
 77
     0
 78
     8
170
     0
171
     2
172
     1
173
     1
174
     0
175
     0
176
   256
177
   256
178
     2
  0
DIMSTYLE
  2
GEN-ANSI-POS
 70
     0
  3
<>
  4
"
  5

  6
OPEN
  7
OPEN
 40
1.0
 41
2.5
 42
1.0
 43
10.0
 44
1.0
 45
0.0
 46
0.0
 47
0.1
 48
0.1
140
5.0
141
0.0
142
0.0
143
0.0393701
144
1.0
145
0.0
146
0.71
147
1.5
 71
     0
 72
     0
 73
     0
 74
     0
 75
     0
 76
     0
 77
     0
 78
     8
170
     0
171
     2
172
     1
173
     1
174
     0
175
     0
176
   256
177
   256
178
     2
  0
DIMSTYLE
  2
GEN-ANSI-AXE-F
 70
     0
  3
<>
  4
"
  5

  6
GENAXEH
  7
OPEN
 40
1.0
 41
2.5
 42
1.0
 43
10.0
 44
1.0
 45
0.0
 46
0.0
 47
0.1
 48
0.1
140
10.0
141
0.0
142
0.0
143
0.0393701
144
1.0
145
0.0
146
0.71
147
1.0
 71
     0
 72
     0
 73
     1
 74
     1
 75
     1
 76
     1
 77
     0
 78
     8
170
     0
171
     2
172
     1
173
     1
174
     0
175
     0
176
   256
177
   256
178
     2
  0
DIMSTYLE
  2
GEN-ANSI-AXE-H
 70
     0
  3
<>
  4
"
  5

  6
GENAXEH
  7
OPEN
 40
1.0
 41
2.5
 42
1.0
 43
10.0
 44
1.0
 45
0.0
 46
0.0
 47
0.1
 48
0.1
140
10.0
141
0.0
142
0.0
143
0.0393701
144
2.0
145
0.0
146
0.71
147
1.0
 71
     0
 72
     0
 73
     0
 74
     0
 75
     1
 76
     1
 77
     0
 78
     8
170
     0
171
     2
172
     1
173
     1
174
     0
175
     0
176
   256
177
   256
178
     2
  0
ENDTAB
  0
ENDSEC
  0
SECTION
  2
BLOCKS
  0
BLOCK
  8
0
  2
$MODEL_SPACE
 70
     0
 10
0.0
 20
0.0
 30
0.0
  3
$MODEL_SPACE
  1

  0
ENDBLK
  5
1C
  8
0
  0
BLOCK
 67
     1
  8
0
  2
$PAPER_SPACE
 70
     0
 10
0.0
 20
0.0
 30
0.0
  3
$PAPER_SPACE
  1

  0
ENDBLK
  5
19
 67
     1
  8
0
  0
BLOCK
  8
0
  2
_OPEN30
 70
     0
 10
0.0
 20
0.0
 30
0.0
  3
_OPEN30
  1

  0
LINE
  5
2EF
  8
0
  6
BYBLOCK
 62
     0
 10
-1.0
 20
0.26794919
 30
0.0
 11
0.0
 21
0.0
 31
0.0
  0
LINE
  5
2F0
  8
0
  6
BYBLOCK
 62
     0
 10
0.0
 20
0.0
 30
0.0
 11
-1.0
 21
-0.26794919
 31
0.0
  0
LINE
  5
2F1
  8
0
  6
BYBLOCK
 62
     0
 10
0.0
 20
0.0
 30
0.0
 11
-1.0
 21
0.0
 31
0.0
  0
ENDBLK
  5
2F3
  8
0
  0
BLOCK
  8
0
  2
GENAXEH
 70
     0
 10
0.0
 20
0.0
 30
0.0
  3
GENAXEH
  1

  0
LINE
  5
2F5
  8
0
 10
-1.0
 20
0.0
 30
0.0
 11
1.0
 21
0.0
 31
0.0
  0
ENDBLK
  5
2F7
  8
0
  0
BLOCK
  8
0
  2
_OPEN
 70
     0
 10
0.0
 20
0.0
 30
0.0
  3
_OPEN
  1

  0
LINE
  5
597
  8
0
  6
BYBLOCK
 62
     0
 10
-1.0
 20
0.1666666666666667
 30
0.0
 11
0.0
 21
0.0
 31
0.0
  0
LINE
  5
598
  8
0
  6
BYBLOCK
 62
     0
 10
-1.0
 20
-0.1666666666666667
 30
0.0
 11
0.0
 21
0.0
 31
0.0
  0
LINE
  5
599
  8
0
  6
BYBLOCK
 62
     0
 10
0.0
 20
0.0
 30
0.0
 11
-1.0
 21
0.0
 31
0.0
  0
ENDBLK
  5
59B
  8
0
  0
BLOCK
  8
0
  2
_TAGCIRCLE
 70
     2
 10
0.0
 20
0.0
 30
0.0
  3
_TAGCIRCLE
  1

  0
CIRCLE
  5
1151
  8
0
  6
BYBLOCK
 62
     0
 10
0.0
 20
0.0
 30
0.0
 40
4.0
  0
ATTDEF
  5
1152
  8
0
 62
     0
 10
-7.1
 20
-1.5
 30
0.0
 40
3.0
  1
タグ番号
 72
     1
 11
0.0
 21
-1.5
 31
0.0
  3
タグ番号を入力
  2
タグ番号
 70
     0
  0
ENDBLK
  5
1154
  8
0
  0
BLOCK
  8
AM_7
  2
_ACMFILLED
 70
     0
 10
0.0
 20
0.0
 30
0.0
  3
_ACMFILLED
  1
Acad:XRef
  0
TRACE
  5
23F5
  8
AM_0
 62
     0
 10
-1.0
 20
0.1666666666666667
 30
0.0
 11
-1.0
 21
-0.1666666666666667
 31
0.0
 12
0.0
 22
0.0
 32
0.0
 13
0.0
 23
0.0
 33
0.0
  0
ENDBLK
  5
23F3
  8
AM_7
  0
BLOCK
  8
AM_7
  2
_ACMFILLED15
 70
     0
 10
0.0
 20
0.0
 30
0.0
  3
_ACMFILLED15
  1
Acad:XRef
  0
TRACE
  5
23FE
  8
AM_0
 62
     0
 10
-1.0
 20
0.1316524975873958
 30
0.0
 11
-1.0
 21
-0.1316524975873958
 31
0.0
 12
0.0
 22
0.0
 32
0.0
 13
0.0
 23
0.0
 33
0.0
  0
ENDBLK
  5
23FD
  8
AM_7
  0
BLOCK
  8
AM_7
  2
_ACMOPEN30
 70
     0
 10
0.0
 20
0.0
 30
0.0
  3
_ACMOPEN30
  1
Acad:XRef
  0
LINE
  5
2408
  8
AM_0
 62
     0
 10
-1.0
 20
0.0
 30
0.0
 11
0.0
 21
0.0
 31
0.0
  0
LINE
  5
2409
  8
AM_0
 62
     0
 10
-1.0
 20
-0.2679491924311227
 30
0.0
 11
0.0
 21
0.0
 31
0.0
  0
LINE
  5
240A
  8
AM_0
 62
     0
 10
-1.0
 20
0.2679491924311227
 30
0.0
 11
0.0
 21
0.0
 31
0.0
  0
ENDBLK
  5
2407
  8
AM_7
  0
BLOCK
  8
0
  2
_ACMFILLEDHALF
 70
     0
 10
0.0
 20
0.0
 30
0.0
  3
_ACMFILLEDHALF
  1

  0
TRACE
  5
2413
  8
0
 62
     0
 10
-0.8
 20
0.0
 30
0.0
 11
-1.0
 21
0.166666666
 31
0.0
 12
0.0
 22
0.0
 32
0.0
 13
0.0
 23
0.0
 33
0.0
  0
LINE
  5
2414
  8
0
 62
     0
 10
-1.0
 20
0.0
 30
0.0
 11
-0.8
 21
0.0
 31
0.0
  0
ENDBLK
  5
2415
  8
0
  0
BLOCK
  8
AM_7
  2
_ACMOPEN15
 70
     0
 10
0.0
 20
0.0
 30
0.0
  3
_ACMOPEN15
  1
Acad:XRef
  0
LINE
  5
2422
  8
AM_0
 62
     0
 10
-1.0
 20
0.0
 30
0.0
 11
0.0
 21
0.0
 31
0.0
  0
LINE
  5
2423
  8
AM_0
 62
     0
 10
-1.0
 20
-0.1316524975873958
 30
0.0
 11
0.0
 21
0.0
 31
0.0
  0
LINE
  5
2424
  8
AM_0
 62
     0
 10
-1.0
 20
0.1316524975873958
 30
0.0
 11
0.0
 21
0.0
 31
0.0
  0
ENDBLK
  5
2421
  8
AM_7
  0
ENDSEC
  0
SECTION
  2
ENTITIES
  0
TEXT
  5
1336
  8
10
 10
9.527407943241997
 20
9.024540358955633
 30
0.0
 40
10.0
  1
2023.09.12 DG600-4-20
 11
9.527407943241997
 21
9.024540358955633
 31
0.0
 73
     1
  0
LINE
  5
21A2
  8
0
 10
131.3086112618693
 20
162.4505143750463
 30
0.0
 11
131.3086112618676
 21
164.9632070951051
 31
0.0
  0
LINE
  5
21A3
  8
0
 10
79.30861126186915
 20
164.9632070951055
 30
0.0
 11
79.30861126186915
 21
162.4505143750462
 31
0.0
  0
LINE
  5
21A4
  8
0
 10
340.0572169838053
 20
162.4505221947415
 30
0.0
 11
340.0572169838038
 21
164.9632166252525
 31
0.0
1001
GRPNAME
1000
PASTMD3J
  0
LINE
  5
21A5
  8
0
 10
288.0572169838038
 20
164.9632166252528
 30
0.0
 11
288.0572169838038
 21
162.4505221947416
 31
0.0
1001
GRPNAME
1000
PASTMD3J
  0
ARC
  5
21A6
  8
0
 10
293.55718111193
 20
96.9627361137616
 30
0.0
 40
6.0
 50
180.0000415168247
 51
270.0
1001
GRPNAME
1000
PASTMD3K
1001
GENIUS_GENODEF_13
1002
{
1000
HIER
1070
     0
1002
}
1002
{
1000
MANEDIT
1070
     0
1002
}
1002
{
1000
NOSEL
1070
     0
1002
}
1002
{
1000
BEHIND
1070
     0
1002
}
1002
{
1000
REACTOR
1002
}
1001
GENIUS_GENOBJ-N-FIL_13
1002
{
1000
OWNER
1000
GEN
1002
}
  0
LINE
  5
21A7
  8
0
 10
268.0572169838038
 20
154.9632098180044
 30
0.0
 11
360.0572169838038
 21
154.9632098180044
 31
0.0
1001
GRPNAME
1000
PASTMD3J
  0
LINE
  5
21A8
  8
0
 10
347.8211260000262
 20
162.4505221947415
 30
0.0
 11
280.293307967581
 21
162.4505221947415
 31
0.0
1001
GRPNAME
1000
PASTMD3I
  0
LINE
  5
21A9
  8
0
 10
360.0572169838038
 20
150.9632070951054
 30
0.0
 11
268.0572169838038
 21
150.9632070951054
 31
0.0
1001
GRPNAME
1000
PASTMD3J
  0
LINE
  5
21AA
  8
0
 10
288.058099897274
 20
90.9627361137616
 30
0.0
 11
334.5572528556752
 21
90.9627361137616
 31
0.0
1001
GRPNAME
1000
PASTMD3K
  0
LINE
  5
21AB
  8
0
 10
346.0571684000438
 20
127.4632833528913
 30
0.0
 11
282.0572655675613
 21
127.4632833528913
 31
0.0
1001
GRPNAME
1000
PASTMD3K
  0
LINE
  5
21AC
  8
0
 10
276.0572169838038
 20
138.9632050529315
 30
0.0
 11
352.0572169838038
 21
138.9632050529315
 31
0.0
1001
GRPNAME
1000
PASTMD3K
  0
LINE
  5
21AD
  8
0
 10
268.5572169858253
 20
141.9632070951054
 30
0.0
 11
359.5572169838038
 21
141.9632070951054
 31
0.0
1001
GRPNAME
1000
PASTMD3K
  0
LINE
  5
21AE
  8
0
 10
287.0572613628813
 20
111.9633492617023
 30
0.0
 11
341.057172604724
 21
111.9633492617023
 31
0.0
1001
GRPNAME
1000
PASTMD3K
  0
CIRCLE
  5
21AF
  8
0
 10
105.3086112618687
 20
110.9632070951053
 30
0.0
 40
16.5
  0
LINE
  5
21B0
  8
0
 10
59.30861126186858
 20
154.9632070951054
 30
0.0
 11
151.3086112618682
 21
154.9632070951054
 31
0.0
  0
LINE
  5
21B1
  8
0
 10
151.3086112618682
 20
150.9632070951053
 30
0.0
 11
59.30861126186858
 21
150.9632070951054
 31
0.0
  0
LINE
  5
21B2
  8
0
 10
131.3086112618693
 20
162.4505143750463
 30
0.0
 11
79.30861126187051
 21
162.4505143750463
 31
0.0
  0
LINE
  5
21B3
  8
0
 10
72.80861126186869
 20
122.6131791463584
 30
0.0
 11
93.62408511807394
 21
122.6131791463584
 31
0.0
  0
LINE
  5
21B4
  8
0
 10
92.59206377364399
 20
121.4769799659508
 30
0.0
 11
88.80861126186892
 21
120.463206920819
 31
0.0
  0
LINE
  5
21B5
  8
0
 10
67.30861126186869
 20
138.9632070951053
 30
0.0
 11
143.3086112618686
 21
138.9632070951053
 31
0.0
  0
LINE
  5
21B6
  8
0
 10
59.80861126186869
 20
141.9632070951053
 30
0.0
 11
150.8086112618687
 21
141.9632070951053
 31
0.0
  0
LINE
  5
21B7
  8
0
 10
92.59206414384948
 20
100.4494337764913
 30
0.0
 11
88.80861126186892
 21
101.4632069208192
 31
0.0
  0
LINE
  5
21B8
  8
0
 10
84.80861126186869
 20
90.9632070951053
 30
0.0
 11
125.8086112618687
 21
90.96320709510621
 31
0.0
  0
LINE
  5
21B9
  8
0
 10
88.80861126186892
 20
101.4632069208192
 30
0.0
 11
88.80861126186892
 21
120.463206920819
 31
0.0
  0
LINE
  5
21BA
  8
0
 10
78.80861126186869
 20
96.9632070951053
 30
0.0
 11
78.80861126186869
 21
111.9882699095722
 31
0.0
  0
ARC
  5
21BB
  8
0
 10
-84.80861126186869
 20
96.9632070951053
 30
0.0
 40
6.0
 50
270.0
 51
0.0
210
0.0
220
0.0
230
-1.0
  0
LINE
  5
21BC
  8
0
 10
71.80861126186869
 20
123.3631791463584
 30
0.0
 11
71.80861126186858
 21
138.9632070951053
 31
0.0
  0
LINE
  5
21BD
  8
0
 10
73.30861126186869
 20
121.8631791463584
 30
0.0
 11
73.30861126186869
 21
116.9632070951053
 31
0.0
  0
LINE
  5
21BE
  8
0
 10
88.84048306749276
 20
111.9882699095723
 30
0.0
 11
78.80861126186824
 21
111.9882699095723
 31
0.0
  0
ARC
  5
21BF
  8
0
 10
78.30861126186869
 20
116.9632070951053
 30
0.0
 40
5.0
 50
180.0
 51
275.7391704772682
  0
POLYLINE
  5
21C0
  8
0
 10
0.0
 20
0.0
 30
0.0
 66
     1
 70
     8
  0
VERTEX
  5
253D
  8
0
 10
73.30861126186892
 20
121.8631791463582
 30
0.0
 70
    32
  0
VERTEX
  5
253E
  8
0
 10
73.24611126186893
 20
121.9256791463582
 30
0.0
 70
    32
  0
VERTEX
  5
253F
  8
0
 10
73.1836112618689
 20
121.9881791463582
 30
0.0
 70
    32
  0
VERTEX
  5
2540
  8
0
 10
73.12111126186892
 20
122.0506791463583
 30
0.0
 70
    32
  0
VERTEX
  5
2541
  8
0
 10
73.0586112618689
 20
122.1131791463582
 30
0.0
 70
    32
  0
VERTEX
  5
2542
  8
0
 10
72.9961112618689
 20
122.1756791463583
 30
0.0
 70
    32
  0
VERTEX
  5
2543
  8
0
 10
72.93361126186892
 20
122.2381791463583
 30
0.0
 70
    32
  0
VERTEX
  5
2544
  8
0
 10
72.87111126186889
 20
122.3006791463583
 30
0.0
 70
    32
  0
VERTEX
  5
2545
  8
0
 10
72.80861126186892
 20
122.3631791463583
 30
0.0
 70
    32
  0
VERTEX
  5
2546
  8
0
 10
72.74611126186892
 20
122.4256791463583
 30
0.0
 70
    32
  0
VERTEX
  5
2547
  8
0
 10
72.68361126186889
 20
122.4881791463583
 30
0.0
 70
    32
  0
VERTEX
  5
2548
  8
0
 10
72.62111126186892
 20
122.5506791463583
 30
0.0
 70
    32
  0
VERTEX
  5
2549
  8
0
 10
72.55861126186892
 20
122.6131791463583
 30
0.0
 70
    32
  0
VERTEX
  5
254A
  8
0
 10
72.49611126186893
 20
122.6756791463584
 30
0.0
 70
    32
  0
VERTEX
  5
254B
  8
0
 10
72.43361126186892
 20
122.7381791463583
 30
0.0
 70
    32
  0
VERTEX
  5
254C
  8
0
 10
72.37111126186892
 20
122.8006791463584
 30
0.0
 70
    32
  0
VERTEX
  5
254D
  8
0
 10
72.30861126186893
 20
122.8631791463584
 30
0.0
 70
    32
  0
VERTEX
  5
254E
  8
0
 10
72.24611126186892
 20
122.9256791463584
 30
0.0
 70
    32
  0
VERTEX
  5
254F
  8
0
 10
72.18361126186892
 20
122.9881791463584
 30
0.0
 70
    32
  0
VERTEX
  5
2550
  8
0
 10
72.12111126186892
 20
123.0506791463584
 30
0.0
 70
    32
  0
VERTEX
  5
2551
  8
0
 10
72.0586112618689
 20
123.1131791463584
 30
0.0
 70
    32
  0
VERTEX
  5
2552
  8
0
 10
71.99611126186892
 20
123.1756791463584
 30
0.0
 70
    32
  0
VERTEX
  5
2553
  8
0
 10
71.9336112618689
 20
123.2381791463584
 30
0.0
 70
    32
  0
VERTEX
  5
2554
  8
0
 10
71.87111126186895
 20
123.3006791463585
 30
0.0
 70
    32
  0
VERTEX
  5
2555
  8
0
 10
71.80861126186892
 20
123.3631791463584
 30
0.0
 70
    32
  0
SEQEND
  5
2587
  8
0
  0
LINE
  5
21C1
  8
0
 10
67.53405866295486
 20
161.4203745045517
 30
0.0
 11
79.30861126187051
 21
162.4505143750463
 31
0.0
  0
LINE
  5
21C2
  8
0
 10
59.80861126186869
 20
141.9632070951053
 30
0.0
 11
59.80861126186858
 21
150.9631922345377
 31
0.0
1001
GRPNAME
1000
PASTMD3K
  0
LINE
  5
21C3
  8
0
 10
67.30861126186869
 20
138.9632070951053
 30
0.0
 11
67.30861126186869
 21
141.9632070951053
 31
0.0
  0
LINE
  5
21C4
  8
0
 10
59.30861126186858
 20
150.9632070951054
 30
0.0
 11
59.30861126186858
 21
154.9632070951054
 31
0.0
  0
LINE
  5
21C5
  8
0
 10
67.53405866295486
 20
161.4203745045517
 30
0.0
 11
64.32788231412098
 21
154.9632070951053
 31
0.0
  0
CIRCLE
  5
21C6
  8
0
 10
105.3086112618687
 20
110.9632070951053
 30
0.0
 40
12.05849999999999
  0
CIRCLE
  5
21C7
  8
0
 10
105.3086112618687
 20
110.9632070951053
 30
0.0
 40
13.22049999999999
  0
LINE
  5
21C8
  8
0
 10
131.8086112618687
 20
96.96320709510621
 30
0.0
 11
131.8086112618687
 21
111.9882699095722
 31
0.0
  0
LINE
  5
21C9
  8
0
 10
121.8086112618684
 20
101.4632099708259
 30
0.0
 11
121.8086112618684
 21
120.4632099708257
 31
0.0
  0
ARC
  5
21CA
  8
0
 10
125.8086112618687
 20
96.96320709510621
 30
0.0
 40
6.0
 50
270.0
 51
0.0
1001
GENIUS_GENODEF_13
1002
{
1000
HIER
1070
     0
1002
}
1002
{
1000
MANEDIT
1070
     0
1002
}
1002
{
1000
NOSEL
1070
     0
1002
}
1002
{
1000
BEHIND
1070
     0
1002
}
1002
{
1000
REACTOR
1002
}
1001
GENIUS_GENOBJ-N-FIL_13
1002
{
1000
OWNER
1000
GEN
1002
}
  0
LINE
  5
21CB
  8
0
 10
120.8086112618687
 20
60.96222022045083
 30
0.0
 11
120.8086112618687
 21
82.40273028675699
 31
0.0
  0
LINE
  5
21CC
  8
0
 10
89.80861126186869
 20
60.96222022045083
 30
0.0
 11
89.80861126186869
 21
82.40273028675693
 31
0.0
  0
LINE
  5
21CD
  8
0
 10
118.7201278709884
 20
58.9632070951053
 30
0.0
 11
91.89709465274882
 21
58.9632070951053
 31
0.0
  0
LINE
  5
21CE
  8
0
 10
118.1963163286123
 20
43.9632070951053
 30
0.0
 11
92.4209061951251
 21
43.9632070951053
 31
0.0
  0
LINE
  5
21CF
  8
0
 10
89.80861126186869
 20
60.96222022045083
 30
0.0
 11
120.8086112618687
 21
60.96222022045083
 31
0.0
  0
LINE
  5
21D0
  8
0
 10
91.89709465274882
 20
58.9632070951053
 30
0.0
 11
92.4209061951251
 21
43.9632070951053
 31
0.0
  0
LINE
  5
21D1
  8
0
 10
93.05909465274885
 20
58.9632070951053
 30
0.0
 11
93.58290619512502
 21
43.9632070951053
 31
0.0
  0
LINE
  5
21D2
  8
0
 10
91.89709465274882
 20
58.9632070951053
 30
0.0
 11
91.89709465274882
 21
60.96222022045083
 31
0.0
  0
LINE
  5
21D3
  8
0
 10
118.1963163286123
 20
43.9632070951053
 30
0.0
 11
118.7201278709884
 21
58.9632070951053
 31
0.0
  0
LINE
  5
21D4
  8
0
 10
117.0343163286124
 20
43.9632070951053
 30
0.0
 11
117.5581278709885
 21
58.96320709510536
 31
0.0
  0
LINE
  5
21D5
  8
0
 10
118.7201278709884
 20
58.9632070951053
 30
0.0
 11
118.7201278709884
 21
60.96222022045083
 31
0.0
  0
LINE
  5
21D6
  8
0
 10
89.80861126186869
 20
82.40273028675693
 30
0.0
 11
120.8086112618687
 21
82.40273028675699
 31
0.0
1001
GRPNAME
1000
PASTMD3K
  0
LINE
  5
21D7
  8
0
 10
92.30861126186869
 20
90.96320709510547
 30
0.0
 11
92.30861126186869
 21
82.40273028675693
 31
0.0
  0
LINE
  5
21D8
  8
0
 10
118.3086112618686
 20
90.96320709510547
 30
0.0
 11
118.3086112618686
 21
82.40273028675699
 31
0.0
  0
LINE
  5
21D9
  8
0
 10
118.0251616191849
 20
100.4494376944651
 30
0.0
 11
121.8086112618684
 21
101.4632099708259
 31
0.0
  0
LINE
  5
21DA
  8
0
 10
121.7767394562445
 20
111.9882699095723
 30
0.0
 11
131.8086112618691
 21
111.9882699095723
 31
0.0
  0
LINE
  5
21DB
  8
0
 10
137.8086112618687
 20
122.6131791463584
 30
0.0
 11
116.9931374056632
 21
122.6131791463584
 31
0.0
  0
LINE
  5
21DD
  8
0
 10
118.0251555107939
 20
121.4769838839252
 30
0.0
 11
121.8086112618684
 21
120.4632099708257
 31
0.0
  0
LINE
  5
21DE
  8
0
 10
138.8086112618687
 20
123.3631791463584
 30
0.0
 11
138.8086112618687
 21
138.9632070951053
 31
0.0
  0
LINE
  5
21DF
  8
0
 10
137.3086112618687
 20
121.8631791463584
 30
0.0
 11
137.3086112618687
 21
116.9632070951053
 31
0.0
  0
ARC
  5
21E0
  8
0
 10
132.3086112618687
 20
116.9632070951053
 30
0.0
 40
5.0
 50
264.2608295227318
 51
0.0
  0
POLYLINE
  5
21E1
  8
0
 10
0.0
 20
0.0
 30
0.0
 66
     1
 70
     8
  0
VERTEX
  5
2556
  8
0
 10
137.3086112618685
 20
121.8631791463582
 30
0.0
 70
    32
  0
VERTEX
  5
2557
  8
0
 10
137.3711112618685
 20
121.9256791463582
 30
0.0
 70
    32
  0
VERTEX
  5
2558
  8
0
 10
137.4336112618684
 20
121.9881791463582
 30
0.0
 70
    32
  0
VERTEX
  5
2559
  8
0
 10
137.4961112618685
 20
122.0506791463583
 30
0.0
 70
    32
  0
VERTEX
  5
255A
  8
0
 10
137.5586112618685
 20
122.1131791463582
 30
0.0
 70
    32
  0
VERTEX
  5
255B
  8
0
 10
137.6211112618684
 20
122.1756791463583
 30
0.0
 70
    32
  0
VERTEX
  5
255C
  8
0
 10
137.6836112618685
 20
122.2381791463583
 30
0.0
 70
    32
  0
VERTEX
  5
255D
  8
0
 10
137.7461112618684
 20
122.3006791463583
 30
0.0
 70
    32
  0
VERTEX
  5
255E
  8
0
 10
137.8086112618685
 20
122.3631791463583
 30
0.0
 70
    32
  0
VERTEX
  5
255F
  8
0
 10
137.8711112618685
 20
122.4256791463583
 30
0.0
 70
    32
  0
VERTEX
  5
2560
  8
0
 10
137.9336112618684
 20
122.4881791463583
 30
0.0
 70
    32
  0
VERTEX
  5
2561
  8
0
 10
137.9961112618685
 20
122.5506791463583
 30
0.0
 70
    32
  0
VERTEX
  5
2562
  8
0
 10
138.0586112618685
 20
122.6131791463583
 30
0.0
 70
    32
  0
VERTEX
  5
2563
  8
0
 10
138.1211112618685
 20
122.6756791463584
 30
0.0
 70
    32
  0
VERTEX
  5
2564
  8
0
 10
138.1836112618685
 20
122.7381791463583
 30
0.0
 70
    32
  0
VERTEX
  5
2565
  8
0
 10
138.2461112618685
 20
122.8006791463584
 30
0.0
 70
    32
  0
VERTEX
  5
2566
  8
0
 10
138.3086112618685
 20
122.8631791463584
 30
0.0
 70
    32
  0
VERTEX
  5
2567
  8
0
 10
138.3711112618685
 20
122.9256791463584
 30
0.0
 70
    32
  0
VERTEX
  5
2568
  8
0
 10
138.4336112618685
 20
122.9881791463584
 30
0.0
 70
    32
  0
VERTEX
  5
2569
  8
0
 10
138.4961112618685
 20
123.0506791463584
 30
0.0
 70
    32
  0
VERTEX
  5
256A
  8
0
 10
138.5586112618684
 20
123.1131791463584
 30
0.0
 70
    32
  0
VERTEX
  5
256B
  8
0
 10
138.6211112618685
 20
123.1756791463584
 30
0.0
 70
    32
  0
VERTEX
  5
256C
  8
0
 10
138.6836112618685
 20
123.2381791463584
 30
0.0
 70
    32
  0
VERTEX
  5
256D
  8
0
 10
138.7461112618685
 20
123.3006791463585
 30
0.0
 70
    32
  0
VERTEX
  5
256E
  8
0
 10
138.8086112618685
 20
123.3631791463584
 30
0.0
 70
    32
  0
SEQEND
  5
2588
  8
0
  0
LINE
  5
21E2
  8
0
 10
143.0831638607824
 20
161.4203745045516
 30
0.0
 11
146.2893402096163
 21
154.9632070951054
 31
0.0
  0
LINE
  5
21E3
  8
0
 10
143.3086112618686
 20
138.9632070951053
 30
0.0
 11
143.3086112618687
 21
141.9632070951053
 31
0.0
  0
LINE
  5
21E4
  8
0
 10
143.0831638607824
 20
161.4203745045516
 30
0.0
 11
131.3086112618693
 21
162.4505143750461
 31
0.0
  0
LINE
  5
21E5
  8
0
 10
150.8086112618687
 20
141.9632070951053
 30
0.0
 11
150.8086112618687
 21
150.9631922345382
 31
0.0
1001
GRPNAME
1000
PASTMD3K
  0
LINE
  5
21E6
  8
0
 10
151.3086112618682
 20
154.9632070951054
 30
0.0
 11
151.3086112618682
 21
150.9632070951053
 31
0.0
  0
LINE
  5
21E7
  8
0
 10
266.0572528254532
 20
101.07518689778
 30
0.0
 11
266.0571366477684
 21
121.0752005122561
 31
0.0
1001
GRPNAME
1000
PASTMD3K
  0
LINE
  5
21E8
  8
0
 10
259.0572480602686
 20
101.0751856666561
 30
0.0
 11
259.0571318825835
 21
121.0751992811327
 31
0.0
1001
GRPNAME
1000
PASTMD3K
  0
LINE
  5
21E9
  8
0
 10
256.0572169847769
 20
94.46301648251142
 30
0.0
 11
256.057048505264
 21
127.4633932643751
 31
0.0
1001
GRPNAME
1000
PASTMD3K
  0
LINE
  5
21EA
  8
0
 10
287.5571811119316
 20
96.96273176612988
 30
0.0
 11
287.5571702424049
 21
111.9633492617023
 31
0.0
1001
GRPNAME
1000
PASTMD3K
  0
LINE
  5
21EB
  8
0
 10
256.0572169838036
 20
94.4632070951053
 30
0.0
 11
282.8074043256413
 21
94.46320709510536
 31
0.0
  0
LINE
  5
21EC
  8
0
 10
259.0572480602686
 20
101.0751856666561
 30
0.0
 11
266.0572528254532
 21
101.07518689778
 31
0.0
1001
GRPNAME
1000
PASTMD3K
  0
LINE
  5
21ED
  8
0
 10
288.058099897274
 20
90.9627361137616
 30
0.0
 11
282.8074043256413
 21
94.46320709510536
 31
0.0
1001
GRPNAME
1000
PASTMD3K
  0
LINE
  5
21EE
  8
0
 10
280.5572645464188
 20
127.4632070951053
 30
0.0
 11
280.5572728794406
 21
138.9632050529315
 31
0.0
1001
GRPNAME
1000
PASTMD3K
  0
LINE
  5
21EF
  8
0
 10
256.0570485062144
 20
127.4632070951054
 30
0.0
 11
280.5572645464188
 21
127.4632070951053
 31
0.0
  0
LINE
  5
21F0
  8
0
 10
259.0571318825835
 20
121.0751992811327
 30
0.0
 11
266.0571366477684
 21
121.0752005122561
 31
0.0
1001
GRPNAME
1000
PASTMD3K
  0
LINE
  5
21F1
  8
0
 10
282.0572579592584
 20
116.9633562883552
 30
0.0
 11
282.0572655675613
 21
127.4632833528913
 31
0.0
1001
GRPNAME
1000
PASTMD3K
  0
ARC
  5
21F2
  8
0
 10
287.0572613628813
 20
116.9633526653264
 30
0.0
 40
5.000003403624032
 50
179.9999593624243
 51
270.0000008792491
1001
GRPNAME
1000
PASTMD3K
  0
ARC
  5
21F3
  8
0
 10
287.0572613628813
 20
116.9633526653264
 30
0.0
 40
5.000003403624032
 50
179.9999593624243
 51
270.0000008792491
1001
GRPNAME
1000
PASTMD3K
  0
LINE
  5
21F4
  8
0
 10
271.057187712621
 20
160.450520833292
 30
0.0
 11
268.0572169838038
 21
154.9632098180044
 31
0.0
1001
GRPNAME
1000
PASTMD3I
  0
LINE
  5
21F5
  8
0
 10
268.5572169858253
 20
141.9632070951054
 30
0.0
 11
268.5572482991664
 21
150.9631922345378
 31
0.0
1001
GRPNAME
1000
PASTMD3K
  0
LINE
  5
21F6
  8
0
 10
268.0572169838038
 20
154.9632098180044
 30
0.0
 11
268.0572169838038
 21
150.9632070951054
 31
0.0
1001
GRPNAME
1000
PASTMD3I
  0
LINE
  5
21F7
  8
0
 10
276.0572169838038
 20
138.9632050529315
 30
0.0
 11
276.0572148099866
 21
141.9632070951054
 31
0.0
1001
GRPNAME
1000
PASTMD3K
  0
LINE
  5
21F8
  8
0
 10
280.293307967581
 20
162.4505221947415
 30
0.0
 11
271.057187712621
 21
160.450520833292
 31
0.0
1001
GRPNAME
1000
PASTMD3I
  0
LINE
  5
21F9
  8
0
 10
351.2721785749386
 20
94.4632070951053
 30
0.0
 11
376.0572169838038
 21
94.4632070951053
 31
0.0
  0
LINE
  5
21FA
  8
0
 10
353.7226997271464
 20
127.4632070951053
 30
0.0
 11
376.0573854613929
 21
127.4632070951053
 31
0.0
  0
LINE
  5
21FB
  8
0
 10
340.5572528556736
 20
96.96273176612988
 30
0.0
 11
340.5572637252003
 21
111.9633492617023
 31
0.0
1001
GRPNAME
1000
PASTMD3K
  0
LINE
  5
21FC
  8
0
 10
298.5572064325679
 20
60.96222022045083
 30
0.0
 11
329.5572275350371
 21
60.96222022045083
 31
0.0
  0
LINE
  5
21FD
  8
0
 10
325.7829220505473
 20
43.9632070951053
 30
0.0
 11
326.3067335929236
 21
58.9632070951053
 31
0.0
  0
LINE
  5
21FE
  8
0
 10
326.9449220505473
 20
43.9632070951053
 30
0.0
 11
301.1695119170602
 21
43.9632070951053
 31
0.0
  0
LINE
  5
21FF
  8
0
 10
327.4687335929234
 20
58.9632070951053
 30
0.0
 11
300.6457003746839
 21
58.9632070951053
 31
0.0
  0
LINE
  5
2200
  8
0
 10
298.5572064325679
 20
82.40273028675699
 30
0.0
 11
329.5572275350373
 21
82.40273028675699
 31
0.0
1001
GRPNAME
1000
PASTMD3K
  0
LINE
  5
2201
  8
0
 10
298.5572064325679
 20
60.96222022045083
 30
0.0
 11
298.5572064325679
 21
82.40273028675699
 31
0.0
1001
GRPNAME
1000
PASTMD3K
  0
LINE
  5
2202
  8
0
 10
300.6457003746839
 20
58.9632070951053
 30
0.0
 11
301.1695119170602
 21
43.9632070951053
 31
0.0
  0
LINE
  5
2203
  8
0
 10
301.8077003746839
 20
58.9632070951053
 30
0.0
 11
302.3315119170602
 21
43.9632070951053
 31
0.0
  0
LINE
  5
2204
  8
0
 10
300.6457003746839
 20
58.9632070951053
 30
0.0
 11
300.6457003746839
 21
60.96222022045083
 31
0.0
  0
LINE
  5
2205
  8
0
 10
301.0573420776836
 20
82.46329903620506
 30
0.0
 11
301.0573306089073
 21
90.9627361137616
 31
0.0
1001
GRPNAME
1000
PASTMD3K
  0
ARC
  5
2206
  8
0
 10
322.8494608460228
 20
100.2208335055154
 30
0.0
 40
29.0000197410188
 50
283.3737464197096
 51
348.548480430318
1001
GRPNAME
1000
PASTMD3K
  0
LINE
  5
2207
  8
0
 10
329.5572275350371
 20
60.96222022045083
 30
0.0
 11
329.5572275350373
 21
82.40273028675699
 31
0.0
1001
GRPNAME
1000
PASTMD3K
  0
LINE
  5
2208
  8
0
 10
329.5572275350371
 20
62.46378234497234
 30
0.0
 11
329.5572275350371
 21
79.46329564467248
 31
0.0
1001
GRPNAME
1000
PASTMD3K
  0
LINE
  5
2209
  8
0
 10
326.9449220505473
 20
43.9632070951053
 30
0.0
 11
327.4687335929234
 21
58.9632070951053
 31
0.0
  0
LINE
  5
220A
  8
0
 10
327.4687335929234
 20
58.9632070951053
 30
0.0
 11
327.4687335929234
 21
60.96222022045083
 31
0.0
  0
LINE
  5
220B
  8
0
 10
327.057214521599
 20
90.9627361137616
 30
0.0
 11
327.057214521599
 21
82.40273028675699
 31
0.0
1001
GRPNAME
1000
PASTMD3K
  0
ARC
  5
220C
  8
0
 10
334.5572528556752
 20
96.9627361137616
 30
0.0
 40
6.0
 50
270.0
 51
359.9999584831753
1001
GRPNAME
1000
PASTMD3K
1001
GENIUS_GENODEF_13
1002
{
1000
HIER
1070
     0
1002
}
1002
{
1000
MANEDIT
1070
     0
1002
}
1002
{
1000
NOSEL
1070
     0
1002
}
1002
{
1000
BEHIND
1070
     0
1002
}
1002
{
1000
REACTOR
1002
}
1001
GENIUS_GENOBJ-N-FIL_13
1002
{
1000
OWNER
1000
GEN
1002
}
  0
ARC
  5
220E
  8
0
 10
343.0572726730381
 20
121.9633105685959
 30
0.0
 40
12.00000816869767
 50
27.27903675108296
 51
67.97548829770395
1001
GRPNAME
1000
PASTMD3K
  0
LINE
  5
220F
  8
0
 10
347.5573142304636
 20
133.0876003000916
 30
0.0
 11
347.5573184880204
 21
138.9632050529315
 31
0.0
1001
GRPNAME
1000
PASTMD3K
  0
ARC
  5
2210
  8
0
 10
341.057172604724
 20
116.9633526653264
 30
0.0
 40
5.000003403624081
 50
269.9999999305436
 51
0.0000414473683071
1001
GRPNAME
1000
PASTMD3K
  0
LINE
  5
2211
  8
0
 10
346.0571760083467
 20
116.9633562883552
 30
0.0
 11
346.0571684000438
 21
127.4632833528913
 31
0.0
1001
GRPNAME
1000
PASTMD3K
  0
LINE
  5
2212
  8
0
 10
359.5572169838038
 20
141.9632070951054
 30
0.0
 11
359.5571856704626
 21
150.9631922345382
 31
0.0
1001
GRPNAME
1000
PASTMD3K
  0
LINE
  5
2213
  8
0
 10
352.0572169838038
 20
138.9632050529315
 30
0.0
 11
352.057214809988
 21
141.9632070951054
 31
0.0
1001
GRPNAME
1000
PASTMD3K
  0
LINE
  5
2214
  8
0
 10
347.8211260000262
 20
162.4505221947415
 30
0.0
 11
357.0572462549858
 21
160.450520833292
 31
0.0
1001
GRPNAME
1000
PASTMD3I
  0
LINE
  5
2215
  8
0
 10
360.0572169838038
 20
154.9632098180044
 30
0.0
 11
360.0572169838038
 21
150.9632070951054
 31
0.0
1001
GRPNAME
1000
PASTMD3J
  0
LINE
  5
2216
  8
0
 10
357.0572462549858
 20
160.450520833292
 30
0.0
 11
360.0572169838038
 21
154.9632098180044
 31
0.0
1001
GRPNAME
1000
PASTMD3I
  0
LINE
  5
2217
  8
0
 10
366.0573454693213
 20
120.9632631522809
 30
0.0
 11
366.0572433616217
 21
100.9632495377667
 31
0.0
1001
GRPNAME
1000
PASTMD3K
  0
LINE
  5
2218
  8
0
 10
373.0573502344923
 20
120.9632643834048
 30
0.0
 11
373.057248126793
 21
100.9632507688901
 31
0.0
1001
GRPNAME
1000
PASTMD3K
  0
LINE
  5
2219
  8
0
 10
376.0572169838038
 20
94.4632070951053
 30
0.0
 11
376.0573854622946
 21
127.4633837175072
 31
0.0
1001
GRPNAME
1000
PASTMD3K
  0
LINE
  5
221A
  8
0
 10
366.0572433616217
 20
100.9632495377667
 30
0.0
 11
373.057248126793
 21
100.9632507688901
 31
0.0
1001
GRPNAME
1000
PASTMD3K
  0
LINE
  5
221B
  8
0
 10
366.0573454693213
 20
120.9632631522809
 30
0.0
 11
373.0573502344923
 21
120.9632643834048
 31
0.0
1001
GRPNAME
1000
PASTMD3K
  0
ARC
  5
221E
  8
0
  6
CONTINUOUS
 10
287.7296940760086
 20
384.1716556328257
 30
0.0
 40
2.0
 50
43.00282446680099
 51
145.8424128736987
1001
GENIUS_GENODEF_13
1002
{
1000
HIER
1070
     0
1002
}
1002
{
1000
MANEDIT
1070
     0
1002
}
1002
{
1000
NOSEL
1070
     0
1002
}
1002
{
1000
BEHIND
1070
     0
1002
}
1002
{
1000
REACTOR
1002
}
1001
GENIUS_GENOBJ-N-FIL_13
1002
{
1000
OWNER
1000
GEN
1002
}
  0
ARC
  5
221F
  8
0
  6
CONTINUOUS
 10
287.7296940760086
 20
433.2781333130478
 30
0.0
 40
2.0
 50
214.1575871263013
 51
316.997175533199
1001
GENIUS_GENODEF_13
1002
{
1000
HIER
1070
     0
1002
}
1002
{
1000
MANEDIT
1070
     0
1002
}
1002
{
1000
NOSEL
1070
     0
1002
}
1002
{
1000
BEHIND
1070
     0
1002
}
1002
{
1000
REACTOR
1002
}
1001
GENIUS_GENOBJ-N-FIL_13
1002
{
1000
OWNER
1000
GEN
1002
}
  0
CIRCLE
  5
2222
  8
0
  6
CONTINUOUS
 10
314.0572169838038
 20
408.7248944729363
 30
0.0
 40
45.99999999999972
  0
LINE
  5
2223
  8
0
 10
288.0572169838038
 20
164.9632166252528
 30
0.0
 11
295.5572169838038
 21
165.6193820483649
 31
0.0
1001
GRPNAME
1000
PASTMD3J
  0
LINE
  5
2227
  8
0
 10
86.30859832809676
 20
189.9632336433729
 30
0.0
 11
124.3086241956396
 21
189.9632336433729
 31
0.0
1001
GRPNAME
1000
PASTMD3J
  0
LINE
  5
2228
  8
0
 10
86.80861126186869
 20
165.6193720715502
 30
0.0
 11
123.808611261862
 21
165.6193720715502
 31
0.0
  0
LINE
  5
2229
  8
0
 10
86.30861126186812
 20
169.9632070951054
 30
0.0
 11
124.3086112618682
 21
169.9632070951054
 31
0.0
  0
LINE
  5
222A
  8
0
 10
86.30861126186824
 20
184.9632070951054
 30
0.0
 11
124.3086112618682
 21
184.9632070951054
 31
0.0
  0
LINE
  5
222B
  8
0
 10
86.30861126186812
 20
189.9632070951054
 30
0.0
 11
124.3086112618682
 21
189.9632070951054
 31
0.0
  0
LINE
  5
222D
  8
0
 10
86.80861126186869
 20
189.9632336433729
 30
0.0
 11
86.80861126186869
 21
203.963207095106
 31
0.0
  0
LINE
  5
222E
  8
0
 10
86.30861126186812
 20
169.9632070951054
 30
0.0
 11
86.30861126186812
 21
189.9632070951054
 31
0.0
  0
LINE
  5
222F
  8
0
 10
79.30861126186915
 20
164.9632070951055
 30
0.0
 11
86.80861126187028
 21
165.6193720715502
 31
0.0
  0
LINE
  5
2230
  8
0
 10
86.80861126186869
 20
165.6193720715502
 30
0.0
 11
86.80861126186869
 21
169.9632070951054
 31
0.0
  0
LINE
  5
2231
  8
0
 10
86.30859832809676
 20
184.9632302397488
 30
0.0
 11
86.30859832809676
 21
189.9632336433729
 31
0.0
1001
GRPNAME
1000
PASTMD3J
  0
LINE
  5
2234
  8
0
 10
123.808611261862
 20
165.6193720715502
 30
0.0
 11
131.3086112618676
 21
164.9632070951051
 31
0.0
  0
LINE
  5
2235
  8
0
 10
123.8086112618686
 20
189.9632336433729
 30
0.0
 11
123.8086112618686
 21
203.9632070951047
 31
0.0
  0
LINE
  5
2236
  8
0
 10
124.3086112618682
 20
189.9632070951054
 30
0.0
 11
124.3086112618682
 21
169.9632070951054
 31
0.0
  0
LINE
  5
2237
  8
0
 10
123.8086112618687
 20
169.9632070951054
 30
0.0
 11
123.8086112618687
 21
165.6193720715502
 31
0.0
  0
LINE
  5
2238
  8
0
 10
124.3086241956396
 20
184.9632302397488
 30
0.0
 11
124.3086241956396
 21
189.9632336433729
 31
0.0
1001
GRPNAME
1000
PASTMD3J
  0
LINE
  5
223F
  8
0
  6
CONTINUOUS
 10
256.0572169838038
 20
425.7248944729376
 30
0.0
 11
256.0572169838038
 21
391.7248944729376
 31
0.0
1001
GRPNAME
1000
PASTMD0B
  0
ARC
  5
2240
  8
0
  6
CONTINUOUS
 10
314.0572169838038
 20
408.7248944729367
 30
0.0
 40
34.00000000000014
 50
163.002824466801
 51
196.997175533199
  0
ARC
  5
2241
  8
0
  6
CONTINUOUS
 10
-280.282226236211
 20
389.224894472937
 30
0.0
 40
7.000000000001567
 50
214.1575871263013
 51
85.84241287369767
210
0.0
220
0.0
230
-1.0
  0
LINE
  5
2242
  8
0
  6
CONTINUOUS
 10
256.0572169838038
 20
391.7248944729376
 30
0.0
 11
271.3137964374785
 21
391.7248944729376
 31
0.0
1001
GRPNAME
1000
PASTMD0B
  0
ARC
  5
2243
  8
0
  6
CONTINUOUS
 10
279.6297269491834
 20
398.2012102361249
 30
0.0
 40
2.0
 50
274.1575871263023
 51
16.99717553319901
1001
GENIUS_GENODEF_13
1002
{
1000
HIER
1070
     0
1002
}
1002
{
1000
MANEDIT
1070
     0
1002
}
1002
{
1000
NOSEL
1070
     0
1002
}
1002
{
1000
BEHIND
1070
     0
1002
}
1002
{
1000
REACTOR
1002
}
1001
GENIUS_GENOBJ-N-FIL_13
1002
{
1000
OWNER
1000
GEN
1002
}
  0
LINE
  5
2245
  8
0
  6
CONTINUOUS
 10
256.0572169838038
 20
425.7248944729376
 30
0.0
 11
271.3137964374795
 21
425.7248944729376
 31
0.0
1001
GRPNAME
1000
PASTMD0B
  0
ARC
  5
2246
  8
0
  6
CONTINUOUS
 10
-280.282226236211
 20
428.2248944729365
 30
0.0
 40
7.000000000001567
 50
274.1575871263023
 51
145.8424128736987
210
0.0
220
0.0
230
-1.0
  0
ARC
  5
2247
  8
0
  6
CONTINUOUS
 10
279.6297269491834
 20
419.2485787097486
 30
0.0
 40
2.0
 50
343.002824466801
 51
85.84241287369767
1001
GENIUS_GENODEF_13
1002
{
1000
HIER
1070
     0
1002
}
1002
{
1000
MANEDIT
1070
     0
1002
}
1002
{
1000
NOSEL
1070
     0
1002
}
1002
{
1000
BEHIND
1070
     0
1002
}
1002
{
1000
REACTOR
1002
}
1001
GENIUS_GENOBJ-N-FIL_13
1002
{
1000
OWNER
1000
GEN
1002
}
  0
LINE
  5
224B
  8
0
 10
295.5572169838038
 20
165.6193820483649
 30
0.0
 11
332.5572169838038
 21
165.6193820483649
 31
0.0
  0
LINE
  5
224C
  8
0
 10
333.0572169837828
 20
184.9632070951054
 30
0.0
 11
295.0572169838038
 21
184.9632070951054
 31
0.0
1001
GRPNAME
1000
PASTMD3I
  0
LINE
  5
224E
  8
0
 10
295.5572169838038
 20
169.9632070951054
 30
0.0
 11
332.5572169838038
 21
169.9632070951054
 31
0.0
1001
GRPNAME
1000
PASTMD3J
  0
LINE
  5
224F
  8
0
 10
295.0572169838038
 20
189.9632070951054
 30
0.0
 11
333.0572169838038
 21
189.9632070951054
 31
0.0
1001
GRPNAME
1000
PASTMD3J
  0
LINE
  5
2250
  8
0
 10
296.5572299175756
 20
189.9632070951054
 30
0.0
 11
296.5572169838038
 21
203.963207095106
 31
0.0
1001
GRPNAME
1000
PASTMD3K
  0
LINE
  5
2251
  8
0
 10
293.0572026885616
 20
172.4632087969387
 30
0.0
 11
293.0572026885616
 21
182.9632057336556
 31
0.0
1001
GRPNAME
1000
PASTMD3J
  0
LINE
  5
2252
  8
0
 10
295.5572169838038
 20
165.6193820483649
 30
0.0
 11
295.5572169838038
 21
169.9632070951054
 31
0.0
1001
GRPNAME
1000
PASTMD3J
  0
LINE
  5
2253
  8
0
 10
295.5572169838038
 20
169.9632070951054
 30
0.0
 11
293.0572026885616
 21
172.4632087969387
 31
0.0
1001
GRPNAME
1000
PASTMD3J
  0
LINE
  5
2254
  8
0
 10
295.0572169838038
 20
184.9632070951054
 30
0.0
 11
295.0572169838038
 21
189.9632070951054
 31
0.0
1001
GRPNAME
1000
PASTMD3J
  0
LINE
  5
2255
  8
0
 10
293.0572026885825
 20
182.9632057336556
 30
0.0
 11
295.0572169838038
 21
184.9632070951054
 31
0.0
1001
GRPNAME
1000
PASTMD3J
  0
LINE
  5
2258
  8
0
 10
331.5572040500326
 20
189.9632070951054
 30
0.0
 11
331.5572169838038
 21
203.9632070951047
 31
0.0
1001
GRPNAME
1000
PASTMD3K
  0
LINE
  5
2259
  8
0
 10
335.0572312790246
 20
172.4632087969174
 30
0.0
 11
335.0572312790246
 21
182.9632057336561
 31
0.0
1001
GRPNAME
1000
PASTMD3J
  0
LINE
  5
225A
  8
0
 10
332.5572169838038
 20
165.6193820483644
 30
0.0
 11
340.0572169838038
 21
164.9632166252525
 31
0.0
1001
GRPNAME
1000
PASTMD3J
  0
LINE
  5
225B
  8
0
 10
332.5572169838038
 20
165.6193820483644
 30
0.0
 11
332.5572169838038
 21
169.9632070951054
 31
0.0
1001
GRPNAME
1000
PASTMD3J
  0
LINE
  5
225C
  8
0
 10
332.5572169838038
 20
169.9632070951054
 30
0.0
 11
335.0572312790246
 21
172.4632087969174
 31
0.0
1001
GRPNAME
1000
PASTMD3J
  0
LINE
  5
225D
  8
0
 10
335.0572312790246
 20
182.9632057336561
 30
0.0
 11
333.0572169838038
 21
184.9632070951054
 31
0.0
1001
GRPNAME
1000
PASTMD3J
  0
LINE
  5
225E
  8
0
 10
333.0572169838038
 20
184.9632070951054
 30
0.0
 11
333.0572169838038
 21
189.9632070951054
 31
0.0
1001
GRPNAME
1000
PASTMD3J
  0
LINE
  5
2263
  8
0
  6
CONTINUOUS
 10
356.9961270770978
 20
392.224894472937
 30
0.0
 11
376.0572169838038
 21
392.2248944729371
 31
0.0
1001
GRPNAME
1000
PASTMD0B
  0
LINE
  5
2264
  8
0
  6
CONTINUOUS
 10
356.9961270770971
 20
425.2248944729376
 30
0.0
 11
376.0572169838038
 21
425.2248944729376
 31
0.0
1001
GRPNAME
1000
PASTMD0B
  0
ARC
  5
2266
  8
0
  6
CONTINUOUS
 10
-314.0572169838038
 20
408.7248944729367
 30
0.0
 40
34.00000000000014
 50
163.002824466801
 51
196.997175533199
210
0.0
220
0.0
230
-1.0
  0
ARC
  5
2269
  8
0
  6
CONTINUOUS
 10
-314.0572169838038
 20
408.7248944729367
 30
0.0
 40
34.00000000000021
 50
223.002824466801
 51
256.9971755332006
210
0.0
220
0.0
230
-1.0
  0
ARC
  5
226B
  8
0
  6
CONTINUOUS
 10
314.0572169838038
 20
408.7248944729367
 30
0.0
 40
34.00000000000021
 50
223.002824466801
 51
256.9971755332006
  0
ARC
  5
226C
  8
0
  6
CONTINUOUS
 10
-314.0572169838038
 20
369.7248944729372
 30
0.0
 40
7.000000000001567
 50
154.1575871263031
 51
25.84241824460692
210
0.0
220
0.0
230
-1.0
  0
ARC
  5
226D
  8
0
  6
CONTINUOUS
 10
305.9572498569783
 20
373.6479713960136
 30
0.0
 40
2.000000000000023
 50
334.1575871263061
 51
76.99717553320062
  0
ARC
  5
226F
  8
0
  6
CONTINUOUS
 10
322.157184110629
 20
373.6479713960139
 30
0.0
 40
2.0
 50
103.0028244668057
 51
205.8424128736969
1001
GENIUS_GENODEF_13
1002
{
1000
HIER
1070
     0
1002
}
1002
{
1000
MANEDIT
1070
     0
1002
}
1002
{
1000
NOSEL
1070
     0
1002
}
1002
{
1000
BEHIND
1070
     0
1002
}
1002
{
1000
REACTOR
1002
}
1001
GENIUS_GENOBJ-N-FIL_13
1002
{
1000
OWNER
1000
GEN
1002
}
  0
ARC
  5
2273
  8
0
  6
CONTINUOUS
 10
-347.8322077313965
 20
389.2248944729369
 30
0.0
 40
7.000000000001567
 50
94.15758712630232
 51
325.8424128737014
210
0.0
220
0.0
230
-1.0
  0
ARC
  5
2276
  8
0
  6
CONTINUOUS
 10
340.3847398915989
 20
384.1716556328257
 30
0.0
 40
2.0
 50
34.15758712630124
 51
136.997175533199
1001
GENIUS_GENODEF_13
1002
{
1000
HIER
1070
     0
1002
}
1002
{
1000
MANEDIT
1070
     0
1002
}
1002
{
1000
NOSEL
1070
     0
1002
}
1002
{
1000
BEHIND
1070
     0
1002
}
1002
{
1000
REACTOR
1002
}
1001
GENIUS_GENOBJ-N-FIL_13
1002
{
1000
OWNER
1000
GEN
1002
}
  0
ARC
  5
2278
  8
0
  6
CONTINUOUS
 10
348.4847070184242
 20
398.2012102361249
 30
0.0
 40
2.0
 50
163.002824466801
 51
265.8424128736977
1001
GENIUS_GENODEF_13
1002
{
1000
HIER
1070
     0
1002
}
1002
{
1000
MANEDIT
1070
     0
1002
}
1002
{
1000
NOSEL
1070
     0
1002
}
1002
{
1000
BEHIND
1070
     0
1002
}
1002
{
1000
REACTOR
1002
}
1001
GENIUS_GENOBJ-N-FIL_13
1002
{
1000
OWNER
1000
GEN
1002
}
  0
ARC
  5
227C
  8
0
  6
CONTINUOUS
 10
314.0572169838038
 20
408.7248944729367
 30
0.0
 40
34.00000000000021
 50
43.00282446680099
 51
76.99717553320062
  0
ARC
  5
227D
  8
0
  6
CONTINUOUS
 10
305.9572498569783
 20
443.8018175498596
 30
0.0
 40
2.0
 50
283.0028244667994
 51
25.84241287369687
1001
GENIUS_GENODEF_13
1002
{
1000
HIER
1070
     0
1002
}
1002
{
1000
MANEDIT
1070
     0
1002
}
1002
{
1000
NOSEL
1070
     0
1002
}
1002
{
1000
BEHIND
1070
     0
1002
}
1002
{
1000
REACTOR
1002
}
1001
GENIUS_GENOBJ-N-FIL_13
1002
{
1000
OWNER
1000
GEN
1002
}
  0
ARC
  5
227E
  8
0
  6
CONTINUOUS
 10
322.157184110629
 20
443.8018175498596
 30
0.0
 40
2.0
 50
154.1575871263031
 51
256.9971755332006
1001
GENIUS_GENODEF_13
1002
{
1000
HIER
1070
     0
1002
}
1002
{
1000
MANEDIT
1070
     0
1002
}
1002
{
1000
NOSEL
1070
     0
1002
}
1002
{
1000
BEHIND
1070
     0
1002
}
1002
{
1000
REACTOR
1002
}
1001
GENIUS_GENOBJ-N-FIL_13
1002
{
1000
OWNER
1000
GEN
1002
}
  0
ARC
  5
227F
  8
0
  6
CONTINUOUS
 10
-314.0572169838038
 20
447.7248944729363
 30
0.0
 40
7.000000000001567
 50
334.1575871263031
 51
205.8424128736969
210
0.0
220
0.0
230
-1.0
  0
ARC
  5
2281
  8
0
  6
CONTINUOUS
 10
-314.0572169838038
 20
408.7248944729367
 30
0.0
 40
34.00000000000021
 50
43.00282446680099
 51
76.99717553320062
210
0.0
220
0.0
230
-1.0
  0
ARC
  5
2286
  8
0
  6
CONTINUOUS
 10
-347.8322077313965
 20
428.2248944729365
 30
0.0
 40
7.000000000001567
 50
34.15758712630124
 51
265.8424128736977
210
0.0
220
0.0
230
-1.0
  0
ARC
  5
2288
  8
0
  6
CONTINUOUS
 10
340.3847398915989
 20
433.2781333130478
 30
0.0
 40
2.0
 50
223.002824466801
 51
325.8424128737014
1001
GENIUS_GENODEF_13
1002
{
1000
HIER
1070
     0
1002
}
1002
{
1000
MANEDIT
1070
     0
1002
}
1002
{
1000
NOSEL
1070
     0
1002
}
1002
{
1000
BEHIND
1070
     0
1002
}
1002
{
1000
REACTOR
1002
}
1001
GENIUS_GENOBJ-N-FIL_13
1002
{
1000
OWNER
1000
GEN
1002
}
  0
ARC
  5
228A
  8
0
  6
CONTINUOUS
 10
348.4847070184242
 20
419.2485787097486
 30
0.0
 40
2.0
 50
94.15758712630232
 51
196.997175533199
1001
GENIUS_GENODEF_13
1002
{
1000
HIER
1070
     0
1002
}
1002
{
1000
MANEDIT
1070
     0
1002
}
1002
{
1000
NOSEL
1070
     0
1002
}
1002
{
1000
BEHIND
1070
     0
1002
}
1002
{
1000
REACTOR
1002
}
1001
GENIUS_GENOBJ-N-FIL_13
1002
{
1000
OWNER
1000
GEN
1002
}
  0
LINE
  5
228C
  8
0
  6
CONTINUOUS
 10
376.0572169838038
 20
425.2248944729376
 30
0.0
 11
376.0572169838038
 21
392.2248944729371
 31
0.0
1001
GRPNAME
1000
PASTMD0B
  0
LINE
  5
2311
  8
AM_7
 10
105.3086112618687
 20
248.9632614146478
 30
0.0
 11
105.3086112618687
 21
36.21745243357418
 31
0.0
  0
LINE
  5
2314
  8
AM_7
 10
314.0572169838038
 20
248.9632614146327
 30
0.0
 11
314.0572169838038
 21
36.21745243357418
 31
0.0
  0
LINE
  5
2315
  8
AM_7
 10
247.1793137462632
 20
110.9632048734433
 30
0.0
 11
380.9351202213443
 21
110.9625922268044
 31
0.0
  0
LINE
  5
231D
  8
AM_7
 10
74.0936658655095
 20
110.9630412875514
 30
0.0
 11
136.5235566582279
 21
110.9627553376269
 31
0.0
  0
LINE
  5
231E
  8
AM_7
 10
244.2656174633992
 20
408.7248944729367
 30
0.0
 11
383.8488165042083
 21
408.7248944729367
 31
0.0
  0
LINE
  5
231F
  8
AM_7
 10
314.0572169838038
 20
349.8496911880004
 30
0.0
 11
314.0572169838038
 21
467.6000977578731
 31
0.0
  0
LINE
  5
24C9
  8
0
 10
289.5572169837982
 20
211.7049311654384
 30
0.0
 11
338.5572169837973
 21
211.7049311654384
 31
0.0
  0
LINE
  5
24CA
  8
0
 10
291.5572169837982
 20
203.9632614146368
 30
0.0
 11
336.5572169837973
 21
203.9632614146368
 31
0.0
  0
LINE
  5
24CB
  8
0
 10
301.0572169837982
 20
244.9632614146368
 30
0.0
 11
327.0572169838092
 21
244.9632614146286
 31
0.0
  0
ARC
  5
24CC
  8
0
 10
300.8209543513918
 20
237.0707091352937
 30
0.0
 40
5.951205005509391
 50
37.3888069136842
 51
97.21420027622553
  0
ARC
  5
24CD
  8
0
 10
300.9512900045352
 20
215.9564784561765
 30
0.0
 40
2.565357953936887
 50
240.6774080382678
 51
316.5238775543747
  0
LINE
  5
24CE
  8
0
 10
284.3108934543938
 20
220.7918300713128
 30
0.0
 11
284.3108934543947
 21
240.7707682328611
 31
0.0
  0
LINE
  5
24CF
  8
0
 10
292.4951963610005
 20
222.9632614146377
 30
0.0
 11
292.4951963609996
 21
240.68440361362
 31
0.0
  0
ARC
  5
24D0
  8
0
 10
291.5572169837982
 20
205.9632614146368
 30
0.0
 40
1.999999999999943
 50
180.0
 51
270.0000000000016
1001
GENIUS_GENODEF_13
1002
{
1000
HIER
1070
     0
1002
}
1002
{
1000
MANEDIT
1070
     0
1002
}
1002
{
1000
NOSEL
1070
     0
1002
}
1002
{
1000
BEHIND
1070
     0
1002
}
1002
{
1000
REACTOR
1002
}
1001
GENIUS_GENOBJ-N-FIL_13
1002
{
1000
OWNER
1000
GEN
1002
}
  0
LINE
  5
24D1
  8
0
 10
285.7230639261219
 20
222.9632614146387
 30
0.0
 11
291.4951963609842
 21
222.9632614146387
 31
0.0
  0
LINE
  5
24D2
  8
0
 10
289.5572169837982
 20
211.7049311654384
 30
0.0
 11
284.3108934543938
 21
220.7918300713119
 31
0.0
  0
LINE
  5
24D3
  8
0
 10
289.5572169837982
 20
211.7049311654384
 30
0.0
 11
289.5572169837982
 21
205.9632614146359
 31
0.0
  0
ARC
  5
24D4
  8
0
 10
305.2858148259999
 20
225.5002358210961
 30
0.0
 40
13.03979140386123
 50
191.2188087997441
 51
244.611559728843
  0
LINE
  5
24D5
  8
0
 10
285.5789897083554
 20
240.68440361362
 30
0.0
 11
291.4951963609842
 21
240.68440361362
 31
0.0
  0
ARC
  5
24D6
  8
0
 10
301.0572169837982
 20
204.9632614146355
 30
0.0
 40
40.00000000000136
 50
90.0
 51
111.803747989384
  0
ARC
  5
24D7
  8
0
 10
288.0572169837973
 20
237.459415033182
 30
0.0
 40
4.999999999998328
 50
111.8037479893801
 51
138.5267245313361
1001
GENIUS_GENODEF_13
1002
{
1000
HIER
1070
     0
1002
}
1002
{
1000
MANEDIT
1070
     0
1002
}
1002
{
1000
NOSEL
1070
     0
1002
}
1002
{
1000
BEHIND
1070
     0
1002
}
1002
{
1000
REACTOR
1002
}
1001
GENIUS_GENOBJ-N-FIL_13
1002
{
1000
OWNER
1000
GEN
1002
}
  0
ARC
  5
24D8
  8
0
 10
299.460187372992
 20
231.3216460949784
 30
0.0
 40
11.66928995911952
 50
86.98674223133865
 51
126.6456998178239
  0
LINE
  5
24D9
  8
0
 10
343.8035405132172
 20
220.7918300713128
 30
0.0
 11
343.8035405132172
 21
240.7707682328611
 31
0.0
  0
LINE
  5
24DA
  8
0
 10
305.5493846654503
 20
240.68440361362
 30
0.0
 11
305.5493846654512
 21
222.9632614146387
 31
0.0
  0
LINE
  5
24DB
  8
0
 10
322.5650493021607
 20
240.68440361362
 30
0.0
 11
322.5650493021607
 21
222.9632614146387
 31
0.0
  0
LINE
  5
24DC
  8
0
 10
335.6192376066114
 20
222.9632614146377
 30
0.0
 11
335.6192376066114
 21
240.68440361362
 31
0.0
  0
ARC
  5
24DD
  8
0
 10
327.1631439630759
 20
215.9564784561765
 30
0.0
 40
2.565357953936903
 50
223.476122445624
 51
299.3225919617308
  0
LINE
  5
24DE
  8
0
 10
306.5493846654358
 20
222.9632614146387
 30
0.0
 11
321.5650493021607
 21
222.9632614146387
 31
0.0
  0
ARC
  5
24DF
  8
0
 10
281.8028213986743
 20
225.5585514295251
 30
0.0
 40
23.88796343861021
 50
331.5850581069332
 51
353.7628312294631
  0
ARC
  5
24E0
  8
0
 10
346.3116125689367
 20
225.5585514295252
 30
0.0
 40
23.88796343861022
 50
186.2371687705372
 51
208.4149418930671
  0
ARC
  5
24E1
  8
0
 10
336.5572169837974
 20
205.9632614146368
 30
0.0
 40
2.0
 50
269.9999999999984
 51
0.0
1001
GENIUS_GENODEF_13
1002
{
1000
HIER
1070
     0
1002
}
1002
{
1000
MANEDIT
1070
     0
1002
}
1002
{
1000
NOSEL
1070
     0
1002
}
1002
{
1000
BEHIND
1070
     0
1002
}
1002
{
1000
REACTOR
1002
}
1001
GENIUS_GENOBJ-N-FIL_13
1002
{
1000
OWNER
1000
GEN
1002
}
  0
LINE
  5
24E2
  8
0
 10
342.2697424793118
 20
222.9632614146387
 30
0.0
 11
336.6192376066114
 21
222.9632614146387
 31
0.0
  0
ARC
  5
24E3
  8
0
 10
322.8286191416111
 20
225.5002358210961
 30
0.0
 40
13.03979140386123
 50
295.3884402711573
 51
348.7811912002559
  0
LINE
  5
24E4
  8
0
 10
338.5572169837973
 20
211.7049311654384
 30
0.0
 11
338.5572169837973
 21
205.963261414635
 31
0.0
  0
LINE
  5
24E5
  8
0
 10
338.5572169837973
 20
211.7049311654384
 30
0.0
 11
343.8035405132172
 21
220.7918300713383
 31
0.0
  0
ARC
  5
24E6
  8
0
 10
327.2934796162204
 20
237.0707091352934
 30
0.0
 40
5.951205005509814
 50
82.78579972377833
 51
142.6111930863149
  0
LINE
  5
24E7
  8
0
 10
306.5493846654358
 20
240.68440361362
 30
0.0
 11
321.5650493021607
 21
240.68440361362
 31
0.0
  0
LINE
  5
24E8
  8
0
 10
342.5354442592401
 20
240.68440361362
 30
0.0
 11
336.6192376066114
 21
240.68440361362
 31
0.0
  0
ARC
  5
24E9
  8
0
 10
327.0572169837972
 20
204.9632614146355
 30
0.0
 40
40.00000000000134
 50
68.19625201061586
 51
89.99999999999983
  0
ARC
  5
24EA
  8
0
 10
328.65424659462
 20
231.3216460949784
 30
0.0
 40
11.66928995911953
 50
53.35430018217612
 51
93.01325776866135
  0
ARC
  5
24EB
  8
0
 10
340.0572169838139
 20
237.4594150331823
 30
0.0
 40
4.99999999999799
 50
41.47327546866229
 51
68.19625201061902
1001
GENIUS_GENODEF_13
1002
{
1000
HIER
1070
     0
1002
}
1002
{
1000
MANEDIT
1070
     0
1002
}
1002
{
1000
NOSEL
1070
     0
1002
}
1002
{
1000
BEHIND
1070
     0
1002
}
1002
{
1000
REACTOR
1002
}
1001
GENIUS_GENOBJ-N-FIL_13
1002
{
1000
OWNER
1000
GEN
1002
}
  0
ARC
  5
24ED
  8
0
 10
103.269655973965
 20
212.166766866421
 30
0.0
 40
30.91919402524992
 50
78.72967692071798
 51
86.21889213639939
  0
LINE
  5
24EE
  8
0
 10
92.30861887672154
 20
244.9632614146514
 30
0.0
 11
118.3086188767325
 21
244.9632614146441
 31
0.0
  0
LINE
  5
24EF
  8
0
 10
82.80861887672154
 20
203.9632614146514
 30
0.0
 11
127.8086188767207
 21
203.9632614146514
 31
0.0
  0
LINE
  5
24F0
  8
0
 10
80.80861887672154
 20
211.7049311654538
 30
0.0
 11
129.8086188767207
 21
211.7049311654538
 31
0.0
  0
ARC
  5
24F1
  8
0
 10
105.3534441953524
 20
217.1412203357774
 30
0.0
 40
3.704509570427573
 50
269.3066925052582
 51
329.9640267076167
  0
LINE
  5
24F2
  8
0
 10
74.30861887672154
 20
237.4594150331961
 30
0.0
 11
74.30861887672154
 21
222.9632614146532
 31
0.0
  0
LINE
  5
24F3
  8
0
 10
75.083583997794
 20
222.9632614146532
 30
0.0
 11
75.083583997794
 21
239.5432589548147
 31
0.0
  0
LINE
  5
24F4
  8
0
 10
98.48065477679438
 20
240.6844036136355
 30
0.0
 11
98.48065477679438
 21
222.9632614146532
 31
0.0
  0
LINE
  5
24F5
  8
0
 10
83.74659825390745
 20
222.9632614146532
 30
0.0
 11
83.74659825390745
 21
240.6844036136355
 31
0.0
  0
ARC
  5
24F6
  8
0
 10
82.95516796778293
 20
214.0811588706559
 30
0.0
 40
0.5000000000001373
 50
246.2367264954113
 51
357.253232453353
1001
GENIUS_GENODEF_13
1002
{
1000
HIER
1070
     0
1002
}
1002
{
1000
MANEDIT
1070
     0
1002
}
1002
{
1000
NOSEL
1070
     0
1002
}
1002
{
1000
BEHIND
1070
     0
1002
}
1002
{
1000
REACTOR
1002
}
1001
GENIUS_GENOBJ-N-FIL_13
1002
{
1000
OWNER
1000
GEN
1002
}
  0
ARC
  5
24F7
  8
0
 10
82.80861887672154
 20
205.9632614146514
 30
0.0
 40
2.0
 50
180.0
 51
270.0
1001
GENIUS_GENODEF_13
1002
{
1000
HIER
1070
     0
1002
}
1002
{
1000
MANEDIT
1070
     0
1002
}
1002
{
1000
NOSEL
1070
     0
1002
}
1002
{
1000
BEHIND
1070
     0
1002
}
1002
{
1000
REACTOR
1002
}
1001
GENIUS_GENOBJ-N-FIL_13
1002
{
1000
OWNER
1000
GEN
1002
}
  0
LINE
  5
24F8
  8
0
 10
80.80861887672154
 20
211.7049311654538
 30
0.0
 11
80.80861887672154
 21
205.9632614146505
 31
0.0
  0
LINE
  5
24F9
  8
0
 10
80.80861887672154
 20
211.7049311654538
 30
0.0
 11
74.30861887672154
 21
222.9632614146532
 31
0.0
  0
ARC
  5
24FA
  8
0
 10
86.19705534298885
 20
220.9465237572242
 30
0.0
 40
8.092139528442901
 50
218.3219467238784
 51
244.8164215542301
  0
ARC
  5
24FB
  8
0
 10
111.6594654252161
 20
242.6071747920676
 30
0.0
 40
41.51720649287704
 50
208.2390387289535
 51
219.9850051421011
  0
LINE
  5
24FC
  8
0
 10
84.74659825390745
 20
222.9744234404045
 30
0.0
 11
97.48065477679438
 21
222.9632614146505
 31
0.0
  0
ARC
  5
24FD
  8
0
 10
-97.00313712549666
 20
222.7150000316222
 30
0.0
 40
180.6652985045642
 50
357.2532324534187
 51
0.0787330719278605
  0
ARC
  5
24FE
  8
0
 10
105.2637935581055
 20
217.1412203357774
 30
0.0
 40
3.704509570427561
 50
210.0359732923834
 51
270.6933074947418
  0
ARC
  5
24FF
  8
0
 10
114.627431436261
 20
225.814294577284
 30
0.0
 40
16.39654800819768
 50
190.0134925743618
 51
219.9445765225451
  0
ARC
  5
2500
  8
0
 10
92.30861887672154
 20
204.9632614146539
 30
0.0
 40
39.99999999999841
 50
90.0
 51
111.8037479893856
  0
ARC
  5
2501
  8
0
 10
79.86164720338593
 20
237.7492606085969
 30
0.0
 40
4.869076824715424
 50
37.07163361014624
 51
88.33534575517591
  0
ARC
  5
2502
  8
0
 10
79.30861887672131
 20
237.4594150331961
 30
0.0
 40
4.999999999999826
 50
111.803747989381
 51
180.0
1001
GENIUS_GENODEF_13
1002
{
1000
HIER
1070
     0
1002
}
1002
{
1000
MANEDIT
1070
     0
1002
}
1002
{
1000
NOSEL
1070
     0
1002
}
1002
{
1000
BEHIND
1070
     0
1002
}
1002
{
1000
REACTOR
1002
}
1001
GENIUS_GENOBJ-N-FIL_13
1002
{
1000
OWNER
1000
GEN
1002
}
  0
ARC
  5
2503
  8
0
 10
81.65726771432719
 20
234.4939084658993
 30
0.0
 40
8.289104774638442
 50
101.5112441720059
 51
142.4715634063257
  0
LINE
  5
2504
  8
0
 10
84.74659825390745
 20
240.6844036136355
 30
0.0
 11
97.48065477679438
 21
240.6844036136355
 31
0.0
  0
ARC
  5
2505
  8
0
 10
107.3475817794932
 20
212.1667668664176
 30
0.0
 40
30.91919402525333
 50
93.78110786360082
 51
101.2703230792818
  0
ARC
  5
2506
  8
0
 10
101.6659467473337
 20
238.8131208489157
 30
0.0
 40
3.694290746966676
 50
95.61023783028725
 51
149.5667841226168
  0
LINE
  5
2507
  8
0
 10
136.3086188767216
 20
237.4594150331952
 30
0.0
 11
136.3086188767216
 21
222.9632614146532
 31
0.0
  0
LINE
  5
2508
  8
0
 10
126.8706394995502
 20
222.9632614146532
 30
0.0
 11
126.8706394995502
 21
240.6844036136355
 31
0.0
  0
LINE
  5
2509
  8
0
 10
135.5336537556637
 20
222.9632614146532
 30
0.0
 11
135.5336537556637
 21
239.5432589548147
 31
0.0
  0
LINE
  5
250A
  8
0
 10
112.1365829766642
 20
240.6844036136355
 30
0.0
 11
112.1365829766642
 21
222.9632614146532
 31
0.0
  0
LINE
  5
250B
  8
0
 10
129.8086188767207
 20
211.7049311654529
 30
0.0
 11
136.3086188767216
 21
222.9632614146532
 31
0.0
  0
ARC
  5
250C
  8
0
 10
98.95777232823514
 20
242.6071747920726
 30
0.0
 40
41.51720649288583
 50
320.0149948579001
 51
331.7609612710451
  0
ARC
  5
250D
  8
0
 10
127.8086188767207
 20
205.9632614146514
 30
0.0
 40
2.0
 50
269.9999999999984
 51
0.0
1001
GENIUS_GENODEF_13
1002
{
1000
HIER
1070
     0
1002
}
1002
{
1000
MANEDIT
1070
     0
1002
}
1002
{
1000
NOSEL
1070
     0
1002
}
1002
{
1000
BEHIND
1070
     0
1002
}
1002
{
1000
REACTOR
1002
}
1001
GENIUS_GENOBJ-N-FIL_13
1002
{
1000
OWNER
1000
GEN
1002
}
  0
LINE
  5
250E
  8
0
 10
125.955246948774
 20
222.9632614146532
 30
0.0
 11
113.1365829766642
 21
222.9632614146532
 31
0.0
  0
ARC
  5
250F
  8
0
 10
95.98980631720008
 20
225.8142945772823
 30
0.0
 40
16.39654800819415
 50
320.0554234774524
 51
349.9865074256933
  0
LINE
  5
2510
  8
0
 10
129.8086188767207
 20
211.7049311654529
 30
0.0
 11
129.8086188767207
 21
205.9632614146505
 31
0.0
  0
ARC
  5
2511
  8
0
 10
307.6203748789543
 20
222.7150000316242
 30
0.0
 40
180.6652985045639
 50
179.9212669280768
 51
182.7467675465875
  0
ARC
  5
2512
  8
0
 10
124.4201824104699
 20
220.9465237572242
 30
0.0
 40
8.092139528442887
 50
295.1835784457699
 51
321.6780532761216
  0
ARC
  5
2513
  8
0
 10
127.6620697856757
 20
214.0811588706558
 30
0.0
 40
0.5000000000000417
 50
182.7467675466345
 51
293.763273504594
1001
GENIUS_GENODEF_13
1002
{
1000
HIER
1070
     0
1002
}
1002
{
1000
MANEDIT
1070
     0
1002
}
1002
{
1000
NOSEL
1070
     0
1002
}
1002
{
1000
BEHIND
1070
     0
1002
}
1002
{
1000
REACTOR
1002
}
1001
GENIUS_GENOBJ-N-FIL_13
1002
{
1000
OWNER
1000
GEN
1002
}
  0
ARC
  5
2514
  8
0
 10
118.3086188767206
 20
204.9632614146524
 30
0.0
 40
39.99999999999903
 50
68.19625201061444
 51
90.0
  0
ARC
  5
2515
  8
0
 10
128.9599700391315
 20
234.4939084658993
 30
0.0
 40
8.289104774638432
 50
37.52843659367432
 51
78.48875582799408
  0
LINE
  5
2516
  8
0
 10
125.955246948774
 20
240.6844036136346
 30
0.0
 11
113.1365829766642
 21
240.6844036136355
 31
0.0
  0
ARC
  5
2517
  8
0
 10
108.9512910061239
 20
238.8131208489157
 30
0.0
 40
3.69429074696669
 50
30.43321587738312
 51
84.38976216971277
  0
ARC
  5
2518
  8
0
 10
130.7555905500727
 20
237.7492606085969
 30
0.0
 40
4.869076824715402
 50
91.66465424482342
 51
142.9283663898535
  0
ARC
  5
2519
  8
0
 10
131.3086188767219
 20
237.4594150331953
 30
0.0
 40
4.999999999999716
 50
0.0
 51
68.19625201061916
1001
GENIUS_GENODEF_13
1002
{
1000
HIER
1070
     0
1002
}
1002
{
1000
MANEDIT
1070
     0
1002
}
1002
{
1000
NOSEL
1070
     0
1002
}
1002
{
1000
BEHIND
1070
     0
1002
}
1002
{
1000
REACTOR
1002
}
1001
GENIUS_GENOBJ-N-FIL_13
1002
{
1000
OWNER
1000
GEN
1002
}
  0
POLYLINE
  5
251B
  8
0
 66
     1
 10
0.0
 20
0.0
 30
0.0
 70
     1
  0
VERTEX
  5
256F
  8
0
 10
321.0788586091517
 20
438.9192076607728
 30
0.0
 42
0.1147433684531263
  0
VERTEX
  5
2570
  8
0
 10
307.0355753584558
 20
438.9192076607728
 30
0.0
 42
0.3169980516087132
  0
VERTEX
  5
2571
  8
0
 10
305.5016573504759
 20
437.1994866449154
 30
0.0
 42
-0.5034443575988989
  0
VERTEX
  5
2572
  8
0
 10
293.6752766171326
 20
430.371522544981
 30
0.0
 42
0.3169980516087056
  0
VERTEX
  5
2573
  8
0
 10
291.4189955259876
 20
429.9029710906766
 30
0.0
 42
0.1147433684531285
  0
VERTEX
  5
2574
  8
0
 10
284.3973539006397
 20
417.741131043033
 30
0.0
 42
0.3169980516087055
  0
VERTEX
  5
2575
  8
0
 10
285.1197169838038
 20
415.5528585728712
 30
0.0
 42
-0.5034443575988864
  0
VERTEX
  5
2576
  8
0
 10
285.1197169838038
 20
401.8969303730014
 30
0.0
 42
0.3169980516087206
  0
VERTEX
  5
2577
  8
0
 10
284.3973539006397
 20
399.7086579028396
 30
0.0
 42
0.1147433684531274
  0
VERTEX
  5
2578
  8
0
 10
291.4189955259876
 20
387.5468178551969
 30
0.0
 42
0.3169980516087066
  0
VERTEX
  5
2579
  8
0
 10
293.6752766171326
 20
387.0782664008916
 30
0.0
 42
-0.503444357598898
  0
VERTEX
  5
257A
  8
0
 10
305.5016573504759
 20
380.2503023009572
 30
0.0
 42
0.316998051608725
  0
VERTEX
  5
257B
  8
0
 10
307.0355753584558
 20
378.5305812850997
 30
0.0
 42
0.1147433684531251
  0
VERTEX
  5
257C
  8
0
 10
321.0788586091517
 20
378.5305812850997
 30
0.0
 42
0.3169980516087174
  0
VERTEX
  5
257D
  8
0
 10
322.6127766171317
 20
380.2503023009572
 30
0.0
 42
-0.503444357598898
  0
VERTEX
  5
257E
  8
0
 10
334.4391573504749
 20
387.0782664008916
 30
0.0
 42
0.3169980516087068
  0
VERTEX
  5
257F
  8
0
 10
336.6954384416199
 20
387.5468178551969
 30
0.0
 42
0.1147433684531273
  0
VERTEX
  5
2580
  8
0
 10
343.7170800669678
 20
399.7086579028396
 30
0.0
 42
0.3169980516087207
  0
VERTEX
  5
2581
  8
0
 10
342.9947169838038
 20
401.8969303730014
 30
0.0
 42
-0.5034443575988866
  0
VERTEX
  5
2582
  8
0
 10
342.9947169838038
 20
415.5528585728712
 30
0.0
 42
0.3169980516087057
  0
VERTEX
  5
2583
  8
0
 10
343.7170800669678
 20
417.741131043033
 30
0.0
 42
0.1147433684531281
  0
VERTEX
  5
2584
  8
0
 10
336.6954384416199
 20
429.9029710906766
 30
0.0
 42
0.3169980516087061
  0
VERTEX
  5
2585
  8
0
 10
334.4391573504749
 20
430.371522544981
 30
0.0
 42
-0.5034443575988988
  0
VERTEX
  5
2586
  8
0
 10
322.6127766171317
 20
437.1994866449154
 30
0.0
 42
0.3169980516087095
  0
SEQEND
  5
2589
  8
0
  0
CIRCLE
  5
251C
  8
0
 10
314.0572169838038
 20
408.7248944729367
 30
0.0
 40
11.0
  0
VIEWPORT
  5
22
 67
     1
  8
0
 10
5.269134197284911
 20
5.545311567251436
 30
0.0
 40
11.13808705479925
 41
12.32365374410561
 68
     1
 69
     1
1001
GENIUS_GENSCREG_15
1000
PF
1040
1.0
1000
DF
1040
1.0
1000
MIN
1011
-0.2999093301147138
1021
-0.6165153048013714
1031
0.0
1021
-0.6165153048013714
1031
0.0
1000
MAX
1011
10.83817772468454
1021
11.70713843930424
1031
0.0
1021
11.70713843930424
1031
0.0
1000
FLAGS
1070
     4
1001
GENIUS_GENODEF_13
1002
{
1000
HIER
1070
     0
1002
}
1002
{
1000
MANEDIT
1070
     0
1002
}
1002
{
1000
NOSEL
1070
     0
1002
}
1002
{
1000
BEHIND
1070
     0
1002
}
1002
{
1000
OTHER
1070
     0
1002
}
1002
{
1000
REACTOR
1002
}
1001
GENIUS_GENOBJ-N-SDF_13
1002
{
1000
OWNER
1000
GEN
1002
}
1001
ACAD
1000
MVIEW
1002
{
1070
    16
1010
0.0
1020
0.0
1030
0.0
1020
0.0
1030
0.0
1010
0.0
1020
0.0
1030
1.0
1020
0.0
1030
1.0
1040
0.0
1040
12.32365374410561
1040
5.269134197284911
1040
5.545311567251436
1040
50.0
1040
0.0
1040
0.0
1070
     0
1070
   100
1070
     0
1070
     1
1070
     0
1070
     0
1070
     0
1070
     0
1040
0.0
1040
0.0
1040
0.0
1040
1.0
1040
1.0
1040
10.0
1040
10.0
1070
     0
1002
{
1002
}
1002
}
  0
ENDSEC
  0
EOF
