  0
SECTION
  2
HEADER
  9
$ACADVER
  1
AC1009
  9
$DWGCODEPAGE
  3
ansi_932
  9
$INSBASE
 10
0.0
 20
0.0
 30
0.0
  9
$EXTMIN
 10
0.0000019319777493
 20
-0.4999933017184119
 30
0.0
  9
$EXTMAX
 10
236.9166685986444
 20
294.6851378947829
 30
0.0
  9
$LIMMIN
 10
0.0
 20
0.0
  9
$LIMMAX
 10
420.0
 20
420.0
  9
$ORTHOMODE
 70
     1
  9
$REGENMODE
 70
     1
  9
$FILLMODE
 70
     1
  9
$QTEXTMODE
 70
     0
  9
$MIRRTEXT
 70
     0
  9
$DRAGMODE
 70
     2
  9
$LTSCALE
 40
10.0
  9
$OSMODE
 70
   549
  9
$ATTMODE
 70
     1
  9
$TEXTSIZE
 40
1.0
  9
$TRACEWID
 40
1.0
  9
$TEXTSTYLE
  7
STANDARD
  9
$CLAYER
  8
0
  9
$CELTYPE
  6
BYLAYER
  9
$CECOLOR
 62
   256
  9
$DIMSCALE
 40
1.0
  9
$DIMASZ
 40
2.5
  9
$DIMEXO
 40
1.0
  9
$DIMDLI
 40
7.0
  9
$DIMRND
 40
0.0
  9
$DIMDLE
 40
0.0
  9
$DIMEXE
 40
1.0
  9
$DIMTP
 40
0.1
  9
$DIMTM
 40
0.1
  9
$DIMTXT
 40
3.0
  9
$DIMCEN
 40
0.0
  9
$DIMTSZ
 40
0.0
  9
$DIMTOL
 70
     0
  9
$DIMLIM
 70
     0
  9
$DIMTIH
 70
     0
  9
$DIMTOH
 70
     0
  9
$DIMSE1
 70
     0
  9
$DIMSE2
 70
     0
  9
$DIMTAD
 70
     3
  9
$DIMZIN
 70
     8
  9
$DIMBLK
  1
OPEN
  9
$DIMASO
 70
     1
  9
$DIMSHO
 70
     1
  9
$DIMPOST
  1

  9
$DIMAPOST
  1
"
  9
$DIMALT
 70
     0
  9
$DIMALTD
 70
     2
  9
$DIMALTF
 40
0.0393701
  9
$DIMLFAC
 40
1.0
  9
$DIMTOFL
 70
     1
  9
$DIMTVP
 40
0.0
  9
$DIMTIX
 70
     0
  9
$DIMSOXD
 70
     0
  9
$DIMSAH
 70
     0
  9
$DIMBLK1
  1

  9
$DIMBLK2
  1

  9
$DIMSTYLE
  2
AM_JIS
  9
$DIMCLRD
 70
   256
  9
$DIMCLRE
 70
   256
  9
$DIMCLRT
 70
     2
  9
$DIMTFAC
 40
0.71
  9
$DIMGAP
 40
1.0
  9
$LUNITS
 70
     2
  9
$LUPREC
 70
     2
  9
$SKETCHINC
 40
1.0
  9
$FILLETRAD
 40
2.5
  9
$AUNITS
 70
     0
  9
$AUPREC
 70
     0
  9
$MENU
  1
.
  9
$ELEVATION
 40
0.0
  9
$PELEVATION
 40
0.0
  9
$THICKNESS
 40
0.0
  9
$LIMCHECK
 70
     0
  9
$CHAMFERA
 40
2.5
  9
$CHAMFERB
 40
2.5
  9
$SKPOLY
 70
     1
  9
$TDCREATE
 40
2457177.655267963
  9
$TDUPDATE
 40
2460346.654723299
  9
$TDINDWG
 40
0.0086569213
  9
$TDUSRTIMER
 40
0.0086483796
  9
$USRTIMER
 70
     1
  9
$ANGBASE
 50
0.0
  9
$ANGDIR
 70
     0
  9
$PDMODE
 70
     0
  9
$PDSIZE
 40
0.0
  9
$PLINEWID
 40
0.0
  9
$COORDS
 70
     0
  9
$SPLFRAME
 70
     0
  9
$SPLINETYPE
 70
     6
  9
$SPLINESEGS
 70
     8
  9
$ATTDIA
 70
     1
  9
$ATTREQ
 70
     1
  9
$HANDLING
 70
     1
  9
$HANDSEED
  5
A9E3
  9
$SURFTAB1
 70
     6
  9
$SURFTAB2
 70
     6
  9
$SURFTYPE
 70
     6
  9
$SURFU
 70
     6
  9
$SURFV
 70
     6
  9
$UCSNAME
  2

  9
$UCSORG
 10
0.0
 20
0.0
 30
0.0
  9
$UCSXDIR
 10
1.0
 20
0.0
 30
0.0
  9
$UCSYDIR
 10
0.0
 20
1.0
 30
0.0
  9
$PUCSNAME
  2

  9
$PUCSORG
 10
0.0
 20
0.0
 30
0.0
  9
$PUCSXDIR
 10
1.0
 20
0.0
 30
0.0
  9
$PUCSYDIR
 10
0.0
 20
1.0
 30
0.0
  9
$USERI1
 70
     0
  9
$USERI2
 70
     0
  9
$USERI3
 70
     0
  9
$USERI4
 70
     0
  9
$USERI5
 70
     0
  9
$USERR1
 40
0.0
  9
$USERR2
 40
0.0
  9
$USERR3
 40
0.0
  9
$USERR4
 40
0.0
  9
$USERR5
 40
0.0
  9
$WORLDVIEW
 70
     1
  9
$SHADEDGE
 70
     3
  9
$SHADEDIF
 70
    70
  9
$TILEMODE
 70
     1
  9
$MAXACTVP
 70
    48
  9
$PLIMCHECK
 70
     0
  9
$PEXTMIN
 10
1.000000000000000E+20
 20
1.000000000000000E+20
 30
1.000000000000000E+20
  9
$PEXTMAX
 10
-1.000000000000000E+20
 20
-1.000000000000000E+20
 30
-1.000000000000000E+20
  9
$PLIMMIN
 10
-0.2500002402958907
 20
-0.2499999962453767
  9
$PLIMMAX
 10
10.74999951940822
 20
8.249999763458732
  9
$UNITMODE
 70
     0
  9
$VISRETAIN
 70
     1
  9
$PLINEGEN
 70
     0
  9
$PSLTSCALE
 70
     1
  0
ENDSEC
  0
SECTION
  2
TABLES
  0
TABLE
  2
VPORT
 70
     1
  0
VPORT
  2
*ACTIVE
 70
     0
 10
0.0
 20
0.0
 11
1.0
 21
1.0
 12
210.0000000000001
 22
209.7500033491407
 13
0.0
 23
0.0
 14
2.5
 24
2.5
 15
10.0
 25
10.0
 16
0.0
 26
0.0
 36
1.0
 17
0.0
 27
0.0
 37
0.0
 40
423.7628448501313
 41
2.05293551491819
 42
50.0
 43
0.0
 44
0.0
 50
0.0
 51
0.0
 71
     0
 72
   100
 73
     1
 74
     3
 75
     0
 76
     0
 77
     0
 78
     0
  0
ENDTAB
  0
TABLE
  2
LTYPE
 70
    22
  0
LTYPE
  2
CONTINUOUS
 70
     0
  3
Solid line
 72
    65
 73
     0
 40
0.0
  0
LTYPE
  2
HIDDEN
 70
     0
  3
__ __ __ __ __ __ __ __ __ __ __ __ __ __ __ __
 72
    65
 73
     2
 40
0.375
 49
0.25
 49
-0.125
  0
LTYPE
  2
PHANTOM2
 70
     0
  3
___ _ _ ___ _ _ ___ _ _ ___ _ _ ___ _ _ ___ _ _
 72
    65
 73
     6
 40
1.25
 49
0.625
 49
-0.125
 49
0.125
 49
-0.125
 49
0.125
 49
-0.125
  0
LTYPE
  2
CENTER
 70
     0
  3
____ _ ____ _ ____ _ ____ _ ____ _ ____ _ ____ 
 72
    65
 73
     4
 40
2.0
 49
1.25
 49
-0.25
 49
0.25
 49
-0.25
  0
LTYPE
  2
ACJISTGB
 70
     0
  3
__ . . __ . .
 72
    65
 73
     6
 40
9.0
 49
4.0
 49
-1.0
 49
1.0
 49
-1.0
 49
1.0
 49
-1.0
  0
LTYPE
  2
ACJISTGL
 70
     0
  3
_ _ _ _ _
 72
    65
 73
     2
 40
3.0
 49
2.0
 49
-1.0
  0
LTYPE
  2
ACANSTGB
 70
     0
  3
__ . . __ . .
 72
    65
 73
     6
 40
0.35433070866
 49
0.15748031496
 49
-0.03937007874
 49
0.03937007874
 49
-0.03937007874
 49
0.03937007874
 49
-0.03937007874
  0
LTYPE
  2
ACANSTGL
 70
     0
  3
_ _ _ _ _
 72
    65
 73
     2
 40
0.11811023622
 49
0.07874015748
 49
-0.03937007874
  0
LTYPE
  2
ACISOWELD
 70
     0
  3
_ _ _ _ _
 72
    65
 73
     2
 40
2.0
 49
2.0
 49
-1.0
  0
LTYPE
  2
ACISOTGB
 70
     0
  3
__ . . __ . .
 72
    65
 73
     6
 40
9.0
 49
4.0
 49
-1.0
 49
1.0
 49
-1.0
 49
1.0
 49
-1.0
  0
LTYPE
  2
ACISOTGL
 70
     0
  3
_ _ _ _ _
 72
    65
 73
     2
 40
3.0
 49
2.0
 49
-1.0
  0
LTYPE
  2
AM_ISO02W050
 70
     0
  3
__ __ __ __ __ __ __ __ __ __ __ __ __ __ __
 72
    65
 73
     2
 40
7.5
 49
6.0
 49
-1.5
  0
LTYPE
  2
AM_ISO08W050
 70
     0
  3
____ . ____ . ____ . ____ . ____ . ____ . ____
 72
    65
 73
     4
 40
18.0
 49
12.0
 49
-1.5
 49
3.0
 49
-1.5
  0
LTYPE
  2
AM_ISO09W050
 70
     0
  3
_____ . . _____ . . _____ . . ____ .. ____
 72
    65
 73
     6
 40
22.5
 49
12.0
 49
-1.5
 49
3.0
 49
-1.5
 49
3.0
 49
-1.5
  0
LTYPE
  2
AM_ISO02W050X2
 70
     0
  3
 _ _ _ _ _ _ _ _ _ _ _ _
 72
    65
 73
     2
 40
3.75
 49
3.0
 49
-0.75
  0
LTYPE
  2
AM_ISO08W050X2
 70
     0
  3
__ . __ . __ . __ . __ . __
 72
    65
 73
     4
 40
9.0
 49
6.0
 49
-0.75
 49
1.5
 49
-0.75
  0
LTYPE
  2
AMZIGZAG
 70
     0
  3
/\/-/\/-/\/-/\/-/\/-/\/
 72
    65
 73
     2
 40
11.0001
 49
0.0001
 49
-11.0
  0
LTYPE
  2
AMCONSTR
 70
     0
  3
_______________________
 72
    65
 73
     2
 40
9999.0
 49
9999.0
 49
0.0
  0
LTYPE
  2
CENTER2
 70
     0
  3
Center (.5x) ___ _ ___ _ ___ _ ___ _ ___ _ ___
 72
    65
 73
     4
 40
1.125
 49
0.75
 49
-0.125
 49
0.125
 49
-0.125
  0
LTYPE
  2
HIDDEN2
 70
     0
  3
Hidden (.5x) _ _ _ _ _ _ _ _ _ _ _ _ _ _ _ _ _
 72
    65
 73
     2
 40
0.1875
 49
0.125
 49
-0.0625
  0
LTYPE
  2
AMZIGZAG2
 70
     0
  3
/\/-/\/-/\/-/\/-/\/-/\/
 72
    65
 73
     2
 40
0.4401
 49
0.0001
 49
-0.44
  0
LTYPE
  2
ACJISWELD
 70
     0
  3
_ _ _ _ _
 72
    65
 73
     2
 40
2.0
 49
2.0
 49
-1.0
  0
ENDTAB
  0
TABLE
  2
LAYER
 70
     5
  0
LAYER
  2
0
 70
     0
 62
     7
  6
CONTINUOUS
  0
LAYER
  2
7
 70
     0
 62
     4
  6
CENTER2
  0
LAYER
  2
10
 70
     0
 62
     2
  6
CONTINUOUS
  0
LAYER
  2
DEFPOINTS
 70
     0
 62
     7
  6
CONTINUOUS
  0
LAYER
  2
AM_0
 70
     0
 62
     7
  6
CONTINUOUS
  0
ENDTAB
  0
TABLE
  2
STYLE
 70
     7
  0
STYLE
  2
STANDARD
 70
     0
 40
0.0
 41
1.0
 50
0.0
 71
     0
 42
1.0
  3
ISOCP.SHX
  4
EXTFONT.SHX
  0
STYLE
  2
ACJISTS
 70
     0
 40
1.0
 41
1.0
 50
0.0
 71
     0
 42
3.5
  3
isocp.shx
  4
extfont.shx
  0
STYLE
  2
ACJISGDT
 70
     0
 40
0.0
 41
1.0
 50
0.0
 71
     0
 42
3.5
  3
amgdt.shx
  4
extfont.shx
  0
STYLE
  2
ACANSGDT
 70
     0
 40
0.0
 41
1.0
 50
0.0
 71
     0
 42
3.5
  3
amgdt.shx
  4
extfont.shx
  0
STYLE
  2
ACISOTS
 70
     0
 40
1.0
 41
1.0
 50
0.0
 71
     0
 42
1.0
  3
isocp.shx
  4
extfont.shx
  0
STYLE
  2
ACISOGDT
 70
     0
 40
0.0
 41
1.0
 50
0.0
 71
     0
 42
3.5
  3
amgdt.shx
  4
extfont.shx
  0
STYLE
  2

 70
     1
 40
0.0
 41
1.0
 50
0.0
 71
     0
 42
3.5
  3
ltypeshp.shx
  4

  0
ENDTAB
  0
TABLE
  2
VIEW
 70
     3
  0
VIEW
  2
AMDTVIEW1
 70
     0
 40
329.0721649484536
 10
210.0
 20
164.5360824742268
 41
420.0
 11
0.0
 21
0.0
 31
1.0
 12
0.0
 22
0.0
 32
0.0
 42
50.0
 43
0.0
 44
0.0
 50
0.0
 71
     0
  0
VIEW
  2
AMDTVIEW2
 70
     0
 40
329.0721649484536
 10
210.0
 20
164.5360824742268
 41
420.0
 11
0.0
 21
0.0
 31
1.0
 12
0.0
 22
0.0
 32
0.0
 42
50.0
 43
0.0
 44
0.0
 50
0.0
 71
     0
  0
VIEW
  2
AMDTVIEW3
 70
     0
 40
329.0721649484536
 10
210.0
 20
164.5360824742268
 41
420.0
 11
0.0
 21
0.0
 31
1.0
 12
0.0
 22
0.0
 32
0.0
 42
50.0
 43
0.0
 44
0.0
 50
0.0
 71
     0
  0
ENDTAB
  0
TABLE
  2
UCS
 70
     0
  0
ENDTAB
  0
TABLE
  2
APPID
 70
    67
  0
APPID
  2
ACAD
 70
     0
  0
APPID
  2
AD_DRAW
 70
     0
  0
APPID
  2
DESIGNERASSEMBLIES
 70
     0
  0
APPID
  2
MCAD_NO_VIS
 70
     0
  0
APPID
  2
ASURF_PCURVE_APPNAME
 70
     0
  0
APPID
  2
ACAD_TEMP_GRAPHIC
 70
     0
  0
APPID
  2
ACATTRIBSERVICES
 70
     0
  0
APPID
  2
ACADM_DIM_EDIT
 70
     0
  0
APPID
  2
GENIUS_GENDIM_13
 70
     0
  0
APPID
  2
GENIUS_GENDTOL_13
 70
     0
  0
APPID
  2
GENIUS_GE3DTOL_13
 70
     0
  0
APPID
  2
AMG_3D2D_5_0
 70
     0
  0
APPID
  2
AMDT_DM_ADJ
 70
     0
  0
APPID
  2
ACAD_PSEXT
 70
     0
  0
APPID
  2
ACAD_DSTYLE_DIMTEXT_FILL
 70
     0
  0
APPID
  2
ACAECLAYERSTANDARD
 70
     0
  0
APPID
  2
GENIUS_GENREC_14
 70
     0
  0
APPID
  2
GENIUS_GENODEF_13
 70
     0
  0
APPID
  2
GENIUS_GENOBJ-N-REC_13
 70
     0
  0
APPID
  2
DCO15
 70
     0
  0
APPID
  2
ACAD_DSTYLE_DIMJAG
 70
     0
  0
APPID
  2
ACAD_DSTYLE_DIMTALN
 70
     0
  0
APPID
  2
ACAD_MLEADERVER
 70
     0
  0
APPID
  2
GENIUS_GENSCREG_15
 70
     0
  0
APPID
  2
GENIUS_GENOBJ-N-SDF_13
 70
     0
  0
APPID
  2
ACAD_NAV_VCDISPLAY
 70
     0
  0
APPID
  2
ACAD_EXEMPT_FROM_CAD_STAND
 70
     0
  0
APPID
  2
ACCMTRANSPARENCY
 70
     0
  0
APPID
  2
GENIUS_GENOBJ-N-CEN_13
 70
     0
  0
APPID
  2
GENIUS_GENOBJ-N-FIL_13
 70
     0
  0
APPID
  2
GENIUS_GENCEN_19
 70
     0
  0
APPID
  2
ACAD_DSTYLE_DIMBREAK
 70
     0
  0
APPID
  2
PLOTTRANSPARENCY
 70
     0
  0
APPID
  2
ACAD_SPLINE_DATA
 70
     0
  0
APPID
  2
ACAD_SPLINE_DATA2
 70
     0
  0
APPID
  2
HC_SUPERPART
 70
     0
  0
APPID
  2
HC_SP4BLOCK
 70
     0
  0
APPID
  2
HC_XDATA_SPRING
 70
     0
  0
APPID
  2
HCCAD_FRAME
 70
     0
  0
APPID
  2
GENIUS_GENOLIS_13
 70
     0
  0
APPID
  2
GENIUS_GENOENT_13
 70
     0
  0
APPID
  2
GENIUS_GENOREF_13
 70
     0
  0
APPID
  2
GENIUS_GENOBJ-N-TIT_13
 70
     0
  0
APPID
  2
GENIUS_GENOBJ-N-ZOO_13
 70
     0
  0
APPID
  2
GENIUS_GENTITLE_13
 70
     0
  0
APPID
  2
GENIUS_GENSYMENT_13
 70
     0
  0
APPID
  2
GENIUS_GENSCSYM_13
 70
     0
  0
APPID
  2
GENIUS_GENOBJ-N-REV_13
 70
     0
  0
APPID
  2
GENIUS_GENOBJ-N-RSSYM_13
 70
     0
  0
APPID
  2
GENIUS_GENREV_15
 70
     0
  0
APPID
  2
HRA
 70
     0
  0
APPID
  2
HTIT
 70
     0
  0
APPID
  2
GENIUS_GENZOO_17
 70
     0
  0
APPID
  2
GENIUS_GENOBJ-N-CRS_13
 70
     0
  0
APPID
  2
GENIUS_GENCRS_20
 70
     0
  0
APPID
  2
GENIUS_GENOBJ-N-CRC_13
 70
     0
  0
APPID
  2
GENIUS_GENCRC_14
 70
     0
  0
APPID
  2
GENIUS_GENFIL_13
 70
     0
  0
APPID
  2
GENIUS_GENOBJ-N-CHA_13
 70
     0
  0
APPID
  2
GENIUS_GENHATCH_13
 70
     0
  0
APPID
  2
GENIUS_GENOBJ-N-HTC_13
 70
     0
  0
APPID
  2
GENIUS_GENOBJ-N-DIM_13
 70
     0
  0
APPID
  2
GENIUS_GENOBJ-N-DIMLI_13
 70
     0
  0
APPID
  2
GENIUS_GENOBJ-N-FITL_13
 70
     0
  0
APPID
  2
GENIUS_GENFITL_13
 70
     0
  0
APPID
  2
GENLAYCOLOR
 70
     0
  0
APPID
  2
ACADANNOTATIVE
 70
     0
  0
ENDTAB
  0
TABLE
  2
DIMSTYLE
 70
    23
  0
DIMSTYLE
  2
STANDARD
 70
     0
  3

  4

  5

  6

  7

 40
1.0
 41
2.5
 42
0.625
 43
3.75
 44
1.25
 45
0.0
 46
0.0
 47
0.0
 48
0.0
140
2.5
141
2.5
142
0.0
143
0.0394
144
1.0
145
0.0
146
1.0
147
0.625
 71
     0
 72
     0
 73
     0
 74
     0
 75
     0
 76
     0
 77
     1
 78
     8
170
     0
171
     4
172
     1
173
     0
174
     0
175
     0
176
     0
177
     0
178
     0
  0
DIMSTYLE
  2
AM_JIS
 70
     0
  3

  4
"
  5
OPEN
  6

  7

 40
1.0
 41
2.5
 42
1.0
 43
7.0
 44
1.0
 45
0.0
 46
0.0
 47
0.1
 48
0.1
140
3.0
141
0.0
142
0.0
143
0.0393701
144
1.0
145
0.0
146
0.71
147
1.0
 71
     0
 72
     0
 73
     0
 74
     0
 75
     0
 76
     0
 77
     3
 78
     8
170
     0
171
     2
172
     1
173
     0
174
     0
175
     0
176
   256
177
   256
178
     2
  0
DIMSTYLE
  2
AM_JIS$3
 70
     0
  3

  4
"
  5
OPEN
  6

  7

 40
1.0
 41
2.5
 42
1.0
 43
10.0
 44
1.0
 45
0.0
 46
0.0
 47
0.1
 48
0.1
140
3.0
141
0.0
142
0.0
143
0.0393701
144
1.0
145
0.0
146
0.71
147
1.0
 71
     0
 72
     0
 73
     0
 74
     0
 75
     0
 76
     0
 77
     3
 78
     8
170
     0
171
     2
172
     1
173
     0
174
     0
175
     0
176
   256
177
   256
178
     2
  0
DIMSTYLE
  2
AM_JIS$4
 70
     0
  3

  4
"
  5

  6
OPEN30
  7
OPEN
 40
1.0
 41
2.5
 42
1.0
 43
10.0
 44
1.0
 45
0.0
 46
0.0
 47
0.1
 48
0.1
140
3.0
141
0.0
142
0.0
143
0.0393701
144
1.0
145
0.0
146
0.71
147
1.0
 71
     0
 72
     0
 73
     0
 74
     0
 75
     0
 76
     0
 77
     3
 78
     8
170
     0
171
     2
172
     1
173
     1
174
     0
175
     0
176
   256
177
   256
178
     2
  0
DIMSTYLE
  2
AM_JIS$6
 70
     0
  3

  4
"
  5
OPEN30
  6
OPEN30
  7
OPEN30
 40
1.0
 41
2.5
 42
1.0
 43
10.0
 44
1.0
 45
0.0
 46
0.0
 47
0.1
 48
0.1
140
3.5
141
0.0
142
0.0
143
0.0393701
144
1.0
145
0.0
146
0.71
147
1.5
 71
     0
 72
     0
 73
     0
 74
     0
 75
     0
 76
     0
 77
     0
 78
     8
170
     0
171
     2
172
     1
173
     0
174
     0
175
     0
176
   256
177
   256
178
     2
  0
DIMSTYLE
  2
AM_JIS$7
 70
     0
  3

  4
"
  5
OPEN30
  6

  7

 40
1.0
 41
2.5
 42
1.0
 43
10.0
 44
1.0
 45
0.0
 46
0.0
 47
0.1
 48
0.1
140
3.0
141
0.0
142
0.0
143
0.0393701
144
1.0
145
0.0
146
0.71
147
1.0
 71
     0
 72
     0
 73
     0
 74
     0
 75
     0
 76
     0
 77
     3
 78
     8
170
     0
171
     2
172
     1
173
     0
174
     0
175
     0
176
   256
177
   256
178
     2
  0
DIMSTYLE
  2
AM_JIS$SF
 70
     0
  3

  4
"
  5
OPEN
  6

  7

 40
1.0
 41
2.5
 42
1.0
 43
7.0
 44
1.0
 45
0.0
 46
0.0
 47
0.1
 48
0.1
140
3.5
141
0.0
142
0.0
143
0.0393701
144
1.0
145
0.0
146
0.71
147
1.5
 71
     0
 72
     0
 73
     0
 74
     0
 75
     1
 76
     1
 77
     3
 78
     8
170
     0
171
     2
172
     1
173
     0
174
     0
175
     0
176
   256
177
   256
178
     2
  0
DIMSTYLE
  2
AM_JIS$SH
 70
     0
  3

  4
"
  5

  6
GENAXEH
  7
OPEN
 40
1.0
 41
2.5
 42
1.0
 43
7.0
 44
1.0
 45
0.0
 46
0.0
 47
0.1
 48
0.1
140
3.5
141
0.0
142
0.0
143
0.0393701
144
2.0
145
0.0
146
0.71
147
1.5
 71
     0
 72
     0
 73
     0
 74
     0
 75
     1
 76
     1
 77
     3
 78
     8
170
     0
171
     2
172
     1
173
     1
174
     0
175
     0
176
   256
177
   256
178
     2
  0
DIMSTYLE
  2
AM_ANSI
 70
     0
  3

  4
mm
  5

  6

  7

 40
1.0
 41
0.1
 42
0.05
 43
0.5
 44
0.1
 45
0.0
 46
0.0
 47
0.1
 48
0.1
140
0.12
141
0.0
142
0.0
143
25.4
144
1.0
145
0.0
146
0.71
147
0.06
 71
     0
 72
     0
 73
     1
 74
     1
 75
     0
 76
     0
 77
     0
 78
     7
170
     0
171
     2
172
     0
173
     0
174
     0
175
     0
176
   256
177
   256
178
     2
  0
DIMSTYLE
  2
AM_ANSI$3
 70
     0
  3

  4
mm
  5

  6

  7

 40
1.0
 41
0.1
 42
0.05
 43
0.5
 44
0.1
 45
0.0
 46
0.0
 47
0.1
 48
0.1
140
0.12
141
0.0
142
0.0
143
25.4
144
1.0
145
0.0
146
0.71
147
0.06
 71
     0
 72
     0
 73
     1
 74
     1
 75
     0
 76
     0
 77
     0
 78
     7
170
     0
171
     2
172
     0
173
     0
174
     0
175
     0
176
   256
177
   256
178
     2
  0
DIMSTYLE
  2
AM_ANSI$4
 70
     0
  3

  4
mm
  5

  6

  7

 40
1.0
 41
0.1
 42
0.05
 43
0.5
 44
0.1
 45
0.0
 46
0.0
 47
0.1
 48
0.1
140
0.12
141
0.0
142
0.0
143
25.4
144
1.0
145
0.0
146
0.71
147
0.06
 71
     0
 72
     0
 73
     1
 74
     1
 75
     0
 76
     0
 77
     0
 78
     7
170
     0
171
     2
172
     0
173
     0
174
     0
175
     0
176
   256
177
   256
178
     2
  0
DIMSTYLE
  2
AM_ANSI$7
 70
     0
  3

  4
mm
  5

  6

  7

 40
1.0
 41
0.1
 42
0.05
 43
0.5
 44
0.1
 45
0.0
 46
0.0
 47
0.1
 48
0.1
140
0.24
141
0.0
142
0.0
143
25.4
144
1.0
145
0.0
146
0.71
147
0.06
 71
     0
 72
     0
 73
     1
 74
     1
 75
     0
 76
     0
 77
     0
 78
     7
170
     0
171
     2
172
     0
173
     0
174
     0
175
     0
176
   256
177
   256
178
     2
  0
DIMSTYLE
  2
AM_ANSI$SF
 70
     0
  3

  4
mm
  5

  6

  7

 40
1.0
 41
0.1
 42
0.05
 43
0.5
 44
0.1
 45
0.0
 46
0.0
 47
0.1
 48
0.1
140
0.12
141
0.0
142
0.0
143
25.4
144
1.0
145
0.0
146
0.71
147
0.06
 71
     0
 72
     0
 73
     1
 74
     1
 75
     1
 76
     1
 77
     0
 78
     7
170
     0
171
     2
172
     0
173
     0
174
     0
175
     0
176
   256
177
   256
178
     2
  0
DIMSTYLE
  2
AM_ANSI$SH
 70
     0
  3

  4
mm
  5

  6
GENAXEH
  7

 40
1.0
 41
0.1
 42
0.05
 43
0.5
 44
0.1
 45
0.0
 46
0.0
 47
0.1
 48
0.1
140
0.12
141
0.0
142
0.0
143
25.4
144
1.0
145
0.0
146
0.71
147
0.06
 71
     0
 72
     0
 73
     1
 74
     1
 75
     1
 76
     1
 77
     0
 78
     7
170
     0
171
     2
172
     0
173
     1
174
     0
175
     0
176
   256
177
   256
178
     2
  0
DIMSTYLE
  2
AM_ISO
 70
     0
  3

  4
"
  5

  6

  7

 40
1.0
 41
2.5
 42
1.0
 43
10.0
 44
1.0
 45
0.0
 46
0.0
 47
0.1
 48
0.1
140
3.5
141
0.0
142
0.0
143
0.0393701
144
1.0
145
0.0
146
0.71
147
1.5
 71
     0
 72
     0
 73
     0
 74
     0
 75
     0
 76
     0
 77
     1
 78
     8
170
     0
171
     2
172
     1
173
     0
174
     0
175
     0
176
   256
177
   256
178
     2
  0
DIMSTYLE
  2
AM_ISO$3
 70
     0
  3

  4
"
  5

  6

  7

 40
1.0
 41
2.5
 42
1.0
 43
10.0
 44
1.0
 45
0.0
 46
0.0
 47
0.1
 48
0.1
140
3.5
141
0.0
142
0.0
143
0.0393701
144
1.0
145
0.0
146
0.71
147
1.5
 71
     0
 72
     0
 73
     0
 74
     1
 75
     0
 76
     0
 77
     1
 78
     8
170
     0
171
     2
172
     0
173
     0
174
     0
175
     0
176
   256
177
   256
178
     2
  0
DIMSTYLE
  2
AM_ISO$4
 70
     0
  3

  4
"
  5

  6

  7

 40
1.0
 41
2.5
 42
1.0
 43
10.0
 44
1.0
 45
0.0
 46
0.0
 47
0.1
 48
0.1
140
3.5
141
0.0
142
0.0
143
0.0393701
144
1.0
145
0.0
146
0.71
147
1.5
 71
     0
 72
     0
 73
     0
 74
     1
 75
     0
 76
     0
 77
     1
 78
     8
170
     0
171
     2
172
     0
173
     0
174
     0
175
     0
176
   256
177
   256
178
     2
  0
DIMSTYLE
  2
AM_ISO$6
 70
     0
  3

  4
"
  5

  6

  7

 40
1.0
 41
2.5
 42
1.0
 43
10.0
 44
1.0
 45
0.0
 46
0.0
 47
0.1
 48
0.1
140
3.5
141
0.0
142
0.0
143
0.0393701
144
1.0
145
0.0
146
0.71
147
1.5
 71
     0
 72
     0
 73
     0
 74
     0
 75
     0
 76
     0
 77
     0
 78
     8
170
     0
171
     2
172
     1
173
     0
174
     0
175
     0
176
   256
177
   256
178
     2
  0
DIMSTYLE
  2
AM_ISO$7
 70
     0
  3

  4
"
  5

  6

  7

 40
1.0
 41
2.5
 42
1.0
 43
10.0
 44
1.0
 45
0.0
 46
0.0
 47
0.1
 48
0.1
140
5.0
141
0.0
142
0.0
143
0.0393701
144
1.0
145
0.0
146
0.71
147
1.5
 71
     0
 72
     0
 73
     0
 74
     0
 75
     0
 76
     0
 77
     1
 78
     8
170
     0
171
     2
172
     1
173
     0
174
     0
175
     0
176
   256
177
   256
178
     2
  0
DIMSTYLE
  2
AM_ISO$SF
 70
     0
  3

  4
"
  5

  6

  7

 40
1.0
 41
2.5
 42
1.0
 43
10.0
 44
1.0
 45
0.0
 46
0.0
 47
0.1
 48
0.1
140
3.5
141
0.0
142
0.0
143
0.0393701
144
1.0
145
0.0
146
0.71
147
1.5
 71
     0
 72
     0
 73
     0
 74
     0
 75
     1
 76
     1
 77
     1
 78
     8
170
     0
171
     2
172
     1
173
     0
174
     0
175
     0
176
   256
177
   256
178
     2
  0
DIMSTYLE
  2
AM_ISO$SH
 70
     0
  3

  4
"
  5

  6
GENAXEH
  7

 40
1.0
 41
2.5
 42
1.0
 43
10.0
 44
1.0
 45
0.0
 46
0.0
 47
0.1
 48
0.1
140
3.5
141
0.0
142
0.0
143
0.0393701
144
2.0
145
0.0
146
0.71
147
1.5
 71
     0
 72
     0
 73
     0
 74
     0
 75
     1
 76
     1
 77
     1
 78
     8
170
     0
171
     2
172
     1
173
     1
174
     0
175
     0
176
   256
177
   256
178
     2
  0
DIMSTYLE
  2
AM_JIS$2
 70
     0
  3

  4
"
  5
OPEN
  6

  7

 40
1.0
 41
2.5
 42
1.0
 43
7.0
 44
1.0
 45
0.0
 46
0.0
 47
0.1
 48
0.1
140
3.0
141
0.0
142
0.0
143
0.0393701
144
1.0
145
0.0
146
0.71
147
1.0
 71
     0
 72
     0
 73
     0
 74
     0
 75
     0
 76
     0
 77
     3
 78
     8
170
     0
171
     2
172
     1
173
     0
174
     0
175
     0
176
   256
177
   256
178
     2
  0
DIMSTYLE
  2
AM_JIS$0
 70
     0
  3

  4
"
  5
OPEN
  6

  7

 40
1.0
 41
2.5
 42
1.0
 43
7.0
 44
1.0
 45
0.0
 46
0.0
 47
0.1
 48
0.1
140
3.0
141
0.0
142
0.0
143
0.0393701
144
1.0
145
0.0
146
0.71
147
1.0
 71
     0
 72
     0
 73
     0
 74
     0
 75
     0
 76
     0
 77
     3
 78
     8
170
     0
171
     2
172
     1
173
     0
174
     0
175
     0
176
   256
177
   256
178
     2
  0
ENDTAB
  0
ENDSEC
  0
SECTION
  2
BLOCKS
  0
BLOCK
  8
0
  2
$MODEL_SPACE
 70
     0
 10
0.0
 20
0.0
 30
0.0
  3
$MODEL_SPACE
  1

  0
ENDBLK
  5
1C
  8
0
  0
BLOCK
 67
     1
  8
0
  2
$PAPER_SPACE
 70
     0
 10
0.0
 20
0.0
 30
0.0
  3
$PAPER_SPACE
  1

  0
ENDBLK
  5
19
 67
     1
  8
0
  0
BLOCK
  8
0
  2
_OPEN30
 70
     0
 10
0.0
 20
0.0
 30
0.0
  3
_OPEN30
  1

  0
LINE
  5
2EF
  8
0
  6
BYBLOCK
 62
     0
 10
-1.0
 20
0.26794919
 30
0.0
 11
0.0
 21
0.0
 31
0.0
  0
LINE
  5
2F0
  8
0
  6
BYBLOCK
 62
     0
 10
0.0
 20
0.0
 30
0.0
 11
-1.0
 21
-0.26794919
 31
0.0
  0
LINE
  5
2F1
  8
0
  6
BYBLOCK
 62
     0
 10
0.0
 20
0.0
 30
0.0
 11
-1.0
 21
0.0
 31
0.0
  0
ENDBLK
  5
2F3
  8
0
  0
BLOCK
  8
0
  2
GENAXEH
 70
     0
 10
0.0
 20
0.0
 30
0.0
  3
GENAXEH
  1

  0
LINE
  5
2F5
  8
0
 10
-1.0
 20
0.0
 30
0.0
 11
1.0
 21
0.0
 31
0.0
  0
ENDBLK
  5
2F7
  8
0
  0
BLOCK
  8
0
  2
_OPEN
 70
     0
 10
0.0
 20
0.0
 30
0.0
  3
_OPEN
  1

  0
LINE
  5
597
  8
0
  6
BYBLOCK
 62
     0
 10
-1.0
 20
0.1666666666666667
 30
0.0
 11
0.0
 21
0.0
 31
0.0
  0
LINE
  5
598
  8
0
  6
BYBLOCK
 62
     0
 10
-1.0
 20
-0.1666666666666667
 30
0.0
 11
0.0
 21
0.0
 31
0.0
  0
LINE
  5
599
  8
0
  6
BYBLOCK
 62
     0
 10
0.0
 20
0.0
 30
0.0
 11
-1.0
 21
0.0
 31
0.0
  0
ENDBLK
  5
59B
  8
0
  0
BLOCK
  8
0
  2
_TAGCIRCLE
 70
     2
 10
0.0
 20
0.0
 30
0.0
  3
_TAGCIRCLE
  1

  0
CIRCLE
  5
1151
  8
0
  6
BYBLOCK
 62
     0
 10
0.0
 20
0.0
 30
0.0
 40
4.0
  0
ATTDEF
  5
1152
  8
0
 62
     0
 10
-7.1
 20
-1.5
 30
0.0
 40
3.0
  1
タグ番号
 72
     1
 11
0.0
 21
-1.5
 31
0.0
  3
タグ番号を入力
  2
タグ番号
 70
     0
  0
ENDBLK
  5
1154
  8
0
  0
BLOCK
  8
0
  2
_ACMFILLED15
 70
     0
 10
0.0
 20
0.0
 30
0.0
  3
_ACMFILLED15
  1
Acad:XRef
  0
TRACE
  5
8271
  8
AM_0
 62
     0
 10
-1.0
 20
0.1316524975873958
 30
0.0
 11
-1.0
 21
-0.1316524975873958
 31
0.0
 12
0.0
 22
0.0
 32
0.0
 13
0.0
 23
0.0
 33
0.0
  0
ENDBLK
  5
826F
  8
0
  0
BLOCK
  8
0
  2
_ACMOPEN30
 70
     0
 10
0.0
 20
0.0
 30
0.0
  3
_ACMOPEN30
  1
Acad:XRef
  0
LINE
  5
827B
  8
AM_0
 62
     0
 10
-1.0
 20
0.0
 30
0.0
 11
0.0
 21
0.0
 31
0.0
  0
LINE
  5
827C
  8
AM_0
 62
     0
 10
-1.0
 20
-0.2679491924311227
 30
0.0
 11
0.0
 21
0.0
 31
0.0
  0
LINE
  5
827D
  8
AM_0
 62
     0
 10
-1.0
 20
0.2679491924311227
 30
0.0
 11
0.0
 21
0.0
 31
0.0
  0
ENDBLK
  5
827A
  8
0
  0
BLOCK
  8
0
  2
_ACMFILLEDHALF
 70
     0
 10
0.0
 20
0.0
 30
0.0
  3
_ACMFILLEDHALF
  1

  0
TRACE
  5
8286
  8
0
 62
     0
 10
-0.8
 20
0.0
 30
0.0
 11
-1.0
 21
0.166666666
 31
0.0
 12
0.0
 22
0.0
 32
0.0
 13
0.0
 23
0.0
 33
0.0
  0
LINE
  5
8287
  8
0
 62
     0
 10
-1.0
 20
0.0
 30
0.0
 11
-0.8
 21
0.0
 31
0.0
  0
ENDBLK
  5
8288
  8
0
  0
BLOCK
  8
0
  2
_ACMOPEN15
 70
     0
 10
0.0
 20
0.0
 30
0.0
  3
_ACMOPEN15
  1
Acad:XRef
  0
LINE
  5
8295
  8
AM_0
 62
     0
 10
-1.0
 20
0.0
 30
0.0
 11
0.0
 21
0.0
 31
0.0
  0
LINE
  5
8296
  8
AM_0
 62
     0
 10
-1.0
 20
-0.1316524975873958
 30
0.0
 11
0.0
 21
0.0
 31
0.0
  0
LINE
  5
8297
  8
AM_0
 62
     0
 10
-1.0
 20
0.1316524975873958
 30
0.0
 11
0.0
 21
0.0
 31
0.0
  0
ENDBLK
  5
8294
  8
0
  0
BLOCK
  8
0
  2
*X9
 70
     1
 10
0.0
 20
0.0
 30
0.0
  3
*X9
  1
Acad:XRef
  0
TEXT
  5
A9B8
  8
0
 62
     7
 10
69.35712706503354
 20
206.638447727807
 30
0.0
 40
1.9
  1
凍結
  0
TEXT
  5
A9B9
  8
0
 62
     7
 10
69.34302687950479
 20
203.3143289894026
 30
0.0
 40
1.9
  1
予防
  0
ENDBLK
  5
A9D9
  8
0
  0
ENDSEC
  0
SECTION
  2
ENTITIES
  0
TEXT
  5
17F0
  8
10
 10
-1.499998068022251
 20
0.0000066982815952
 30
0.0
 40
10.0
  1
2024.02.01 EV1K 1台単独(子機対応) 露出型
 11
-1.499998068022251
 21
0.0000066982815952
 31
0.0
 73
     1
  0
LINE
  5
4599
  8
0
 10
25.52185615177359
 20
289.8911378947829
 30
0.0
 11
125.5218561517736
 21
289.8911378947827
 31
0.0
  0
LINE
  5
459A
  8
0
 10
25.52185615177359
 20
169.8911378947828
 30
0.0
 11
125.5218561517736
 21
169.8911378947828
 31
0.0
  0
ARC
  5
459B
  8
0
 10
25.52185615177359
 20
281.8911378947829
 30
0.0
 40
8.0
 50
90.0
 51
180.0
  0
LINE
  5
459C
  8
0
 10
21.27921546465427
 20
286.133778581902
 30
0.0
 11
29.52185615177359
 21
277.8911378947829
 31
0.0
  0
LINE
  5
459D
  8
0
 10
31.52185615177359
 20
181.8911378947827
 30
0.0
 11
119.5218561517736
 21
181.8911378947829
 31
0.0
  0
LINE
  5
459E
  8
0
 10
31.52185615177359
 20
277.8911378947829
 30
0.0
 11
119.5218561517736
 21
277.8911378947828
 31
0.0
  0
LINE
  5
45A1
  8
0
 10
29.52185615177359
 20
275.8911378947829
 30
0.0
 11
29.52185615177359
 21
183.8911378947828
 31
0.0
  0
LINE
  5
45A3
  8
0
 10
17.52185615177359
 20
281.8911378947829
 30
0.0
 11
17.52185615177359
 21
177.8911378947828
 31
0.0
  0
LINE
  5
45A4
  8
0
 10
21.2792154646545
 20
173.6484972076634
 30
0.0
 11
29.52185615177359
 21
181.8911378947828
 31
0.0
  0
ARC
  5
45A5
  8
0
 10
25.52185615177359
 20
177.8911378947828
 30
0.0
 40
8.0
 50
180.0
 51
270.0
  0
ARC
  5
45A9
  8
0
 10
125.5218561517736
 20
281.8911378947827
 30
0.0
 40
8.0
 50
0.0
 51
90.0
  0
LINE
  5
45AA
  8
0
 10
129.7644968388929
 20
286.133778581902
 30
0.0
 11
121.5218561517736
 21
277.8911378947827
 31
0.0
  0
LINE
  5
45AC
  8
0
 10
121.5218561517736
 20
275.8911378947828
 30
0.0
 11
121.5218561517736
 21
183.8911378947829
 31
0.0
  0
LINE
  5
45AD
  8
0
 10
133.5218561517736
 20
281.8911378947827
 30
0.0
 11
133.5218561517736
 21
177.8911378947828
 31
0.0
  0
LINE
  5
45AE
  8
0
 10
121.5218561517736
 20
181.8911378947829
 30
0.0
 11
129.7644968388929
 21
173.6484972076633
 31
0.0
  0
ARC
  5
45AF
  8
0
 10
125.5218561517736
 20
177.8911378947828
 30
0.0
 40
8.0
 50
270.0
 51
0.0
  0
LINE
  5
6DD8
  8
0
 10
25.52185615177359
 20
290.5544378947828
 30
0.0
 11
125.5218561517736
 21
290.5544378947826
 31
0.0
  0
ARC
  5
6DD9
  8
0
 10
25.52185615177359
 20
281.8911378947828
 30
0.0
 40
8.6633
 50
90.0
 51
180.0
  0
LINE
  5
6DDA
  8
0
 10
16.85855615177366
 20
281.8911378947828
 30
0.0
 11
16.85855615177366
 21
177.8911378947828
 31
0.0
  0
ARC
  5
6DDB
  8
0
 10
25.52185615177359
 20
177.8911378947828
 30
0.0
 40
8.6633
 50
180.0
 51
270.0
  0
LINE
  5
6DDC
  8
0
 10
25.52185615177359
 20
169.2278378947828
 30
0.0
 11
125.5218561517736
 21
169.2278378947828
 31
0.0
  0
ARC
  5
6DDD
  8
0
 10
125.5218561517736
 20
177.8911378947828
 30
0.0
 40
8.6633
 50
270.0
 51
0.0
  0
LINE
  5
6DDE
  8
0
 10
134.1851561517735
 20
281.8911378947826
 30
0.0
 11
134.1851561517735
 21
177.8911378947828
 31
0.0
  0
ARC
  5
6DDF
  8
0
 10
125.5218561517736
 20
281.8911378947826
 30
0.0
 40
8.6633
 50
0.0
 51
90.0
  0
LINE
  5
81AA
  8
0
 10
178.9776239078599
 20
280.4759233190127
 30
0.0
 11
180.2735099621405
 21
287.8252583389501
 31
0.0
  0
LINE
  5
81AB
  8
0
 10
184.021856498226
 20
169.891137894783
 30
0.0
 11
184.021856498226
 21
289.891137894783
 31
0.0
  0
LINE
  5
81AC
  8
0
 10
178.521856498226
 20
184.5157978005605
 30
0.0
 11
178.521856498226
 21
275.2664779890049
 31
0.0
  0
LINE
  5
81AD
  8
0
 10
178.9776239078599
 20
179.3063524705527
 30
0.0
 11
180.2735099621403
 21
171.9570174506158
 31
0.0
  0
ARC
  5
81AE
  8
0
 10
182.7355293446709
 20
172.3911378947831
 30
0.0
 40
2.5
 50
190.0000000000002
 51
270.0
  0
LINE
  5
81AF
  8
0
 10
184.021856498226
 20
169.8911378947831
 30
0.0
 11
182.7355293446708
 21
169.8911378947831
 31
0.0
  0
ARC
  5
81B0
  8
0
 10
208.521856498226
 20
184.5157978005605
 30
0.0
 40
30.0
 50
180.0
 51
190.0000000000002
  0
ARC
  5
81B1
  8
0
 10
208.521856498226
 20
275.2664779890049
 30
0.0
 40
30.0
 50
169.9999999999998
 51
180.0
  0
ARC
  5
81B2
  8
0
 10
182.735529344671
 20
287.3911378947828
 30
0.0
 40
2.5
 50
90.0
 51
169.9999999999998
  0
LINE
  5
81B3
  8
0
 10
184.0218564982194
 20
289.891137894783
 30
0.0
 11
182.7355293446642
 21
289.891137894783
 31
0.0
  0
ARC
  5
81B4
  8
0
 10
175.8218564982255
 20
259.691137894783
 30
0.0
 40
1.0
 50
90.0
 51
180.0
  0
LINE
  5
81B5
  8
0
 10
175.8218564982255
 20
260.691137894783
 30
0.0
 11
178.5218564982256
 21
260.691137894783
 31
0.0
  0
LINE
  5
81B6
  8
0
 10
175.8218564982255
 20
253.691137894783
 30
0.0
 11
178.5218564982256
 21
253.691137894783
 31
0.0
  0
LINE
  5
81B7
  8
0
 10
174.8218564982255
 20
259.691137894783
 30
0.0
 11
174.8218564982255
 21
254.691137894783
 31
0.0
  0
ARC
  5
81B8
  8
0
 10
175.8218564982255
 20
254.691137894783
 30
0.0
 40
1.0
 50
180.0
 51
270.0
  0
LINE
  5
81B9
  8
0
 10
125.5218568968317
 20
144.5475070587735
 30
0.0
 11
25.52185540671559
 21
144.5475070587735
 31
0.0
  0
LINE
  5
81BA
  8
0
 10
125.5218568968317
 20
140.5475072180297
 30
0.0
 11
25.52185540671559
 21
140.5475072180297
 31
0.0
  0
LINE
  5
81BB
  8
0
 10
17.5218578207037
 20
140.5475072180297
 30
0.0
 11
17.5218578207037
 21
144.5475070587735
 31
0.0
  0
LINE
  5
81BC
  8
0
 10
25.52185540671559
 20
144.5475070587735
 30
0.0
 11
17.5218578207037
 21
144.5475070587735
 31
0.0
  0
LINE
  5
81BD
  8
0
 10
25.52185540671559
 20
140.5475072180297
 30
0.0
 11
17.5218578207037
 21
140.5475072180297
 31
0.0
  0
LINE
  5
81BE
  8
0
 10
133.5218544828435
 20
140.5475072180297
 30
0.0
 11
133.5218544828435
 21
144.5475070587735
 31
0.0
  0
LINE
  5
81BF
  8
0
 10
133.5218544828435
 20
144.5475070587735
 30
0.0
 11
125.5218568968317
 21
144.5475070587735
 31
0.0
  0
LINE
  5
81C0
  8
0
 10
133.5218544828435
 20
140.5475072180297
 30
0.0
 11
125.5218568968317
 21
140.5475072180297
 31
0.0
  0
LINE
  5
81C1
  8
0
 10
18.62185781474324
 20
144.5475070587735
 30
0.0
 11
18.62185781474324
 21
145.0475070587706
 31
0.0
  0
LINE
  5
81C2
  8
0
 10
132.421854488804
 20
144.5475070587735
 30
0.0
 11
132.421854488804
 21
145.0475070587706
 31
0.0
  0
LINE
  5
81C3
  8
0
 10
39.02185668821545
 20
150.5475069945122
 30
0.0
 11
112.0218556153318
 21
150.5475069945122
 31
0.0
  0
LINE
  5
81C4
  8
0
 10
52.96668634991812
 20
153.7471397298764
 30
0.0
 11
51.96668634991835
 21
153.7471397298764
 31
0.0
  0
LINE
  5
81C5
  8
0
 10
53.96668634991835
 20
154.2471397298764
 30
0.0
 11
52.96668634991835
 21
154.2471397298764
 31
0.0
  0
LINE
  5
81C6
  8
0
 10
51.96668634991835
 20
154.2471397298764
 30
0.0
 11
50.96668634991835
 21
154.2471397298764
 31
0.0
  0
LINE
  5
81C7
  8
0
 10
51.96668634991835
 20
154.2471397298764
 30
0.0
 11
51.96668634991835
 21
153.7471397298764
 31
0.0
  0
LINE
  5
81C8
  8
0
 10
54.96668634991835
 20
154.2471397298764
 30
0.0
 11
54.96668634991835
 21
153.7471397298764
 31
0.0
  0
LINE
  5
81C9
  8
0
 10
52.96668634991835
 20
154.2471397298764
 30
0.0
 11
52.96668634991812
 21
153.7471397298764
 31
0.0
  0
LINE
  5
81CA
  8
0
 10
53.96668634991835
 20
154.2471397298764
 30
0.0
 11
53.96668634991835
 21
153.7471397298764
 31
0.0
  0
LINE
  5
81CB
  8
0
 10
54.96668634991835
 20
153.7471397298764
 30
0.0
 11
53.96668634991835
 21
153.7471397298764
 31
0.0
  0
LINE
  5
81CC
  8
0
 10
56.96668634991829
 20
150.5475069945122
 30
0.0
 11
56.96668634991806
 21
153.2471397298764
 31
0.0
  0
ARC
  5
81CD
  8
0
 10
55.96668634991812
 20
153.2471397298764
 30
0.0
 40
1.0
 50
0.0
 51
90.0
  0
LINE
  5
81CE
  8
0
 10
55.96668634991812
 20
154.2471397298764
 30
0.0
 11
54.96668634991835
 21
154.2471397298764
 31
0.0
  0
LINE
  5
81CF
  8
0
 10
49.96668634991835
 20
150.5475069945122
 30
0.0
 11
49.96668634991835
 21
153.2471397298764
 31
0.0
  0
ARC
  5
81D0
  8
0
 10
50.96668634991835
 20
153.2471397298764
 30
0.0
 40
1.0
 50
90.0
 51
180.0
  0
LINE
  5
81D1
  8
0
 10
133.5218561517734
 20
145.0475070587706
 30
0.0
 11
17.52185615177319
 21
145.0475070587706
 31
0.0
  0
ARC
  5
81D2
  8
0
 10
118.8971962459959
 20
120.5475070587706
 30
0.0
 40
30.0
 50
80.00000000000146
 51
90.0
  0
LINE
  5
81D3
  8
0
 10
118.8971962459959
 20
150.5475070587706
 30
0.0
 11
32.14651605755131
 21
150.5475070587706
 31
0.0
  0
ARC
  5
81D4
  8
0
 10
131.0218561517734
 20
146.3338342123258
 30
0.0
 40
2.5
 50
0.0
 51
80.00000000000146
  0
LINE
  5
81D5
  8
0
 10
133.5218561517734
 20
145.0475070587706
 30
0.0
 11
133.5218561517734
 21
146.3338342123258
 31
0.0
  0
LINE
  5
81D6
  8
0
 10
124.1066415760038
 20
150.0917396491368
 30
0.0
 11
131.4559765959407
 21
148.7958535948563
 31
0.0
  0
ARC
  5
81D7
  8
0
 10
32.14651605755131
 20
120.5475070587706
 30
0.0
 40
30.0
 50
90.0
 51
99.99999999999855
  0
ARC
  5
81D8
  8
0
 10
20.02185615177342
 20
146.3338342123257
 30
0.0
 40
2.5
 50
99.99999999999855
 51
180.0
  0
LINE
  5
81D9
  8
0
 10
26.93707072754347
 20
150.0917396491368
 30
0.0
 11
19.5877357076061
 21
148.7958535948563
 31
0.0
  0
LINE
  5
81DA
  8
0
 10
17.52185615177319
 20
145.0475070587772
 30
0.0
 11
17.52185615177319
 21
146.3338342123324
 31
0.0
  0
LINE
  5
81DB
  8
0
 10
188.5218562747082
 20
290.0161358756765
 30
0.0
 11
184.5218564339643
 21
290.0161358756765
 31
0.0
  0
LINE
  5
81DC
  8
0
 10
184.5218564339643
 20
290.0161358756765
 30
0.0
 11
184.5218564339643
 21
282.0161382896646
 31
0.0
  0
LINE
  5
81DD
  8
0
 10
188.5218562747082
 20
290.0161358756765
 30
0.0
 11
188.5218562747082
 21
282.0161382896646
 31
0.0
  0
LINE
  5
81DE
  8
0
 10
184.5218564339643
 20
282.0161382896646
 30
0.0
 11
184.5218564339643
 21
178.0161361438974
 31
0.0
  0
LINE
  5
81DF
  8
0
 10
188.5218562747082
 20
282.0161382896646
 30
0.0
 11
188.5218562747082
 21
178.0161361438974
 31
0.0
  0
LINE
  5
81E0
  8
0
 10
188.5218562747082
 20
170.0161385578855
 30
0.0
 11
184.5218564339643
 21
170.0161385578855
 31
0.0
  0
LINE
  5
81E1
  8
0
 10
184.5218564339643
 20
178.0161361438974
 30
0.0
 11
184.5218564339643
 21
170.0161385578855
 31
0.0
  0
LINE
  5
81E2
  8
0
 10
188.5218562747082
 20
178.0161361438974
 30
0.0
 11
188.5218562747082
 21
170.0161385578855
 31
0.0
  0
LINE
  5
81E3
  8
0
 10
184.5218564339643
 20
171.116138551925
 30
0.0
 11
184.021856498226
 21
171.1161385519251
 31
0.0
  0
LINE
  5
81E4
  8
0
 10
184.5218564339643
 20
288.9161358816369
 30
0.0
 11
184.021856498226
 21
288.9161358816369
 31
0.0
  0
LINE
  5
81E5
  8
0
 10
188.5218562747082
 20
290.0161372167809
 30
0.0
 11
188.5218562747082
 21
170.0161372167811
 31
0.0
  0
LINE
  5
81E6
  8
0
 10
226.5218562747084
 20
290.6794296840533
 30
0.0
 11
226.5218562747081
 21
169.3528447495087
 31
0.0
  0
LINE
  5
81E7
  8
0
 10
188.5218562747082
 20
170.0161372167811
 30
0.0
 11
226.5218562747081
 21
169.3528447495087
 31
0.0
  0
LINE
  5
81E8
  8
0
 10
188.5218562747082
 20
290.0161372167809
 30
0.0
 11
226.5218562747084
 21
290.6794296840533
 31
0.0
  0
LINE
  5
81E9
  8
0
 10
133.5218561517738
 20
140.5475072180297
 30
0.0
 11
134.1851486190458
 21
102.5475072180297
 31
0.0
  0
LINE
  5
81EA
  8
0
 10
17.52185615177353
 20
140.5475072180297
 30
0.0
 11
16.85856368450112
 21
102.5475072180297
 31
0.0
  0
ARC
  5
81EB
  8
0
 10
70.02185615177336
 20
106.5475072180297
 30
0.0
 40
4.0
 50
0.0
 51
90.0
  0
ARC
  5
81EC
  8
0
 10
70.02185615177336
 20
106.5475072180297
 30
0.0
 40
3.0
 50
0.0
 51
180.0
  0
LINE
  5
81ED
  8
0
 10
16.85856368450112
 20
102.5475072180297
 30
0.0
 11
134.1851486190458
 21
102.5475072180297
 31
0.0
  0
LINE
  5
81EE
  8
0
 10
66.02185615177336
 20
102.5475072180297
 30
0.0
 11
66.02185615177336
 21
106.5475072180297
 31
0.0
  0
LINE
  5
81EF
  8
0
 10
67.02185615177336
 20
102.5475072180297
 30
0.0
 11
67.02185615177336
 21
106.5475072180297
 31
0.0
  0
LINE
  5
81F0
  8
0
 10
55.52185615177342
 20
102.5475072180297
 30
0.0
 11
55.52185615177342
 21
106.5475072180297
 31
0.0
  0
LINE
  5
81F1
  8
0
 10
56.52185615177336
 20
102.5475072180297
 30
0.0
 11
56.52185615177336
 21
106.5475072180297
 31
0.0
  0
LINE
  5
81F2
  8
0
 10
63.52185615177336
 20
106.5475072180297
 30
0.0
 11
63.52185615177336
 21
102.5475072180297
 31
0.0
  0
LINE
  5
81F3
  8
0
 10
62.52185615177336
 20
106.5475072180297
 30
0.0
 11
62.52185615177336
 21
102.5475072180297
 31
0.0
  0
ARC
  5
81F4
  8
0
 10
59.52185615177336
 20
106.5475072180297
 30
0.0
 40
4.0
 50
0.0
 51
48.5903778907312
  0
ARC
  5
81F5
  8
0
 10
59.52185615177336
 20
106.5475072180297
 30
0.0
 40
3.0
 50
0.0
 51
180.0
  0
LINE
  5
81F6
  8
0
 10
62.16760746283808
 20
109.5475072180297
 30
0.0
 11
67.37610484070888
 21
109.5475072180297
 31
0.0
  0
ARC
  5
81F7
  8
0
 10
70.02185615177336
 20
106.5475072180297
 30
0.0
 40
4.0
 50
131.4096221092688
 51
180.0
  0
ARC
  5
81F8
  8
0
 10
59.52185615177336
 20
106.5475072180297
 30
0.0
 40
4.0
 50
90.0
 51
180.0
  0
LINE
  5
81F9
  8
0
 10
59.52185615177336
 20
110.5475072180297
 30
0.0
 11
70.02185615177336
 21
110.5475072180297
 31
0.0
  0
LINE
  5
81FA
  8
0
 10
94.52185615177336
 20
106.5475072180297
 30
0.0
 11
94.52185615177336
 21
102.5475072180297
 31
0.0
  0
LINE
  5
81FB
  8
0
 10
95.52185615177336
 20
106.5475072180297
 30
0.0
 11
95.52185615177336
 21
102.5475072180297
 31
0.0
  0
LINE
  5
81FC
  8
0
 10
88.52185615177336
 20
102.5475072180297
 30
0.0
 11
88.52185615177336
 21
106.5475072180297
 31
0.0
  0
LINE
  5
81FD
  8
0
 10
87.52185615177336
 20
102.5475072180297
 30
0.0
 11
87.52185615177336
 21
106.5475072180297
 31
0.0
  0
LINE
  5
81FE
  8
0
 10
74.02185615177336
 20
106.5475072180297
 30
0.0
 11
74.02185615177336
 21
102.5475072180297
 31
0.0
  0
LINE
  5
81FF
  8
0
 10
73.02185615177336
 20
106.5475072180297
 30
0.0
 11
73.02185615177336
 21
102.5475072180297
 31
0.0
  0
LINE
  5
8200
  8
0
 10
77.02185615177336
 20
102.5475072180297
 30
0.0
 11
77.02185615177336
 21
106.5475072180297
 31
0.0
  0
LINE
  5
8201
  8
0
 10
78.02185615177336
 20
102.5475072180297
 30
0.0
 11
78.02185615177336
 21
106.5475072180297
 31
0.0
  0
LINE
  5
8202
  8
0
 10
85.02185615177336
 20
106.5475072180297
 30
0.0
 11
85.02185615177336
 21
102.5475072180297
 31
0.0
  0
LINE
  5
8203
  8
0
 10
84.02185615177336
 20
106.5475072180297
 30
0.0
 11
84.02185615177336
 21
102.5475072180297
 31
0.0
  0
LINE
  5
8204
  8
0
 10
81.02185615177336
 20
110.5475072180297
 30
0.0
 11
91.52185615177336
 21
110.5475072180297
 31
0.0
  0
ARC
  5
8205
  8
0
 10
91.52185615177336
 20
106.5475072180297
 30
0.0
 40
4.0
 50
131.4096221092688
 51
180.0
  0
LINE
  5
8206
  8
0
 10
83.66760746283785
 20
109.5475072180297
 30
0.0
 11
88.87610484070888
 21
109.5475072180297
 31
0.0
  0
ARC
  5
8207
  8
0
 10
81.02185615177336
 20
106.5475072180297
 30
0.0
 40
4.0
 50
0.0
 51
48.5903778907312
  0
ARC
  5
8208
  8
0
 10
81.02185615177336
 20
106.5475072180297
 30
0.0
 40
3.0
 50
0.0
 51
180.0
  0
ARC
  5
8209
  8
0
 10
81.02185615177336
 20
106.5475072180297
 30
0.0
 40
4.0
 50
90.0
 51
180.0
  0
ARC
  5
820A
  8
0
 10
91.52185615177336
 20
106.5475072180297
 30
0.0
 40
3.0
 50
0.0
 51
180.0
  0
ARC
  5
820B
  8
0
 10
91.52185615177336
 20
106.5475072180297
 30
0.0
 40
4.0
 50
0.0
 51
90.0
  0
LINE
  5
820C
  8
0
 10
17.52185615177353
 20
140.5475072180297
 30
0.0
 11
133.5218561517738
 21
140.5475072180297
 31
0.0
  0
LINE
  5
820D
  8
7
 10
12.72785615177349
 20
229.8911378947828
 30
0.0
 11
138.3158561517735
 21
229.8911378947825
 31
0.0
1001
GENIUS_GENOBJ-N-CEN_13
1002
{
1000
OWNER
1000
GEN
1002
}
1001
GENIUS_GENODEF_13
1002
{
1000
HIER
1070
     0
1002
}
1002
{
1000
MANEDIT
1070
     0
1002
}
1002
{
1000
NOSEL
1070
     0
1002
}
1002
{
1000
BEHIND
1070
     0
1002
}
1002
{
1000
OTHER
1070
     0
1002
}
1002
{
1000
REACTOR
1002
}
1001
GENIUS_GENCEN_19
1002
{
1040
2.794
1002
}
  0
LINE
  5
820E
  8
7
 10
75.52185615177359
 20
294.6851378947829
 30
0.0
 11
75.52185615177359
 21
165.0971378947827
 31
0.0
1001
GENIUS_GENOBJ-N-CEN_13
1002
{
1000
OWNER
1000
GEN
1002
}
1001
GENIUS_GENODEF_13
1002
{
1000
HIER
1070
     0
1002
}
1002
{
1000
MANEDIT
1070
     0
1002
}
1002
{
1000
NOSEL
1070
     0
1002
}
1002
{
1000
BEHIND
1070
     0
1002
}
1002
{
1000
OTHER
1070
     0
1002
}
1002
{
1000
REACTOR
1002
}
1001
GENIUS_GENCEN_19
1002
{
1040
2.794
1002
}
  0
LINE
  5
820F
  8
7
 10
75.52185615177359
 20
153.3415070587706
 30
0.0
 11
75.52185615177359
 21
99.7535072180297
 31
0.0
1001
GENIUS_GENOBJ-N-CEN_13
1002
{
1000
OWNER
1000
GEN
1002
}
1001
GENIUS_GENODEF_13
1002
{
1000
HIER
1070
     0
1002
}
1002
{
1000
MANEDIT
1070
     0
1002
}
1002
{
1000
NOSEL
1070
     0
1002
}
1002
{
1000
BEHIND
1070
     0
1002
}
1002
{
1000
OTHER
1070
     0
1002
}
1002
{
1000
REACTOR
1002
}
1001
GENIUS_GENCEN_19
1002
{
1040
2.794
1002
}
  0
LINE
  5
8210
  8
7
 10
175.7278564982261
 20
229.8911378947823
 30
0.0
 11
229.3158562747082
 21
229.8911378947822
 31
0.0
1001
GENIUS_GENODEF_13
1002
{
1000
HIER
1070
     0
1002
}
1002
{
1000
MANEDIT
1070
     0
1002
}
1002
{
1000
NOSEL
1070
     0
1002
}
1002
{
1000
BEHIND
1070
     0
1002
}
1002
{
1000
OTHER
1070
     0
1002
}
1002
{
1000
REACTOR
1002
}
1001
GENIUS_GENOBJ-N-CEN_13
1002
{
1000
OWNER
1000
GEN
1002
}
1001
GENIUS_GENCEN_19
1002
{
1040
2.794
1002
}
  0
LINE
  5
8C67
  8
0
 10
38.27185615177356
 20
264.9911378947828
 30
0.0
 11
112.7718561517736
 21
264.9911378947828
 31
0.0
  0
LINE
  5
8C68
  8
0
 10
38.27185615177356
 20
194.7911378947827
 30
0.0
 11
112.7718561517736
 21
194.7911378947827
 31
0.0
  0
LINE
  5
8C69
  8
0
 10
38.27185615177356
 20
264.9911378947828
 30
0.0
 11
38.27185615177356
 21
194.7911378947827
 31
0.0
  0
LINE
  5
8C6A
  8
0
 10
112.7718561517736
 20
264.9911378947828
 30
0.0
 11
112.7718561517736
 21
194.7911378947827
 31
0.0
  0
LINE
  5
8C6B
  8
0
 10
112.0218556153318
 20
195.39113875905
 30
0.0
 11
112.0218556153318
 21
264.3911370305154
 31
0.0
  0
LINE
  5
8C6C
  8
0
 10
39.02185668821537
 20
195.39113875905
 30
0.0
 11
112.0218556153318
 21
195.39113875905
 31
0.0
  0
LINE
  5
8C6D
  8
0
 10
39.02185668821537
 20
264.3911370305154
 30
0.0
 11
39.02185668821537
 21
195.39113875905
 31
0.0
  0
LINE
  5
8C6E
  8
0
 10
112.0218556153318
 20
264.3911370305154
 30
0.0
 11
39.02185668821537
 21
264.3911370305154
 31
0.0
  0
LINE
  5
8C6F
  8
0
 10
40.52185600276195
 20
196.8911380735966
 30
0.0
 11
110.5218563007852
 21
196.8911380735966
 31
0.0
  0
LINE
  5
8C70
  8
0
 10
110.5218563007852
 20
196.8911380735966
 30
0.0
 11
110.5218563007852
 21
262.8911377159688
 31
0.0
  0
LINE
  5
8C71
  8
0
 10
110.5218563007852
 20
262.8911377159688
 30
0.0
 11
65.52185637529098
 21
262.8911377159688
 31
0.0
  0
LINE
  5
8C72
  8
0
 10
40.52185600276195
 20
250.8911376116606
 30
0.0
 11
65.52185637529098
 21
250.8911376116606
 31
0.0
  0
LINE
  5
8C73
  8
0
 10
40.52185600276195
 20
250.8911376116606
 30
0.0
 11
40.52185600276195
 21
196.8911380735966
 31
0.0
  0
LINE
  5
8C74
  8
0
 10
47.32185562725269
 20
253.1911374298665
 30
0.0
 11
57.32185540373527
 21
253.1911374298665
 31
0.0
  0
LINE
  5
8C75
  8
0
 10
57.32185540373527
 20
253.1911374298665
 30
0.0
 11
57.32185540373527
 21
261.1911387411687
 31
0.0
  0
LINE
  5
8C76
  8
0
 10
57.32185540373527
 20
261.1911387411687
 30
0.0
 11
47.32185562725269
 21
261.1911387411687
 31
0.0
  0
LINE
  5
8C77
  8
0
 10
47.32185562725269
 20
261.1911387411687
 30
0.0
 11
47.32185562725269
 21
253.1911374298665
 31
0.0
  0
LINE
  5
8C78
  8
0
 10
65.52185637529098
 20
250.8911376116606
 30
0.0
 11
65.52185637529098
 21
262.8911377159688
 31
0.0
  0
LINE
  5
8C79
  8
0
 10
112.5218566286107
 20
194.8911377457711
 30
0.0
 11
112.5218566286107
 21
264.8911380437943
 31
0.0
  0
LINE
  5
8C7A
  8
0
 10
38.5218556749364
 20
194.8911377457711
 30
0.0
 11
112.5218566286107
 21
194.8911377457711
 31
0.0
  0
LINE
  5
8C7B
  8
0
 10
38.5218556749364
 20
264.8911380437943
 30
0.0
 11
38.5218556749364
 21
194.8911377457711
 31
0.0
  0
LINE
  5
8C7C
  8
0
 10
112.5218566286107
 20
264.8911380437943
 30
0.0
 11
38.5218556749364
 21
264.8911380437943
 31
0.0
  0
ARC
  5
8C7D
  8
0
 10
48.72185551549396
 20
259.6911374298665
 30
0.0
 40
1.0
 50
90.0
 51
180.0
  0
ARC
  5
8C7E
  8
0
 10
53.72185551549396
 20
259.6911374298665
 30
0.0
 40
1.0
 50
0.0
 51
90.0
  0
LINE
  5
8C7F
  8
0
 10
48.72185551549396
 20
260.6911374298665
 30
0.0
 11
53.72185551549396
 21
260.6911374298665
 31
0.0
  0
LINE
  5
8C80
  8
0
 10
53.72185551549396
 20
253.6911374298666
 30
0.0
 11
48.72185551549396
 21
253.6911374298665
 31
0.0
  0
ARC
  5
8C81
  8
0
 10
48.72185551549396
 20
254.6911374298665
 30
0.0
 40
1.0
 50
180.0
 51
270.0000000000016
  0
ARC
  5
8C82
  8
0
 10
53.72185551549396
 20
254.6911374298666
 30
0.0
 40
1.0
 50
270.0
 51
0.0
  0
LINE
  5
8C83
  8
0
 10
52.72185551549396
 20
253.6911374298666
 30
0.0
 11
52.72185551549396
 21
260.6911374298665
 31
0.0
  0
LINE
  5
8C84
  8
0
 10
51.72185551549396
 20
253.6911374298665
 30
0.0
 11
51.72185551549396
 21
260.6911374298665
 31
0.0
  0
LINE
  5
8C85
  8
0
 10
50.72185551549396
 20
253.6911374298664
 30
0.0
 11
50.72185551549396
 21
260.6911374298665
 31
0.0
  0
LINE
  5
8C86
  8
0
 10
49.72185551549396
 20
253.6911374298664
 30
0.0
 11
49.72185551549396
 21
260.6911374298665
 31
0.0
  0
LINE
  5
8C87
  8
0
 10
47.72185551549396
 20
254.6911374298665
 30
0.0
 11
47.72185551549396
 21
259.6911374298665
 31
0.0
  0
LINE
  5
8C88
  8
0
 10
54.72185551549396
 20
259.6911374298665
 30
0.0
 11
54.72185551549396
 21
254.6911374298666
 31
0.0
  0
LINE
  5
8C89
  8
0
 10
65.77185637529098
 20
262.6411378947828
 30
0.0
 11
110.2718561517736
 21
262.6411378947827
 31
0.0
  0
LINE
  5
8C8A
  8
0
 10
110.2718561517736
 20
262.6411378947827
 30
0.0
 11
110.2718561517736
 21
197.1411378947826
 31
0.0
  0
LINE
  5
8C8B
  8
0
 10
40.77185615177356
 20
197.1411378947828
 30
0.0
 11
40.77185615177356
 21
250.6411376116606
 31
0.0
  0
LINE
  5
8C8C
  8
0
 10
110.2718561517736
 20
197.1411378947826
 30
0.0
 11
40.77185615177356
 21
197.1411378947828
 31
0.0
  0
LINE
  5
8C8D
  8
0
  6
CONTINUOUS
 10
65.77185637529098
 20
250.6411376116606
 30
0.0
 11
65.77185637529098
 21
262.6411378947828
 31
0.0
  0
LINE
  5
8C8E
  8
0
  6
CONTINUOUS
 10
40.77185615177356
 20
250.6411376116606
 30
0.0
 11
65.77185637529098
 21
250.6411376116606
 31
0.0
  0
INSERT
  5
8C8F
  8
0
 62
     7
  2
*X9
 10
0.0
 20
0.0
 30
0.0
  0
TEXT
  5
8C90
  8
0
 62
     7
 10
69.3477269413477
 20
212.9769758663352
 30
0.0
 40
1.9
  1
給水
  0
TEXT
  5
8C91
  8
0
 62
     7
 10
89.34300643006675
 20
207.9715336894643
 30
0.0
 40
4.0
  1
PUSH
 41
1.2
  0
TEXT
  5
8C92
  8
0
 62
     7
 10
49.75042694406541
 20
246.2980333802499
 30
0.0
 40
2.0
  1
電源
  0
LINE
  5
8C94
  8
0
 10
41.77185615177356
 20
217.1012460020879
 30
0.0
 11
41.77185615177356
 21
219.6387460020885
 31
0.0
  0
LINE
  5
8C95
  8
0
 10
43.87435615177353
 20
217.1012460020879
 30
0.0
 11
43.87435615177353
 21
219.6387460020885
 31
0.0
  0
LINE
  5
8C96
  8
0
 10
44.09185615177373
 20
217.1012460020879
 30
0.0
 11
44.09185615177373
 21
219.6387460020885
 31
0.0
  0
LINE
  5
8C97
  8
0
 10
41.77185615177356
 20
217.1012460020879
 30
0.0
 11
42.56935615177369
 21
217.1012460020879
 31
0.0
  0
LINE
  5
8C98
  8
0
 10
41.77185615177356
 20
219.6387460020885
 30
0.0
 11
42.56935615177369
 21
219.6387460020885
 31
0.0
  0
LINE
  5
8C99
  8
0
 10
42.56935615177369
 20
219.6387460020885
 30
0.0
 11
42.56935615177369
 21
218.7687460020884
 31
0.0
  0
LINE
  5
8C9A
  8
0
 10
43.0768561517734
 20
219.6387460020885
 30
0.0
 11
43.0768561517734
 21
218.7687460020884
 31
0.0
  0
LINE
  5
8C9B
  8
0
 10
42.56935615177369
 20
217.1012460020879
 30
0.0
 11
42.56935615177369
 21
217.9712460020878
 31
0.0
  0
LINE
  5
8C9C
  8
0
 10
43.0768561517734
 20
217.1012460020879
 30
0.0
 11
43.0768561517734
 21
217.9712460020878
 31
0.0
  0
LINE
  5
8C9D
  8
0
 10
43.0768561517734
 20
219.6387460020885
 30
0.0
 11
43.87435615177353
 21
219.6387460020885
 31
0.0
  0
LINE
  5
8C9E
  8
0
 10
43.0768561517734
 20
217.1012460020879
 30
0.0
 11
43.87435615177353
 21
217.1012460020879
 31
0.0
  0
LINE
  5
8C9F
  8
0
 10
42.56935615177369
 20
218.7687460020884
 30
0.0
 11
43.0768561517734
 21
218.7687460020884
 31
0.0
  0
LINE
  5
8CA0
  8
0
 10
42.56935615177369
 20
217.9712460020878
 30
0.0
 11
43.0768561517734
 21
217.9712460020878
 31
0.0
  0
LINE
  5
8CA1
  8
0
 10
44.8893561517734
 20
217.1012460020879
 30
0.0
 11
44.8893561517734
 21
219.6387460020885
 31
0.0
  0
LINE
  5
8CA2
  8
0
 10
45.1068561517736
 20
217.1012460020879
 30
0.0
 11
45.1068561517736
 21
219.6387460020885
 31
0.0
  0
LINE
  5
8CA3
  8
0
 10
44.09185615177373
 20
219.6387460020885
 30
0.0
 11
44.8893561517734
 21
219.6387460020885
 31
0.0
  0
LINE
  5
8CA4
  8
0
 10
44.09185615177373
 20
217.1012460020879
 30
0.0
 11
44.8893561517734
 21
217.1012460020879
 31
0.0
  0
LINE
  5
8CA5
  8
0
 10
47.20935615177356
 20
217.1012460020879
 30
0.0
 11
47.20935615177356
 21
217.6812460020878
 31
0.0
  0
LINE
  5
8CA6
  8
0
 10
47.20935615177356
 20
219.0587460020886
 30
0.0
 11
47.20935615177356
 21
219.6387460020885
 31
0.0
  0
LINE
  5
8CA7
  8
0
 10
45.1068561517736
 20
217.1012460020879
 30
0.0
 11
45.90435615177373
 21
217.1012460020879
 31
0.0
  0
LINE
  5
8CA8
  8
0
 10
45.1068561517736
 20
219.6387460020885
 30
0.0
 11
45.90435615177373
 21
219.6387460020885
 31
0.0
  0
LINE
  5
8CA9
  8
0
 10
45.90435615177373
 20
219.6387460020885
 30
0.0
 11
45.90435615177373
 21
218.7687460020884
 31
0.0
  0
LINE
  5
8CAA
  8
0
 10
46.41185615177343
 20
219.6387460020885
 30
0.0
 11
46.41185615177343
 21
219.0587460020886
 31
0.0
  0
LINE
  5
8CAB
  8
0
 10
45.90435615177373
 20
217.1012460020879
 30
0.0
 11
45.90435615177373
 21
217.9712460020878
 31
0.0
  0
LINE
  5
8CAC
  8
0
 10
46.41185615177343
 20
217.1012460020879
 30
0.0
 11
46.41185615177343
 21
217.6812460020878
 31
0.0
  0
ARC
  5
8CAD
  8
0
 10
46.12185615177347
 20
217.6812460020878
 30
0.0
 40
0.29
 50
0.0
 51
90.0
  0
ARC
  5
8CAE
  8
0
 10
46.12185615177347
 20
217.6812460020878
 30
0.0
 40
1.0875
 50
0.0
 51
39.29648023919083
  0
LINE
  5
8CAF
  8
0
 10
46.41185615177343
 20
219.6387460020885
 30
0.0
 11
47.20935615177356
 21
219.6387460020885
 31
0.0
  0
LINE
  5
8CB0
  8
0
 10
46.41185615177343
 20
217.1012460020879
 30
0.0
 11
47.20935615177356
 21
217.1012460020879
 31
0.0
  0
LINE
  5
8CB1
  8
0
 10
45.90435615177373
 20
218.7687460020884
 30
0.0
 11
46.12185615177347
 21
218.7687460020884
 31
0.0
  0
ARC
  5
8CB2
  8
0
 10
46.12185615177347
 20
219.0587460020886
 30
0.0
 40
0.29
 50
270.0
 51
0.0
  0
ARC
  5
8CB3
  8
0
 10
46.12185615177347
 20
219.0587460020886
 30
0.0
 40
1.0875
 50
320.7035197608199
 51
0.0
  0
LINE
  5
8CB4
  8
0
 10
45.90435615177373
 20
217.9712460020878
 30
0.0
 11
46.12185615177347
 21
217.9712460020878
 31
0.0
  0
LINE
  5
8CB5
  8
0
 10
47.42685615177376
 20
217.1012460020879
 30
0.0
 11
47.42685615177376
 21
218.5874960020878
 31
0.0
  0
LINE
  5
8CB6
  8
0
 10
49.52935615177373
 20
217.1012460020879
 30
0.0
 11
49.52935615177373
 21
218.5874960020878
 31
0.0
  0
LINE
  5
8CB7
  8
0
 10
47.42685615177376
 20
217.1012460020879
 30
0.0
 11
48.22435615177343
 21
217.1012460020879
 31
0.0
  0
LINE
  5
8CB8
  8
0
 10
48.22435615177343
 20
217.1012460020879
 30
0.0
 11
48.22435615177343
 21
217.6087460020876
 31
0.0
  0
LINE
  5
8CB9
  8
0
 10
48.7318561517736
 20
217.1012460020879
 30
0.0
 11
48.7318561517736
 21
217.6087460020876
 31
0.0
  0
LINE
  5
8CBA
  8
0
 10
48.7318561517736
 20
217.1012460020879
 30
0.0
 11
49.52935615177373
 21
217.1012460020879
 31
0.0
  0
LINE
  5
8CBB
  8
0
 10
48.22435615177343
 20
217.6087460020876
 30
0.0
 11
48.7318561517736
 21
217.6087460020876
 31
0.0
  0
LINE
  5
8CBC
  8
0
 10
48.22435615177343
 20
218.333746002088
 30
0.0
 11
48.7318561517736
 21
218.333746002088
 31
0.0
  0
ARC
  5
8CBD
  8
0
 10
48.47810615177374
 20
218.5874960020878
 30
0.0
 40
1.05125
 50
0.0
 51
180.0
  0
ARC
  5
8CBE
  8
0
 10
48.47810615177374
 20
218.5874960020878
 30
0.0
 40
0.25375
 50
0.0
 51
180.0
  0
LINE
  5
8CBF
  8
0
 10
48.22435615177343
 20
218.333746002088
 30
0.0
 11
48.22435615177343
 21
218.5874960020878
 31
0.0
  0
LINE
  5
8CC0
  8
0
 10
48.7318561517736
 20
218.5874960020878
 30
0.0
 11
48.7318561517736
 21
218.333746002088
 31
0.0
  0
LINE
  5
8CC1
  8
0
 10
49.74685615177347
 20
217.1012460020879
 30
0.0
 11
49.74685615177347
 21
219.6387460020885
 31
0.0
  0
LINE
  5
8CC2
  8
0
 10
51.84935615177343
 20
217.1012460020879
 30
0.0
 11
51.84935615177343
 21
217.6812460020878
 31
0.0
  0
LINE
  5
8CC3
  8
0
 10
49.74685615177347
 20
217.1012460020879
 30
0.0
 11
50.5443561517736
 21
217.1012460020879
 31
0.0
  0
LINE
  5
8CC4
  8
0
 10
50.68935615177358
 20
217.898746002088
 30
0.0
 11
50.83435615177356
 21
217.898746002088
 31
0.0
  0
LINE
  5
8CC5
  8
0
 10
50.68935615177358
 20
218.4787460020884
 30
0.0
 11
50.83435615177356
 21
218.4787460020884
 31
0.0
  0
LINE
  5
8CC6
  8
0
 10
50.5443561517736
 20
217.1012460020879
 30
0.0
 11
50.5443561517736
 21
218.9137460020881
 31
0.0
  0
LINE
  5
8CC7
  8
0
 10
51.05185615177376
 20
217.1012460020879
 30
0.0
 11
51.05185615177376
 21
217.6812460020878
 31
0.0
  0
ARC
  5
8CC8
  8
0
 10
50.83435615177356
 20
217.6812460020878
 30
0.0
 40
0.2175
 50
0.0
 51
90.0
  0
ARC
  5
8CC9
  8
0
 10
50.83435615177356
 20
217.6812460020878
 30
0.0
 40
1.015
 50
0.0
 51
30.66296328368266
  0
LINE
  5
8CCA
  8
0
 10
49.74685615177347
 20
219.6387460020885
 30
0.0
 11
50.90685615177333
 21
219.6387460020885
 31
0.0
  0
LINE
  5
8CCB
  8
0
 10
50.5443561517736
 20
218.9137460020881
 30
0.0
 11
50.83435615177356
 21
218.9137460020881
 31
0.0
  0
LINE
  5
8CCC
  8
0
 10
51.05185615177376
 20
217.1012460020879
 30
0.0
 11
51.84935615177343
 21
217.1012460020879
 31
0.0
  0
ARC
  5
8CCD
  8
0
 10
50.83435615177356
 20
218.6962460020882
 30
0.0
 40
0.2175
 50
270.0
 51
90.0
  0
ARC
  5
8CCE
  8
0
 10
50.90685615177333
 20
218.6962460020882
 30
0.0
 40
0.9425
 50
328.1493895340805
 51
90.0
  0
LINE
  5
8CCF
  8
0
 10
50.68935615177358
 20
218.4787460020884
 30
0.0
 11
50.68935615177358
 21
217.898746002088
 31
0.0
  0
LINE
  5
8CD0
  8
0
 10
52.06685615177364
 20
217.1012460020879
 30
0.0
 11
52.06685615177364
 21
219.6387460020885
 31
0.0
  0
LINE
  5
8CD1
  8
0
 10
52.86435615177376
 20
217.1012460020879
 30
0.0
 11
52.86435615177376
 21
219.6387460020885
 31
0.0
  0
LINE
  5
8CD2
  8
0
 10
55.7643561517734
 20
217.137496002088
 30
0.0
 11
55.7643561517734
 21
218.5874960020878
 31
0.0
  0
LINE
  5
8CD3
  8
0
 10
52.06685615177364
 20
219.6387460020885
 30
0.0
 11
52.86435615177376
 21
219.6387460020885
 31
0.0
  0
LINE
  5
8CD4
  8
0
 10
52.06685615177364
 20
217.1012460020879
 30
0.0
 11
52.86435615177376
 21
217.1012460020879
 31
0.0
  0
ARC
  5
8CD5
  8
0
 10
55.03935615177349
 20
218.3699960020881
 30
0.0
 40
1.305
 50
84.27518954777628
 51
281.4211862750079
  0
ARC
  5
8CD6
  8
0
 10
55.03935615177349
 20
218.3699960020881
 30
0.0
 40
0.5075000000000001
 50
84.27518954777645
 51
270.0
  0
CIRCLE
  5
8CD7
  8
0
 10
57.28685615177343
 20
218.3699960020881
 30
0.0
 40
1.305
  0
CIRCLE
  5
8CD8
  8
0
 10
57.28685615177343
 20
218.3699960020881
 30
0.0
 40
0.5075000000000001
  0
LINE
  5
8CD9
  8
0
 10
55.03935615177349
 20
217.8624960020884
 30
0.0
 11
55.03935615177349
 21
218.5874960020878
 31
0.0
  0
LINE
  5
8CDA
  8
0
 10
55.03935615177349
 20
218.5874960020878
 30
0.0
 11
55.7643561517734
 21
218.5874960020878
 31
0.0
  0
LINE
  5
8CDB
  8
0
 10
55.29777199335783
 20
217.0908375862468
 30
0.0
 11
55.7643561517734
 21
217.137496002088
 31
0.0
  0
LINE
  5
8CDC
  8
0
 10
55.16953071536452
 20
219.6684872739086
 30
0.0
 11
55.7643561517734
 21
219.6387460020885
 31
0.0
  0
LINE
  5
8CDD
  8
0
 10
55.7643561517734
 20
219.6387460020885
 30
0.0
 11
55.7643561517734
 21
218.8412460020879
 31
0.0
  0
LINE
  5
8CDE
  8
0
 10
55.7643561517734
 20
218.8412460020879
 30
0.0
 11
55.08997959317
 21
218.8749648300188
 31
0.0
  0
LINE
  5
8CDF
  8
0
 10
58.80935615177347
 20
217.1012460020879
 30
0.0
 11
58.80935615177347
 21
219.6387460020885
 31
0.0
  0
LINE
  5
8CE0
  8
0
 10
60.91185615177343
 20
217.1012460020879
 30
0.0
 11
60.91185615177343
 21
217.6812460020878
 31
0.0
  0
LINE
  5
8CE1
  8
0
 10
60.91185615177343
 20
219.0587460020886
 30
0.0
 11
60.91185615177343
 21
219.6387460020885
 31
0.0
  0
LINE
  5
8CE2
  8
0
 10
58.80935615177347
 20
217.1012460020879
 30
0.0
 11
59.6068561517736
 21
217.1012460020879
 31
0.0
  0
LINE
  5
8CE3
  8
0
 10
58.80935615177347
 20
219.6387460020885
 30
0.0
 11
59.6068561517736
 21
219.6387460020885
 31
0.0
  0
LINE
  5
8CE4
  8
0
 10
59.6068561517736
 20
219.6387460020885
 30
0.0
 11
59.6068561517736
 21
218.7687460020884
 31
0.0
  0
LINE
  5
8CE5
  8
0
 10
60.11435615177376
 20
219.6387460020885
 30
0.0
 11
60.11435615177376
 21
219.0587460020886
 31
0.0
  0
LINE
  5
8CE6
  8
0
 10
59.6068561517736
 20
217.1012460020879
 30
0.0
 11
59.6068561517736
 21
217.9712460020878
 31
0.0
  0
LINE
  5
8CE7
  8
0
 10
60.11435615177376
 20
217.1012460020879
 30
0.0
 11
60.11435615177376
 21
217.6812460020878
 31
0.0
  0
ARC
  5
8CE8
  8
0
 10
59.82435615177334
 20
217.6812460020878
 30
0.0
 40
0.29
 50
0.0
 51
90.0
  0
ARC
  5
8CE9
  8
0
 10
59.82435615177334
 20
217.6812460020878
 30
0.0
 40
1.0875
 50
0.0
 51
39.29648023919129
  0
LINE
  5
8CEA
  8
0
 10
60.11435615177376
 20
219.6387460020885
 30
0.0
 11
60.91185615177343
 21
219.6387460020885
 31
0.0
  0
LINE
  5
8CEB
  8
0
 10
60.11435615177376
 20
217.1012460020879
 30
0.0
 11
60.91185615177343
 21
217.1012460020879
 31
0.0
  0
LINE
  5
8CEC
  8
0
 10
59.6068561517736
 20
218.7687460020884
 30
0.0
 11
59.82435615177334
 21
218.7687460020884
 31
0.0
  0
ARC
  5
8CED
  8
0
 10
59.82435615177334
 20
219.0587460020886
 30
0.0
 40
0.29
 50
270.0
 51
0.0
  0
ARC
  5
8CEE
  8
0
 10
59.82435615177334
 20
219.0587460020886
 30
0.0
 40
1.0875
 50
320.7035197608199
 51
0.0
  0
LINE
  5
8CEF
  8
0
 10
59.6068561517736
 20
217.9712460020878
 30
0.0
 11
59.82435615177334
 21
217.9712460020878
 31
0.0
  0
LINE
  5
8CF0
  8
0
 10
61.12935615177364
 20
217.1012460020879
 30
0.0
 11
61.12935615177364
 21
219.6387460020885
 31
0.0
  0
LINE
  5
8CF1
  8
0
 10
61.92685615177376
 20
217.1012460020879
 30
0.0
 11
61.92685615177376
 21
219.6387460020885
 31
0.0
  0
LINE
  5
8CF2
  8
0
 10
61.12935615177364
 20
219.6387460020885
 30
0.0
 11
61.92685615177376
 21
219.6387460020885
 31
0.0
  0
LINE
  5
8CF3
  8
0
 10
61.12935615177364
 20
217.1012460020879
 30
0.0
 11
61.92685615177376
 21
217.1012460020879
 31
0.0
  0
LINE
  5
8CF4
  8
0
 10
62.14435615177351
 20
217.1012460020879
 30
0.0
 11
62.14435615177351
 21
218.5874960020878
 31
0.0
  0
LINE
  5
8CF5
  8
0
 10
64.24685615177347
 20
217.1012460020879
 30
0.0
 11
64.24685615177347
 21
218.5874960020878
 31
0.0
  0
LINE
  5
8CF6
  8
0
 10
62.14435615177351
 20
217.1012460020879
 30
0.0
 11
62.94185615177364
 21
217.1012460020879
 31
0.0
  0
LINE
  5
8CF7
  8
0
 10
62.94185615177364
 20
217.1012460020879
 30
0.0
 11
62.94185615177364
 21
218.5874960020878
 31
0.0
  0
LINE
  5
8CF8
  8
0
 10
63.44935615177334
 20
217.1012460020879
 30
0.0
 11
63.44935615177334
 21
218.5874960020878
 31
0.0
  0
LINE
  5
8CF9
  8
0
 10
63.44935615177334
 20
217.1012460020879
 30
0.0
 11
64.24685615177347
 21
217.1012460020879
 31
0.0
  0
ARC
  5
8CFA
  8
0
 10
63.19560615177349
 20
218.5874960020878
 30
0.0
 40
1.05125
 50
0.0
 51
180.0
  0
ARC
  5
8CFB
  8
0
 10
63.19560615177349
 20
218.5874960020878
 30
0.0
 40
0.25375
 50
0.0
 51
180.0
  0
CIRCLE
  5
8CFC
  8
0
 10
95.52185615177362
 20
209.8911378947828
 30
0.0
 40
8.25
  0
LINE
  5
8CFD
  8
0
 10
68.27185615177316
 20
203.8911378947822
 30
0.0
 11
68.27185615177316
 21
215.8911378947827
 31
0.0
  0
ARC
  5
8CFE
  8
0
 10
70.27185615177316
 20
203.8911378947822
 30
0.0
 40
2.0
 50
180.0
 51
270.0
1001
GENIUS_GENOBJ-N-FIL_13
1002
{
1000
OWNER
1000
GEN
1002
}
1001
GENIUS_GENODEF_13
1002
{
1000
HIER
1070
     0
1002
}
1002
{
1000
MANEDIT
1070
     0
1002
}
1002
{
1000
NOSEL
1070
     0
1002
}
1002
{
1000
BEHIND
1070
     0
1002
}
1002
{
1000
OTHER
1070
     0
1002
}
1002
{
1000
REACTOR
1002
}
  0
LINE
  5
8CFF
  8
0
 10
86.27185615177225
 20
203.8911378947822
 30
0.0
 11
86.27185615177225
 21
215.8911378947818
 31
0.0
  0
ARC
  5
8D00
  8
0
 10
84.27185615177225
 20
215.8911378947818
 30
0.0
 40
2.0
 50
0.0
 51
90.0
1001
GENIUS_GENODEF_13
1002
{
1000
HIER
1070
     0
1002
}
1002
{
1000
MANEDIT
1070
     0
1002
}
1002
{
1000
NOSEL
1070
     0
1002
}
1002
{
1000
BEHIND
1070
     0
1002
}
1002
{
1000
OTHER
1070
     0
1002
}
1002
{
1000
REACTOR
1002
}
1001
GENIUS_GENOBJ-N-FIL_13
1002
{
1000
OWNER
1000
GEN
1002
}
  0
LINE
  5
8D01
  8
0
 10
86.27185615177225
 20
209.3911378947822
 30
0.0
 11
86.24963589325924
 21
209.3911378947822
 31
0.0
  0
LINE
  5
8D02
  8
0
 10
84.82185615177266
 20
209.5411378947821
 30
0.0
 11
69.72185615177276
 21
209.5411378947821
 31
0.0
  0
LINE
  5
8D03
  8
0
 10
86.27185615177225
 20
210.3911378947822
 30
0.0
 11
86.24963589325924
 21
210.3911378947822
 31
0.0
  0
LINE
  5
8D04
  8
0
 10
84.82185615177266
 20
210.2411378947821
 30
0.0
 11
69.72185615177276
 21
210.2411378947821
 31
0.0
  0
CIRCLE
  5
8D05
  8
0
 10
77.47346969118828
 20
213.8911378947827
 30
0.0
 40
2.0
  0
LINE
  5
8D06
  8
0
 10
84.27185615177225
 20
217.8911378947818
 30
0.0
 11
70.27185615177316
 21
217.8911378947827
 31
0.0
  0
ARC
  5
8D07
  8
0
 10
70.27185615177316
 20
215.8911378947827
 30
0.0
 40
2.0
 50
90.0
 51
180.0
1001
GENIUS_GENOBJ-N-FIL_13
1002
{
1000
OWNER
1000
GEN
1002
}
1001
GENIUS_GENODEF_13
1002
{
1000
HIER
1070
     0
1002
}
1002
{
1000
MANEDIT
1070
     0
1002
}
1002
{
1000
NOSEL
1070
     0
1002
}
1002
{
1000
BEHIND
1070
     0
1002
}
1002
{
1000
OTHER
1070
     0
1002
}
1002
{
1000
REACTOR
1002
}
  0
LINE
  5
8D08
  8
0
 10
84.27185615177225
 20
201.8911378947822
 30
0.0
 11
70.27185615177316
 21
201.8911378947822
 31
0.0
  0
ARC
  5
8D09
  8
0
 10
84.27185615177225
 20
203.8911378947822
 30
0.0
 40
2.0
 50
270.0
 51
0.0
1001
GENIUS_GENODEF_13
1002
{
1000
HIER
1070
     0
1002
}
1002
{
1000
MANEDIT
1070
     0
1002
}
1002
{
1000
NOSEL
1070
     0
1002
}
1002
{
1000
BEHIND
1070
     0
1002
}
1002
{
1000
OTHER
1070
     0
1002
}
1002
{
1000
REACTOR
1002
}
1001
GENIUS_GENOBJ-N-FIL_13
1002
{
1000
OWNER
1000
GEN
1002
}
  0
TEXT
  5
8D0A
  8
0
 10
41.65052034472347
 20
220.3458403975508
 30
0.0
 40
1.8
  1
電動水抜操作盤 EV1K
  0
CIRCLE
  5
8D3B
  8
0
 10
65.8223181143355
 20
224.3743024200633
 30
0.0
 40
1.125
  0
TEXT
  5
8D3C
  8
0
 10
65.1023181143355
 20
223.6063024200633
 30
0.0
 40
1.44
  1
Ｒ
 72
     4
 11
65.8223181143355
 21
224.3743024200633
 31
0.0
  0
LINE
  5
8D45
  8
0
 10
55.82185551549398
 20
248.241137894783
 30
0.0
 11
55.82185551549398
 21
246.241137894783
 31
0.0
  0
LINE
  5
8D46
  8
0
 10
48.82185551549398
 20
248.241137894783
 30
0.0
 11
48.82185551549398
 21
246.241137894783
 31
0.0
  0
ARC
  5
8D47
  8
0
 10
49.82185551549398
 20
248.241137894783
 30
0.0
 40
1.0
 50
90.0
 51
180.0
  0
ARC
  5
8D48
  8
0
 10
49.82185551549398
 20
246.241137894783
 30
0.0
 40
1.0
 50
180.0
 51
270.0
  0
ARC
  5
8D49
  8
0
 10
54.82185551549398
 20
246.241137894783
 30
0.0
 40
1.0
 50
270.0
 51
0.0
  0
ARC
  5
8D4A
  8
0
 10
54.82185551549398
 20
248.241137894783
 30
0.0
 40
1.0
 50
0.0
 51
90.0
  0
LINE
  5
8D4B
  8
0
 10
49.82185551549398
 20
249.241137894783
 30
0.0
 11
54.82185551549398
 21
249.241137894783
 31
0.0
  0
LINE
  5
8D4C
  8
0
 10
49.82185551549398
 20
245.241137894783
 30
0.0
 11
54.82185551549398
 21
245.241137894783
 31
0.0
  0
TEXT
  5
8D4D
  8
0
 10
42.16044235838111
 20
246.2788620753643
 30
0.0
 40
2.0
  1
OFF
 41
1.5
  0
TEXT
  5
8D4E
  8
0
 10
57.20729150807283
 20
246.2788620753643
 30
0.0
 40
2.0
  1
ON
 41
1.5
  0
ARC
  5
8D4F
  8
0
 10
69.72185615177276
 20
209.8911378947822
 30
0.0
 40
0.3500000000000227
 50
90.0
 51
270.0
  0
ARC
  5
8D50
  8
0
 10
84.82185615177266
 20
209.8911378947822
 30
0.0
 40
0.3500000000000227
 50
270.0
 51
90.0
  0
LINE
  5
8D51
  8
0
 10
56.52185615177356
 20
212.8911378947828
 30
0.0
 11
64.52185615177356
 21
212.8911378947828
 31
0.0
  0
ARC
  5
8D52
  8
0
 10
64.52185615177356
 20
210.8911378947828
 30
0.0
 40
2.0
 50
0.0
 51
90.0
  0
ARC
  5
8D53
  8
0
 10
56.52185615177356
 20
210.8911378947828
 30
0.0
 40
2.0
 50
90.0
 51
180.0
  0
ARC
  5
8D54
  8
0
 10
64.52185615177356
 20
203.8911378947823
 30
0.0
 40
2.0
 50
270.0
 51
0.0
  0
LINE
  5
8D55
  8
0
 10
66.52185615177356
 20
203.8911378947823
 30
0.0
 11
66.52185615177356
 21
210.8911378947828
 31
0.0
  0
LINE
  5
8D56
  8
0
 10
56.52185615177356
 20
201.8911378947823
 30
0.0
 11
64.52185615177356
 21
201.8911378947823
 31
0.0
  0
ARC
  5
8D57
  8
0
 10
56.52185615177356
 20
203.8911378947823
 30
0.0
 40
2.0
 50
180.0
 51
270.0
  0
LINE
  5
8D58
  8
0
 10
54.52185615177356
 20
203.8911378947823
 30
0.0
 11
54.52185615177356
 21
210.8911378947828
 31
0.0
  0
TEXT
  5
8D59
  8
0
 10
55.65609042412062
 20
203.1068572884689
 30
0.0
 40
1.9
  1
点検
  0
ARC
  5
8D5A
  8
0
 10
64.27349234550172
 20
204.4584536602054
 30
0.0
 40
0.9999999999999992
 50
233.0491207032597
 51
57.32628399712536
  0
LINE
  5
8D5B
  8
0
 10
63.67236222803115
 20
203.6593024968641
 30
0.0
 11
58.96522801641655
 21
207.2000595793471
 31
0.0
  0
LINE
  5
8D5C
  8
0
 10
59.85524786706134
 20
208.4800440088158
 30
0.0
 11
64.81334657256386
 21
205.3002121846787
 31
0.0
  0
ARC
  5
8D5D
  8
0
 10
57.4055967728643
 20
209.2339519014898
 30
0.0
 40
1.99079584716086
 50
1.683229077248681
 51
160.7903378653518
  0
ARC
  5
8D5E
  8
0
 10
60.3951020941239
 20
209.321802533289
 30
0.0
 40
0.9999999999999992
 50
181.6832290772424
 51
237.3262839971254
1001
GENIUS_GENODEF_13
1002
{
1000
HIER
1070
     0
1002
}
1002
{
1000
MANEDIT
1070
     0
1002
}
1002
{
1000
NOSEL
1070
     0
1002
}
1002
{
1000
BEHIND
1070
     0
1002
}
1002
{
1000
OTHER
1070
     0
1002
}
1002
{
1000
REACTOR
1002
}
1001
GENIUS_GENOBJ-N-FIL_13
1002
{
1000
OWNER
1000
GEN
1002
}
  0
ARC
  5
8D5F
  8
0
 10
57.4055967728643
 20
209.2339519014898
 30
0.0
 40
1.99079584716086
 50
219.5850668351124
 51
288.6921756231417
  0
ARC
  5
8D60
  8
0
 10
58.36409789894634
 20
206.4009084160056
 30
0.0
 40
0.9999999999999992
 50
53.04912070325973
 51
108.6921756231398
1001
GENIUS_GENOBJ-N-FIL_13
1002
{
1000
OWNER
1000
GEN
1002
}
1001
GENIUS_GENODEF_13
1002
{
1000
HIER
1070
     0
1002
}
1002
{
1000
MANEDIT
1070
     0
1002
}
1002
{
1000
NOSEL
1070
     0
1002
}
1002
{
1000
BEHIND
1070
     0
1002
}
1002
{
1000
OTHER
1070
     0
1002
}
1002
{
1000
REACTOR
1002
}
  0
LINE
  5
8D61
  8
0
 10
57.96654129808894
 20
209.3347574609663
 30
0.0
 11
57.58408692139591
 21
208.2731645409264
 31
0.0
  0
LINE
  5
8D62
  8
0
 10
57.58408692139591
 20
208.2731645409264
 30
0.0
 11
55.87133152286603
 21
207.9653707067212
 31
0.0
  0
LINE
  5
8D63
  8
0
 10
57.96654129808883
 20
209.3347574609669
 30
0.0
 11
57.23840204920211
 21
210.1967691269913
 31
0.0
  0
LINE
  5
8D64
  8
0
 10
57.23840204920211
 20
210.1967691269913
 30
0.0
 11
55.52564665067197
 21
209.8889752927857
 31
0.0
  0
CIRCLE
  5
8D65
  8
0
 10
64.27349234550172
 20
204.4584536602054
 30
0.0
 40
0.4999999999999996
  0
LINE
  5
8D66
  8
0
 10
42.53436654623872
 20
212.5722728947824
 30
0.0
 11
44.87114804623874
 21
212.5722728947824
 31
0.0
  0
LINE
  5
8D67
  8
0
 10
44.87114804623874
 20
212.5722728947824
 30
0.0
 11
44.87114804623874
 21
212.9062567947823
 31
0.0
  0
LINE
  5
8D68
  8
0
 10
44.87114804623874
 20
212.9062567947823
 30
0.0
 11
42.53436654623872
 21
212.9062567947823
 31
0.0
  0
LINE
  5
8D69
  8
0
 10
42.53436654623872
 20
212.9062567947823
 30
0.0
 11
42.53436654623872
 21
212.5722728947824
 31
0.0
  0
LINE
  5
8D6A
  8
0
 10
45.5387415462387
 20
212.5722728947824
 30
0.0
 11
46.5399560462387
 21
212.5722728947824
 31
0.0
  0
LINE
  5
8D6B
  8
0
 10
46.5399560462387
 20
212.5722728947824
 30
0.0
 11
46.5399560462387
 21
212.9062567947823
 31
0.0
  0
LINE
  5
8D6C
  8
0
 10
46.5399560462387
 20
212.9062567947823
 30
0.0
 11
45.5387415462387
 21
212.9062567947823
 31
0.0
  0
LINE
  5
8D6D
  8
0
 10
45.5387415462387
 20
212.9062567947823
 30
0.0
 11
45.5387415462387
 21
212.5722728947824
 31
0.0
  0
LINE
  5
8D6E
  8
0
 10
47.20751154623872
 20
212.5722728947824
 30
0.0
 11
47.54149544623874
 21
212.5722728947824
 31
0.0
  0
LINE
  5
8D6F
  8
0
 10
47.54149544623874
 20
212.5722728947824
 30
0.0
 11
47.54149544623874
 21
212.9062567947823
 31
0.0
  0
LINE
  5
8D70
  8
0
 10
47.54149544623874
 20
212.9062567947823
 30
0.0
 11
47.20751154623872
 21
212.9062567947823
 31
0.0
  0
LINE
  5
8D71
  8
0
 10
47.20751154623872
 20
212.9062567947823
 30
0.0
 11
47.20751154623872
 21
212.5722728947824
 31
0.0
  0
LINE
  5
8D72
  8
0
 10
47.87507654623872
 20
212.5722728947824
 30
0.0
 11
48.20906139623872
 21
212.5722728947824
 31
0.0
  0
LINE
  5
8D73
  8
0
 10
48.20906139623872
 20
212.5722728947824
 30
0.0
 11
48.20906139623872
 21
212.9062567947823
 31
0.0
  0
LINE
  5
8D74
  8
0
 10
48.20906139623872
 20
212.9062567947823
 30
0.0
 11
47.87507654623872
 21
212.9062567947823
 31
0.0
  0
LINE
  5
8D75
  8
0
 10
47.87507654623872
 20
212.9062567947823
 30
0.0
 11
47.87507654623872
 21
212.5722728947824
 31
0.0
  0
LINE
  5
8D76
  8
0
 10
48.54273654623873
 20
212.5722728947824
 30
0.0
 11
48.87672139623871
 21
212.5722728947824
 31
0.0
  0
LINE
  5
8D77
  8
0
 10
48.87672139623871
 20
212.5722728947824
 30
0.0
 11
48.87672139623871
 21
212.9062567947823
 31
0.0
  0
LINE
  5
8D78
  8
0
 10
48.87672139623871
 20
212.9062567947823
 30
0.0
 11
48.54273654623873
 21
212.9062567947823
 31
0.0
  0
LINE
  5
8D79
  8
0
 10
48.54273654623873
 20
212.9062567947823
 30
0.0
 11
48.54273654623873
 21
212.5722728947824
 31
0.0
  0
LINE
  5
8D7A
  8
0
 10
49.87748654623871
 20
212.5722728947824
 30
0.0
 11
50.21147044623874
 21
212.5722728947824
 31
0.0
  0
LINE
  5
8D7B
  8
0
 10
50.21147044623874
 20
212.5722728947824
 30
0.0
 11
50.21147044623874
 21
212.9062567947823
 31
0.0
  0
LINE
  5
8D7C
  8
0
 10
50.21147044623874
 20
212.9062567947823
 30
0.0
 11
49.87748654623871
 21
212.9062567947823
 31
0.0
  0
LINE
  5
8D7D
  8
0
 10
49.87748654623871
 20
212.9062567947823
 30
0.0
 11
49.87748654623871
 21
212.5722728947824
 31
0.0
  0
LINE
  5
8D7F
  8
0
 10
51.54707544623872
 20
212.5722728947824
 30
0.0
 11
53.21550154623873
 21
212.5722728947824
 31
0.0
  0
LINE
  5
8D80
  8
0
 10
53.54987304623873
 20
210.5691028947824
 30
0.0
 11
53.54987304623873
 21
212.9062567947823
 31
0.0
  0
LINE
  5
8D81
  8
0
 10
53.54987304623873
 20
212.9062567947823
 30
0.0
 11
51.21309154623873
 21
212.9062567947823
 31
0.0
  0
LINE
  5
8D82
  8
0
 10
51.21309154623873
 20
212.9062567947823
 30
0.0
 11
51.21309154623873
 21
210.5691028947824
 31
0.0
  0
LINE
  5
8D83
  8
0
 10
42.53436654623872
 20
212.2383478947824
 30
0.0
 11
42.86872189623872
 21
212.2383478947824
 31
0.0
  0
LINE
  5
8D84
  8
0
 10
42.86872189623872
 20
212.2383478947824
 30
0.0
 11
42.86872189623872
 21
212.5723327447823
 31
0.0
  0
LINE
  5
8D85
  8
0
 10
42.86872189623872
 20
212.5723327447823
 30
0.0
 11
42.53436654623872
 21
212.5723327447823
 31
0.0
  0
LINE
  5
8D86
  8
0
 10
42.53436654623872
 20
212.5723327447823
 30
0.0
 11
42.53436654623872
 21
212.2383478947824
 31
0.0
  0
LINE
  5
8D87
  8
0
 10
44.53744154623871
 20
212.2383478947824
 30
0.0
 11
44.8714254462387
 21
212.2383478947824
 31
0.0
  0
LINE
  5
8D88
  8
0
 10
44.8714254462387
 20
212.2383478947824
 30
0.0
 11
44.8714254462387
 21
212.5723327447823
 31
0.0
  0
LINE
  5
8D89
  8
0
 10
44.8714254462387
 20
212.5723327447823
 30
0.0
 11
44.53744154623871
 21
212.5723327447823
 31
0.0
  0
LINE
  5
8D8A
  8
0
 10
44.53744154623871
 20
212.5723327447823
 30
0.0
 11
44.53744154623871
 21
212.2383478947824
 31
0.0
  0
LINE
  5
8D8B
  8
0
 10
45.20510154623872
 20
212.2383478947824
 30
0.0
 11
46.20668654623873
 21
212.2383478947824
 31
0.0
  0
LINE
  5
8D8C
  8
0
 10
46.20668654623873
 20
212.2383478947824
 30
0.0
 11
46.20668654623873
 21
212.5723327447823
 31
0.0
  0
LINE
  5
8D8D
  8
0
 10
46.20668654623873
 20
212.5723327447823
 30
0.0
 11
45.20510154623872
 21
212.5723327447823
 31
0.0
  0
LINE
  5
8D8E
  8
0
 10
45.20510154623872
 20
212.5723327447823
 30
0.0
 11
45.20510154623872
 21
212.2383478947824
 31
0.0
  0
LINE
  5
8D8F
  8
0
 10
46.54032654623873
 20
212.2383478947824
 30
0.0
 11
47.54154104623873
 21
212.2383478947824
 31
0.0
  0
LINE
  5
8D90
  8
0
 10
47.54154104623873
 20
212.2383478947824
 30
0.0
 11
47.54154104623873
 21
212.5723327447823
 31
0.0
  0
LINE
  5
8D91
  8
0
 10
47.54154104623873
 20
212.5723327447823
 30
0.0
 11
46.54032654623873
 21
212.5723327447823
 31
0.0
  0
LINE
  5
8D92
  8
0
 10
46.54032654623873
 20
212.5723327447823
 30
0.0
 11
46.54032654623873
 21
212.2383478947824
 31
0.0
  0
LINE
  5
8D93
  8
0
 10
48.20909654623873
 20
212.2383478947824
 30
0.0
 11
48.54308044623872
 21
212.2383478947824
 31
0.0
  0
LINE
  5
8D94
  8
0
 10
48.54308044623872
 20
212.2383478947824
 30
0.0
 11
48.54308044623872
 21
212.5723327447823
 31
0.0
  0
LINE
  5
8D95
  8
0
 10
48.54308044623872
 20
212.5723327447823
 30
0.0
 11
48.20909654623873
 21
212.5723327447823
 31
0.0
  0
LINE
  5
8D96
  8
0
 10
48.20909654623873
 20
212.5723327447823
 30
0.0
 11
48.20909654623873
 21
212.2383478947824
 31
0.0
  0
LINE
  5
8D97
  8
0
 10
49.20992154623872
 20
212.2383478947824
 30
0.0
 11
49.54427689623873
 21
212.2383478947824
 31
0.0
  0
LINE
  5
8D98
  8
0
 10
49.54427689623873
 20
212.2383478947824
 30
0.0
 11
49.54427689623873
 21
212.5723327447823
 31
0.0
  0
LINE
  5
8D99
  8
0
 10
49.54427689623873
 20
212.5723327447823
 30
0.0
 11
49.20992154623872
 21
212.5723327447823
 31
0.0
  0
LINE
  5
8D9A
  8
0
 10
49.20992154623872
 20
212.5723327447823
 30
0.0
 11
49.20992154623872
 21
212.2383478947824
 31
0.0
  0
LINE
  5
8D9B
  8
0
 10
49.87748654623871
 20
212.2383478947824
 30
0.0
 11
50.21147044623874
 21
212.2383478947824
 31
0.0
  0
LINE
  5
8D9C
  8
0
 10
50.21147044623874
 20
212.2383478947824
 30
0.0
 11
50.21147044623874
 21
212.5723327447823
 31
0.0
  0
LINE
  5
8D9D
  8
0
 10
50.21147044623874
 20
212.5723327447823
 30
0.0
 11
49.87748654623871
 21
212.5723327447823
 31
0.0
  0
LINE
  5
8D9E
  8
0
 10
49.87748654623871
 20
212.5723327447823
 30
0.0
 11
49.87748654623871
 21
212.2383478947824
 31
0.0
  0
LINE
  5
8D9F
  8
0
 10
50.54590654623871
 20
212.2383478947824
 30
0.0
 11
50.87989139623872
 21
212.2383478947824
 31
0.0
  0
LINE
  5
8DA1
  8
0
 10
50.87989139623872
 20
212.2383032447823
 30
0.0
 11
50.87989139623872
 21
212.5723327447823
 31
0.0
  0
LINE
  5
8DA2
  8
0
 10
50.87989139623872
 20
212.5723327447823
 30
0.0
 11
50.54590654623871
 21
212.5723327447823
 31
0.0
  0
LINE
  5
8DA3
  8
0
 10
50.54590654623871
 20
212.5723327447823
 30
0.0
 11
50.54590654623871
 21
212.2383032447823
 31
0.0
  0
LINE
  5
8DA4
  8
0
 10
42.53436654623872
 20
211.9039478947823
 30
0.0
 11
42.86872189623872
 21
211.9039478947823
 31
0.0
  0
LINE
  5
8DA5
  8
0
 10
42.86872189623872
 20
211.9039478947823
 30
0.0
 11
42.86872189623872
 21
212.2383032447823
 31
0.0
  0
LINE
  5
8DA6
  8
0
 10
42.86872189623872
 20
212.2383032447823
 30
0.0
 11
42.53436654623872
 21
212.2383032447823
 31
0.0
  0
LINE
  5
8DA7
  8
0
 10
42.53436654623872
 20
212.2383032447823
 30
0.0
 11
42.53436654623872
 21
211.9039478947823
 31
0.0
  0
LINE
  5
8DA8
  8
0
 10
43.20193154623871
 20
211.9039478947823
 30
0.0
 11
44.20351654623872
 21
211.9039478947823
 31
0.0
  0
LINE
  5
8DA9
  8
0
 10
44.20351654623872
 20
211.9039478947823
 30
0.0
 11
44.20351654623872
 21
212.2383032447823
 31
0.0
  0
LINE
  5
8DAA
  8
0
 10
44.20351654623872
 20
212.2383032447823
 30
0.0
 11
43.20193154623871
 21
212.2383032447823
 31
0.0
  0
LINE
  5
8DAB
  8
0
 10
43.20193154623871
 20
212.2383032447823
 30
0.0
 11
43.20193154623871
 21
211.9039478947823
 31
0.0
  0
LINE
  5
8DAC
  8
0
 10
44.53744154623871
 20
211.9039478947823
 30
0.0
 11
44.8714254462387
 21
211.9039478947823
 31
0.0
  0
LINE
  5
8DAD
  8
0
 10
44.8714254462387
 20
211.9039478947823
 30
0.0
 11
44.8714254462387
 21
212.2383032447823
 31
0.0
  0
LINE
  5
8DAE
  8
0
 10
44.8714254462387
 20
212.2383032447823
 30
0.0
 11
44.53744154623871
 21
212.2383032447823
 31
0.0
  0
LINE
  5
8DAF
  8
0
 10
44.53744154623871
 20
212.2383032447823
 30
0.0
 11
44.53744154623871
 21
211.9039478947823
 31
0.0
  0
LINE
  5
8DB0
  8
0
 10
45.20510154623872
 20
211.9039478947823
 30
0.0
 11
46.20668654623873
 21
211.9039478947823
 31
0.0
  0
LINE
  5
8DB1
  8
0
 10
46.20668654623873
 20
211.9039478947823
 30
0.0
 11
46.20668654623873
 21
212.2383032447823
 31
0.0
  0
LINE
  5
8DB2
  8
0
 10
46.20668654623873
 20
212.2383032447823
 30
0.0
 11
45.20510154623872
 21
212.2383032447823
 31
0.0
  0
LINE
  5
8DB3
  8
0
 10
45.20510154623872
 20
212.2383032447823
 30
0.0
 11
45.20510154623872
 21
211.9039478947823
 31
0.0
  0
LINE
  5
8DB4
  8
0
 10
46.54032654623873
 20
211.9039478947823
 30
0.0
 11
47.20755334623871
 21
211.9039478947823
 31
0.0
  0
LINE
  5
8DB5
  8
0
 10
47.20755334623871
 20
211.9039478947823
 30
0.0
 11
47.20755334623871
 21
212.2383032447823
 31
0.0
  0
LINE
  5
8DB6
  8
0
 10
47.20755334623871
 20
212.2383032447823
 30
0.0
 11
46.54032654623873
 21
212.2383032447823
 31
0.0
  0
LINE
  5
8DB7
  8
0
 10
46.54032654623873
 20
212.2383032447823
 30
0.0
 11
46.54032654623873
 21
211.9039478947823
 31
0.0
  0
LINE
  5
8DB8
  8
0
 10
47.54153154623873
 20
211.9039478947823
 30
0.0
 11
47.87588689623874
 21
211.9039478947823
 31
0.0
  0
LINE
  5
8DB9
  8
0
 10
47.87588689623874
 20
211.9039478947823
 30
0.0
 11
47.87588689623874
 21
212.2383032447823
 31
0.0
  0
LINE
  5
8DBA
  8
0
 10
47.87588689623874
 20
212.2383032447823
 30
0.0
 11
47.54153154623873
 21
212.2383032447823
 31
0.0
  0
LINE
  5
8DBB
  8
0
 10
47.54153154623873
 20
212.2383032447823
 30
0.0
 11
47.54153154623873
 21
211.9039478947823
 31
0.0
  0
LINE
  5
8DBC
  8
0
 10
48.20909654623873
 20
211.9039478947823
 30
0.0
 11
49.21068154623873
 21
211.9039478947823
 31
0.0
  0
LINE
  5
8DBD
  8
0
 10
49.21068154623873
 20
211.9039478947823
 30
0.0
 11
49.21068154623873
 21
212.2383032447823
 31
0.0
  0
LINE
  5
8DBE
  8
0
 10
49.21068154623873
 20
212.2383032447823
 30
0.0
 11
48.20909654623873
 21
212.2383032447823
 31
0.0
  0
LINE
  5
8DBF
  8
0
 10
48.20909654623873
 20
212.2383032447823
 30
0.0
 11
48.20909654623873
 21
211.9039478947823
 31
0.0
  0
LINE
  5
8DC0
  8
0
 10
49.54432154623871
 20
211.9039478947823
 30
0.0
 11
49.87830639623871
 21
211.9039478947823
 31
0.0
  0
LINE
  5
8DC1
  8
0
 10
49.87830639623871
 20
211.9039478947823
 30
0.0
 11
49.87830639623871
 21
212.2383032447823
 31
0.0
  0
LINE
  5
8DC2
  8
0
 10
49.87830639623871
 20
212.2383032447823
 30
0.0
 11
49.54432154623871
 21
212.2383032447823
 31
0.0
  0
LINE
  5
8DC3
  8
0
 10
49.54432154623871
 20
212.2383032447823
 30
0.0
 11
49.54432154623871
 21
211.9039478947823
 31
0.0
  0
LINE
  5
8DC4
  8
0
 10
50.54590654623871
 20
211.9039478947823
 30
0.0
 11
50.87989139623872
 21
211.9039478947823
 31
0.0
  0
LINE
  5
8DC5
  8
0
 10
50.87989139623872
 20
211.9039478947823
 30
0.0
 11
50.87989139623872
 21
212.2383032447823
 31
0.0
  0
LINE
  5
8DC6
  8
0
 10
50.87989139623872
 20
212.2383032447823
 30
0.0
 11
50.54590654623871
 21
212.2383032447823
 31
0.0
  0
LINE
  5
8DC7
  8
0
 10
50.54590654623871
 20
212.2383032447823
 30
0.0
 11
50.54590654623871
 21
211.9039478947823
 31
0.0
  0
LINE
  5
8DC9
  8
0
 10
52.8822415462387
 20
211.2367628947824
 30
0.0
 11
52.8822415462387
 21
212.2383032447823
 31
0.0
  0
LINE
  5
8DCA
  8
0
 10
52.8822415462387
 20
212.2383032447823
 30
0.0
 11
51.88065654623873
 21
212.2383032447823
 31
0.0
  0
LINE
  5
8DCB
  8
0
 10
51.88065654623873
 20
212.2383032447823
 30
0.0
 11
51.88065654623873
 21
211.2367628947824
 31
0.0
  0
LINE
  5
8DCC
  8
0
 10
42.53436654623872
 20
211.5706878947823
 30
0.0
 11
42.86872189623872
 21
211.5706878947823
 31
0.0
  0
LINE
  5
8DCD
  8
0
 10
42.86872189623872
 20
211.5706878947823
 30
0.0
 11
42.86872189623872
 21
211.9046717947824
 31
0.0
  0
LINE
  5
8DCE
  8
0
 10
42.86872189623872
 20
211.9046717947824
 30
0.0
 11
42.53436654623872
 21
211.9046717947824
 31
0.0
  0
LINE
  5
8DCF
  8
0
 10
42.53436654623872
 20
211.9046717947824
 30
0.0
 11
42.53436654623872
 21
211.5706878947823
 31
0.0
  0
LINE
  5
8DD0
  8
0
 10
43.20193154623871
 20
211.5706878947823
 30
0.0
 11
44.20351654623872
 21
211.5706878947823
 31
0.0
  0
LINE
  5
8DD1
  8
0
 10
44.20351654623872
 20
211.5706878947823
 30
0.0
 11
44.20351654623872
 21
211.9046717947824
 31
0.0
  0
LINE
  5
8DD2
  8
0
 10
44.20351654623872
 20
211.9046717947824
 30
0.0
 11
43.20193154623871
 21
211.9046717947824
 31
0.0
  0
LINE
  5
8DD3
  8
0
 10
43.20193154623871
 20
211.9046717947824
 30
0.0
 11
43.20193154623871
 21
211.5706878947823
 31
0.0
  0
LINE
  5
8DD4
  8
0
 10
44.53744154623871
 20
211.5706878947823
 30
0.0
 11
44.8714254462387
 21
211.5706878947823
 31
0.0
  0
LINE
  5
8DD5
  8
0
 10
44.8714254462387
 20
211.5706878947823
 30
0.0
 11
44.8714254462387
 21
211.9046717947824
 31
0.0
  0
LINE
  5
8DD6
  8
0
 10
44.8714254462387
 20
211.9046717947824
 30
0.0
 11
44.53744154623871
 21
211.9046717947824
 31
0.0
  0
LINE
  5
8DD7
  8
0
 10
44.53744154623871
 20
211.9046717947824
 30
0.0
 11
44.53744154623871
 21
211.5706878947823
 31
0.0
  0
LINE
  5
8DD8
  8
0
 10
45.20510154623872
 20
211.5706878947823
 30
0.0
 11
45.53908639623873
 21
211.5706878947823
 31
0.0
  0
LINE
  5
8DD9
  8
0
 10
45.53908639623873
 20
211.5706878947823
 30
0.0
 11
45.53908639623873
 21
211.9046717947824
 31
0.0
  0
LINE
  5
8DDA
  8
0
 10
45.53908639623873
 20
211.9046717947824
 30
0.0
 11
45.20510154623872
 21
211.9046717947824
 31
0.0
  0
LINE
  5
8DDB
  8
0
 10
45.20510154623872
 20
211.9046717947824
 30
0.0
 11
45.20510154623872
 21
211.5706878947823
 31
0.0
  0
LINE
  5
8DDC
  8
0
 10
48.87666154623872
 20
211.5706878947823
 30
0.0
 11
49.21064544623871
 21
211.5706878947823
 31
0.0
  0
LINE
  5
8DDD
  8
0
 10
49.21064544623871
 20
211.5706878947823
 30
0.0
 11
49.21064544623871
 21
211.9046717947824
 31
0.0
  0
LINE
  5
8DDE
  8
0
 10
49.21064544623871
 20
211.9046717947824
 30
0.0
 11
48.87666154623872
 21
211.9046717947824
 31
0.0
  0
LINE
  5
8DDF
  8
0
 10
48.87666154623872
 20
211.9046717947824
 30
0.0
 11
48.87666154623872
 21
211.5706878947823
 31
0.0
  0
LINE
  5
8DE0
  8
0
 10
49.54432154623871
 20
211.5706878947823
 30
0.0
 11
50.87914754623873
 21
211.5706878947823
 31
0.0
  0
LINE
  5
8DE1
  8
0
 10
50.87914754623873
 20
211.5706878947823
 30
0.0
 11
50.87914754623873
 21
211.9046717947824
 31
0.0
  0
LINE
  5
8DE2
  8
0
 10
50.87914754623873
 20
211.9046717947824
 30
0.0
 11
49.54432154623871
 21
211.9046717947824
 31
0.0
  0
LINE
  5
8DE3
  8
0
 10
49.54432154623871
 20
211.9046717947824
 30
0.0
 11
49.54432154623871
 21
211.5706878947823
 31
0.0
  0
LINE
  5
8DE4
  8
0
 10
42.53436654623872
 20
211.2367628947824
 30
0.0
 11
42.86872189623872
 21
211.2367628947824
 31
0.0
  0
LINE
  5
8DE5
  8
0
 10
42.86872189623872
 20
211.2367628947824
 30
0.0
 11
42.86872189623872
 21
211.5707477447824
 31
0.0
  0
LINE
  5
8DE6
  8
0
 10
42.86872189623872
 20
211.5707477447824
 30
0.0
 11
42.53436654623872
 21
211.5707477447824
 31
0.0
  0
LINE
  5
8DE7
  8
0
 10
42.53436654623872
 20
211.5707477447824
 30
0.0
 11
42.53436654623872
 21
211.2367628947824
 31
0.0
  0
LINE
  5
8DE8
  8
0
 10
43.20193154623871
 20
211.2367628947824
 30
0.0
 11
44.20351654623872
 21
211.2367628947824
 31
0.0
  0
LINE
  5
8DE9
  8
0
 10
44.20351654623872
 20
211.2367628947824
 30
0.0
 11
44.20351654623872
 21
211.5707477447824
 31
0.0
  0
LINE
  5
8DEA
  8
0
 10
44.20351654623872
 20
211.5707477447824
 30
0.0
 11
43.20193154623871
 21
211.5707477447824
 31
0.0
  0
LINE
  5
8DEB
  8
0
 10
43.20193154623871
 20
211.5707477447824
 30
0.0
 11
43.20193154623871
 21
211.2367628947824
 31
0.0
  0
LINE
  5
8DEC
  8
0
 10
44.53744154623871
 20
211.2367628947824
 30
0.0
 11
44.8714254462387
 21
211.2367628947824
 31
0.0
  0
LINE
  5
8DED
  8
0
 10
44.8714254462387
 20
211.2367628947824
 30
0.0
 11
44.8714254462387
 21
211.5707477447824
 31
0.0
  0
LINE
  5
8DEE
  8
0
 10
44.8714254462387
 20
211.5707477447824
 30
0.0
 11
44.53744154623871
 21
211.5707477447824
 31
0.0
  0
LINE
  5
8DEF
  8
0
 10
44.53744154623871
 20
211.5707477447824
 30
0.0
 11
44.53744154623871
 21
211.2367628947824
 31
0.0
  0
LINE
  5
8DF0
  8
0
 10
45.5387415462387
 20
211.2367628947824
 30
0.0
 11
45.8727263962387
 21
211.2367628947824
 31
0.0
  0
LINE
  5
8DF1
  8
0
 10
45.8727263962387
 20
211.2367628947824
 30
0.0
 11
45.8727263962387
 21
211.5707477447824
 31
0.0
  0
LINE
  5
8DF2
  8
0
 10
45.8727263962387
 20
211.5707477447824
 30
0.0
 11
45.5387415462387
 21
211.5707477447824
 31
0.0
  0
LINE
  5
8DF3
  8
0
 10
45.5387415462387
 20
211.5707477447824
 30
0.0
 11
45.5387415462387
 21
211.2367628947824
 31
0.0
  0
LINE
  5
8DF4
  8
0
 10
46.20592654623871
 20
211.2367628947824
 30
0.0
 11
47.20751154623872
 21
211.2367628947824
 31
0.0
  0
LINE
  5
8DF5
  8
0
 10
47.20751154623872
 20
211.2367628947824
 30
0.0
 11
47.20751154623872
 21
211.5707477447824
 31
0.0
  0
LINE
  5
8DF6
  8
0
 10
47.20751154623872
 20
211.5707477447824
 30
0.0
 11
46.20592654623871
 21
211.5707477447824
 31
0.0
  0
LINE
  5
8DF7
  8
0
 10
46.20592654623871
 20
211.5707477447824
 30
0.0
 11
46.20592654623871
 21
211.2367628947824
 31
0.0
  0
LINE
  5
8DF8
  8
0
 10
47.54153154623873
 20
211.2367628947824
 30
0.0
 11
47.87588689623874
 21
211.2367628947824
 31
0.0
  0
LINE
  5
8DF9
  8
0
 10
47.87588689623874
 20
211.2367628947824
 30
0.0
 11
47.87588689623874
 21
211.5707477447824
 31
0.0
  0
LINE
  5
8DFA
  8
0
 10
47.87588689623874
 20
211.5707477447824
 30
0.0
 11
47.54153154623873
 21
211.5707477447824
 31
0.0
  0
LINE
  5
8DFB
  8
0
 10
47.54153154623873
 20
211.5707477447824
 30
0.0
 11
47.54153154623873
 21
211.2367628947824
 31
0.0
  0
LINE
  5
8DFC
  8
0
 10
48.20909654623873
 20
211.2367628947824
 30
0.0
 11
48.87669384623871
 21
211.2367628947824
 31
0.0
  0
LINE
  5
8DFD
  8
0
 10
48.87669384623871
 20
211.2367628947824
 30
0.0
 11
48.87669384623871
 21
211.5707477447824
 31
0.0
  0
LINE
  5
8DFE
  8
0
 10
48.87669384623871
 20
211.5707477447824
 30
0.0
 11
48.20909654623873
 21
211.5707477447824
 31
0.0
  0
LINE
  5
8DFF
  8
0
 10
48.20909654623873
 20
211.5707477447824
 30
0.0
 11
48.20909654623873
 21
211.2367628947824
 31
0.0
  0
LINE
  5
8E00
  8
0
 10
50.21150654623872
 20
211.2367628947824
 30
0.0
 11
50.54586189623873
 21
211.2367628947824
 31
0.0
  0
LINE
  5
8E01
  8
0
 10
50.54586189623873
 20
211.2367628947824
 30
0.0
 11
50.54586189623873
 21
211.5707477447824
 31
0.0
  0
LINE
  5
8E02
  8
0
 10
50.54586189623873
 20
211.5707477447824
 30
0.0
 11
50.21150654623872
 21
211.5707477447824
 31
0.0
  0
LINE
  5
8E03
  8
0
 10
50.21150654623872
 20
211.5707477447824
 30
0.0
 11
50.21150654623872
 21
211.2367628947824
 31
0.0
  0
LINE
  5
8E04
  8
0
 10
51.88065654623873
 20
211.2367628947824
 30
0.0
 11
52.8822415462387
 21
211.2367628947824
 31
0.0
  0
LINE
  5
8E05
  8
0
 10
42.53436654623872
 20
210.9031228947824
 30
0.0
 11
42.86872189623872
 21
210.9031228947824
 31
0.0
  0
LINE
  5
8E06
  8
0
 10
42.86872189623872
 20
210.9031228947824
 30
0.0
 11
42.86872189623872
 21
211.2371077447823
 31
0.0
  0
LINE
  5
8E07
  8
0
 10
42.86872189623872
 20
211.2371077447823
 30
0.0
 11
42.53436654623872
 21
211.2371077447823
 31
0.0
  0
LINE
  5
8E08
  8
0
 10
42.53436654623872
 20
211.2371077447823
 30
0.0
 11
42.53436654623872
 21
210.9031228947824
 31
0.0
  0
LINE
  5
8E09
  8
0
 10
44.53744154623871
 20
210.9031228947824
 30
0.0
 11
44.8714254462387
 21
210.9031228947824
 31
0.0
  0
LINE
  5
8E0A
  8
0
 10
44.8714254462387
 20
210.9031228947824
 30
0.0
 11
44.8714254462387
 21
211.2371077447823
 31
0.0
  0
LINE
  5
8E0B
  8
0
 10
44.8714254462387
 20
211.2371077447823
 30
0.0
 11
44.53744154623871
 21
211.2371077447823
 31
0.0
  0
LINE
  5
8E0C
  8
0
 10
44.53744154623871
 20
211.2371077447823
 30
0.0
 11
44.53744154623871
 21
210.9031228947824
 31
0.0
  0
LINE
  5
8E0D
  8
0
 10
46.87349154623871
 20
210.9031228947824
 30
0.0
 11
47.54108979623874
 21
210.9031228947824
 31
0.0
  0
LINE
  5
8E0E
  8
0
 10
47.54108979623874
 20
210.9031228947824
 30
0.0
 11
47.54108979623874
 21
211.2371077447823
 31
0.0
  0
LINE
  5
8E0F
  8
0
 10
47.54108979623874
 20
211.2371077447823
 30
0.0
 11
46.87349154623871
 21
211.2371077447823
 31
0.0
  0
LINE
  5
8E10
  8
0
 10
46.87349154623871
 20
211.2371077447823
 30
0.0
 11
46.87349154623871
 21
210.9031228947824
 31
0.0
  0
LINE
  5
8E11
  8
0
 10
47.87507654623872
 20
210.9031228947824
 30
0.0
 11
48.20906139623872
 21
210.9031228947824
 31
0.0
  0
LINE
  5
8E12
  8
0
 10
48.20906139623872
 20
210.9031228947824
 30
0.0
 11
48.20906139623872
 21
211.2371077447823
 31
0.0
  0
LINE
  5
8E13
  8
0
 10
48.20906139623872
 20
211.2371077447823
 30
0.0
 11
47.87507654623872
 21
211.2371077447823
 31
0.0
  0
LINE
  5
8E14
  8
0
 10
47.87507654623872
 20
211.2371077447823
 30
0.0
 11
47.87507654623872
 21
210.9031228947824
 31
0.0
  0
LINE
  5
8E15
  8
0
 10
48.54273654623873
 20
210.9031228947824
 30
0.0
 11
48.87672139623871
 21
210.9031228947824
 31
0.0
  0
LINE
  5
8E16
  8
0
 10
48.87672139623871
 20
210.9031228947824
 30
0.0
 11
48.87672139623871
 21
211.2371077447823
 31
0.0
  0
LINE
  5
8E17
  8
0
 10
48.87672139623871
 20
211.2371077447823
 30
0.0
 11
48.54273654623873
 21
211.2371077447823
 31
0.0
  0
LINE
  5
8E18
  8
0
 10
48.54273654623873
 20
211.2371077447823
 30
0.0
 11
48.54273654623873
 21
210.9031228947824
 31
0.0
  0
LINE
  5
8E19
  8
0
 10
49.20992154623872
 20
210.9031228947824
 30
0.0
 11
49.54427689623873
 21
210.9031228947824
 31
0.0
  0
LINE
  5
8E1A
  8
0
 10
49.54427689623873
 20
210.9031228947824
 30
0.0
 11
49.54427689623873
 21
211.2371077447823
 31
0.0
  0
LINE
  5
8E1B
  8
0
 10
49.54427689623873
 20
211.2371077447823
 30
0.0
 11
49.20992154623872
 21
211.2371077447823
 31
0.0
  0
LINE
  5
8E1C
  8
0
 10
49.20992154623872
 20
211.2371077447823
 30
0.0
 11
49.20992154623872
 21
210.9031228947824
 31
0.0
  0
LINE
  5
8E1D
  8
0
 10
51.54707544623872
 20
210.9030867947824
 30
0.0
 11
51.54707544623872
 21
212.5722728947824
 31
0.0
  0
LINE
  5
8E1E
  8
0
 10
53.21550154623873
 20
212.5722728947824
 30
0.0
 11
53.21550154623873
 21
210.9030867947824
 31
0.0
  0
LINE
  5
8E1F
  8
0
 10
42.53436654623872
 20
210.5691028947824
 30
0.0
 11
44.87114804623874
 21
210.5691028947824
 31
0.0
  0
LINE
  5
8E20
  8
0
 10
44.87114804623874
 20
210.5691028947824
 30
0.0
 11
44.87114804623874
 21
210.9030867947824
 31
0.0
  0
LINE
  5
8E21
  8
0
 10
44.87114804623874
 20
210.9030867947824
 30
0.0
 11
42.53436654623872
 21
210.9030867947824
 31
0.0
  0
LINE
  5
8E22
  8
0
 10
42.53436654623872
 20
210.9030867947824
 30
0.0
 11
42.53436654623872
 21
210.5691028947824
 31
0.0
  0
LINE
  5
8E23
  8
0
 10
45.20510154623872
 20
210.5691028947824
 30
0.0
 11
45.53908639623873
 21
210.5691028947824
 31
0.0
  0
LINE
  5
8E24
  8
0
 10
45.53908639623873
 20
210.5691028947824
 30
0.0
 11
45.53908639623873
 21
210.9030867947824
 31
0.0
  0
LINE
  5
8E25
  8
0
 10
45.53908639623873
 20
210.9030867947824
 30
0.0
 11
45.20510154623872
 21
210.9030867947824
 31
0.0
  0
LINE
  5
8E26
  8
0
 10
45.20510154623872
 20
210.9030867947824
 30
0.0
 11
45.20510154623872
 21
210.5691028947824
 31
0.0
  0
LINE
  5
8E27
  8
0
 10
45.87266654623872
 20
210.5691028947824
 30
0.0
 11
46.20665044623874
 21
210.5691028947824
 31
0.0
  0
LINE
  5
8E28
  8
0
 10
46.20665044623874
 20
210.5691028947824
 30
0.0
 11
46.20665044623874
 21
210.9030867947824
 31
0.0
  0
LINE
  5
8E29
  8
0
 10
46.20665044623874
 20
210.9030867947824
 30
0.0
 11
45.87266654623872
 21
210.9030867947824
 31
0.0
  0
LINE
  5
8E2A
  8
0
 10
45.87266654623872
 20
210.9030867947824
 30
0.0
 11
45.87266654623872
 21
210.5691028947824
 31
0.0
  0
LINE
  5
8E2B
  8
0
 10
46.54032654623873
 20
210.5691028947824
 30
0.0
 11
46.87431044623872
 21
210.5691028947824
 31
0.0
  0
LINE
  5
8E2C
  8
0
 10
46.87431044623872
 20
210.5691028947824
 30
0.0
 11
46.87431044623872
 21
210.9030867947824
 31
0.0
  0
LINE
  5
8E2D
  8
0
 10
46.87431044623872
 20
210.9030867947824
 30
0.0
 11
46.54032654623873
 21
210.9030867947824
 31
0.0
  0
LINE
  5
8E2E
  8
0
 10
46.54032654623873
 20
210.9030867947824
 30
0.0
 11
46.54032654623873
 21
210.5691028947824
 31
0.0
  0
LINE
  5
8E2F
  8
0
 10
47.20751154623872
 20
210.5691028947824
 30
0.0
 11
47.54149544623874
 21
210.5691028947824
 31
0.0
  0
LINE
  5
8E30
  8
0
 10
47.54149544623874
 20
210.5691028947824
 30
0.0
 11
47.54149544623874
 21
210.9030867947824
 31
0.0
  0
LINE
  5
8E31
  8
0
 10
47.54149544623874
 20
210.9030867947824
 30
0.0
 11
47.20751154623872
 21
210.9030867947824
 31
0.0
  0
LINE
  5
8E32
  8
0
 10
47.20751154623872
 20
210.9030867947824
 30
0.0
 11
47.20751154623872
 21
210.5691028947824
 31
0.0
  0
LINE
  5
8E33
  8
0
 10
47.87507654623872
 20
210.5691028947824
 30
0.0
 11
48.20906139623872
 21
210.5691028947824
 31
0.0
  0
LINE
  5
8E34
  8
0
 10
48.20906139623872
 20
210.5691028947824
 30
0.0
 11
48.20906139623872
 21
210.9030867947824
 31
0.0
  0
LINE
  5
8E35
  8
0
 10
48.20906139623872
 20
210.9030867947824
 30
0.0
 11
47.87507654623872
 21
210.9030867947824
 31
0.0
  0
LINE
  5
8E36
  8
0
 10
47.87507654623872
 20
210.9030867947824
 30
0.0
 11
47.87507654623872
 21
210.5691028947824
 31
0.0
  0
LINE
  5
8E37
  8
0
 10
48.54273654623873
 20
210.5691028947824
 30
0.0
 11
48.87672139623871
 21
210.5691028947824
 31
0.0
  0
LINE
  5
8E38
  8
0
 10
48.87672139623871
 20
210.5691028947824
 30
0.0
 11
48.87672139623871
 21
210.9030867947824
 31
0.0
  0
LINE
  5
8E39
  8
0
 10
48.87672139623871
 20
210.9030867947824
 30
0.0
 11
48.54273654623873
 21
210.9030867947824
 31
0.0
  0
LINE
  5
8E3A
  8
0
 10
48.54273654623873
 20
210.9030867947824
 30
0.0
 11
48.54273654623873
 21
210.5691028947824
 31
0.0
  0
LINE
  5
8E3B
  8
0
 10
49.20992154623872
 20
210.5691028947824
 30
0.0
 11
49.54427689623873
 21
210.5691028947824
 31
0.0
  0
LINE
  5
8E3C
  8
0
 10
49.54427689623873
 20
210.5691028947824
 30
0.0
 11
49.54427689623873
 21
210.9030867947824
 31
0.0
  0
LINE
  5
8E3D
  8
0
 10
49.54427689623873
 20
210.9030867947824
 30
0.0
 11
49.20992154623872
 21
210.9030867947824
 31
0.0
  0
LINE
  5
8E3E
  8
0
 10
49.20992154623872
 20
210.9030867947824
 30
0.0
 11
49.20992154623872
 21
210.5691028947824
 31
0.0
  0
LINE
  5
8E3F
  8
0
 10
49.87748654623871
 20
210.5691028947824
 30
0.0
 11
50.21147044623874
 21
210.5691028947824
 31
0.0
  0
LINE
  5
8E40
  8
0
 10
50.21147044623874
 20
210.5691028947824
 30
0.0
 11
50.21147044623874
 21
210.9030867947824
 31
0.0
  0
LINE
  5
8E41
  8
0
 10
50.21147044623874
 20
210.9030867947824
 30
0.0
 11
49.87748654623871
 21
210.9030867947824
 31
0.0
  0
LINE
  5
8E42
  8
0
 10
49.87748654623871
 20
210.9030867947824
 30
0.0
 11
49.87748654623871
 21
210.5691028947824
 31
0.0
  0
LINE
  5
8E43
  8
0
 10
50.54590654623871
 20
210.5691028947824
 30
0.0
 11
50.87989139623872
 21
210.5691028947824
 31
0.0
  0
LINE
  5
8E44
  8
0
 10
50.87989139623872
 20
210.5691028947824
 30
0.0
 11
50.87989139623872
 21
210.9030867947824
 31
0.0
  0
LINE
  5
8E45
  8
0
 10
50.87989139623872
 20
210.9030867947824
 30
0.0
 11
50.54590654623871
 21
210.9030867947824
 31
0.0
  0
LINE
  5
8E46
  8
0
 10
50.54590654623871
 20
210.9030867947824
 30
0.0
 11
50.54590654623871
 21
210.5691028947824
 31
0.0
  0
LINE
  5
8E47
  8
0
 10
51.21309154623873
 20
210.5691028947824
 30
0.0
 11
53.54987304623873
 21
210.5691028947824
 31
0.0
  0
LINE
  5
8E48
  8
0
 10
53.21550154623873
 20
210.9030867947824
 30
0.0
 11
51.54707544623872
 21
210.9030867947824
 31
0.0
  0
LINE
  5
8E49
  8
0
 10
45.20510154623872
 20
210.2359378947824
 30
0.0
 11
45.53908639623873
 21
210.2359378947824
 31
0.0
  0
LINE
  5
8E4A
  8
0
 10
45.53908639623873
 20
210.2359378947824
 30
0.0
 11
45.53908639623873
 21
210.5699217947823
 31
0.0
  0
LINE
  5
8E4B
  8
0
 10
45.53908639623873
 20
210.5699217947823
 30
0.0
 11
45.20510154623872
 21
210.5699217947823
 31
0.0
  0
LINE
  5
8E4C
  8
0
 10
45.20510154623872
 20
210.5699217947823
 30
0.0
 11
45.20510154623872
 21
210.2359378947824
 31
0.0
  0
LINE
  5
8E4D
  8
0
 10
46.54032654623873
 20
210.2359378947824
 30
0.0
 11
46.87431044623872
 21
210.2359378947824
 31
0.0
  0
LINE
  5
8E4E
  8
0
 10
46.87431044623872
 20
210.2359378947824
 30
0.0
 11
46.87431044623872
 21
210.5699217947823
 31
0.0
  0
LINE
  5
8E4F
  8
0
 10
46.87431044623872
 20
210.5699217947823
 30
0.0
 11
46.54032654623873
 21
210.5699217947823
 31
0.0
  0
LINE
  5
8E50
  8
0
 10
46.54032654623873
 20
210.5699217947823
 30
0.0
 11
46.54032654623873
 21
210.2359378947824
 31
0.0
  0
LINE
  5
8E51
  8
0
 10
47.20751154623872
 20
210.2359378947824
 30
0.0
 11
47.54149544623874
 21
210.2359378947824
 31
0.0
  0
LINE
  5
8E52
  8
0
 10
47.54149544623874
 20
210.2359378947824
 30
0.0
 11
47.54149544623874
 21
210.5699217947823
 31
0.0
  0
LINE
  5
8E53
  8
0
 10
47.54149544623874
 20
210.5699217947823
 30
0.0
 11
47.20751154623872
 21
210.5699217947823
 31
0.0
  0
LINE
  5
8E54
  8
0
 10
47.20751154623872
 20
210.5699217947823
 30
0.0
 11
47.20751154623872
 21
210.2359378947824
 31
0.0
  0
LINE
  5
8E55
  8
0
 10
49.87748654623871
 20
210.2359378947824
 30
0.0
 11
50.21147044623874
 21
210.2359378947824
 31
0.0
  0
LINE
  5
8E56
  8
0
 10
50.21147044623874
 20
210.2359378947824
 30
0.0
 11
50.21147044623874
 21
210.5699217947823
 31
0.0
  0
LINE
  5
8E57
  8
0
 10
50.21147044623874
 20
210.5699217947823
 30
0.0
 11
49.87748654623871
 21
210.5699217947823
 31
0.0
  0
LINE
  5
8E58
  8
0
 10
49.87748654623871
 20
210.5699217947823
 30
0.0
 11
49.87748654623871
 21
210.2359378947824
 31
0.0
  0
LINE
  5
8E59
  8
0
 10
50.54590654623871
 20
210.2359378947824
 30
0.0
 11
50.87989139623872
 21
210.2359378947824
 31
0.0
  0
LINE
  5
8E5A
  8
0
 10
50.87989139623872
 20
210.2359378947824
 30
0.0
 11
50.87989139623872
 21
210.5699217947823
 31
0.0
  0
LINE
  5
8E5B
  8
0
 10
50.87989139623872
 20
210.5699217947823
 30
0.0
 11
50.54590654623871
 21
210.5699217947823
 31
0.0
  0
LINE
  5
8E5C
  8
0
 10
50.54590654623871
 20
210.5699217947823
 30
0.0
 11
50.54590654623871
 21
210.2359378947824
 31
0.0
  0
LINE
  5
8E5D
  8
0
 10
42.53436654623872
 20
209.9015378947823
 30
0.0
 11
42.86872189623872
 21
209.9015378947823
 31
0.0
  0
LINE
  5
8E5E
  8
0
 10
42.86872189623872
 20
209.9015378947823
 30
0.0
 11
42.86872189623872
 21
210.2358932447823
 31
0.0
  0
LINE
  5
8E5F
  8
0
 10
42.86872189623872
 20
210.2358932447823
 30
0.0
 11
42.53436654623872
 21
210.2358932447823
 31
0.0
  0
LINE
  5
8E60
  8
0
 10
42.53436654623872
 20
210.2358932447823
 30
0.0
 11
42.53436654623872
 21
209.9015378947823
 31
0.0
  0
LINE
  5
8E61
  8
0
 10
44.53744154623871
 20
209.9015378947823
 30
0.0
 11
44.8714254462387
 21
209.9015378947823
 31
0.0
  0
LINE
  5
8E62
  8
0
 10
44.8714254462387
 20
209.9015378947823
 30
0.0
 11
44.8714254462387
 21
210.2358932447823
 31
0.0
  0
LINE
  5
8E63
  8
0
 10
44.8714254462387
 20
210.2358932447823
 30
0.0
 11
44.53744154623871
 21
210.2358932447823
 31
0.0
  0
LINE
  5
8E64
  8
0
 10
44.53744154623871
 20
210.2358932447823
 30
0.0
 11
44.53744154623871
 21
209.9015378947823
 31
0.0
  0
LINE
  5
8E65
  8
0
 10
45.20510154623872
 20
209.9015378947823
 30
0.0
 11
46.20668654623873
 21
209.9015378947823
 31
0.0
  0
LINE
  5
8E66
  8
0
 10
46.20668654623873
 20
209.9015378947823
 30
0.0
 11
46.20668654623873
 21
210.2358932447823
 31
0.0
  0
LINE
  5
8E67
  8
0
 10
46.20668654623873
 20
210.2358932447823
 30
0.0
 11
45.20510154623872
 21
210.2358932447823
 31
0.0
  0
LINE
  5
8E68
  8
0
 10
45.20510154623872
 20
210.2358932447823
 30
0.0
 11
45.20510154623872
 21
209.9015378947823
 31
0.0
  0
LINE
  5
8E69
  8
0
 10
46.87349154623871
 20
209.9015378947823
 30
0.0
 11
48.54267004623873
 21
209.9015378947823
 31
0.0
  0
LINE
  5
8E6A
  8
0
 10
48.54267004623873
 20
209.9015378947823
 30
0.0
 11
48.54267004623873
 21
210.2358932447823
 31
0.0
  0
LINE
  5
8E6B
  8
0
 10
48.54267004623873
 20
210.2358932447823
 30
0.0
 11
46.87349154623871
 21
210.2358932447823
 31
0.0
  0
LINE
  5
8E6C
  8
0
 10
46.87349154623871
 20
210.2358932447823
 30
0.0
 11
46.87349154623871
 21
209.9015378947823
 31
0.0
  0
LINE
  5
8E6D
  8
0
 10
49.87748654623871
 20
209.9015378947823
 30
0.0
 11
50.21147044623874
 21
209.9015378947823
 31
0.0
  0
LINE
  5
8E6E
  8
0
 10
50.21147044623874
 20
209.9015378947823
 30
0.0
 11
50.21147044623874
 21
210.2358932447823
 31
0.0
  0
LINE
  5
8E6F
  8
0
 10
50.21147044623874
 20
210.2358932447823
 30
0.0
 11
49.87748654623871
 21
210.2358932447823
 31
0.0
  0
LINE
  5
8E70
  8
0
 10
49.87748654623871
 20
210.2358932447823
 30
0.0
 11
49.87748654623871
 21
209.9015378947823
 31
0.0
  0
LINE
  5
8E71
  8
0
 10
50.54590654623871
 20
209.9015378947823
 30
0.0
 11
51.54712104623871
 21
209.9015378947823
 31
0.0
  0
LINE
  5
8E72
  8
0
 10
51.54712104623871
 20
209.9015378947823
 30
0.0
 11
51.54712104623871
 21
210.2358932447823
 31
0.0
  0
LINE
  5
8E73
  8
0
 10
51.54712104623871
 20
210.2358932447823
 30
0.0
 11
50.54590654623871
 21
210.2358932447823
 31
0.0
  0
LINE
  5
8E74
  8
0
 10
50.54590654623871
 20
210.2358932447823
 30
0.0
 11
50.54590654623871
 21
209.9015378947823
 31
0.0
  0
LINE
  5
8E75
  8
0
 10
52.21391654623872
 20
209.9015378947823
 30
0.0
 11
53.21550154623873
 21
209.9015378947823
 31
0.0
  0
LINE
  5
8E76
  8
0
 10
53.21550154623873
 20
209.9015378947823
 30
0.0
 11
53.21550154623873
 21
210.2358932447823
 31
0.0
  0
LINE
  5
8E77
  8
0
 10
53.21550154623873
 20
210.2358932447823
 30
0.0
 11
52.21391654623872
 21
210.2358932447823
 31
0.0
  0
LINE
  5
8E78
  8
0
 10
52.21391654623872
 20
210.2358932447823
 30
0.0
 11
52.21391654623872
 21
209.9015378947823
 31
0.0
  0
LINE
  5
8E79
  8
0
 10
42.53436654623872
 20
209.5682778947823
 30
0.0
 11
42.86872189623872
 21
209.5682778947823
 31
0.0
  0
LINE
  5
8E7A
  8
0
 10
42.86872189623872
 20
209.5682778947823
 30
0.0
 11
42.86872189623872
 21
209.9022627447823
 31
0.0
  0
LINE
  5
8E7B
  8
0
 10
42.86872189623872
 20
209.9022627447823
 30
0.0
 11
42.53436654623872
 21
209.9022627447823
 31
0.0
  0
LINE
  5
8E7C
  8
0
 10
42.53436654623872
 20
209.9022627447823
 30
0.0
 11
42.53436654623872
 21
209.5682778947823
 31
0.0
  0
LINE
  5
8E7D
  8
0
 10
44.20351654623872
 20
209.5682778947823
 30
0.0
 11
44.53750139623872
 21
209.5682778947823
 31
0.0
  0
LINE
  5
8E7E
  8
0
 10
44.53750139623872
 20
209.5682778947823
 30
0.0
 11
44.53750139623872
 21
209.9022627447823
 31
0.0
  0
LINE
  5
8E7F
  8
0
 10
44.53750139623872
 20
209.9022627447823
 30
0.0
 11
44.20351654623872
 21
209.9022627447823
 31
0.0
  0
LINE
  5
8E80
  8
0
 10
44.20351654623872
 20
209.9022627447823
 30
0.0
 11
44.20351654623872
 21
209.5682778947823
 31
0.0
  0
LINE
  5
8E81
  8
0
 10
45.20510154623872
 20
209.5682778947823
 30
0.0
 11
45.53908639623873
 21
209.5682778947823
 31
0.0
  0
LINE
  5
8E82
  8
0
 10
45.53908639623873
 20
209.5682778947823
 30
0.0
 11
45.53908639623873
 21
209.9022627447823
 31
0.0
  0
LINE
  5
8E83
  8
0
 10
45.53908639623873
 20
209.9022627447823
 30
0.0
 11
45.20510154623872
 21
209.9022627447823
 31
0.0
  0
LINE
  5
8E84
  8
0
 10
45.20510154623872
 20
209.9022627447823
 30
0.0
 11
45.20510154623872
 21
209.5682778947823
 31
0.0
  0
LINE
  5
8E85
  8
0
 10
45.87266654623872
 20
209.5682778947823
 30
0.0
 11
46.87388104623872
 21
209.5682778947823
 31
0.0
  0
LINE
  5
8E86
  8
0
 10
46.87388104623872
 20
209.5682778947823
 30
0.0
 11
46.87388104623872
 21
209.9022627447823
 31
0.0
  0
LINE
  5
8E87
  8
0
 10
46.87388104623872
 20
209.9022627447823
 30
0.0
 11
45.87266654623872
 21
209.9022627447823
 31
0.0
  0
LINE
  5
8E88
  8
0
 10
45.87266654623872
 20
209.9022627447823
 30
0.0
 11
45.87266654623872
 21
209.5682778947823
 31
0.0
  0
LINE
  5
8E89
  8
0
 10
47.54153154623873
 20
209.5682778947823
 30
0.0
 11
47.87588689623874
 21
209.5682778947823
 31
0.0
  0
LINE
  5
8E8A
  8
0
 10
47.87588689623874
 20
209.5682778947823
 30
0.0
 11
47.87588689623874
 21
209.9022627447823
 31
0.0
  0
LINE
  5
8E8B
  8
0
 10
47.87588689623874
 20
209.9022627447823
 30
0.0
 11
47.54153154623873
 21
209.9022627447823
 31
0.0
  0
LINE
  5
8E8C
  8
0
 10
47.54153154623873
 20
209.9022627447823
 30
0.0
 11
47.54153154623873
 21
209.5682778947823
 31
0.0
  0
LINE
  5
8E8D
  8
0
 10
48.54273654623873
 20
209.5682778947823
 30
0.0
 11
49.20996334623874
 21
209.5682778947823
 31
0.0
  0
LINE
  5
8E8E
  8
0
 10
49.20996334623874
 20
209.5682778947823
 30
0.0
 11
49.20996334623874
 21
209.9022627447823
 31
0.0
  0
LINE
  5
8E8F
  8
0
 10
49.20996334623874
 20
209.9022627447823
 30
0.0
 11
48.54273654623873
 21
209.9022627447823
 31
0.0
  0
LINE
  5
8E90
  8
0
 10
48.54273654623873
 20
209.9022627447823
 30
0.0
 11
48.54273654623873
 21
209.5682778947823
 31
0.0
  0
LINE
  5
8E91
  8
0
 10
49.54432154623871
 20
209.5682778947823
 30
0.0
 11
50.54590654623871
 21
209.5682778947823
 31
0.0
  0
LINE
  5
8E92
  8
0
 10
50.54590654623871
 20
209.5682778947823
 30
0.0
 11
50.54590654623871
 21
209.9022627447823
 31
0.0
  0
LINE
  5
8E93
  8
0
 10
50.54590654623871
 20
209.9022627447823
 30
0.0
 11
49.54432154623871
 21
209.9022627447823
 31
0.0
  0
LINE
  5
8E94
  8
0
 10
49.54432154623871
 20
209.9022627447823
 30
0.0
 11
49.54432154623871
 21
209.5682778947823
 31
0.0
  0
LINE
  5
8E95
  8
0
 10
51.88065654623873
 20
209.5682778947823
 30
0.0
 11
52.8822415462387
 21
209.5682778947823
 31
0.0
  0
LINE
  5
8E96
  8
0
 10
52.8822415462387
 20
209.5682778947823
 30
0.0
 11
52.8822415462387
 21
209.9022627447823
 31
0.0
  0
LINE
  5
8E97
  8
0
 10
52.8822415462387
 20
209.9022627447823
 30
0.0
 11
51.88065654623873
 21
209.9022627447823
 31
0.0
  0
LINE
  5
8E98
  8
0
 10
51.88065654623873
 20
209.9022627447823
 30
0.0
 11
51.88065654623873
 21
209.5682778947823
 31
0.0
  0
LINE
  5
8E99
  8
0
 10
43.20193154623871
 20
209.2343528947823
 30
0.0
 11
43.53628784623871
 21
209.2343528947823
 31
0.0
  0
LINE
  5
8E9A
  8
0
 10
43.53628784623871
 20
209.2343528947823
 30
0.0
 11
43.53628784623871
 21
209.5683367947823
 31
0.0
  0
LINE
  5
8E9B
  8
0
 10
43.53628784623871
 20
209.5683367947823
 30
0.0
 11
43.20193154623871
 21
209.5683367947823
 31
0.0
  0
LINE
  5
8E9C
  8
0
 10
43.20193154623871
 20
209.5683367947823
 30
0.0
 11
43.20193154623871
 21
209.2343528947823
 31
0.0
  0
LINE
  5
8E9D
  8
0
 10
43.86949654623874
 20
209.2343528947823
 30
0.0
 11
45.2046930462387
 21
209.2343528947823
 31
0.0
  0
LINE
  5
8E9E
  8
0
 10
45.2046930462387
 20
209.2343528947823
 30
0.0
 11
45.2046930462387
 21
209.5683367947823
 31
0.0
  0
LINE
  5
8E9F
  8
0
 10
45.2046930462387
 20
209.5683367947823
 30
0.0
 11
43.86949654623874
 21
209.5683367947823
 31
0.0
  0
LINE
  5
8EA0
  8
0
 10
43.86949654623874
 20
209.5683367947823
 30
0.0
 11
43.86949654623874
 21
209.2343528947823
 31
0.0
  0
LINE
  5
8EA1
  8
0
 10
45.5387415462387
 20
209.2343528947823
 30
0.0
 11
46.20596834623873
 21
209.2343528947823
 31
0.0
  0
LINE
  5
8EA2
  8
0
 10
46.20596834623873
 20
209.2343528947823
 30
0.0
 11
46.20596834623873
 21
209.5683367947823
 31
0.0
  0
LINE
  5
8EA3
  8
0
 10
46.20596834623873
 20
209.5683367947823
 30
0.0
 11
45.5387415462387
 21
209.5683367947823
 31
0.0
  0
LINE
  5
8EA4
  8
0
 10
45.5387415462387
 20
209.5683367947823
 30
0.0
 11
45.5387415462387
 21
209.2343528947823
 31
0.0
  0
LINE
  5
8EA5
  8
0
 10
46.54032654623873
 20
209.2343528947823
 30
0.0
 11
46.87431044623872
 21
209.2343528947823
 31
0.0
  0
LINE
  5
8EA6
  8
0
 10
46.87431044623872
 20
209.2343528947823
 30
0.0
 11
46.87431044623872
 21
209.5683367947823
 31
0.0
  0
LINE
  5
8EA7
  8
0
 10
46.87431044623872
 20
209.5683367947823
 30
0.0
 11
46.54032654623873
 21
209.5683367947823
 31
0.0
  0
LINE
  5
8EA8
  8
0
 10
46.54032654623873
 20
209.5683367947823
 30
0.0
 11
46.54032654623873
 21
209.2343528947823
 31
0.0
  0
LINE
  5
8EA9
  8
0
 10
47.54153154623873
 20
209.2343528947823
 30
0.0
 11
47.87588689623874
 21
209.2343528947823
 31
0.0
  0
LINE
  5
8EAA
  8
0
 10
47.87588689623874
 20
209.2343528947823
 30
0.0
 11
47.87588689623874
 21
209.5683367947823
 31
0.0
  0
LINE
  5
8EAB
  8
0
 10
47.87588689623874
 20
209.5683367947823
 30
0.0
 11
47.54153154623873
 21
209.5683367947823
 31
0.0
  0
LINE
  5
8EAC
  8
0
 10
47.54153154623873
 20
209.5683367947823
 30
0.0
 11
47.54153154623873
 21
209.2343528947823
 31
0.0
  0
LINE
  5
8EAD
  8
0
 10
48.54273654623873
 20
209.2343528947823
 30
0.0
 11
48.87672139623871
 21
209.2343528947823
 31
0.0
  0
LINE
  5
8EAE
  8
0
 10
48.87672139623871
 20
209.2343528947823
 30
0.0
 11
48.87672139623871
 21
209.5683367947823
 31
0.0
  0
LINE
  5
8EAF
  8
0
 10
48.87672139623871
 20
209.5683367947823
 30
0.0
 11
48.54273654623873
 21
209.5683367947823
 31
0.0
  0
LINE
  5
8EB0
  8
0
 10
48.54273654623873
 20
209.5683367947823
 30
0.0
 11
48.54273654623873
 21
209.2343528947823
 31
0.0
  0
LINE
  5
8EB1
  8
0
 10
49.20992154623872
 20
209.2343528947823
 30
0.0
 11
49.54427689623873
 21
209.2343528947823
 31
0.0
  0
LINE
  5
8EB2
  8
0
 10
49.54427689623873
 20
209.2343528947823
 30
0.0
 11
49.54427689623873
 21
209.5683367947823
 31
0.0
  0
LINE
  5
8EB3
  8
0
 10
49.54427689623873
 20
209.5683367947823
 30
0.0
 11
49.20992154623872
 21
209.5683367947823
 31
0.0
  0
LINE
  5
8EB4
  8
0
 10
49.20992154623872
 20
209.5683367947823
 30
0.0
 11
49.20992154623872
 21
209.2343528947823
 31
0.0
  0
LINE
  5
8EB5
  8
0
 10
49.87748654623871
 20
209.2343528947823
 30
0.0
 11
50.21147044623874
 21
209.2343528947823
 31
0.0
  0
LINE
  5
8EB6
  8
0
 10
50.21147044623874
 20
209.2343528947823
 30
0.0
 11
50.21147044623874
 21
209.5683367947823
 31
0.0
  0
LINE
  5
8EB7
  8
0
 10
50.21147044623874
 20
209.5683367947823
 30
0.0
 11
49.87748654623871
 21
209.5683367947823
 31
0.0
  0
LINE
  5
8EB8
  8
0
 10
49.87748654623871
 20
209.5683367947823
 30
0.0
 11
49.87748654623871
 21
209.2343528947823
 31
0.0
  0
LINE
  5
8EB9
  8
0
 10
50.54590654623871
 20
209.2343528947823
 30
0.0
 11
51.54712104623871
 21
209.2343528947823
 31
0.0
  0
LINE
  5
8EBA
  8
0
 10
51.54712104623871
 20
209.2343528947823
 30
0.0
 11
51.54712104623871
 21
209.5683367947823
 31
0.0
  0
LINE
  5
8EBB
  8
0
 10
51.54712104623871
 20
209.5683367947823
 30
0.0
 11
50.54590654623871
 21
209.5683367947823
 31
0.0
  0
LINE
  5
8EBC
  8
0
 10
50.54590654623871
 20
209.5683367947823
 30
0.0
 11
50.54590654623871
 21
209.2343528947823
 31
0.0
  0
LINE
  5
8EBD
  8
0
 10
51.88065654623873
 20
209.2343528947823
 30
0.0
 11
52.2146413962387
 21
209.2343528947823
 31
0.0
  0
LINE
  5
8EBE
  8
0
 10
52.2146413962387
 20
209.2343528947823
 30
0.0
 11
52.2146413962387
 21
209.5683367947823
 31
0.0
  0
LINE
  5
8EBF
  8
0
 10
52.2146413962387
 20
209.5683367947823
 30
0.0
 11
51.88065654623873
 21
209.5683367947823
 31
0.0
  0
LINE
  5
8EC0
  8
0
 10
51.88065654623873
 20
209.5683367947823
 30
0.0
 11
51.88065654623873
 21
209.2343528947823
 31
0.0
  0
LINE
  5
8EC1
  8
0
 10
52.54831654623871
 20
209.2343528947823
 30
0.0
 11
53.21554239623873
 21
209.2343528947823
 31
0.0
  0
LINE
  5
8EC2
  8
0
 10
53.21554239623873
 20
209.2343528947823
 30
0.0
 11
53.21554239623873
 21
209.5683367947823
 31
0.0
  0
LINE
  5
8EC3
  8
0
 10
53.21554239623873
 20
209.5683367947823
 30
0.0
 11
52.54831654623871
 21
209.5683367947823
 31
0.0
  0
LINE
  5
8EC4
  8
0
 10
52.54831654623871
 20
209.5683367947823
 30
0.0
 11
52.54831654623871
 21
209.2343528947823
 31
0.0
  0
LINE
  5
8EC5
  8
0
 10
42.53436654623872
 20
208.8999528947824
 30
0.0
 11
43.2019638462387
 21
208.8999528947824
 31
0.0
  0
LINE
  5
8EC6
  8
0
 10
43.2019638462387
 20
208.8999528947824
 30
0.0
 11
43.2019638462387
 21
209.2343082447824
 31
0.0
  0
LINE
  5
8EC7
  8
0
 10
43.2019638462387
 20
209.2343082447824
 30
0.0
 11
42.53436654623872
 21
209.2343082447824
 31
0.0
  0
LINE
  5
8EC8
  8
0
 10
42.53436654623872
 20
209.2343082447824
 30
0.0
 11
42.53436654623872
 21
208.8999528947824
 31
0.0
  0
LINE
  5
8EC9
  8
0
 10
43.53585654623873
 20
208.8999528947824
 30
0.0
 11
44.20345384623872
 21
208.8999528947824
 31
0.0
  0
LINE
  5
8ECA
  8
0
 10
44.20345384623872
 20
208.8999528947824
 30
0.0
 11
44.20345384623872
 21
209.2343082447824
 31
0.0
  0
LINE
  5
8ECB
  8
0
 10
44.20345384623872
 20
209.2343082447824
 30
0.0
 11
43.53585654623873
 21
209.2343082447824
 31
0.0
  0
LINE
  5
8ECC
  8
0
 10
43.53585654623873
 20
209.2343082447824
 30
0.0
 11
43.53585654623873
 21
208.8999528947824
 31
0.0
  0
LINE
  5
8ECD
  8
0
 10
44.87108154623871
 20
208.8999528947824
 30
0.0
 11
45.20506544623871
 21
208.8999528947824
 31
0.0
  0
LINE
  5
8ECE
  8
0
 10
45.20506544623871
 20
208.8999528947824
 30
0.0
 11
45.20506544623871
 21
209.2343082447824
 31
0.0
  0
LINE
  5
8ECF
  8
0
 10
45.20506544623871
 20
209.2343082447824
 30
0.0
 11
44.87108154623871
 21
209.2343082447824
 31
0.0
  0
LINE
  5
8ED0
  8
0
 10
44.87108154623871
 20
209.2343082447824
 30
0.0
 11
44.87108154623871
 21
208.8999528947824
 31
0.0
  0
LINE
  5
8ED1
  8
0
 10
45.87266654623872
 20
208.8999528947824
 30
0.0
 11
46.53989239623871
 21
208.8999528947824
 31
0.0
  0
LINE
  5
8ED2
  8
0
 10
46.53989239623871
 20
208.8999528947824
 30
0.0
 11
46.53989239623871
 21
209.2343082447824
 31
0.0
  0
LINE
  5
8ED3
  8
0
 10
46.53989239623871
 20
209.2343082447824
 30
0.0
 11
45.87266654623872
 21
209.2343082447824
 31
0.0
  0
LINE
  5
8ED4
  8
0
 10
45.87266654623872
 20
209.2343082447824
 30
0.0
 11
45.87266654623872
 21
208.8999528947824
 31
0.0
  0
LINE
  5
8ED5
  8
0
 10
47.20751154623872
 20
208.8999528947824
 30
0.0
 11
47.87510884623873
 21
208.8999528947824
 31
0.0
  0
LINE
  5
8ED6
  8
0
 10
47.87510884623873
 20
208.8999528947824
 30
0.0
 11
47.87510884623873
 21
209.2343082447824
 31
0.0
  0
LINE
  5
8ED7
  8
0
 10
47.87510884623873
 20
209.2343082447824
 30
0.0
 11
47.20751154623872
 21
209.2343082447824
 31
0.0
  0
LINE
  5
8ED8
  8
0
 10
47.20751154623872
 20
209.2343082447824
 30
0.0
 11
47.20751154623872
 21
208.8999528947824
 31
0.0
  0
LINE
  5
8ED9
  8
0
 10
48.87666154623872
 20
208.8999528947824
 30
0.0
 11
49.54425884623871
 21
208.8999528947824
 31
0.0
  0
LINE
  5
8EDA
  8
0
 10
49.54425884623871
 20
208.8999528947824
 30
0.0
 11
49.54425884623871
 21
209.2343082447824
 31
0.0
  0
LINE
  5
8EDB
  8
0
 10
49.54425884623871
 20
209.2343082447824
 30
0.0
 11
48.87666154623872
 21
209.2343082447824
 31
0.0
  0
LINE
  5
8EDC
  8
0
 10
48.87666154623872
 20
209.2343082447824
 30
0.0
 11
48.87666154623872
 21
208.8999528947824
 31
0.0
  0
LINE
  5
8EDD
  8
0
 10
49.87748654623871
 20
208.8999528947824
 30
0.0
 11
50.54508384623873
 21
208.8999528947824
 31
0.0
  0
LINE
  5
8EDE
  8
0
 10
50.54508384623873
 20
208.8999528947824
 30
0.0
 11
50.54508384623873
 21
209.2343082447824
 31
0.0
  0
LINE
  5
8EDF
  8
0
 10
50.54508384623873
 20
209.2343082447824
 30
0.0
 11
49.87748654623871
 21
209.2343082447824
 31
0.0
  0
LINE
  5
8EE0
  8
0
 10
49.87748654623871
 20
209.2343082447824
 30
0.0
 11
49.87748654623871
 21
208.8999528947824
 31
0.0
  0
LINE
  5
8EE1
  8
0
 10
50.87907154623872
 20
208.8999528947824
 30
0.0
 11
51.21305639623873
 21
208.8999528947824
 31
0.0
  0
LINE
  5
8EE2
  8
0
 10
51.21305639623873
 20
208.8999528947824
 30
0.0
 11
51.21305639623873
 21
209.2343082447824
 31
0.0
  0
LINE
  5
8EE3
  8
0
 10
51.21305639623873
 20
209.2343082447824
 30
0.0
 11
50.87907154623872
 21
209.2343082447824
 31
0.0
  0
LINE
  5
8EE4
  8
0
 10
50.87907154623872
 20
209.2343082447824
 30
0.0
 11
50.87907154623872
 21
208.8999528947824
 31
0.0
  0
LINE
  5
8EE5
  8
0
 10
51.5467315462387
 20
208.8999528947824
 30
0.0
 11
53.54915104623873
 21
208.8999528947824
 31
0.0
  0
LINE
  5
8EE6
  8
0
 10
53.54915104623873
 20
208.8999528947824
 30
0.0
 11
53.54915104623873
 21
209.2343082447824
 31
0.0
  0
LINE
  5
8EE7
  8
0
 10
53.54915104623873
 20
209.2343082447824
 30
0.0
 11
51.5467315462387
 21
209.2343082447824
 31
0.0
  0
LINE
  5
8EE8
  8
0
 10
51.5467315462387
 20
209.2343082447824
 30
0.0
 11
51.5467315462387
 21
208.8999528947824
 31
0.0
  0
LINE
  5
8EE9
  8
0
 10
42.86867154623872
 20
208.5666928947824
 30
0.0
 11
43.20265639623872
 21
208.5666928947824
 31
0.0
  0
LINE
  5
8EEA
  8
0
 10
43.20265639623872
 20
208.5666928947824
 30
0.0
 11
43.20265639623872
 21
208.9006777447823
 31
0.0
  0
LINE
  5
8EEB
  8
0
 10
43.20265639623872
 20
208.9006777447823
 30
0.0
 11
42.86867154623872
 21
208.9006777447823
 31
0.0
  0
LINE
  5
8EEC
  8
0
 10
42.86867154623872
 20
208.9006777447823
 30
0.0
 11
42.86867154623872
 21
208.5666928947824
 31
0.0
  0
LINE
  5
8EED
  8
0
 10
43.53585654623873
 20
208.5666928947824
 30
0.0
 11
43.86984044623873
 21
208.5666928947824
 31
0.0
  0
LINE
  5
8EEE
  8
0
 10
43.86984044623873
 20
208.5666928947824
 30
0.0
 11
43.86984044623873
 21
208.9006777447823
 31
0.0
  0
LINE
  5
8EEF
  8
0
 10
43.86984044623873
 20
208.9006777447823
 30
0.0
 11
43.53585654623873
 21
208.9006777447823
 31
0.0
  0
LINE
  5
8EF0
  8
0
 10
43.53585654623873
 20
208.9006777447823
 30
0.0
 11
43.53585654623873
 21
208.5666928947824
 31
0.0
  0
LINE
  5
8EF1
  8
0
 10
44.53744154623871
 20
208.5666928947824
 30
0.0
 11
45.53902654623872
 21
208.5666928947824
 31
0.0
  0
LINE
  5
8EF2
  8
0
 10
45.53902654623872
 20
208.5666928947824
 30
0.0
 11
45.53902654623872
 21
208.9006777447823
 31
0.0
  0
LINE
  5
8EF3
  8
0
 10
45.53902654623872
 20
208.9006777447823
 30
0.0
 11
44.53744154623871
 21
208.9006777447823
 31
0.0
  0
LINE
  5
8EF4
  8
0
 10
44.53744154623871
 20
208.9006777447823
 30
0.0
 11
44.53744154623871
 21
208.5666928947824
 31
0.0
  0
LINE
  5
8EF5
  8
0
 10
46.87349154623871
 20
208.5666928947824
 30
0.0
 11
47.54108979623874
 21
208.5666928947824
 31
0.0
  0
LINE
  5
8EF6
  8
0
 10
47.54108979623874
 20
208.5666928947824
 30
0.0
 11
47.54108979623874
 21
208.9006777447823
 31
0.0
  0
LINE
  5
8EF7
  8
0
 10
47.54108979623874
 20
208.9006777447823
 30
0.0
 11
46.87349154623871
 21
208.9006777447823
 31
0.0
  0
LINE
  5
8EF8
  8
0
 10
46.87349154623871
 20
208.9006777447823
 30
0.0
 11
46.87349154623871
 21
208.5666928947824
 31
0.0
  0
LINE
  5
8EF9
  8
0
 10
47.87507654623872
 20
208.5666928947824
 30
0.0
 11
48.87666154623872
 21
208.5666928947824
 31
0.0
  0
LINE
  5
8EFA
  8
0
 10
48.87666154623872
 20
208.5666928947824
 30
0.0
 11
48.87666154623872
 21
208.9006777447823
 31
0.0
  0
LINE
  5
8EFB
  8
0
 10
48.87666154623872
 20
208.9006777447823
 30
0.0
 11
47.87507654623872
 21
208.9006777447823
 31
0.0
  0
LINE
  5
8EFC
  8
0
 10
47.87507654623872
 20
208.9006777447823
 30
0.0
 11
47.87507654623872
 21
208.5666928947824
 31
0.0
  0
LINE
  5
8EFD
  8
0
 10
49.20992154623872
 20
208.5666928947824
 30
0.0
 11
50.21150654623872
 21
208.5666928947824
 31
0.0
  0
LINE
  5
8EFE
  8
0
 10
50.21150654623872
 20
208.5666928947824
 30
0.0
 11
50.21150654623872
 21
208.9006777447823
 31
0.0
  0
LINE
  5
8EFF
  8
0
 10
50.21150654623872
 20
208.9006777447823
 30
0.0
 11
49.20992154623872
 21
208.9006777447823
 31
0.0
  0
LINE
  5
8F00
  8
0
 10
49.20992154623872
 20
208.9006777447823
 30
0.0
 11
49.20992154623872
 21
208.5666928947824
 31
0.0
  0
LINE
  5
8F01
  8
0
 10
50.54590654623871
 20
208.5666928947824
 30
0.0
 11
50.87989139623872
 21
208.5666928947824
 31
0.0
  0
LINE
  5
8F02
  8
0
 10
50.87989139623872
 20
208.5666928947824
 30
0.0
 11
50.87989139623872
 21
208.9006777447823
 31
0.0
  0
LINE
  5
8F03
  8
0
 10
50.87989139623872
 20
208.9006777447823
 30
0.0
 11
50.54590654623871
 21
208.9006777447823
 31
0.0
  0
LINE
  5
8F04
  8
0
 10
50.54590654623871
 20
208.9006777447823
 30
0.0
 11
50.54590654623871
 21
208.5666928947824
 31
0.0
  0
LINE
  5
8F05
  8
0
 10
51.21309154623873
 20
208.5666928947824
 30
0.0
 11
51.88068884623871
 21
208.5666928947824
 31
0.0
  0
LINE
  5
8F06
  8
0
 10
51.88068884623871
 20
208.5666928947824
 30
0.0
 11
51.88068884623871
 21
208.9006777447823
 31
0.0
  0
LINE
  5
8F07
  8
0
 10
51.88068884623871
 20
208.9006777447823
 30
0.0
 11
51.21309154623873
 21
208.9006777447823
 31
0.0
  0
LINE
  5
8F08
  8
0
 10
51.21309154623873
 20
208.9006777447823
 30
0.0
 11
51.21309154623873
 21
208.5666928947824
 31
0.0
  0
LINE
  5
8F09
  8
0
 10
42.53436654623872
 20
208.2327678947823
 30
0.0
 11
43.2019638462387
 21
208.2327678947823
 31
0.0
  0
LINE
  5
8F0A
  8
0
 10
43.2019638462387
 20
208.2327678947823
 30
0.0
 11
43.2019638462387
 21
208.5667517947824
 31
0.0
  0
LINE
  5
8F0B
  8
0
 10
43.2019638462387
 20
208.5667517947824
 30
0.0
 11
42.53436654623872
 21
208.5667517947824
 31
0.0
  0
LINE
  5
8F0C
  8
0
 10
42.53436654623872
 20
208.5667517947824
 30
0.0
 11
42.53436654623872
 21
208.2327678947823
 31
0.0
  0
LINE
  5
8F0D
  8
0
 10
43.53585654623873
 20
208.2327678947823
 30
0.0
 11
44.20345384623872
 21
208.2327678947823
 31
0.0
  0
LINE
  5
8F0E
  8
0
 10
44.20345384623872
 20
208.2327678947823
 30
0.0
 11
44.20345384623872
 21
208.5667517947824
 31
0.0
  0
LINE
  5
8F0F
  8
0
 10
44.20345384623872
 20
208.5667517947824
 30
0.0
 11
43.53585654623873
 21
208.5667517947824
 31
0.0
  0
LINE
  5
8F10
  8
0
 10
43.53585654623873
 20
208.5667517947824
 30
0.0
 11
43.53585654623873
 21
208.2327678947823
 31
0.0
  0
LINE
  5
8F11
  8
0
 10
44.87108154623871
 20
208.2327678947823
 30
0.0
 11
45.5386788462387
 21
208.2327678947823
 31
0.0
  0
LINE
  5
8F12
  8
0
 10
45.5386788462387
 20
208.2327678947823
 30
0.0
 11
45.5386788462387
 21
208.5667517947824
 31
0.0
  0
LINE
  5
8F13
  8
0
 10
45.5386788462387
 20
208.5667517947824
 30
0.0
 11
44.87108154623871
 21
208.5667517947824
 31
0.0
  0
LINE
  5
8F14
  8
0
 10
44.87108154623871
 20
208.5667517947824
 30
0.0
 11
44.87108154623871
 21
208.2327678947823
 31
0.0
  0
LINE
  5
8F15
  8
0
 10
46.20592654623871
 20
208.2327678947823
 30
0.0
 11
46.87352384623873
 21
208.2327678947823
 31
0.0
  0
LINE
  5
8F16
  8
0
 10
46.87352384623873
 20
208.2327678947823
 30
0.0
 11
46.87352384623873
 21
208.5667517947824
 31
0.0
  0
LINE
  5
8F17
  8
0
 10
46.87352384623873
 20
208.5667517947824
 30
0.0
 11
46.20592654623871
 21
208.5667517947824
 31
0.0
  0
LINE
  5
8F18
  8
0
 10
46.20592654623871
 20
208.5667517947824
 30
0.0
 11
46.20592654623871
 21
208.2327678947823
 31
0.0
  0
LINE
  5
8F19
  8
0
 10
47.20751154623872
 20
208.2327678947823
 30
0.0
 11
47.54149544623874
 21
208.2327678947823
 31
0.0
  0
LINE
  5
8F1A
  8
0
 10
47.54149544623874
 20
208.2327678947823
 30
0.0
 11
47.54149544623874
 21
208.5667517947824
 31
0.0
  0
LINE
  5
8F1B
  8
0
 10
47.54149544623874
 20
208.5667517947824
 30
0.0
 11
47.20751154623872
 21
208.5667517947824
 31
0.0
  0
LINE
  5
8F1C
  8
0
 10
47.20751154623872
 20
208.5667517947824
 30
0.0
 11
47.20751154623872
 21
208.2327678947823
 31
0.0
  0
LINE
  5
8F1D
  8
0
 10
47.87507654623872
 20
208.2327678947823
 30
0.0
 11
48.54267384623873
 21
208.2327678947823
 31
0.0
  0
LINE
  5
8F1E
  8
0
 10
48.54267384623873
 20
208.2327678947823
 30
0.0
 11
48.54267384623873
 21
208.5667517947824
 31
0.0
  0
LINE
  5
8F1F
  8
0
 10
48.54267384623873
 20
208.5667517947824
 30
0.0
 11
47.87507654623872
 21
208.5667517947824
 31
0.0
  0
LINE
  5
8F20
  8
0
 10
47.87507654623872
 20
208.5667517947824
 30
0.0
 11
47.87507654623872
 21
208.2327678947823
 31
0.0
  0
LINE
  5
8F21
  8
0
 10
49.20992154623872
 20
208.2327678947823
 30
0.0
 11
49.87751979623872
 21
208.2327678947823
 31
0.0
  0
LINE
  5
8F22
  8
0
 10
49.87751979623872
 20
208.2327678947823
 30
0.0
 11
49.87751979623872
 21
208.5667517947824
 31
0.0
  0
LINE
  5
8F23
  8
0
 10
49.87751979623872
 20
208.5667517947824
 30
0.0
 11
49.20992154623872
 21
208.5667517947824
 31
0.0
  0
LINE
  5
8F24
  8
0
 10
49.20992154623872
 20
208.5667517947824
 30
0.0
 11
49.20992154623872
 21
208.2327678947823
 31
0.0
  0
LINE
  5
8F25
  8
0
 10
50.21150654623872
 20
208.2327678947823
 30
0.0
 11
50.54586189623873
 21
208.2327678947823
 31
0.0
  0
LINE
  5
8F26
  8
0
 10
50.54586189623873
 20
208.2327678947823
 30
0.0
 11
50.54586189623873
 21
208.5667517947824
 31
0.0
  0
LINE
  5
8F27
  8
0
 10
50.54586189623873
 20
208.5667517947824
 30
0.0
 11
50.21150654623872
 21
208.5667517947824
 31
0.0
  0
LINE
  5
8F28
  8
0
 10
50.21150654623872
 20
208.5667517947824
 30
0.0
 11
50.21150654623872
 21
208.2327678947823
 31
0.0
  0
LINE
  5
8F29
  8
0
 10
51.21309154623873
 20
208.2327678947823
 30
0.0
 11
51.54707544623872
 21
208.2327678947823
 31
0.0
  0
LINE
  5
8F2A
  8
0
 10
51.54707544623872
 20
208.2327678947823
 30
0.0
 11
51.54707544623872
 21
208.5667517947824
 31
0.0
  0
LINE
  5
8F2B
  8
0
 10
51.54707544623872
 20
208.5667517947824
 30
0.0
 11
51.21309154623873
 21
208.5667517947824
 31
0.0
  0
LINE
  5
8F2C
  8
0
 10
51.21309154623873
 20
208.5667517947824
 30
0.0
 11
51.21309154623873
 21
208.2327678947823
 31
0.0
  0
LINE
  5
8F2D
  8
0
 10
52.21391654623872
 20
208.2327678947823
 30
0.0
 11
53.54911304623872
 21
208.2327678947823
 31
0.0
  0
LINE
  5
8F2E
  8
0
 10
53.54911304623872
 20
208.2327678947823
 30
0.0
 11
53.54911304623872
 21
208.5667517947824
 31
0.0
  0
LINE
  5
8F2F
  8
0
 10
53.54911304623872
 20
208.5667517947824
 30
0.0
 11
52.21391654623872
 21
208.5667517947824
 31
0.0
  0
LINE
  5
8F30
  8
0
 10
52.21391654623872
 20
208.5667517947824
 30
0.0
 11
52.21391654623872
 21
208.2327678947823
 31
0.0
  0
LINE
  5
8F31
  8
0
 10
42.86867154623872
 20
207.8991278947823
 30
0.0
 11
46.20665804623872
 21
207.8991278947823
 31
0.0
  0
LINE
  5
8F32
  8
0
 10
46.20665804623872
 20
207.8991278947823
 30
0.0
 11
46.20665804623872
 21
208.2331127447823
 31
0.0
  0
LINE
  5
8F33
  8
0
 10
46.20665804623872
 20
208.2331127447823
 30
0.0
 11
42.86867154623872
 21
208.2331127447823
 31
0.0
  0
LINE
  5
8F34
  8
0
 10
42.86867154623872
 20
208.2331127447823
 30
0.0
 11
42.86867154623872
 21
207.8991278947823
 31
0.0
  0
LINE
  5
8F35
  8
0
 10
46.87349154623871
 20
207.8991278947823
 30
0.0
 11
47.20747639623872
 21
207.8991278947823
 31
0.0
  0
LINE
  5
8F36
  8
0
 10
47.20747639623872
 20
207.8991278947823
 30
0.0
 11
47.20747639623872
 21
208.2331127447823
 31
0.0
  0
LINE
  5
8F37
  8
0
 10
47.20747639623872
 20
208.2331127447823
 30
0.0
 11
46.87349154623871
 21
208.2331127447823
 31
0.0
  0
LINE
  5
8F38
  8
0
 10
46.87349154623871
 20
208.2331127447823
 30
0.0
 11
46.87349154623871
 21
207.8991278947823
 31
0.0
  0
LINE
  5
8F39
  8
0
 10
48.20909654623873
 20
207.8991278947823
 30
0.0
 11
48.54308044623872
 21
207.8991278947823
 31
0.0
  0
LINE
  5
8F3A
  8
0
 10
48.54308044623872
 20
207.8991278947823
 30
0.0
 11
48.54308044623872
 21
208.2331127447823
 31
0.0
  0
LINE
  5
8F3B
  8
0
 10
48.54308044623872
 20
208.2331127447823
 30
0.0
 11
48.20909654623873
 21
208.2331127447823
 31
0.0
  0
LINE
  5
8F3C
  8
0
 10
48.20909654623873
 20
208.2331127447823
 30
0.0
 11
48.20909654623873
 21
207.8991278947823
 31
0.0
  0
LINE
  5
8F3D
  8
0
 10
48.87666154623872
 20
207.8991278947823
 30
0.0
 11
49.21064544623871
 21
207.8991278947823
 31
0.0
  0
LINE
  5
8F3E
  8
0
 10
49.21064544623871
 20
207.8991278947823
 30
0.0
 11
49.21064544623871
 21
208.2331127447823
 31
0.0
  0
LINE
  5
8F3F
  8
0
 10
49.21064544623871
 20
208.2331127447823
 30
0.0
 11
48.87666154623872
 21
208.2331127447823
 31
0.0
  0
LINE
  5
8F40
  8
0
 10
48.87666154623872
 20
208.2331127447823
 30
0.0
 11
48.87666154623872
 21
207.8991278947823
 31
0.0
  0
LINE
  5
8F41
  8
0
 10
50.87907154623872
 20
207.8991278947823
 30
0.0
 11
51.54666979623872
 21
207.8991278947823
 31
0.0
  0
LINE
  5
8F42
  8
0
 10
51.54666979623872
 20
207.8991278947823
 30
0.0
 11
51.54666979623872
 21
208.2331127447823
 31
0.0
  0
LINE
  5
8F43
  8
0
 10
51.54666979623872
 20
208.2331127447823
 30
0.0
 11
50.87907154623872
 21
208.2331127447823
 31
0.0
  0
LINE
  5
8F44
  8
0
 10
50.87907154623872
 20
208.2331127447823
 30
0.0
 11
50.87907154623872
 21
207.8991278947823
 31
0.0
  0
LINE
  5
8F45
  8
0
 10
51.88065654623873
 20
207.8991278947823
 30
0.0
 11
52.2146413962387
 21
207.8991278947823
 31
0.0
  0
LINE
  5
8F46
  8
0
 10
52.2146413962387
 20
207.8991278947823
 30
0.0
 11
52.2146413962387
 21
208.2331127447823
 31
0.0
  0
LINE
  5
8F47
  8
0
 10
52.2146413962387
 20
208.2331127447823
 30
0.0
 11
51.88065654623873
 21
208.2331127447823
 31
0.0
  0
LINE
  5
8F48
  8
0
 10
51.88065654623873
 20
208.2331127447823
 30
0.0
 11
51.88065654623873
 21
207.8991278947823
 31
0.0
  0
LINE
  5
8F49
  8
0
 10
52.54831654623871
 20
207.8991278947823
 30
0.0
 11
53.21554239623873
 21
207.8991278947823
 31
0.0
  0
LINE
  5
8F4A
  8
0
 10
53.21554239623873
 20
207.8991278947823
 30
0.0
 11
53.21554239623873
 21
208.2331127447823
 31
0.0
  0
LINE
  5
8F4B
  8
0
 10
53.21554239623873
 20
208.2331127447823
 30
0.0
 11
52.54831654623871
 21
208.2331127447823
 31
0.0
  0
LINE
  5
8F4C
  8
0
 10
52.54831654623871
 20
208.2331127447823
 30
0.0
 11
52.54831654623871
 21
207.8991278947823
 31
0.0
  0
LINE
  5
8F4D
  8
0
 10
42.53436654623872
 20
207.5651078947823
 30
0.0
 11
43.2019638462387
 21
207.5651078947823
 31
0.0
  0
LINE
  5
8F4E
  8
0
 10
43.2019638462387
 20
207.5651078947823
 30
0.0
 11
43.2019638462387
 21
207.8991278947823
 31
0.0
  0
LINE
  5
8F4F
  8
0
 10
43.2019638462387
 20
207.8991278947823
 30
0.0
 11
42.53436654623872
 21
207.8991278947823
 31
0.0
  0
LINE
  5
8F50
  8
0
 10
42.53436654623872
 20
207.8991278947823
 30
0.0
 11
42.53436654623872
 21
207.5651078947823
 31
0.0
  0
LINE
  5
8F51
  8
0
 10
43.53585654623873
 20
207.5651078947823
 30
0.0
 11
44.20345384623872
 21
207.5651078947823
 31
0.0
  0
LINE
  5
8F52
  8
0
 10
44.20345384623872
 20
207.5651078947823
 30
0.0
 11
44.20345384623872
 21
207.8991278947823
 31
0.0
  0
LINE
  5
8F53
  8
0
 10
44.20345384623872
 20
207.8991278947823
 30
0.0
 11
43.53585654623873
 21
207.8991278947823
 31
0.0
  0
LINE
  5
8F54
  8
0
 10
43.53585654623873
 20
207.8991278947823
 30
0.0
 11
43.53585654623873
 21
207.5651078947823
 31
0.0
  0
LINE
  5
8F55
  8
0
 10
45.5387415462387
 20
207.5651078947823
 30
0.0
 11
45.8727263962387
 21
207.5651078947823
 31
0.0
  0
LINE
  5
8F56
  8
0
 10
45.8727263962387
 20
207.5651078947823
 30
0.0
 11
45.8727263962387
 21
207.8991278947823
 31
0.0
  0
LINE
  5
8F57
  8
0
 10
45.8727263962387
 20
207.8991278947823
 30
0.0
 11
45.5387415462387
 21
207.8991278947823
 31
0.0
  0
LINE
  5
8F58
  8
0
 10
45.5387415462387
 20
207.8991278947823
 30
0.0
 11
45.5387415462387
 21
207.5651078947823
 31
0.0
  0
LINE
  5
8F59
  8
0
 10
46.54032654623873
 20
207.5651078947823
 30
0.0
 11
46.87431044623872
 21
207.5651078947823
 31
0.0
  0
LINE
  5
8F5A
  8
0
 10
46.87431044623872
 20
207.5651078947823
 30
0.0
 11
46.87431044623872
 21
207.8991278947823
 31
0.0
  0
LINE
  5
8F5B
  8
0
 10
46.87431044623872
 20
207.8991278947823
 30
0.0
 11
46.54032654623873
 21
207.8991278947823
 31
0.0
  0
LINE
  5
8F5C
  8
0
 10
46.54032654623873
 20
207.8991278947823
 30
0.0
 11
46.54032654623873
 21
207.5651078947823
 31
0.0
  0
LINE
  5
8F5D
  8
0
 10
47.20751154623872
 20
207.5651078947823
 30
0.0
 11
47.87510884623873
 21
207.5651078947823
 31
0.0
  0
LINE
  5
8F5E
  8
0
 10
47.87510884623873
 20
207.5651078947823
 30
0.0
 11
47.87510884623873
 21
207.8991278947823
 31
0.0
  0
LINE
  5
8F5F
  8
0
 10
47.87510884623873
 20
207.8991278947823
 30
0.0
 11
47.20751154623872
 21
207.8991278947823
 31
0.0
  0
LINE
  5
8F60
  8
0
 10
47.20751154623872
 20
207.8991278947823
 30
0.0
 11
47.20751154623872
 21
207.5651078947823
 31
0.0
  0
LINE
  5
8F61
  8
0
 10
48.54273654623873
 20
207.5651078947823
 30
0.0
 11
49.20996334623874
 21
207.5651078947823
 31
0.0
  0
LINE
  5
8F62
  8
0
 10
49.20996334623874
 20
207.5651078947823
 30
0.0
 11
49.20996334623874
 21
207.8991278947823
 31
0.0
  0
LINE
  5
8F63
  8
0
 10
49.20996334623874
 20
207.8991278947823
 30
0.0
 11
48.54273654623873
 21
207.8991278947823
 31
0.0
  0
LINE
  5
8F64
  8
0
 10
48.54273654623873
 20
207.8991278947823
 30
0.0
 11
48.54273654623873
 21
207.5651078947823
 31
0.0
  0
LINE
  5
8F65
  8
0
 10
50.87907154623872
 20
207.5651078947823
 30
0.0
 11
51.21309154623873
 21
207.5651078947823
 31
0.0
  0
LINE
  5
8F66
  8
0
 10
51.21309154623873
 20
207.5651078947823
 30
0.0
 11
51.21309154623873
 21
207.8991278947823
 31
0.0
  0
LINE
  5
8F67
  8
0
 10
51.21309154623873
 20
207.8991278947823
 30
0.0
 11
50.87910669623872
 21
207.8991278947823
 31
0.0
  0
LINE
  5
8F68
  8
0
 10
50.87910669623872
 20
207.8991278947823
 30
0.0
 11
50.87907154623872
 21
207.5651078947823
 31
0.0
  0
LINE
  5
8F69
  8
0
 10
51.88065654623873
 20
207.5651078947823
 30
0.0
 11
52.8822415462387
 21
207.5651078947823
 31
0.0
  0
LINE
  5
8F6A
  8
0
 10
52.8822415462387
 20
207.5651078947823
 30
0.0
 11
52.8822415462387
 21
207.8991278947823
 31
0.0
  0
LINE
  5
8F6B
  8
0
 10
52.8822415462387
 20
207.8991278947823
 30
0.0
 11
51.88065654623873
 21
207.8991278947823
 31
0.0
  0
LINE
  5
8F6C
  8
0
 10
51.88065654623873
 20
207.8991278947823
 30
0.0
 11
51.88065654623873
 21
207.5651078947823
 31
0.0
  0
LINE
  5
8F6D
  8
0
 10
53.21550154623873
 20
207.5651078947823
 30
0.0
 11
53.54985784623872
 21
207.5651078947823
 31
0.0
  0
LINE
  5
8F6E
  8
0
 10
53.54985784623872
 20
207.5651078947823
 30
0.0
 11
53.54985784623872
 21
207.8991278947823
 31
0.0
  0
LINE
  5
8F6F
  8
0
 10
53.54985784623872
 20
207.8991278947823
 30
0.0
 11
53.21550154623873
 21
207.8991278947823
 31
0.0
  0
LINE
  5
8F70
  8
0
 10
53.21550154623873
 20
207.8991278947823
 30
0.0
 11
53.21550154623873
 21
207.5651078947823
 31
0.0
  0
LINE
  5
8F71
  8
0
 10
42.86867154623872
 20
207.2315628947824
 30
0.0
 11
43.20265639623872
 21
207.2315628947824
 31
0.0
  0
LINE
  5
8F72
  8
0
 10
43.20265639623872
 20
207.2315628947824
 30
0.0
 11
43.20265639623872
 21
207.5659182447823
 31
0.0
  0
LINE
  5
8F73
  8
0
 10
43.20265639623872
 20
207.5659182447823
 30
0.0
 11
42.86867154623872
 21
207.5659182447823
 31
0.0
  0
LINE
  5
8F74
  8
0
 10
42.86867154623872
 20
207.5659182447823
 30
0.0
 11
42.86867154623872
 21
207.2315628947824
 31
0.0
  0
LINE
  5
8F75
  8
0
 10
44.53744154623871
 20
207.2315628947824
 30
0.0
 11
44.8714254462387
 21
207.2315628947824
 31
0.0
  0
LINE
  5
8F76
  8
0
 10
44.8714254462387
 20
207.2315628947824
 30
0.0
 11
44.8714254462387
 21
207.5659182447823
 31
0.0
  0
LINE
  5
8F77
  8
0
 10
44.8714254462387
 20
207.5659182447823
 30
0.0
 11
44.53744154623871
 21
207.5659182447823
 31
0.0
  0
LINE
  5
8F78
  8
0
 10
44.53744154623871
 20
207.5659182447823
 30
0.0
 11
44.53744154623871
 21
207.2315628947824
 31
0.0
  0
LINE
  5
8F79
  8
0
 10
45.5387415462387
 20
207.2315628947824
 30
0.0
 11
46.20596834623873
 21
207.2315628947824
 31
0.0
  0
LINE
  5
8F7A
  8
0
 10
46.20596834623873
 20
207.2315628947824
 30
0.0
 11
46.20596834623873
 21
207.5659182447823
 31
0.0
  0
LINE
  5
8F7B
  8
0
 10
46.20596834623873
 20
207.5659182447823
 30
0.0
 11
45.5387415462387
 21
207.5659182447823
 31
0.0
  0
LINE
  5
8F7C
  8
0
 10
45.5387415462387
 20
207.5659182447823
 30
0.0
 11
45.5387415462387
 21
207.2315628947824
 31
0.0
  0
LINE
  5
8F7D
  8
0
 10
46.54032654623873
 20
207.2315628947824
 30
0.0
 11
47.20755334623871
 21
207.2315628947824
 31
0.0
  0
LINE
  5
8F7E
  8
0
 10
47.20755334623871
 20
207.2315628947824
 30
0.0
 11
47.20755334623871
 21
207.5659182447823
 31
0.0
  0
LINE
  5
8F7F
  8
0
 10
47.20755334623871
 20
207.5659182447823
 30
0.0
 11
46.54032654623873
 21
207.5659182447823
 31
0.0
  0
LINE
  5
8F80
  8
0
 10
46.54032654623873
 20
207.5659182447823
 30
0.0
 11
46.54032654623873
 21
207.2315628947824
 31
0.0
  0
LINE
  5
8F81
  8
0
 10
48.20909654623873
 20
207.2315628947824
 30
0.0
 11
49.21068154623873
 21
207.2315628947824
 31
0.0
  0
LINE
  5
8F82
  8
0
 10
49.21068154623873
 20
207.2315628947824
 30
0.0
 11
49.21068154623873
 21
207.5659182447823
 31
0.0
  0
LINE
  5
8F83
  8
0
 10
49.21068154623873
 20
207.5659182447823
 30
0.0
 11
48.20909654623873
 21
207.5659182447823
 31
0.0
  0
LINE
  5
8F84
  8
0
 10
48.20909654623873
 20
207.5659182447823
 30
0.0
 11
48.20909654623873
 21
207.2315628947824
 31
0.0
  0
LINE
  5
8F85
  8
0
 10
49.87748654623871
 20
207.2315628947824
 30
0.0
 11
50.21147044623874
 21
207.2315628947824
 31
0.0
  0
LINE
  5
8F86
  8
0
 10
50.21147044623874
 20
207.2315628947824
 30
0.0
 11
50.21147044623874
 21
207.5659182447823
 31
0.0
  0
LINE
  5
8F87
  8
0
 10
50.21147044623874
 20
207.5659182447823
 30
0.0
 11
49.87748654623871
 21
207.5659182447823
 31
0.0
  0
LINE
  5
8F88
  8
0
 10
49.87748654623871
 20
207.5659182447823
 30
0.0
 11
49.87748654623871
 21
207.2315628947824
 31
0.0
  0
LINE
  5
8F89
  8
0
 10
50.54590654623871
 20
207.2315628947824
 30
0.0
 11
51.21313334623872
 21
207.2315628947824
 31
0.0
  0
LINE
  5
8F8A
  8
0
 10
51.21313334623872
 20
207.2315628947824
 30
0.0
 11
51.21313334623872
 21
207.5659182447823
 31
0.0
  0
LINE
  5
8F8B
  8
0
 10
51.21313334623872
 20
207.5659182447823
 30
0.0
 11
50.54590654623871
 21
207.5659182447823
 31
0.0
  0
LINE
  5
8F8C
  8
0
 10
50.54590654623871
 20
207.5659182447823
 30
0.0
 11
50.54590654623871
 21
207.2315628947824
 31
0.0
  0
LINE
  5
8F8D
  8
0
 10
51.5467315462387
 20
207.2315628947824
 30
0.0
 11
52.54831654623871
 21
207.2315628947824
 31
0.0
  0
LINE
  5
8F8E
  8
0
 10
52.54831654623871
 20
207.2315628947824
 30
0.0
 11
52.54831654623871
 21
207.5659182447823
 31
0.0
  0
LINE
  5
8F8F
  8
0
 10
52.54831654623871
 20
207.5659182447823
 30
0.0
 11
51.5467315462387
 21
207.5659182447823
 31
0.0
  0
LINE
  5
8F90
  8
0
 10
51.5467315462387
 20
207.5659182447823
 30
0.0
 11
51.5467315462387
 21
207.2315628947824
 31
0.0
  0
LINE
  5
8F91
  8
0
 10
53.21550154623873
 20
207.2315628947824
 30
0.0
 11
53.54985784623872
 21
207.2315628947824
 31
0.0
  0
LINE
  5
8F92
  8
0
 10
53.54985784623872
 20
207.2315628947824
 30
0.0
 11
53.54985784623872
 21
207.5659182447823
 31
0.0
  0
LINE
  5
8F93
  8
0
 10
53.54985784623872
 20
207.5659182447823
 30
0.0
 11
53.21550154623873
 21
207.5659182447823
 31
0.0
  0
LINE
  5
8F94
  8
0
 10
53.21550154623873
 20
207.5659182447823
 30
0.0
 11
53.21550154623873
 21
207.2315628947824
 31
0.0
  0
LINE
  5
8F95
  8
0
 10
42.86867154623872
 20
206.8975428947824
 30
0.0
 11
43.53589834623872
 21
206.8975428947824
 31
0.0
  0
LINE
  5
8F96
  8
0
 10
43.53589834623872
 20
206.8975428947824
 30
0.0
 11
43.53589834623872
 21
207.2315277447823
 31
0.0
  0
LINE
  5
8F97
  8
0
 10
43.53589834623872
 20
207.2315277447823
 30
0.0
 11
42.86867154623872
 21
207.2315277447823
 31
0.0
  0
LINE
  5
8F98
  8
0
 10
42.86867154623872
 20
207.2315277447823
 30
0.0
 11
42.86867154623872
 21
206.8975428947824
 31
0.0
  0
LINE
  5
8F99
  8
0
 10
43.86949654623874
 20
206.8975428947824
 30
0.0
 11
44.20348044623873
 21
206.8975428947824
 31
0.0
  0
LINE
  5
8F9A
  8
0
 10
44.20348044623873
 20
206.8975428947824
 30
0.0
 11
44.20348044623873
 21
207.2315277447823
 31
0.0
  0
LINE
  5
8F9B
  8
0
 10
44.20348044623873
 20
207.2315277447823
 30
0.0
 11
43.86949654623874
 21
207.2315277447823
 31
0.0
  0
LINE
  5
8F9C
  8
0
 10
43.86949654623874
 20
207.2315277447823
 30
0.0
 11
43.86949654623874
 21
206.8975428947824
 31
0.0
  0
LINE
  5
8F9D
  8
0
 10
46.20592654623871
 20
206.8975428947824
 30
0.0
 11
46.53991044623874
 21
206.8975428947824
 31
0.0
  0
LINE
  5
8F9E
  8
0
 10
46.53991044623874
 20
206.8975428947824
 30
0.0
 11
46.53991044623874
 21
207.2315277447823
 31
0.0
  0
LINE
  5
8F9F
  8
0
 10
46.53991044623874
 20
207.2315277447823
 30
0.0
 11
46.20592654623871
 21
207.2315277447823
 31
0.0
  0
LINE
  5
8FA0
  8
0
 10
46.20592654623871
 20
207.2315277447823
 30
0.0
 11
46.20592654623871
 21
206.8975428947824
 31
0.0
  0
LINE
  5
8FA1
  8
0
 10
46.87349154623871
 20
206.8975428947824
 30
0.0
 11
49.87749604623872
 21
206.8975428947824
 31
0.0
  0
LINE
  5
8FA2
  8
0
 10
49.87749604623872
 20
206.8975428947824
 30
0.0
 11
49.87749604623872
 21
207.2315277447823
 31
0.0
  0
LINE
  5
8FA3
  8
0
 10
49.87749604623872
 20
207.2315277447823
 30
0.0
 11
46.87349154623871
 21
207.2315277447823
 31
0.0
  0
LINE
  5
8FA4
  8
0
 10
46.87349154623871
 20
207.2315277447823
 30
0.0
 11
46.87349154623871
 21
206.8975428947824
 31
0.0
  0
LINE
  5
8FA5
  8
0
 10
50.21150654623872
 20
206.8975428947824
 30
0.0
 11
51.54670304623872
 21
206.8975428947824
 31
0.0
  0
LINE
  5
8FA6
  8
0
 10
51.54670304623872
 20
206.8975428947824
 30
0.0
 11
51.54670304623872
 21
207.2315277447823
 31
0.0
  0
LINE
  5
8FA7
  8
0
 10
51.54670304623872
 20
207.2315277447823
 30
0.0
 11
50.21150654623872
 21
207.2315277447823
 31
0.0
  0
LINE
  5
8FA8
  8
0
 10
50.21150654623872
 20
207.2315277447823
 30
0.0
 11
50.21150654623872
 21
206.8975428947824
 31
0.0
  0
LINE
  5
8FA9
  8
0
 10
52.21391654623872
 20
206.8975428947824
 30
0.0
 11
52.8815138462387
 21
206.8975428947824
 31
0.0
  0
LINE
  5
8FAA
  8
0
 10
52.8815138462387
 20
206.8975428947824
 30
0.0
 11
52.8815138462387
 21
207.2315277447823
 31
0.0
  0
LINE
  5
8FAB
  8
0
 10
52.8815138462387
 20
207.2315277447823
 30
0.0
 11
52.21391654623872
 21
207.2315277447823
 31
0.0
  0
LINE
  5
8FAC
  8
0
 10
52.21391654623872
 20
207.2315277447823
 30
0.0
 11
52.21391654623872
 21
206.8975428947824
 31
0.0
  0
LINE
  5
8FAD
  8
0
 10
53.21550154623873
 20
206.8975428947824
 30
0.0
 11
53.54985784623872
 21
206.8975428947824
 31
0.0
  0
LINE
  5
8FAE
  8
0
 10
53.54985784623872
 20
206.8975428947824
 30
0.0
 11
53.54985784623872
 21
207.2315277447823
 31
0.0
  0
LINE
  5
8FAF
  8
0
 10
53.54985784623872
 20
207.2315277447823
 30
0.0
 11
53.21550154623873
 21
207.2315277447823
 31
0.0
  0
LINE
  5
8FB0
  8
0
 10
53.21550154623873
 20
207.2315277447823
 30
0.0
 11
53.21550154623873
 21
206.8975428947824
 31
0.0
  0
LINE
  5
8FB1
  8
0
 10
43.20193154623871
 20
206.5642828947824
 30
0.0
 11
43.53628784623871
 21
206.5642828947824
 31
0.0
  0
LINE
  5
8FB2
  8
0
 10
43.53628784623871
 20
206.5642828947824
 30
0.0
 11
43.53628784623871
 21
206.8982667947823
 31
0.0
  0
LINE
  5
8FB3
  8
0
 10
43.53628784623871
 20
206.8982667947823
 30
0.0
 11
43.20193154623871
 21
206.8982667947823
 31
0.0
  0
LINE
  5
8FB4
  8
0
 10
43.20193154623871
 20
206.8982667947823
 30
0.0
 11
43.20193154623871
 21
206.5642828947824
 31
0.0
  0
LINE
  5
8FB5
  8
0
 10
43.86949654623874
 20
206.5642828947824
 30
0.0
 11
44.20348044623873
 21
206.5642828947824
 31
0.0
  0
LINE
  5
8FB6
  8
0
 10
44.20348044623873
 20
206.5642828947824
 30
0.0
 11
44.20348044623873
 21
206.8982667947823
 31
0.0
  0
LINE
  5
8FB7
  8
0
 10
44.20348044623873
 20
206.8982667947823
 30
0.0
 11
43.86949654623874
 21
206.8982667947823
 31
0.0
  0
LINE
  5
8FB8
  8
0
 10
43.86949654623874
 20
206.8982667947823
 30
0.0
 11
43.86949654623874
 21
206.5642828947824
 31
0.0
  0
LINE
  5
8FB9
  8
0
 10
44.53744154623871
 20
206.5642828947824
 30
0.0
 11
46.54023154623872
 21
206.5642828947824
 31
0.0
  0
LINE
  5
8FBA
  8
0
 10
46.54023154623872
 20
206.5642828947824
 30
0.0
 11
46.54023154623872
 21
206.8982667947823
 31
0.0
  0
LINE
  5
8FBB
  8
0
 10
46.54023154623872
 20
206.8982667947823
 30
0.0
 11
44.53744154623871
 21
206.8982667947823
 31
0.0
  0
LINE
  5
8FBC
  8
0
 10
44.53744154623871
 20
206.8982667947823
 30
0.0
 11
44.53744154623871
 21
206.5642828947824
 31
0.0
  0
LINE
  5
8FBD
  8
0
 10
46.87349154623871
 20
206.5642828947824
 30
0.0
 11
47.20747639623872
 21
206.5642828947824
 31
0.0
  0
LINE
  5
8FBE
  8
0
 10
47.20747639623872
 20
206.5642828947824
 30
0.0
 11
47.20747639623872
 21
206.8982667947823
 31
0.0
  0
LINE
  5
8FBF
  8
0
 10
47.20747639623872
 20
206.8982667947823
 30
0.0
 11
46.87349154623871
 21
206.8982667947823
 31
0.0
  0
LINE
  5
8FC0
  8
0
 10
46.87349154623871
 20
206.8982667947823
 30
0.0
 11
46.87349154623871
 21
206.5642828947824
 31
0.0
  0
LINE
  5
8FC1
  8
0
 10
47.54153154623873
 20
206.5642828947824
 30
0.0
 11
48.2091297962387
 21
206.5642828947824
 31
0.0
  0
LINE
  5
8FC2
  8
0
 10
48.2091297962387
 20
206.5642828947824
 30
0.0
 11
48.2091297962387
 21
206.8982667947823
 31
0.0
  0
LINE
  5
8FC3
  8
0
 10
48.2091297962387
 20
206.8982667947823
 30
0.0
 11
47.54153154623873
 21
206.8982667947823
 31
0.0
  0
LINE
  5
8FC4
  8
0
 10
47.54153154623873
 20
206.8982667947823
 30
0.0
 11
47.54153154623873
 21
206.5642828947824
 31
0.0
  0
LINE
  5
8FC5
  8
0
 10
48.87666154623872
 20
206.5642828947824
 30
0.0
 11
49.21064544623871
 21
206.5642828947824
 31
0.0
  0
LINE
  5
8FC6
  8
0
 10
49.21064544623871
 20
206.5642828947824
 30
0.0
 11
49.21064544623871
 21
206.8982667947823
 31
0.0
  0
LINE
  5
8FC7
  8
0
 10
49.21064544623871
 20
206.8982667947823
 30
0.0
 11
48.87666154623872
 21
206.8982667947823
 31
0.0
  0
LINE
  5
8FC8
  8
0
 10
48.87666154623872
 20
206.8982667947823
 30
0.0
 11
48.87666154623872
 21
206.5642828947824
 31
0.0
  0
LINE
  5
8FC9
  8
0
 10
50.21150654623872
 20
206.5642828947824
 30
0.0
 11
50.54586189623873
 21
206.5642828947824
 31
0.0
  0
LINE
  5
8FCA
  8
0
 10
50.54586189623873
 20
206.5642828947824
 30
0.0
 11
50.54586189623873
 21
206.8982667947823
 31
0.0
  0
LINE
  5
8FCB
  8
0
 10
50.54586189623873
 20
206.8982667947823
 30
0.0
 11
50.21150654623872
 21
206.8982667947823
 31
0.0
  0
LINE
  5
8FCC
  8
0
 10
50.21150654623872
 20
206.8982667947823
 30
0.0
 11
50.21150654623872
 21
206.5642828947824
 31
0.0
  0
LINE
  5
8FCD
  8
0
 10
51.5467315462387
 20
206.5642828947824
 30
0.0
 11
51.88071544623872
 21
206.5642828947824
 31
0.0
  0
LINE
  5
8FCE
  8
0
 10
51.88071544623872
 20
206.5642828947824
 30
0.0
 11
51.88071544623872
 21
206.8982667947823
 31
0.0
  0
LINE
  5
8FCF
  8
0
 10
51.88071544623872
 20
206.8982667947823
 30
0.0
 11
51.5467315462387
 21
206.8982667947823
 31
0.0
  0
LINE
  5
8FD0
  8
0
 10
51.5467315462387
 20
206.8982667947823
 30
0.0
 11
51.5467315462387
 21
206.5642828947824
 31
0.0
  0
LINE
  5
8FD1
  8
0
 10
52.21391654623872
 20
206.5642828947824
 30
0.0
 11
52.8815138462387
 21
206.5642828947824
 31
0.0
  0
LINE
  5
8FD2
  8
0
 10
52.8815138462387
 20
206.5642828947824
 30
0.0
 11
52.8815138462387
 21
206.8982667947823
 31
0.0
  0
LINE
  5
8FD3
  8
0
 10
52.8815138462387
 20
206.8982667947823
 30
0.0
 11
52.21391654623872
 21
206.8982667947823
 31
0.0
  0
LINE
  5
8FD4
  8
0
 10
52.21391654623872
 20
206.8982667947823
 30
0.0
 11
52.21391654623872
 21
206.5642828947824
 31
0.0
  0
LINE
  5
8FD5
  8
0
 10
53.21550154623873
 20
206.5642828947824
 30
0.0
 11
53.54985784623872
 21
206.5642828947824
 31
0.0
  0
LINE
  5
8FD6
  8
0
 10
53.54985784623872
 20
206.5642828947824
 30
0.0
 11
53.54985784623872
 21
206.8982667947823
 31
0.0
  0
LINE
  5
8FD7
  8
0
 10
53.54985784623872
 20
206.8982667947823
 30
0.0
 11
53.21550154623873
 21
206.8982667947823
 31
0.0
  0
LINE
  5
8FD8
  8
0
 10
53.21550154623873
 20
206.8982667947823
 30
0.0
 11
53.21550154623873
 21
206.5642828947824
 31
0.0
  0
LINE
  5
8FD9
  8
0
 10
42.86867154623872
 20
206.2303578947823
 30
0.0
 11
43.20265639623872
 21
206.2303578947823
 31
0.0
  0
LINE
  5
8FDA
  8
0
 10
43.20265639623872
 20
206.2303578947823
 30
0.0
 11
43.20265639623872
 21
206.5643427447824
 31
0.0
  0
LINE
  5
8FDB
  8
0
 10
43.20265639623872
 20
206.5643427447824
 30
0.0
 11
42.86867154623872
 21
206.5643427447824
 31
0.0
  0
LINE
  5
8FDC
  8
0
 10
42.86867154623872
 20
206.5643427447824
 30
0.0
 11
42.86867154623872
 21
206.2303578947823
 31
0.0
  0
LINE
  5
8FDD
  8
0
 10
43.53585654623873
 20
206.2303578947823
 30
0.0
 11
44.53744154623871
 21
206.2303578947823
 31
0.0
  0
LINE
  5
8FDE
  8
0
 10
44.53744154623871
 20
206.2303578947823
 30
0.0
 11
44.53744154623871
 21
206.5643427447824
 31
0.0
  0
LINE
  5
8FDF
  8
0
 10
44.53744154623871
 20
206.5643427447824
 30
0.0
 11
43.53585654623873
 21
206.5643427447824
 31
0.0
  0
LINE
  5
8FE0
  8
0
 10
43.53585654623873
 20
206.5643427447824
 30
0.0
 11
43.53585654623873
 21
206.2303578947823
 31
0.0
  0
LINE
  5
8FE1
  8
0
 10
44.87108154623871
 20
206.2303578947823
 30
0.0
 11
45.5386788462387
 21
206.2303578947823
 31
0.0
  0
LINE
  5
8FE2
  8
0
 10
45.5386788462387
 20
206.2303578947823
 30
0.0
 11
45.5386788462387
 21
206.5643427447824
 31
0.0
  0
LINE
  5
8FE3
  8
0
 10
45.5386788462387
 20
206.5643427447824
 30
0.0
 11
44.87108154623871
 21
206.5643427447824
 31
0.0
  0
LINE
  5
8FE4
  8
0
 10
44.87108154623871
 20
206.5643427447824
 30
0.0
 11
44.87108154623871
 21
206.2303578947823
 31
0.0
  0
LINE
  5
8FE5
  8
0
 10
45.87266654623872
 20
206.2303578947823
 30
0.0
 11
46.20665044623874
 21
206.2303578947823
 31
0.0
  0
LINE
  5
8FE6
  8
0
 10
46.20665044623874
 20
206.2303578947823
 30
0.0
 11
46.20665044623874
 21
206.5643427447824
 31
0.0
  0
LINE
  5
8FE7
  8
0
 10
46.20665044623874
 20
206.5643427447824
 30
0.0
 11
45.87266654623872
 21
206.5643427447824
 31
0.0
  0
LINE
  5
8FE8
  8
0
 10
45.87266654623872
 20
206.5643427447824
 30
0.0
 11
45.87266654623872
 21
206.2303578947823
 31
0.0
  0
LINE
  5
8FE9
  8
0
 10
47.54153154623873
 20
206.2303578947823
 30
0.0
 11
49.87831304623873
 21
206.2303578947823
 31
0.0
  0
LINE
  5
8FEA
  8
0
 10
49.87831304623873
 20
206.2303578947823
 30
0.0
 11
49.87831304623873
 21
206.5643427447824
 31
0.0
  0
LINE
  5
8FEB
  8
0
 10
49.87831304623873
 20
206.5643427447824
 30
0.0
 11
47.54153154623873
 21
206.5643427447824
 31
0.0
  0
LINE
  5
8FEC
  8
0
 10
47.54153154623873
 20
206.5643427447824
 30
0.0
 11
47.54153154623873
 21
206.2303578947823
 31
0.0
  0
LINE
  5
8FED
  8
0
 10
50.21150654623872
 20
206.2303578947823
 30
0.0
 11
50.54586189623873
 21
206.2303578947823
 31
0.0
  0
LINE
  5
8FEE
  8
0
 10
50.54586189623873
 20
206.2303578947823
 30
0.0
 11
50.54586189623873
 21
206.5643427447824
 31
0.0
  0
LINE
  5
8FEF
  8
0
 10
50.54586189623873
 20
206.5643427447824
 30
0.0
 11
50.21150654623872
 21
206.5643427447824
 31
0.0
  0
LINE
  5
8FF0
  8
0
 10
50.21150654623872
 20
206.5643427447824
 30
0.0
 11
50.21150654623872
 21
206.2303578947823
 31
0.0
  0
LINE
  5
8FF1
  8
0
 10
50.87907154623872
 20
206.2303578947823
 30
0.0
 11
51.21305639623873
 21
206.2303578947823
 31
0.0
  0
LINE
  5
8FF2
  8
0
 10
51.21305639623873
 20
206.2303578947823
 30
0.0
 11
51.21305639623873
 21
206.5643427447824
 31
0.0
  0
LINE
  5
8FF3
  8
0
 10
51.21305639623873
 20
206.5643427447824
 30
0.0
 11
50.87907154623872
 21
206.5643427447824
 31
0.0
  0
LINE
  5
8FF4
  8
0
 10
50.87907154623872
 20
206.5643427447824
 30
0.0
 11
50.87907154623872
 21
206.2303578947823
 31
0.0
  0
LINE
  5
8FF5
  8
0
 10
51.88065654623873
 20
206.2303578947823
 30
0.0
 11
52.8822415462387
 21
206.2303578947823
 31
0.0
  0
LINE
  5
8FF6
  8
0
 10
52.8822415462387
 20
206.2303578947823
 30
0.0
 11
52.8822415462387
 21
206.5643427447824
 31
0.0
  0
LINE
  5
8FF7
  8
0
 10
52.8822415462387
 20
206.5643427447824
 30
0.0
 11
51.88065654623873
 21
206.5643427447824
 31
0.0
  0
LINE
  5
8FF8
  8
0
 10
51.88065654623873
 20
206.5643427447824
 30
0.0
 11
51.88065654623873
 21
206.2303578947823
 31
0.0
  0
LINE
  5
8FF9
  8
0
 10
53.21550154623873
 20
206.2303578947823
 30
0.0
 11
53.54985784623872
 21
206.2303578947823
 31
0.0
  0
LINE
  5
8FFA
  8
0
 10
53.54985784623872
 20
206.2303578947823
 30
0.0
 11
53.54985784623872
 21
206.5643427447824
 31
0.0
  0
LINE
  5
8FFB
  8
0
 10
53.54985784623872
 20
206.5643427447824
 30
0.0
 11
53.21550154623873
 21
206.5643427447824
 31
0.0
  0
LINE
  5
8FFC
  8
0
 10
53.21550154623873
 20
206.5643427447824
 30
0.0
 11
53.21550154623873
 21
206.2303578947823
 31
0.0
  0
LINE
  5
8FFD
  8
0
 10
42.53436654623872
 20
205.8959578947823
 30
0.0
 11
43.86956304623871
 21
205.8959578947823
 31
0.0
  0
LINE
  5
8FFE
  8
0
 10
43.86956304623871
 20
205.8959578947823
 30
0.0
 11
43.86956304623871
 21
206.2303132447823
 31
0.0
  0
LINE
  5
8FFF
  8
0
 10
43.86956304623871
 20
206.2303132447823
 30
0.0
 11
42.53436654623872
 21
206.2303132447823
 31
0.0
  0
LINE
  5
9000
  8
0
 10
42.53436654623872
 20
206.2303132447823
 30
0.0
 11
42.53436654623872
 21
205.8959578947823
 31
0.0
  0
LINE
  5
9001
  8
0
 10
44.53744154623871
 20
205.8959578947823
 30
0.0
 11
44.8714254462387
 21
205.8959578947823
 31
0.0
  0
LINE
  5
9002
  8
0
 10
44.8714254462387
 20
205.8959578947823
 30
0.0
 11
44.8714254462387
 21
206.2303132447823
 31
0.0
  0
LINE
  5
9003
  8
0
 10
44.8714254462387
 20
206.2303132447823
 30
0.0
 11
44.53744154623871
 21
206.2303132447823
 31
0.0
  0
LINE
  5
9004
  8
0
 10
44.53744154623871
 20
206.2303132447823
 30
0.0
 11
44.53744154623871
 21
205.8959578947823
 31
0.0
  0
LINE
  5
9005
  8
0
 10
45.20510154623872
 20
205.8959578947823
 30
0.0
 11
45.53908639623873
 21
205.8959578947823
 31
0.0
  0
LINE
  5
9006
  8
0
 10
45.53908639623873
 20
205.8959578947823
 30
0.0
 11
45.53908639623873
 21
206.2303132447823
 31
0.0
  0
LINE
  5
9007
  8
0
 10
45.53908639623873
 20
206.2303132447823
 30
0.0
 11
45.20510154623872
 21
206.2303132447823
 31
0.0
  0
LINE
  5
9008
  8
0
 10
45.20510154623872
 20
206.2303132447823
 30
0.0
 11
45.20510154623872
 21
205.8959578947823
 31
0.0
  0
LINE
  5
9009
  8
0
 10
45.87266654623872
 20
205.8959578947823
 30
0.0
 11
46.20665044623874
 21
205.8959578947823
 31
0.0
  0
LINE
  5
900A
  8
0
 10
46.20665044623874
 20
205.8959578947823
 30
0.0
 11
46.20665044623874
 21
206.2303132447823
 31
0.0
  0
LINE
  5
900B
  8
0
 10
46.20665044623874
 20
206.2303132447823
 30
0.0
 11
45.87266654623872
 21
206.2303132447823
 31
0.0
  0
LINE
  5
900C
  8
0
 10
45.87266654623872
 20
206.2303132447823
 30
0.0
 11
45.87266654623872
 21
205.8959578947823
 31
0.0
  0
LINE
  5
900D
  8
0
 10
46.54032654623873
 20
205.8959578947823
 30
0.0
 11
47.54154104623873
 21
205.8959578947823
 31
0.0
  0
LINE
  5
900E
  8
0
 10
47.54154104623873
 20
205.8959578947823
 30
0.0
 11
47.54154104623873
 21
206.2303132447823
 31
0.0
  0
LINE
  5
900F
  8
0
 10
47.54154104623873
 20
206.2303132447823
 30
0.0
 11
46.54032654623873
 21
206.2303132447823
 31
0.0
  0
LINE
  5
9010
  8
0
 10
46.54032654623873
 20
206.2303132447823
 30
0.0
 11
46.54032654623873
 21
205.8959578947823
 31
0.0
  0
LINE
  5
9011
  8
0
 10
47.87507654623872
 20
205.8959578947823
 30
0.0
 11
48.20906139623872
 21
205.8959578947823
 31
0.0
  0
LINE
  5
9012
  8
0
 10
48.20906139623872
 20
205.8959578947823
 30
0.0
 11
48.20906139623872
 21
206.2303132447823
 31
0.0
  0
LINE
  5
9013
  8
0
 10
48.20906139623872
 20
206.2303132447823
 30
0.0
 11
47.87507654623872
 21
206.2303132447823
 31
0.0
  0
LINE
  5
9014
  8
0
 10
47.87507654623872
 20
206.2303132447823
 30
0.0
 11
47.87507654623872
 21
205.8959578947823
 31
0.0
  0
LINE
  5
9015
  8
0
 10
49.20992154623872
 20
205.8959578947823
 30
0.0
 11
50.21150654623872
 21
205.8959578947823
 31
0.0
  0
LINE
  5
9016
  8
0
 10
50.21150654623872
 20
205.8959578947823
 30
0.0
 11
50.21150654623872
 21
206.2303132447823
 31
0.0
  0
LINE
  5
9017
  8
0
 10
50.21150654623872
 20
206.2303132447823
 30
0.0
 11
49.20992154623872
 21
206.2303132447823
 31
0.0
  0
LINE
  5
9018
  8
0
 10
49.20992154623872
 20
206.2303132447823
 30
0.0
 11
49.20992154623872
 21
205.8959578947823
 31
0.0
  0
LINE
  5
9019
  8
0
 10
50.87907154623872
 20
205.8959578947823
 30
0.0
 11
51.21305639623873
 21
205.8959578947823
 31
0.0
  0
LINE
  5
901A
  8
0
 10
51.21305639623873
 20
205.8959578947823
 30
0.0
 11
51.21305639623873
 21
206.2303132447823
 31
0.0
  0
LINE
  5
901B
  8
0
 10
51.21305639623873
 20
206.2303132447823
 30
0.0
 11
50.87907154623872
 21
206.2303132447823
 31
0.0
  0
LINE
  5
901C
  8
0
 10
50.87907154623872
 20
206.2303132447823
 30
0.0
 11
50.87907154623872
 21
205.8959578947823
 31
0.0
  0
LINE
  5
901D
  8
0
 10
51.88065654623873
 20
205.8959578947823
 30
0.0
 11
52.54788334623873
 21
205.8959578947823
 31
0.0
  0
LINE
  5
901E
  8
0
 10
52.54788334623873
 20
205.8959578947823
 30
0.0
 11
52.54788334623873
 21
206.2303132447823
 31
0.0
  0
LINE
  5
901F
  8
0
 10
52.54788334623873
 20
206.2303132447823
 30
0.0
 11
51.88065654623873
 21
206.2303132447823
 31
0.0
  0
LINE
  5
9020
  8
0
 10
51.88065654623873
 20
206.2303132447823
 30
0.0
 11
51.88065654623873
 21
205.8959578947823
 31
0.0
  0
LINE
  5
9021
  8
0
 10
42.53436654623872
 20
205.5626978947823
 30
0.0
 11
43.2019638462387
 21
205.5626978947823
 31
0.0
  0
LINE
  5
9022
  8
0
 10
43.2019638462387
 20
205.5626978947823
 30
0.0
 11
43.2019638462387
 21
205.8966827447824
 31
0.0
  0
LINE
  5
9023
  8
0
 10
43.2019638462387
 20
205.8966827447824
 30
0.0
 11
42.53436654623872
 21
205.8966827447824
 31
0.0
  0
LINE
  5
9024
  8
0
 10
42.53436654623872
 20
205.8966827447824
 30
0.0
 11
42.53436654623872
 21
205.5626978947823
 31
0.0
  0
LINE
  5
9025
  8
0
 10
43.53585654623873
 20
205.5626978947823
 30
0.0
 11
43.86984044623873
 21
205.5626978947823
 31
0.0
  0
LINE
  5
9026
  8
0
 10
43.86984044623873
 20
205.5626978947823
 30
0.0
 11
43.86984044623873
 21
205.8966827447824
 31
0.0
  0
LINE
  5
9027
  8
0
 10
43.86984044623873
 20
205.8966827447824
 30
0.0
 11
43.53585654623873
 21
205.8966827447824
 31
0.0
  0
LINE
  5
9028
  8
0
 10
43.53585654623873
 20
205.8966827447824
 30
0.0
 11
43.53585654623873
 21
205.5626978947823
 31
0.0
  0
LINE
  5
9029
  8
0
 10
44.20351654623872
 20
205.5626978947823
 30
0.0
 11
44.53750139623872
 21
205.5626978947823
 31
0.0
  0
LINE
  5
902A
  8
0
 10
44.53750139623872
 20
205.5626978947823
 30
0.0
 11
44.53750139623872
 21
205.8966827447824
 31
0.0
  0
LINE
  5
902B
  8
0
 10
44.53750139623872
 20
205.8966827447824
 30
0.0
 11
44.20351654623872
 21
205.8966827447824
 31
0.0
  0
LINE
  5
902C
  8
0
 10
44.20351654623872
 20
205.8966827447824
 30
0.0
 11
44.20351654623872
 21
205.5626978947823
 31
0.0
  0
LINE
  5
902D
  8
0
 10
45.20510154623872
 20
205.5626978947823
 30
0.0
 11
45.53908639623873
 21
205.5626978947823
 31
0.0
  0
LINE
  5
902E
  8
0
 10
45.53908639623873
 20
205.5626978947823
 30
0.0
 11
45.53908639623873
 21
205.8966827447824
 31
0.0
  0
LINE
  5
902F
  8
0
 10
45.53908639623873
 20
205.8966827447824
 30
0.0
 11
45.20510154623872
 21
205.8966827447824
 31
0.0
  0
LINE
  5
9030
  8
0
 10
45.20510154623872
 20
205.8966827447824
 30
0.0
 11
45.20510154623872
 21
205.5626978947823
 31
0.0
  0
LINE
  5
9031
  8
0
 10
45.87266654623872
 20
205.5626978947823
 30
0.0
 11
46.87388104623872
 21
205.5626978947823
 31
0.0
  0
LINE
  5
9032
  8
0
 10
46.87388104623872
 20
205.5626978947823
 30
0.0
 11
46.87388104623872
 21
205.8966827447824
 31
0.0
  0
LINE
  5
9033
  8
0
 10
46.87388104623872
 20
205.8966827447824
 30
0.0
 11
45.87266654623872
 21
205.8966827447824
 31
0.0
  0
LINE
  5
9034
  8
0
 10
45.87266654623872
 20
205.8966827447824
 30
0.0
 11
45.87266654623872
 21
205.5626978947823
 31
0.0
  0
LINE
  5
9035
  8
0
 10
47.20751154623872
 20
205.5626978947823
 30
0.0
 11
47.54149544623874
 21
205.5626978947823
 31
0.0
  0
LINE
  5
9036
  8
0
 10
47.54149544623874
 20
205.5626978947823
 30
0.0
 11
47.54149544623874
 21
205.8966827447824
 31
0.0
  0
LINE
  5
9037
  8
0
 10
47.54149544623874
 20
205.8966827447824
 30
0.0
 11
47.20751154623872
 21
205.8966827447824
 31
0.0
  0
LINE
  5
9038
  8
0
 10
47.20751154623872
 20
205.8966827447824
 30
0.0
 11
47.20751154623872
 21
205.5626978947823
 31
0.0
  0
LINE
  5
9039
  8
0
 10
47.87507654623872
 20
205.5626978947823
 30
0.0
 11
48.87666154623872
 21
205.5626978947823
 31
0.0
  0
LINE
  5
903A
  8
0
 10
48.87666154623872
 20
205.5626978947823
 30
0.0
 11
48.87666154623872
 21
205.8966827447824
 31
0.0
  0
LINE
  5
903B
  8
0
 10
48.87666154623872
 20
205.8966827447824
 30
0.0
 11
47.87507654623872
 21
205.8966827447824
 31
0.0
  0
LINE
  5
903C
  8
0
 10
47.87507654623872
 20
205.8966827447824
 30
0.0
 11
47.87507654623872
 21
205.5626978947823
 31
0.0
  0
LINE
  5
903D
  8
0
 10
49.20992154623872
 20
205.5626978947823
 30
0.0
 11
49.54427689623873
 21
205.5626978947823
 31
0.0
  0
LINE
  5
903E
  8
0
 10
49.54427689623873
 20
205.5626978947823
 30
0.0
 11
49.54427689623873
 21
205.8966827447824
 31
0.0
  0
LINE
  5
903F
  8
0
 10
49.54427689623873
 20
205.8966827447824
 30
0.0
 11
49.20992154623872
 21
205.8966827447824
 31
0.0
  0
LINE
  5
9040
  8
0
 10
49.20992154623872
 20
205.8966827447824
 30
0.0
 11
49.20992154623872
 21
205.5626978947823
 31
0.0
  0
LINE
  5
9041
  8
0
 10
49.87748654623871
 20
205.5626978947823
 30
0.0
 11
50.54508384623873
 21
205.5626978947823
 31
0.0
  0
LINE
  5
9042
  8
0
 10
50.54508384623873
 20
205.5626978947823
 30
0.0
 11
50.54508384623873
 21
205.8966827447824
 31
0.0
  0
LINE
  5
9043
  8
0
 10
50.54508384623873
 20
205.8966827447824
 30
0.0
 11
49.87748654623871
 21
205.8966827447824
 31
0.0
  0
LINE
  5
9044
  8
0
 10
49.87748654623871
 20
205.8966827447824
 30
0.0
 11
49.87748654623871
 21
205.5626978947823
 31
0.0
  0
LINE
  5
9045
  8
0
 10
51.5467315462387
 20
205.5626978947823
 30
0.0
 11
52.88155754623872
 21
205.5626978947823
 31
0.0
  0
LINE
  5
9046
  8
0
 10
52.88155754623872
 20
205.5626978947823
 30
0.0
 11
52.88155754623872
 21
205.8966827447824
 31
0.0
  0
LINE
  5
9047
  8
0
 10
52.88155754623872
 20
205.8966827447824
 30
0.0
 11
51.5467315462387
 21
205.8966827447824
 31
0.0
  0
LINE
  5
9048
  8
0
 10
51.5467315462387
 20
205.8966827447824
 30
0.0
 11
51.5467315462387
 21
205.5626978947823
 31
0.0
  0
LINE
  5
9049
  8
0
 10
42.53436654623872
 20
205.2287728947824
 30
0.0
 11
42.86872189623872
 21
205.2287728947824
 31
0.0
  0
LINE
  5
904A
  8
0
 10
42.86872189623872
 20
205.2287728947824
 30
0.0
 11
42.86872189623872
 21
205.5627567947823
 31
0.0
  0
LINE
  5
904B
  8
0
 10
42.86872189623872
 20
205.5627567947823
 30
0.0
 11
42.53436654623872
 21
205.5627567947823
 31
0.0
  0
LINE
  5
904C
  8
0
 10
42.53436654623872
 20
205.5627567947823
 30
0.0
 11
42.53436654623872
 21
205.2287728947824
 31
0.0
  0
LINE
  5
904D
  8
0
 10
43.20193154623871
 20
205.2287728947824
 30
0.0
 11
43.53628784623871
 21
205.2287728947824
 31
0.0
  0
LINE
  5
904E
  8
0
 10
43.53628784623871
 20
205.2287728947824
 30
0.0
 11
43.53628784623871
 21
205.5627567947823
 31
0.0
  0
LINE
  5
904F
  8
0
 10
43.53628784623871
 20
205.5627567947823
 30
0.0
 11
43.20193154623871
 21
205.5627567947823
 31
0.0
  0
LINE
  5
9050
  8
0
 10
43.20193154623871
 20
205.5627567947823
 30
0.0
 11
43.20193154623871
 21
205.2287728947824
 31
0.0
  0
LINE
  5
9051
  8
0
 10
43.86949654623874
 20
205.2287728947824
 30
0.0
 11
44.87108154623871
 21
205.2287728947824
 31
0.0
  0
LINE
  5
9052
  8
0
 10
44.87108154623871
 20
205.2287728947824
 30
0.0
 11
44.87108154623871
 21
205.5627567947823
 31
0.0
  0
LINE
  5
9053
  8
0
 10
44.87108154623871
 20
205.5627567947823
 30
0.0
 11
43.86949654623874
 21
205.5627567947823
 31
0.0
  0
LINE
  5
9054
  8
0
 10
43.86949654623874
 20
205.5627567947823
 30
0.0
 11
43.86949654623874
 21
205.2287728947824
 31
0.0
  0
LINE
  5
9055
  8
0
 10
45.5387415462387
 20
205.2287728947824
 30
0.0
 11
45.8727263962387
 21
205.2287728947824
 31
0.0
  0
LINE
  5
9056
  8
0
 10
45.8727263962387
 20
205.2287728947824
 30
0.0
 11
45.8727263962387
 21
205.5627567947823
 31
0.0
  0
LINE
  5
9057
  8
0
 10
45.8727263962387
 20
205.5627567947823
 30
0.0
 11
45.5387415462387
 21
205.5627567947823
 31
0.0
  0
LINE
  5
9058
  8
0
 10
45.5387415462387
 20
205.5627567947823
 30
0.0
 11
45.5387415462387
 21
205.2287728947824
 31
0.0
  0
LINE
  5
9059
  8
0
 10
46.20592654623871
 20
205.2287728947824
 30
0.0
 11
46.53991044623874
 21
205.2287728947824
 31
0.0
  0
LINE
  5
905A
  8
0
 10
46.53991044623874
 20
205.2287728947824
 30
0.0
 11
46.53991044623874
 21
205.5627567947823
 31
0.0
  0
LINE
  5
905B
  8
0
 10
46.53991044623874
 20
205.5627567947823
 30
0.0
 11
46.20592654623871
 21
205.5627567947823
 31
0.0
  0
LINE
  5
905C
  8
0
 10
46.20592654623871
 20
205.5627567947823
 30
0.0
 11
46.20592654623871
 21
205.2287728947824
 31
0.0
  0
LINE
  5
905D
  8
0
 10
47.54153154623873
 20
205.2287728947824
 30
0.0
 11
48.54311654623871
 21
205.2287728947824
 31
0.0
  0
LINE
  5
905E
  8
0
 10
48.54311654623871
 20
205.2287728947824
 30
0.0
 11
48.54311654623871
 21
205.5627567947823
 31
0.0
  0
LINE
  5
905F
  8
0
 10
48.54311654623871
 20
205.5627567947823
 30
0.0
 11
47.54153154623873
 21
205.5627567947823
 31
0.0
  0
LINE
  5
9060
  8
0
 10
47.54153154623873
 20
205.5627567947823
 30
0.0
 11
47.54153154623873
 21
205.2287728947824
 31
0.0
  0
LINE
  5
9061
  8
0
 10
49.20992154623872
 20
205.2287728947824
 30
0.0
 11
49.87751979623872
 21
205.2287728947824
 31
0.0
  0
LINE
  5
9062
  8
0
 10
49.87751979623872
 20
205.2287728947824
 30
0.0
 11
49.87751979623872
 21
205.5627567947823
 31
0.0
  0
LINE
  5
9063
  8
0
 10
49.87751979623872
 20
205.5627567947823
 30
0.0
 11
49.20992154623872
 21
205.5627567947823
 31
0.0
  0
LINE
  5
9064
  8
0
 10
49.20992154623872
 20
205.5627567947823
 30
0.0
 11
49.20992154623872
 21
205.2287728947824
 31
0.0
  0
LINE
  5
9065
  8
0
 10
50.54590654623871
 20
205.2287728947824
 30
0.0
 11
51.21313334623872
 21
205.2287728947824
 31
0.0
  0
LINE
  5
9066
  8
0
 10
51.21313334623872
 20
205.2287728947824
 30
0.0
 11
51.21313334623872
 21
205.5627567947823
 31
0.0
  0
LINE
  5
9067
  8
0
 10
51.21313334623872
 20
205.5627567947823
 30
0.0
 11
50.54590654623871
 21
205.5627567947823
 31
0.0
  0
LINE
  5
9068
  8
0
 10
50.54590654623871
 20
205.5627567947823
 30
0.0
 11
50.54590654623871
 21
205.2287728947824
 31
0.0
  0
LINE
  5
9069
  8
0
 10
51.5467315462387
 20
205.2287728947824
 30
0.0
 11
51.88071544623872
 21
205.2287728947824
 31
0.0
  0
LINE
  5
906A
  8
0
 10
51.88071544623872
 20
205.2287728947824
 30
0.0
 11
51.88071544623872
 21
205.5627567947823
 31
0.0
  0
LINE
  5
906B
  8
0
 10
51.88071544623872
 20
205.5627567947823
 30
0.0
 11
51.5467315462387
 21
205.5627567947823
 31
0.0
  0
LINE
  5
906C
  8
0
 10
51.5467315462387
 20
205.5627567947823
 30
0.0
 11
51.5467315462387
 21
205.2287728947824
 31
0.0
  0
LINE
  5
906D
  8
0
 10
52.21391654623872
 20
205.2287728947824
 30
0.0
 11
53.21550154623873
 21
205.2287728947824
 31
0.0
  0
LINE
  5
906E
  8
0
 10
53.21550154623873
 20
205.2287728947824
 30
0.0
 11
53.21550154623873
 21
205.5627567947823
 31
0.0
  0
LINE
  5
906F
  8
0
 10
53.21550154623873
 20
205.5627567947823
 30
0.0
 11
52.21391654623872
 21
205.5627567947823
 31
0.0
  0
LINE
  5
9070
  8
0
 10
52.21391654623872
 20
205.5627567947823
 30
0.0
 11
52.21391654623872
 21
205.2287728947824
 31
0.0
  0
LINE
  5
9071
  8
0
 10
42.53436654623872
 20
204.8951328947824
 30
0.0
 11
42.86872189623872
 21
204.8951328947824
 31
0.0
  0
LINE
  5
9072
  8
0
 10
42.86872189623872
 20
204.8951328947824
 30
0.0
 11
42.86872189623872
 21
205.2291167947823
 31
0.0
  0
LINE
  5
9073
  8
0
 10
42.86872189623872
 20
205.2291167947823
 30
0.0
 11
42.53436654623872
 21
205.2291167947823
 31
0.0
  0
LINE
  5
9074
  8
0
 10
42.53436654623872
 20
205.2291167947823
 30
0.0
 11
42.53436654623872
 21
204.8951328947824
 31
0.0
  0
LINE
  5
9075
  8
0
 10
43.86949654623874
 20
204.8951328947824
 30
0.0
 11
44.53709384623872
 21
204.8951328947824
 31
0.0
  0
LINE
  5
9076
  8
0
 10
44.53709384623872
 20
204.8951328947824
 30
0.0
 11
44.53709384623872
 21
205.2291167947823
 31
0.0
  0
LINE
  5
9077
  8
0
 10
44.53709384623872
 20
205.2291167947823
 30
0.0
 11
43.86949654623874
 21
205.2291167947823
 31
0.0
  0
LINE
  5
9078
  8
0
 10
43.86949654623874
 20
205.2291167947823
 30
0.0
 11
43.86949654623874
 21
204.8951328947824
 31
0.0
  0
LINE
  5
9079
  8
0
 10
44.87108154623871
 20
204.8951328947824
 30
0.0
 11
46.87350104623872
 21
204.8951328947824
 31
0.0
  0
LINE
  5
907A
  8
0
 10
46.87350104623872
 20
204.8951328947824
 30
0.0
 11
46.87350104623872
 21
205.2291167947823
 31
0.0
  0
LINE
  5
907B
  8
0
 10
46.87350104623872
 20
205.2291167947823
 30
0.0
 11
44.87108154623871
 21
205.2291167947823
 31
0.0
  0
LINE
  5
907C
  8
0
 10
44.87108154623871
 20
205.2291167947823
 30
0.0
 11
44.87108154623871
 21
204.8951328947824
 31
0.0
  0
LINE
  5
907D
  8
0
 10
48.54273654623873
 20
204.8951328947824
 30
0.0
 11
48.87672139623871
 21
204.8951328947824
 31
0.0
  0
LINE
  5
907E
  8
0
 10
48.87672139623871
 20
204.8951328947824
 30
0.0
 11
48.87672139623871
 21
205.2291167947823
 31
0.0
  0
LINE
  5
907F
  8
0
 10
48.87672139623871
 20
205.2291167947823
 30
0.0
 11
48.54273654623873
 21
205.2291167947823
 31
0.0
  0
LINE
  5
9080
  8
0
 10
48.54273654623873
 20
205.2291167947823
 30
0.0
 11
48.54273654623873
 21
204.8951328947824
 31
0.0
  0
LINE
  5
9081
  8
0
 10
49.87748654623871
 20
204.8951328947824
 30
0.0
 11
50.54508384623873
 21
204.8951328947824
 31
0.0
  0
LINE
  5
9082
  8
0
 10
50.54508384623873
 20
204.8951328947824
 30
0.0
 11
50.54508384623873
 21
205.2291167947823
 31
0.0
  0
LINE
  5
9083
  8
0
 10
50.54508384623873
 20
205.2291167947823
 30
0.0
 11
49.87748654623871
 21
205.2291167947823
 31
0.0
  0
LINE
  5
9084
  8
0
 10
49.87748654623871
 20
205.2291167947823
 30
0.0
 11
49.87748654623871
 21
204.8951328947824
 31
0.0
  0
LINE
  5
9085
  8
0
 10
50.87907154623872
 20
204.8951328947824
 30
0.0
 11
51.88065654623873
 21
204.8951328947824
 31
0.0
  0
LINE
  5
9086
  8
0
 10
51.88065654623873
 20
204.8951328947824
 30
0.0
 11
51.88065654623873
 21
205.2291167947823
 31
0.0
  0
LINE
  5
9087
  8
0
 10
51.88065654623873
 20
205.2291167947823
 30
0.0
 11
50.87907154623872
 21
205.2291167947823
 31
0.0
  0
LINE
  5
9088
  8
0
 10
50.87907154623872
 20
205.2291167947823
 30
0.0
 11
50.87907154623872
 21
204.8951328947824
 31
0.0
  0
LINE
  5
9089
  8
0
 10
52.21391654623872
 20
204.8951328947824
 30
0.0
 11
52.8815138462387
 21
204.8951328947824
 31
0.0
  0
LINE
  5
908A
  8
0
 10
52.8815138462387
 20
204.8951328947824
 30
0.0
 11
52.8815138462387
 21
205.2291167947823
 31
0.0
  0
LINE
  5
908B
  8
0
 10
52.8815138462387
 20
205.2291167947823
 30
0.0
 11
52.21391654623872
 21
205.2291167947823
 31
0.0
  0
LINE
  5
908C
  8
0
 10
52.21391654623872
 20
205.2291167947823
 30
0.0
 11
52.21391654623872
 21
204.8951328947824
 31
0.0
  0
LINE
  5
908D
  8
0
 10
53.21550154623873
 20
204.8951328947824
 30
0.0
 11
53.54985784623872
 21
204.8951328947824
 31
0.0
  0
LINE
  5
908E
  8
0
 10
53.54985784623872
 20
204.8951328947824
 30
0.0
 11
53.54985784623872
 21
205.2291167947823
 31
0.0
  0
LINE
  5
908F
  8
0
 10
53.54985784623872
 20
205.2291167947823
 30
0.0
 11
53.21550154623873
 21
205.2291167947823
 31
0.0
  0
LINE
  5
9090
  8
0
 10
53.21550154623873
 20
205.2291167947823
 30
0.0
 11
53.21550154623873
 21
204.8951328947824
 31
0.0
  0
LINE
  5
9091
  8
0
 10
42.53436654623872
 20
204.5611128947824
 30
0.0
 11
43.2019638462387
 21
204.5611128947824
 31
0.0
  0
LINE
  5
9092
  8
0
 10
43.2019638462387
 20
204.5611128947824
 30
0.0
 11
43.2019638462387
 21
204.8950977447823
 31
0.0
  0
LINE
  5
9093
  8
0
 10
43.2019638462387
 20
204.8950977447823
 30
0.0
 11
42.53436654623872
 21
204.8950977447823
 31
0.0
  0
LINE
  5
9094
  8
0
 10
42.53436654623872
 20
204.8950977447823
 30
0.0
 11
42.53436654623872
 21
204.5611128947824
 31
0.0
  0
LINE
  5
9095
  8
0
 10
43.53585654623873
 20
204.5611128947824
 30
0.0
 11
43.86984044623873
 21
204.5611128947824
 31
0.0
  0
LINE
  5
9096
  8
0
 10
43.86984044623873
 20
204.5611128947824
 30
0.0
 11
43.86984044623873
 21
204.8950977447823
 31
0.0
  0
LINE
  5
9097
  8
0
 10
43.86984044623873
 20
204.8950977447823
 30
0.0
 11
43.53585654623873
 21
204.8950977447823
 31
0.0
  0
LINE
  5
9098
  8
0
 10
43.53585654623873
 20
204.8950977447823
 30
0.0
 11
43.53585654623873
 21
204.5611128947824
 31
0.0
  0
LINE
  5
9099
  8
0
 10
44.20351654623872
 20
204.5611128947824
 30
0.0
 11
46.20593604623872
 21
204.5611128947824
 31
0.0
  0
LINE
  5
909A
  8
0
 10
46.20593604623872
 20
204.5611128947824
 30
0.0
 11
46.20593604623872
 21
204.8950977447823
 31
0.0
  0
LINE
  5
909B
  8
0
 10
46.20593604623872
 20
204.8950977447823
 30
0.0
 11
44.20351654623872
 21
204.8950977447823
 31
0.0
  0
LINE
  5
909C
  8
0
 10
44.20351654623872
 20
204.8950977447823
 30
0.0
 11
44.20351654623872
 21
204.5611128947824
 31
0.0
  0
LINE
  5
909D
  8
0
 10
47.54153154623873
 20
204.5611128947824
 30
0.0
 11
48.2091297962387
 21
204.5611128947824
 31
0.0
  0
LINE
  5
909E
  8
0
 10
48.2091297962387
 20
204.5611128947824
 30
0.0
 11
48.2091297962387
 21
204.8950977447823
 31
0.0
  0
LINE
  5
909F
  8
0
 10
48.2091297962387
 20
204.8950977447823
 30
0.0
 11
47.54153154623873
 21
204.8950977447823
 31
0.0
  0
LINE
  5
90A0
  8
0
 10
47.54153154623873
 20
204.8950977447823
 30
0.0
 11
47.54153154623873
 21
204.5611128947824
 31
0.0
  0
LINE
  5
90A1
  8
0
 10
48.87666154623872
 20
204.5611128947824
 30
0.0
 11
49.54425884623871
 21
204.5611128947824
 31
0.0
  0
LINE
  5
90A2
  8
0
 10
49.54425884623871
 20
204.5611128947824
 30
0.0
 11
49.54425884623871
 21
204.8950977447823
 31
0.0
  0
LINE
  5
90A3
  8
0
 10
49.54425884623871
 20
204.8950977447823
 30
0.0
 11
48.87666154623872
 21
204.8950977447823
 31
0.0
  0
LINE
  5
90A4
  8
0
 10
48.87666154623872
 20
204.8950977447823
 30
0.0
 11
48.87666154623872
 21
204.5611128947824
 31
0.0
  0
LINE
  5
90A5
  8
0
 10
50.54590654623871
 20
204.5611128947824
 30
0.0
 11
52.54832604623871
 21
204.5611128947824
 31
0.0
  0
LINE
  5
90A6
  8
0
 10
52.54832604623871
 20
204.5611128947824
 30
0.0
 11
52.54832604623871
 21
204.8950977447823
 31
0.0
  0
LINE
  5
90A7
  8
0
 10
52.54832604623871
 20
204.8950977447823
 30
0.0
 11
50.54590654623871
 21
204.8950977447823
 31
0.0
  0
LINE
  5
90A8
  8
0
 10
50.54590654623871
 20
204.8950977447823
 30
0.0
 11
50.54590654623871
 21
204.5611128947824
 31
0.0
  0
LINE
  5
90A9
  8
0
 10
45.20510154623872
 20
204.2275678947823
 30
0.0
 11
45.53908639623873
 21
204.2275678947823
 31
0.0
  0
LINE
  5
90AA
  8
0
 10
45.53908639623873
 20
204.2275678947823
 30
0.0
 11
45.53908639623873
 21
204.5615527447824
 31
0.0
  0
LINE
  5
90AB
  8
0
 10
45.53908639623873
 20
204.5615527447824
 30
0.0
 11
45.20510154623872
 21
204.5615527447824
 31
0.0
  0
LINE
  5
90AC
  8
0
 10
45.20510154623872
 20
204.5615527447824
 30
0.0
 11
45.20510154623872
 21
204.2275678947823
 31
0.0
  0
LINE
  5
90AD
  8
0
 10
46.20592654623871
 20
204.2275678947823
 30
0.0
 11
46.53991044623874
 21
204.2275678947823
 31
0.0
  0
LINE
  5
90AE
  8
0
 10
46.53991044623874
 20
204.2275678947823
 30
0.0
 11
46.53991044623874
 21
204.5615527447824
 31
0.0
  0
LINE
  5
90AF
  8
0
 10
46.53991044623874
 20
204.5615527447824
 30
0.0
 11
46.20592654623871
 21
204.5615527447824
 31
0.0
  0
LINE
  5
90B0
  8
0
 10
46.20592654623871
 20
204.5615527447824
 30
0.0
 11
46.20592654623871
 21
204.2275678947823
 31
0.0
  0
LINE
  5
90B1
  8
0
 10
46.87349154623871
 20
204.2275678947823
 30
0.0
 11
47.20747639623872
 21
204.2275678947823
 31
0.0
  0
LINE
  5
90B2
  8
0
 10
47.20747639623872
 20
204.2275678947823
 30
0.0
 11
47.20747639623872
 21
204.5615527447824
 31
0.0
  0
LINE
  5
90B3
  8
0
 10
47.20747639623872
 20
204.5615527447824
 30
0.0
 11
46.87349154623871
 21
204.5615527447824
 31
0.0
  0
LINE
  5
90B4
  8
0
 10
46.87349154623871
 20
204.5615527447824
 30
0.0
 11
46.87349154623871
 21
204.2275678947823
 31
0.0
  0
LINE
  5
90B5
  8
0
 10
47.54153154623873
 20
204.2275678947823
 30
0.0
 11
47.87588689623874
 21
204.2275678947823
 31
0.0
  0
LINE
  5
90B6
  8
0
 10
47.87588689623874
 20
204.2275678947823
 30
0.0
 11
47.87588689623874
 21
204.5615527447824
 31
0.0
  0
LINE
  5
90B7
  8
0
 10
47.87588689623874
 20
204.5615527447824
 30
0.0
 11
47.54153154623873
 21
204.5615527447824
 31
0.0
  0
LINE
  5
90B8
  8
0
 10
47.54153154623873
 20
204.5615527447824
 30
0.0
 11
47.54153154623873
 21
204.2275678947823
 31
0.0
  0
LINE
  5
90B9
  8
0
 10
48.54273654623873
 20
204.2275678947823
 30
0.0
 11
49.54395104623873
 21
204.2275678947823
 31
0.0
  0
LINE
  5
90BA
  8
0
 10
49.54395104623873
 20
204.2275678947823
 30
0.0
 11
49.54395104623873
 21
204.5615527447824
 31
0.0
  0
LINE
  5
90BB
  8
0
 10
49.54395104623873
 20
204.5615527447824
 30
0.0
 11
48.54273654623873
 21
204.5615527447824
 31
0.0
  0
LINE
  5
90BC
  8
0
 10
48.54273654623873
 20
204.5615527447824
 30
0.0
 11
48.54273654623873
 21
204.2275678947823
 31
0.0
  0
LINE
  5
90BD
  8
0
 10
49.87748654623871
 20
204.2275678947823
 30
0.0
 11
50.87907154623872
 21
204.2275678947823
 31
0.0
  0
LINE
  5
90BE
  8
0
 10
50.87907154623872
 20
204.2275678947823
 30
0.0
 11
50.87907154623872
 21
204.5615527447824
 31
0.0
  0
LINE
  5
90BF
  8
0
 10
50.87907154623872
 20
204.5615527447824
 30
0.0
 11
49.87748654623871
 21
204.5615527447824
 31
0.0
  0
LINE
  5
90C0
  8
0
 10
49.87748654623871
 20
204.5615527447824
 30
0.0
 11
49.87748654623871
 21
204.2275678947823
 31
0.0
  0
LINE
  5
90C1
  8
0
 10
51.88065654623873
 20
204.2275678947823
 30
0.0
 11
52.2146413962387
 21
204.2275678947823
 31
0.0
  0
LINE
  5
90C2
  8
0
 10
52.2146413962387
 20
204.2275678947823
 30
0.0
 11
52.2146413962387
 21
204.5615527447824
 31
0.0
  0
LINE
  5
90C3
  8
0
 10
52.2146413962387
 20
204.5615527447824
 30
0.0
 11
51.88065654623873
 21
204.5615527447824
 31
0.0
  0
LINE
  5
90C4
  8
0
 10
51.88065654623873
 20
204.5615527447824
 30
0.0
 11
51.88065654623873
 21
204.2275678947823
 31
0.0
  0
LINE
  5
90C5
  8
0
 10
52.54831654623871
 20
204.2275678947823
 30
0.0
 11
53.54990154623871
 21
204.2275678947823
 31
0.0
  0
LINE
  5
90C6
  8
0
 10
53.54990154623871
 20
204.2275678947823
 30
0.0
 11
53.54990154623871
 21
204.5615527447824
 31
0.0
  0
LINE
  5
90C7
  8
0
 10
53.54990154623871
 20
204.5615527447824
 30
0.0
 11
52.54831654623871
 21
204.5615527447824
 31
0.0
  0
LINE
  5
90C8
  8
0
 10
52.54831654623871
 20
204.5615527447824
 30
0.0
 11
52.54831654623871
 21
204.2275678947823
 31
0.0
  0
LINE
  5
90C9
  8
0
 10
42.53436654623872
 20
203.8935478947823
 30
0.0
 11
44.87114804623874
 21
203.8935478947823
 31
0.0
  0
LINE
  5
90CA
  8
0
 10
44.87114804623874
 20
203.8935478947823
 30
0.0
 11
44.87114804623874
 21
204.2275317947824
 31
0.0
  0
LINE
  5
90CB
  8
0
 10
44.87114804623874
 20
204.2275317947824
 30
0.0
 11
42.53436654623872
 21
204.2275317947824
 31
0.0
  0
LINE
  5
90CC
  8
0
 10
42.53436654623872
 20
204.2275317947824
 30
0.0
 11
42.53436654623872
 21
203.8935478947823
 31
0.0
  0
LINE
  5
90CD
  8
0
 10
46.20592654623871
 20
203.8935478947823
 30
0.0
 11
47.20751154623872
 21
203.8935478947823
 31
0.0
  0
LINE
  5
90CE
  8
0
 10
47.20751154623872
 20
203.8935478947823
 30
0.0
 11
47.20751154623872
 21
204.2275317947824
 31
0.0
  0
LINE
  5
90CF
  8
0
 10
47.20751154623872
 20
204.2275317947824
 30
0.0
 11
46.20592654623871
 21
204.2275317947824
 31
0.0
  0
LINE
  5
90D0
  8
0
 10
46.20592654623871
 20
204.2275317947824
 30
0.0
 11
46.20592654623871
 21
203.8935478947823
 31
0.0
  0
LINE
  5
90D1
  8
0
 10
47.54153154623873
 20
203.8935478947823
 30
0.0
 11
48.2091297962387
 21
203.8935478947823
 31
0.0
  0
LINE
  5
90D2
  8
0
 10
48.2091297962387
 20
203.8935478947823
 30
0.0
 11
48.2091297962387
 21
204.2275317947824
 31
0.0
  0
LINE
  5
90D3
  8
0
 10
48.2091297962387
 20
204.2275317947824
 30
0.0
 11
47.54153154623873
 21
204.2275317947824
 31
0.0
  0
LINE
  5
90D4
  8
0
 10
47.54153154623873
 20
204.2275317947824
 30
0.0
 11
47.54153154623873
 21
203.8935478947823
 31
0.0
  0
LINE
  5
90D5
  8
0
 10
48.54273654623873
 20
203.8935478947823
 30
0.0
 11
48.87672139623871
 21
203.8935478947823
 31
0.0
  0
LINE
  5
90D6
  8
0
 10
48.87672139623871
 20
203.8935478947823
 30
0.0
 11
48.87672139623871
 21
204.2275317947824
 31
0.0
  0
LINE
  5
90D7
  8
0
 10
48.87672139623871
 20
204.2275317947824
 30
0.0
 11
48.54273654623873
 21
204.2275317947824
 31
0.0
  0
LINE
  5
90D8
  8
0
 10
48.54273654623873
 20
204.2275317947824
 30
0.0
 11
48.54273654623873
 21
203.8935478947823
 31
0.0
  0
LINE
  5
90D9
  8
0
 10
49.20992154623872
 20
203.8935478947823
 30
0.0
 11
49.87751979623872
 21
203.8935478947823
 31
0.0
  0
LINE
  5
90DA
  8
0
 10
49.87751979623872
 20
203.8935478947823
 30
0.0
 11
49.87751979623872
 21
204.2275317947824
 31
0.0
  0
LINE
  5
90DB
  8
0
 10
49.87751979623872
 20
204.2275317947824
 30
0.0
 11
49.20992154623872
 21
204.2275317947824
 31
0.0
  0
LINE
  5
90DC
  8
0
 10
49.20992154623872
 20
204.2275317947824
 30
0.0
 11
49.20992154623872
 21
203.8935478947823
 31
0.0
  0
LINE
  5
90DD
  8
0
 10
50.21150654623872
 20
203.8935478947823
 30
0.0
 11
50.87910384623871
 21
203.8935478947823
 31
0.0
  0
LINE
  5
90DE
  8
0
 10
50.87910384623871
 20
203.8935478947823
 30
0.0
 11
50.87910384623871
 21
204.2275317947824
 31
0.0
  0
LINE
  5
90DF
  8
0
 10
50.87910384623871
 20
204.2275317947824
 30
0.0
 11
50.21150654623872
 21
204.2275317947824
 31
0.0
  0
LINE
  5
90E0
  8
0
 10
50.21150654623872
 20
204.2275317947824
 30
0.0
 11
50.21150654623872
 21
203.8935478947823
 31
0.0
  0
LINE
  5
90E1
  8
0
 10
51.21309154623873
 20
203.8935478947823
 30
0.0
 11
51.54707544623872
 21
203.8935478947823
 31
0.0
  0
LINE
  5
90E2
  8
0
 10
51.54707544623872
 20
203.8935478947823
 30
0.0
 11
51.54707544623872
 21
204.2275317947824
 31
0.0
  0
LINE
  5
90E3
  8
0
 10
51.54707544623872
 20
204.2275317947824
 30
0.0
 11
51.21309154623873
 21
204.2275317947824
 31
0.0
  0
LINE
  5
90E4
  8
0
 10
51.21309154623873
 20
204.2275317947824
 30
0.0
 11
51.21309154623873
 21
203.8935478947823
 31
0.0
  0
LINE
  5
90E5
  8
0
 10
51.88065654623873
 20
203.8935478947823
 30
0.0
 11
52.2146413962387
 21
203.8935478947823
 31
0.0
  0
LINE
  5
90E6
  8
0
 10
52.2146413962387
 20
203.8935478947823
 30
0.0
 11
52.2146413962387
 21
204.2275317947824
 31
0.0
  0
LINE
  5
90E7
  8
0
 10
52.2146413962387
 20
204.2275317947824
 30
0.0
 11
51.88065654623873
 21
204.2275317947824
 31
0.0
  0
LINE
  5
90E8
  8
0
 10
51.88065654623873
 20
204.2275317947824
 30
0.0
 11
51.88065654623873
 21
203.8935478947823
 31
0.0
  0
LINE
  5
90E9
  8
0
 10
52.54831654623871
 20
203.8935478947823
 30
0.0
 11
53.21554239623873
 21
203.8935478947823
 31
0.0
  0
LINE
  5
90EA
  8
0
 10
53.21554239623873
 20
203.8935478947823
 30
0.0
 11
53.21554239623873
 21
204.2275317947824
 31
0.0
  0
LINE
  5
90EB
  8
0
 10
53.21554239623873
 20
204.2275317947824
 30
0.0
 11
52.54831654623871
 21
204.2275317947824
 31
0.0
  0
LINE
  5
90EC
  8
0
 10
52.54831654623871
 20
204.2275317947824
 30
0.0
 11
52.54831654623871
 21
203.8935478947823
 31
0.0
  0
LINE
  5
90ED
  8
0
 10
42.53436654623872
 20
203.5602878947823
 30
0.0
 11
42.86872189623872
 21
203.5602878947823
 31
0.0
  0
LINE
  5
90EE
  8
0
 10
42.86872189623872
 20
203.5602878947823
 30
0.0
 11
42.86872189623872
 21
203.8942717947824
 31
0.0
  0
LINE
  5
90EF
  8
0
 10
42.86872189623872
 20
203.8942717947824
 30
0.0
 11
42.53436654623872
 21
203.8942717947824
 31
0.0
  0
LINE
  5
90F0
  8
0
 10
42.53436654623872
 20
203.8942717947824
 30
0.0
 11
42.53436654623872
 21
203.5602878947823
 31
0.0
  0
LINE
  5
90F1
  8
0
 10
44.53744154623871
 20
203.5602878947823
 30
0.0
 11
44.8714254462387
 21
203.5602878947823
 31
0.0
  0
LINE
  5
90F2
  8
0
 10
44.8714254462387
 20
203.5602878947823
 30
0.0
 11
44.8714254462387
 21
203.8942717947824
 31
0.0
  0
LINE
  5
90F3
  8
0
 10
44.8714254462387
 20
203.8942717947824
 30
0.0
 11
44.53744154623871
 21
203.8942717947824
 31
0.0
  0
LINE
  5
90F4
  8
0
 10
44.53744154623871
 20
203.8942717947824
 30
0.0
 11
44.53744154623871
 21
203.5602878947823
 31
0.0
  0
LINE
  5
90F5
  8
0
 10
45.5387415462387
 20
203.5602878947823
 30
0.0
 11
46.5399560462387
 21
203.5602878947823
 31
0.0
  0
LINE
  5
90F6
  8
0
 10
46.5399560462387
 20
203.5602878947823
 30
0.0
 11
46.5399560462387
 21
203.8942717947824
 31
0.0
  0
LINE
  5
90F7
  8
0
 10
46.5399560462387
 20
203.8942717947824
 30
0.0
 11
45.5387415462387
 21
203.8942717947824
 31
0.0
  0
LINE
  5
90F8
  8
0
 10
45.5387415462387
 20
203.8942717947824
 30
0.0
 11
45.5387415462387
 21
203.5602878947823
 31
0.0
  0
LINE
  5
90F9
  8
0
 10
47.54153154623873
 20
203.5602878947823
 30
0.0
 11
47.87588689623874
 21
203.5602878947823
 31
0.0
  0
LINE
  5
90FA
  8
0
 10
47.87588689623874
 20
203.5602878947823
 30
0.0
 11
47.87588689623874
 21
203.8942717947824
 31
0.0
  0
LINE
  5
90FB
  8
0
 10
47.87588689623874
 20
203.8942717947824
 30
0.0
 11
47.54153154623873
 21
203.8942717947824
 31
0.0
  0
LINE
  5
90FC
  8
0
 10
47.54153154623873
 20
203.8942717947824
 30
0.0
 11
47.54153154623873
 21
203.5602878947823
 31
0.0
  0
LINE
  5
90FD
  8
0
 10
49.20992154623872
 20
203.5602878947823
 30
0.0
 11
49.54427689623873
 21
203.5602878947823
 31
0.0
  0
LINE
  5
90FE
  8
0
 10
49.54427689623873
 20
203.5602878947823
 30
0.0
 11
49.54427689623873
 21
203.8942717947824
 31
0.0
  0
LINE
  5
90FF
  8
0
 10
49.54427689623873
 20
203.8942717947824
 30
0.0
 11
49.20992154623872
 21
203.8942717947824
 31
0.0
  0
LINE
  5
9100
  8
0
 10
49.20992154623872
 20
203.8942717947824
 30
0.0
 11
49.20992154623872
 21
203.5602878947823
 31
0.0
  0
LINE
  5
9101
  8
0
 10
50.21150654623872
 20
203.5602878947823
 30
0.0
 11
50.87910384623871
 21
203.5602878947823
 31
0.0
  0
LINE
  5
9102
  8
0
 10
50.87910384623871
 20
203.5602878947823
 30
0.0
 11
50.87910384623871
 21
203.8942717947824
 31
0.0
  0
LINE
  5
9103
  8
0
 10
50.87910384623871
 20
203.8942717947824
 30
0.0
 11
50.21150654623872
 21
203.8942717947824
 31
0.0
  0
LINE
  5
9104
  8
0
 10
50.21150654623872
 20
203.8942717947824
 30
0.0
 11
50.21150654623872
 21
203.5602878947823
 31
0.0
  0
LINE
  5
9105
  8
0
 10
51.88065654623873
 20
203.5602878947823
 30
0.0
 11
52.8822415462387
 21
203.5602878947823
 31
0.0
  0
LINE
  5
9106
  8
0
 10
52.8822415462387
 20
203.5602878947823
 30
0.0
 11
52.8822415462387
 21
203.8942717947824
 31
0.0
  0
LINE
  5
9107
  8
0
 10
52.8822415462387
 20
203.8942717947824
 30
0.0
 11
51.88065654623873
 21
203.8942717947824
 31
0.0
  0
LINE
  5
9108
  8
0
 10
51.88065654623873
 20
203.8942717947824
 30
0.0
 11
51.88065654623873
 21
203.5602878947823
 31
0.0
  0
LINE
  5
9109
  8
0
 10
53.21550154623873
 20
203.5602878947823
 30
0.0
 11
53.54985784623872
 21
203.5602878947823
 31
0.0
  0
LINE
  5
910A
  8
0
 10
53.54985784623872
 20
203.5602878947823
 30
0.0
 11
53.54985784623872
 21
203.8942717947824
 31
0.0
  0
LINE
  5
910B
  8
0
 10
53.54985784623872
 20
203.8942717947824
 30
0.0
 11
53.21550154623873
 21
203.8942717947824
 31
0.0
  0
LINE
  5
910C
  8
0
 10
53.21550154623873
 20
203.8942717947824
 30
0.0
 11
53.21550154623873
 21
203.5602878947823
 31
0.0
  0
LINE
  5
910D
  8
0
 10
42.53436654623872
 20
203.2262678947824
 30
0.0
 11
42.86872189623872
 21
203.2262678947824
 31
0.0
  0
LINE
  5
910E
  8
0
 10
42.86872189623872
 20
203.2262678947824
 30
0.0
 11
42.86872189623872
 21
203.5602527447824
 31
0.0
  0
LINE
  5
910F
  8
0
 10
42.86872189623872
 20
203.5602527447824
 30
0.0
 11
42.53436654623872
 21
203.5602527447824
 31
0.0
  0
LINE
  5
9110
  8
0
 10
42.53436654623872
 20
203.5602527447824
 30
0.0
 11
42.53436654623872
 21
203.2262678947824
 31
0.0
  0
LINE
  5
9111
  8
0
 10
43.20193154623871
 20
203.2262678947824
 30
0.0
 11
44.20351654623872
 21
203.2262678947824
 31
0.0
  0
LINE
  5
9112
  8
0
 10
44.20351654623872
 20
203.2262678947824
 30
0.0
 11
44.20351654623872
 21
203.5602527447824
 31
0.0
  0
LINE
  5
9113
  8
0
 10
44.20351654623872
 20
203.5602527447824
 30
0.0
 11
43.20193154623871
 21
203.5602527447824
 31
0.0
  0
LINE
  5
9114
  8
0
 10
43.20193154623871
 20
203.5602527447824
 30
0.0
 11
43.20193154623871
 21
203.2262678947824
 31
0.0
  0
LINE
  5
9115
  8
0
 10
44.53744154623871
 20
203.2262678947824
 30
0.0
 11
44.8714254462387
 21
203.2262678947824
 31
0.0
  0
LINE
  5
9116
  8
0
 10
44.8714254462387
 20
203.2262678947824
 30
0.0
 11
44.8714254462387
 21
203.5602527447824
 31
0.0
  0
LINE
  5
9117
  8
0
 10
44.8714254462387
 20
203.5602527447824
 30
0.0
 11
44.53744154623871
 21
203.5602527447824
 31
0.0
  0
LINE
  5
9118
  8
0
 10
44.53744154623871
 20
203.5602527447824
 30
0.0
 11
44.53744154623871
 21
203.2262678947824
 31
0.0
  0
LINE
  5
9119
  8
0
 10
45.87266654623872
 20
203.2262678947824
 30
0.0
 11
46.53989239623871
 21
203.2262678947824
 31
0.0
  0
LINE
  5
911A
  8
0
 10
46.53989239623871
 20
203.2262678947824
 30
0.0
 11
46.53989239623871
 21
203.5602527447824
 31
0.0
  0
LINE
  5
911B
  8
0
 10
46.53989239623871
 20
203.5602527447824
 30
0.0
 11
45.87266654623872
 21
203.5602527447824
 31
0.0
  0
LINE
  5
911C
  8
0
 10
45.87266654623872
 20
203.5602527447824
 30
0.0
 11
45.87266654623872
 21
203.2262678947824
 31
0.0
  0
LINE
  5
911D
  8
0
 10
46.87349154623871
 20
203.2262678947824
 30
0.0
 11
47.54108979623874
 21
203.2262678947824
 31
0.0
  0
LINE
  5
911E
  8
0
 10
47.54108979623874
 20
203.2262678947824
 30
0.0
 11
47.54108979623874
 21
203.5602527447824
 31
0.0
  0
LINE
  5
911F
  8
0
 10
47.54108979623874
 20
203.5602527447824
 30
0.0
 11
46.87349154623871
 21
203.5602527447824
 31
0.0
  0
LINE
  5
9120
  8
0
 10
46.87349154623871
 20
203.5602527447824
 30
0.0
 11
46.87349154623871
 21
203.2262678947824
 31
0.0
  0
LINE
  5
9121
  8
0
 10
48.54273654623873
 20
203.2262678947824
 30
0.0
 11
49.20996334623874
 21
203.2262678947824
 31
0.0
  0
LINE
  5
9122
  8
0
 10
49.20996334623874
 20
203.2262678947824
 30
0.0
 11
49.20996334623874
 21
203.5602527447824
 31
0.0
  0
LINE
  5
9123
  8
0
 10
49.20996334623874
 20
203.5602527447824
 30
0.0
 11
48.54273654623873
 21
203.5602527447824
 31
0.0
  0
LINE
  5
9124
  8
0
 10
48.54273654623873
 20
203.5602527447824
 30
0.0
 11
48.54273654623873
 21
203.2262678947824
 31
0.0
  0
LINE
  5
9125
  8
0
 10
49.54432154623871
 20
203.2262678947824
 30
0.0
 11
49.87830639623871
 21
203.2262678947824
 31
0.0
  0
LINE
  5
9126
  8
0
 10
49.87830639623871
 20
203.2262678947824
 30
0.0
 11
49.87830639623871
 21
203.5602527447824
 31
0.0
  0
LINE
  5
9127
  8
0
 10
49.87830639623871
 20
203.5602527447824
 30
0.0
 11
49.54432154623871
 21
203.5602527447824
 31
0.0
  0
LINE
  5
9128
  8
0
 10
49.54432154623871
 20
203.5602527447824
 30
0.0
 11
49.54432154623871
 21
203.2262678947824
 31
0.0
  0
LINE
  5
9129
  8
0
 10
50.54590654623871
 20
203.2262678947824
 30
0.0
 11
52.54832604623871
 21
203.2262678947824
 31
0.0
  0
LINE
  5
912A
  8
0
 10
52.54832604623871
 20
203.2262678947824
 30
0.0
 11
52.54832604623871
 21
203.5602527447824
 31
0.0
  0
LINE
  5
912B
  8
0
 10
52.54832604623871
 20
203.5602527447824
 30
0.0
 11
50.54590654623871
 21
203.5602527447824
 31
0.0
  0
LINE
  5
912C
  8
0
 10
50.54590654623871
 20
203.5602527447824
 30
0.0
 11
50.54590654623871
 21
203.2262678947824
 31
0.0
  0
LINE
  5
912D
  8
0
 10
42.53436654623872
 20
202.8919628947824
 30
0.0
 11
42.86872189623872
 21
202.8919628947824
 31
0.0
  0
LINE
  5
912E
  8
0
 10
42.86872189623872
 20
202.8919628947824
 30
0.0
 11
42.86872189623872
 21
203.2263182447824
 31
0.0
  0
LINE
  5
912F
  8
0
 10
42.86872189623872
 20
203.2263182447824
 30
0.0
 11
42.53436654623872
 21
203.2263182447824
 31
0.0
  0
LINE
  5
9130
  8
0
 10
42.53436654623872
 20
203.2263182447824
 30
0.0
 11
42.53436654623872
 21
202.8919628947824
 31
0.0
  0
LINE
  5
9131
  8
0
 10
43.20193154623871
 20
202.8919628947824
 30
0.0
 11
44.20351654623872
 21
202.8919628947824
 31
0.0
  0
LINE
  5
9132
  8
0
 10
44.20351654623872
 20
202.8919628947824
 30
0.0
 11
44.20351654623872
 21
203.2263182447824
 31
0.0
  0
LINE
  5
9133
  8
0
 10
44.20351654623872
 20
203.2263182447824
 30
0.0
 11
43.20193154623871
 21
203.2263182447824
 31
0.0
  0
LINE
  5
9134
  8
0
 10
43.20193154623871
 20
203.2263182447824
 30
0.0
 11
43.20193154623871
 21
202.8919628947824
 31
0.0
  0
LINE
  5
9135
  8
0
 10
44.53744154623871
 20
202.8919628947824
 30
0.0
 11
44.8714254462387
 21
202.8919628947824
 31
0.0
  0
LINE
  5
9136
  8
0
 10
44.8714254462387
 20
202.8919628947824
 30
0.0
 11
44.8714254462387
 21
203.2263182447824
 31
0.0
  0
LINE
  5
9137
  8
0
 10
44.8714254462387
 20
203.2263182447824
 30
0.0
 11
44.53744154623871
 21
203.2263182447824
 31
0.0
  0
LINE
  5
9138
  8
0
 10
44.53744154623871
 20
203.2263182447824
 30
0.0
 11
44.53744154623871
 21
202.8919628947824
 31
0.0
  0
LINE
  5
9139
  8
0
 10
45.5387415462387
 20
202.8919628947824
 30
0.0
 11
46.87356754623872
 21
202.8919628947824
 31
0.0
  0
LINE
  5
913A
  8
0
 10
46.87356754623872
 20
202.8919628947824
 30
0.0
 11
46.87356754623872
 21
203.2263182447824
 31
0.0
  0
LINE
  5
913B
  8
0
 10
46.87356754623872
 20
203.2263182447824
 30
0.0
 11
45.5387415462387
 21
203.2263182447824
 31
0.0
  0
LINE
  5
913C
  8
0
 10
45.5387415462387
 20
203.2263182447824
 30
0.0
 11
45.5387415462387
 21
202.8919628947824
 31
0.0
  0
LINE
  5
913D
  8
0
 10
47.20751154623872
 20
202.8919628947824
 30
0.0
 11
47.54149544623874
 21
202.8919628947824
 31
0.0
  0
LINE
  5
913E
  8
0
 10
47.54149544623874
 20
202.8919628947824
 30
0.0
 11
47.54149544623874
 21
203.2263182447824
 31
0.0
  0
LINE
  5
913F
  8
0
 10
47.54149544623874
 20
203.2263182447824
 30
0.0
 11
47.20751154623872
 21
203.2263182447824
 31
0.0
  0
LINE
  5
9140
  8
0
 10
47.20751154623872
 20
203.2263182447824
 30
0.0
 11
47.20751154623872
 21
202.8919628947824
 31
0.0
  0
LINE
  5
9141
  8
0
 10
47.87507654623872
 20
202.8919628947824
 30
0.0
 11
48.20906139623872
 21
202.8919628947824
 31
0.0
  0
LINE
  5
9142
  8
0
 10
48.20906139623872
 20
202.8919628947824
 30
0.0
 11
48.20906139623872
 21
203.2263182447824
 31
0.0
  0
LINE
  5
9143
  8
0
 10
48.20906139623872
 20
203.2263182447824
 30
0.0
 11
47.87507654623872
 21
203.2263182447824
 31
0.0
  0
LINE
  5
9144
  8
0
 10
47.87507654623872
 20
203.2263182447824
 30
0.0
 11
47.87507654623872
 21
202.8919628947824
 31
0.0
  0
LINE
  5
9145
  8
0
 10
49.20992154623872
 20
202.8919628947824
 30
0.0
 11
49.54427689623873
 21
202.8919628947824
 31
0.0
  0
LINE
  5
9146
  8
0
 10
49.54427689623873
 20
202.8919628947824
 30
0.0
 11
49.54427689623873
 21
203.2263182447824
 31
0.0
  0
LINE
  5
9147
  8
0
 10
49.54427689623873
 20
203.2263182447824
 30
0.0
 11
49.20992154623872
 21
203.2263182447824
 31
0.0
  0
LINE
  5
9148
  8
0
 10
49.20992154623872
 20
203.2263182447824
 30
0.0
 11
49.20992154623872
 21
202.8919628947824
 31
0.0
  0
LINE
  5
9149
  8
0
 10
49.87748654623871
 20
202.8919628947824
 30
0.0
 11
50.54508384623873
 21
202.8919628947824
 31
0.0
  0
LINE
  5
914A
  8
0
 10
50.54508384623873
 20
202.8919628947824
 30
0.0
 11
50.54508384623873
 21
203.2263182447824
 31
0.0
  0
LINE
  5
914B
  8
0
 10
50.54508384623873
 20
203.2263182447824
 30
0.0
 11
49.87748654623871
 21
203.2263182447824
 31
0.0
  0
LINE
  5
914C
  8
0
 10
49.87748654623871
 20
203.2263182447824
 30
0.0
 11
49.87748654623871
 21
202.8919628947824
 31
0.0
  0
LINE
  5
914D
  8
0
 10
50.87907154623872
 20
202.8919628947824
 30
0.0
 11
51.21305639623873
 21
202.8919628947824
 31
0.0
  0
LINE
  5
914E
  8
0
 10
51.21305639623873
 20
202.8919628947824
 30
0.0
 11
51.21305639623873
 21
203.2263182447824
 31
0.0
  0
LINE
  5
914F
  8
0
 10
51.21305639623873
 20
203.2263182447824
 30
0.0
 11
50.87907154623872
 21
203.2263182447824
 31
0.0
  0
LINE
  5
9150
  8
0
 10
50.87907154623872
 20
203.2263182447824
 30
0.0
 11
50.87907154623872
 21
202.8919628947824
 31
0.0
  0
LINE
  5
9151
  8
0
 10
51.5467315462387
 20
202.8919628947824
 30
0.0
 11
52.21395834623874
 21
202.8919628947824
 31
0.0
  0
LINE
  5
9152
  8
0
 10
52.21395834623874
 20
202.8919628947824
 30
0.0
 11
52.21395834623874
 21
203.2263182447824
 31
0.0
  0
LINE
  5
9153
  8
0
 10
52.21395834623874
 20
203.2263182447824
 30
0.0
 11
51.5467315462387
 21
203.2263182447824
 31
0.0
  0
LINE
  5
9154
  8
0
 10
51.5467315462387
 20
203.2263182447824
 30
0.0
 11
51.5467315462387
 21
202.8919628947824
 31
0.0
  0
LINE
  5
9155
  8
0
 10
52.54831654623871
 20
202.8919628947824
 30
0.0
 11
52.8823004462387
 21
202.8919628947824
 31
0.0
  0
LINE
  5
9156
  8
0
 10
52.8823004462387
 20
202.8919628947824
 30
0.0
 11
52.8823004462387
 21
203.2263182447824
 31
0.0
  0
LINE
  5
9157
  8
0
 10
52.8823004462387
 20
203.2263182447824
 30
0.0
 11
52.54831654623871
 21
203.2263182447824
 31
0.0
  0
LINE
  5
9158
  8
0
 10
52.54831654623871
 20
203.2263182447824
 30
0.0
 11
52.54831654623871
 21
202.8919628947824
 31
0.0
  0
LINE
  5
9159
  8
0
 10
53.21550154623873
 20
202.8919628947824
 30
0.0
 11
53.54985784623872
 21
202.8919628947824
 31
0.0
  0
LINE
  5
915A
  8
0
 10
53.54985784623872
 20
202.8919628947824
 30
0.0
 11
53.54985784623872
 21
203.2263182447824
 31
0.0
  0
LINE
  5
915B
  8
0
 10
53.54985784623872
 20
203.2263182447824
 30
0.0
 11
53.21550154623873
 21
203.2263182447824
 31
0.0
  0
LINE
  5
915C
  8
0
 10
53.21550154623873
 20
203.2263182447824
 30
0.0
 11
53.21550154623873
 21
202.8919628947824
 31
0.0
  0
LINE
  5
915D
  8
0
 10
42.53436654623872
 20
202.5587028947824
 30
0.0
 11
42.86872189623872
 21
202.5587028947824
 31
0.0
  0
LINE
  5
915E
  8
0
 10
42.86872189623872
 20
202.5587028947824
 30
0.0
 11
42.86872189623872
 21
202.8926867947823
 31
0.0
  0
LINE
  5
915F
  8
0
 10
42.86872189623872
 20
202.8926867947823
 30
0.0
 11
42.53436654623872
 21
202.8926867947823
 31
0.0
  0
LINE
  5
9160
  8
0
 10
42.53436654623872
 20
202.8926867947823
 30
0.0
 11
42.53436654623872
 21
202.5587028947824
 31
0.0
  0
LINE
  5
9161
  8
0
 10
43.20193154623871
 20
202.5587028947824
 30
0.0
 11
44.20351654623872
 21
202.5587028947824
 31
0.0
  0
LINE
  5
9162
  8
0
 10
44.20351654623872
 20
202.5587028947824
 30
0.0
 11
44.20351654623872
 21
202.8926867947823
 31
0.0
  0
LINE
  5
9163
  8
0
 10
44.20351654623872
 20
202.8926867947823
 30
0.0
 11
43.20193154623871
 21
202.8926867947823
 31
0.0
  0
LINE
  5
9164
  8
0
 10
43.20193154623871
 20
202.8926867947823
 30
0.0
 11
43.20193154623871
 21
202.5587028947824
 31
0.0
  0
LINE
  5
9165
  8
0
 10
44.53744154623871
 20
202.5587028947824
 30
0.0
 11
44.8714254462387
 21
202.5587028947824
 31
0.0
  0
LINE
  5
9166
  8
0
 10
44.8714254462387
 20
202.5587028947824
 30
0.0
 11
44.8714254462387
 21
202.8926867947823
 31
0.0
  0
LINE
  5
9167
  8
0
 10
44.8714254462387
 20
202.8926867947823
 30
0.0
 11
44.53744154623871
 21
202.8926867947823
 31
0.0
  0
LINE
  5
9168
  8
0
 10
44.53744154623871
 20
202.8926867947823
 30
0.0
 11
44.53744154623871
 21
202.5587028947824
 31
0.0
  0
LINE
  5
9169
  8
0
 10
45.87266654623872
 20
202.5587028947824
 30
0.0
 11
47.20749254623871
 21
202.5587028947824
 31
0.0
  0
LINE
  5
916A
  8
0
 10
47.20749254623871
 20
202.5587028947824
 30
0.0
 11
47.20749254623871
 21
202.8926867947823
 31
0.0
  0
LINE
  5
916B
  8
0
 10
47.20749254623871
 20
202.8926867947823
 30
0.0
 11
45.87266654623872
 21
202.8926867947823
 31
0.0
  0
LINE
  5
916C
  8
0
 10
45.87266654623872
 20
202.8926867947823
 30
0.0
 11
45.87266654623872
 21
202.5587028947824
 31
0.0
  0
LINE
  5
916D
  8
0
 10
47.87507654623872
 20
202.5587028947824
 30
0.0
 11
48.20906139623872
 21
202.5587028947824
 31
0.0
  0
LINE
  5
916E
  8
0
 10
48.20906139623872
 20
202.5587028947824
 30
0.0
 11
48.20906139623872
 21
202.8926867947823
 31
0.0
  0
LINE
  5
916F
  8
0
 10
48.20906139623872
 20
202.8926867947823
 30
0.0
 11
47.87507654623872
 21
202.8926867947823
 31
0.0
  0
LINE
  5
9170
  8
0
 10
47.87507654623872
 20
202.8926867947823
 30
0.0
 11
47.87507654623872
 21
202.5587028947824
 31
0.0
  0
LINE
  5
9171
  8
0
 10
48.54273654623873
 20
202.5587028947824
 30
0.0
 11
48.87672139623871
 21
202.5587028947824
 31
0.0
  0
LINE
  5
9172
  8
0
 10
48.87672139623871
 20
202.5587028947824
 30
0.0
 11
48.87672139623871
 21
202.8926867947823
 31
0.0
  0
LINE
  5
9173
  8
0
 10
48.87672139623871
 20
202.8926867947823
 30
0.0
 11
48.54273654623873
 21
202.8926867947823
 31
0.0
  0
LINE
  5
9174
  8
0
 10
48.54273654623873
 20
202.8926867947823
 30
0.0
 11
48.54273654623873
 21
202.5587028947824
 31
0.0
  0
LINE
  5
9175
  8
0
 10
49.20992154623872
 20
202.5587028947824
 30
0.0
 11
49.54427689623873
 21
202.5587028947824
 31
0.0
  0
LINE
  5
9176
  8
0
 10
49.54427689623873
 20
202.5587028947824
 30
0.0
 11
49.54427689623873
 21
202.8926867947823
 31
0.0
  0
LINE
  5
9177
  8
0
 10
49.54427689623873
 20
202.8926867947823
 30
0.0
 11
49.20992154623872
 21
202.8926867947823
 31
0.0
  0
LINE
  5
9178
  8
0
 10
49.20992154623872
 20
202.8926867947823
 30
0.0
 11
49.20992154623872
 21
202.5587028947824
 31
0.0
  0
LINE
  5
9179
  8
0
 10
49.87748654623871
 20
202.5587028947824
 30
0.0
 11
50.21147044623874
 21
202.5587028947824
 31
0.0
  0
LINE
  5
917A
  8
0
 10
50.21147044623874
 20
202.5587028947824
 30
0.0
 11
50.21147044623874
 21
202.8926867947823
 31
0.0
  0
LINE
  5
917B
  8
0
 10
50.21147044623874
 20
202.8926867947823
 30
0.0
 11
49.87748654623871
 21
202.8926867947823
 31
0.0
  0
LINE
  5
917C
  8
0
 10
49.87748654623871
 20
202.8926867947823
 30
0.0
 11
49.87748654623871
 21
202.5587028947824
 31
0.0
  0
LINE
  5
917D
  8
0
 10
50.54590654623871
 20
202.5587028947824
 30
0.0
 11
50.87989139623872
 21
202.5587028947824
 31
0.0
  0
LINE
  5
917E
  8
0
 10
50.87989139623872
 20
202.5587028947824
 30
0.0
 11
50.87989139623872
 21
202.8926867947823
 31
0.0
  0
LINE
  5
917F
  8
0
 10
50.87989139623872
 20
202.8926867947823
 30
0.0
 11
50.54590654623871
 21
202.8926867947823
 31
0.0
  0
LINE
  5
9180
  8
0
 10
50.54590654623871
 20
202.8926867947823
 30
0.0
 11
50.54590654623871
 21
202.5587028947824
 31
0.0
  0
LINE
  5
9181
  8
0
 10
51.5467315462387
 20
202.5587028947824
 30
0.0
 11
52.21395834623874
 21
202.5587028947824
 31
0.0
  0
LINE
  5
9182
  8
0
 10
52.21395834623874
 20
202.5587028947824
 30
0.0
 11
52.21395834623874
 21
202.8926867947823
 31
0.0
  0
LINE
  5
9183
  8
0
 10
52.21395834623874
 20
202.8926867947823
 30
0.0
 11
51.5467315462387
 21
202.8926867947823
 31
0.0
  0
LINE
  5
9184
  8
0
 10
51.5467315462387
 20
202.8926867947823
 30
0.0
 11
51.5467315462387
 21
202.5587028947824
 31
0.0
  0
LINE
  5
9185
  8
0
 10
52.88157654623873
 20
202.5587028947824
 30
0.0
 11
53.54917384623872
 21
202.5587028947824
 31
0.0
  0
LINE
  5
9186
  8
0
 10
53.54917384623872
 20
202.5587028947824
 30
0.0
 11
53.54917384623872
 21
202.8926867947823
 31
0.0
  0
LINE
  5
9187
  8
0
 10
53.54917384623872
 20
202.8926867947823
 30
0.0
 11
52.88157654623873
 21
202.8926867947823
 31
0.0
  0
LINE
  5
9188
  8
0
 10
52.88157654623873
 20
202.8926867947823
 30
0.0
 11
52.88157654623873
 21
202.5587028947824
 31
0.0
  0
LINE
  5
9189
  8
0
 10
42.53436654623872
 20
202.2247778947823
 30
0.0
 11
42.86872189623872
 21
202.2247778947823
 31
0.0
  0
LINE
  5
918A
  8
0
 10
42.86872189623872
 20
202.2247778947823
 30
0.0
 11
42.86872189623872
 21
202.5587627447824
 31
0.0
  0
LINE
  5
918B
  8
0
 10
42.86872189623872
 20
202.5587627447824
 30
0.0
 11
42.53436654623872
 21
202.5587627447824
 31
0.0
  0
LINE
  5
918C
  8
0
 10
42.53436654623872
 20
202.5587627447824
 30
0.0
 11
42.53436654623872
 21
202.2247778947823
 31
0.0
  0
LINE
  5
918D
  8
0
 10
44.53744154623871
 20
202.2247778947823
 30
0.0
 11
44.8714254462387
 21
202.2247778947823
 31
0.0
  0
LINE
  5
918E
  8
0
 10
44.8714254462387
 20
202.2247778947823
 30
0.0
 11
44.8714254462387
 21
202.5587627447824
 31
0.0
  0
LINE
  5
918F
  8
0
 10
44.8714254462387
 20
202.5587627447824
 30
0.0
 11
44.53744154623871
 21
202.5587627447824
 31
0.0
  0
LINE
  5
9190
  8
0
 10
44.53744154623871
 20
202.5587627447824
 30
0.0
 11
44.53744154623871
 21
202.2247778947823
 31
0.0
  0
LINE
  5
9191
  8
0
 10
45.87266654623872
 20
202.2247778947823
 30
0.0
 11
46.53989239623871
 21
202.2247778947823
 31
0.0
  0
LINE
  5
9192
  8
0
 10
46.53989239623871
 20
202.2247778947823
 30
0.0
 11
46.53989239623871
 21
202.5587627447824
 31
0.0
  0
LINE
  5
9193
  8
0
 10
46.53989239623871
 20
202.5587627447824
 30
0.0
 11
45.87266654623872
 21
202.5587627447824
 31
0.0
  0
LINE
  5
9194
  8
0
 10
45.87266654623872
 20
202.5587627447824
 30
0.0
 11
45.87266654623872
 21
202.2247778947823
 31
0.0
  0
LINE
  5
9195
  8
0
 10
47.20751154623872
 20
202.2247778947823
 30
0.0
 11
48.20909654623873
 21
202.2247778947823
 31
0.0
  0
LINE
  5
9196
  8
0
 10
48.20909654623873
 20
202.2247778947823
 30
0.0
 11
48.20909654623873
 21
202.5587627447824
 31
0.0
  0
LINE
  5
9197
  8
0
 10
48.20909654623873
 20
202.5587627447824
 30
0.0
 11
47.20751154623872
 21
202.5587627447824
 31
0.0
  0
LINE
  5
9198
  8
0
 10
47.20751154623872
 20
202.5587627447824
 30
0.0
 11
47.20751154623872
 21
202.2247778947823
 31
0.0
  0
LINE
  5
9199
  8
0
 10
48.87666154623872
 20
202.2247778947823
 30
0.0
 11
49.54425884623871
 21
202.2247778947823
 31
0.0
  0
LINE
  5
919A
  8
0
 10
49.54425884623871
 20
202.2247778947823
 30
0.0
 11
49.54425884623871
 21
202.5587627447824
 31
0.0
  0
LINE
  5
919B
  8
0
 10
49.54425884623871
 20
202.5587627447824
 30
0.0
 11
48.87666154623872
 21
202.5587627447824
 31
0.0
  0
LINE
  5
919C
  8
0
 10
48.87666154623872
 20
202.5587627447824
 30
0.0
 11
48.87666154623872
 21
202.2247778947823
 31
0.0
  0
LINE
  5
919D
  8
0
 10
51.5467315462387
 20
202.2247778947823
 30
0.0
 11
52.88155754623872
 21
202.2247778947823
 31
0.0
  0
LINE
  5
919E
  8
0
 10
52.88155754623872
 20
202.2247778947823
 30
0.0
 11
52.88155754623872
 21
202.5587627447824
 31
0.0
  0
LINE
  5
919F
  8
0
 10
52.88155754623872
 20
202.5587627447824
 30
0.0
 11
51.5467315462387
 21
202.5587627447824
 31
0.0
  0
LINE
  5
91A0
  8
0
 10
51.5467315462387
 20
202.5587627447824
 30
0.0
 11
51.5467315462387
 21
202.2247778947823
 31
0.0
  0
LINE
  5
91A1
  8
0
 10
42.53436654623872
 20
201.8911378947823
 30
0.0
 11
44.87114804623874
 21
201.8911378947823
 31
0.0
  0
LINE
  5
91A2
  8
0
 10
44.87114804623874
 20
201.8911378947823
 30
0.0
 11
44.87114804623874
 21
202.2251227447824
 31
0.0
  0
LINE
  5
91A3
  8
0
 10
44.87114804623874
 20
202.2251227447824
 30
0.0
 11
42.53436654623872
 21
202.2251227447824
 31
0.0
  0
LINE
  5
91A4
  8
0
 10
42.53436654623872
 20
202.2251227447824
 30
0.0
 11
42.53436654623872
 21
201.8911378947823
 31
0.0
  0
LINE
  5
91A5
  8
0
 10
45.20510154623872
 20
201.8911378947823
 30
0.0
 11
45.53908639623873
 21
201.8911378947823
 31
0.0
  0
LINE
  5
91A6
  8
0
 10
45.53908639623873
 20
201.8911378947823
 30
0.0
 11
45.53908639623873
 21
202.2251227447824
 31
0.0
  0
LINE
  5
91A7
  8
0
 10
45.53908639623873
 20
202.2251227447824
 30
0.0
 11
45.20510154623872
 21
202.2251227447824
 31
0.0
  0
LINE
  5
91A8
  8
0
 10
45.20510154623872
 20
202.2251227447824
 30
0.0
 11
45.20510154623872
 21
201.8911378947823
 31
0.0
  0
LINE
  5
91A9
  8
0
 10
46.20592654623871
 20
201.8911378947823
 30
0.0
 11
46.53991044623874
 21
201.8911378947823
 31
0.0
  0
LINE
  5
91AA
  8
0
 10
46.53991044623874
 20
201.8911378947823
 30
0.0
 11
46.53991044623874
 21
202.2251227447824
 31
0.0
  0
LINE
  5
91AB
  8
0
 10
46.53991044623874
 20
202.2251227447824
 30
0.0
 11
46.20592654623871
 21
202.2251227447824
 31
0.0
  0
LINE
  5
91AC
  8
0
 10
46.20592654623871
 20
202.2251227447824
 30
0.0
 11
46.20592654623871
 21
201.8911378947823
 31
0.0
  0
LINE
  5
91AD
  8
0
 10
47.20751154623872
 20
201.8911378947823
 30
0.0
 11
47.54149544623874
 21
201.8911378947823
 31
0.0
  0
LINE
  5
91AE
  8
0
 10
47.54149544623874
 20
201.8911378947823
 30
0.0
 11
47.54149544623874
 21
202.2251227447824
 31
0.0
  0
LINE
  5
91AF
  8
0
 10
47.54149544623874
 20
202.2251227447824
 30
0.0
 11
47.20751154623872
 21
202.2251227447824
 31
0.0
  0
LINE
  5
91B0
  8
0
 10
47.20751154623872
 20
202.2251227447824
 30
0.0
 11
47.20751154623872
 21
201.8911378947823
 31
0.0
  0
LINE
  5
91B1
  8
0
 10
48.20909654623873
 20
201.8911378947823
 30
0.0
 11
48.54308044623872
 21
201.8911378947823
 31
0.0
  0
LINE
  5
91B2
  8
0
 10
48.54308044623872
 20
201.8911378947823
 30
0.0
 11
48.54308044623872
 21
202.2251227447824
 31
0.0
  0
LINE
  5
91B3
  8
0
 10
48.54308044623872
 20
202.2251227447824
 30
0.0
 11
48.20909654623873
 21
202.2251227447824
 31
0.0
  0
LINE
  5
91B4
  8
0
 10
48.20909654623873
 20
202.2251227447824
 30
0.0
 11
48.20909654623873
 21
201.8911378947823
 31
0.0
  0
LINE
  5
91B5
  8
0
 10
48.87666154623872
 20
201.8911378947823
 30
0.0
 11
49.21064544623871
 21
201.8911378947823
 31
0.0
  0
LINE
  5
91B6
  8
0
 10
49.21064544623871
 20
201.8911378947823
 30
0.0
 11
49.21064544623871
 21
202.2251227447824
 31
0.0
  0
LINE
  5
91B7
  8
0
 10
49.21064544623871
 20
202.2251227447824
 30
0.0
 11
48.87666154623872
 21
202.2251227447824
 31
0.0
  0
LINE
  5
91B8
  8
0
 10
48.87666154623872
 20
202.2251227447824
 30
0.0
 11
48.87666154623872
 21
201.8911378947823
 31
0.0
  0
LINE
  5
91B9
  8
0
 10
49.87748654623871
 20
201.8911378947823
 30
0.0
 11
51.21231254623871
 21
201.8911378947823
 31
0.0
  0
LINE
  5
91BA
  8
0
 10
51.21231254623871
 20
201.8911378947823
 30
0.0
 11
51.21231254623871
 21
202.2251227447824
 31
0.0
  0
LINE
  5
91BB
  8
0
 10
51.21231254623871
 20
202.2251227447824
 30
0.0
 11
49.87748654623871
 21
202.2251227447824
 31
0.0
  0
LINE
  5
91BC
  8
0
 10
49.87748654623871
 20
202.2251227447824
 30
0.0
 11
49.87748654623871
 21
201.8911378947823
 31
0.0
  0
LINE
  5
91BD
  8
0
 10
51.5467315462387
 20
201.8911378947823
 30
0.0
 11
51.88071544623872
 21
201.8911378947823
 31
0.0
  0
LINE
  5
91BE
  8
0
 10
51.88071544623872
 20
201.8911378947823
 30
0.0
 11
51.88071544623872
 21
202.2251227447824
 31
0.0
  0
LINE
  5
91BF
  8
0
 10
51.88071544623872
 20
202.2251227447824
 30
0.0
 11
51.5467315462387
 21
202.2251227447824
 31
0.0
  0
LINE
  5
91C0
  8
0
 10
51.5467315462387
 20
202.2251227447824
 30
0.0
 11
51.5467315462387
 21
201.8911378947823
 31
0.0
  0
LINE
  5
91C1
  8
0
 10
52.21391654623872
 20
201.8911378947823
 30
0.0
 11
52.54827189623873
 21
201.8911378947823
 31
0.0
  0
LINE
  5
91C2
  8
0
 10
52.54827189623873
 20
201.8911378947823
 30
0.0
 11
52.54827189623873
 21
202.2251227447824
 31
0.0
  0
LINE
  5
91C3
  8
0
 10
52.54827189623873
 20
202.2251227447824
 30
0.0
 11
52.21391654623872
 21
202.2251227447824
 31
0.0
  0
LINE
  5
91C4
  8
0
 10
52.21391654623872
 20
202.2251227447824
 30
0.0
 11
52.21391654623872
 21
201.8911378947823
 31
0.0
  0
LINE
  5
91C5
  8
0
 10
52.88157654623873
 20
201.8911378947823
 30
0.0
 11
53.21556044623873
 21
201.8911378947823
 31
0.0
  0
LINE
  5
91C6
  8
0
 10
53.21556044623873
 20
201.8911378947823
 30
0.0
 11
53.21556044623873
 21
202.2251227447824
 31
0.0
  0
LINE
  5
91C7
  8
0
 10
53.21556044623873
 20
202.2251227447824
 30
0.0
 11
52.88157654623873
 21
202.2251227447824
 31
0.0
  0
LINE
  5
91C8
  8
0
 10
52.88157654623873
 20
202.2251227447824
 30
0.0
 11
52.88157654623873
 21
201.8911378947823
 31
0.0
  0
CIRCLE
  5
939E
  8
0
 10
63.52185615177356
 20
209.8911378947826
 30
0.0
 40
1.5
  0
TEXT
  5
939F
  8
0
 10
44.4730229780838
 20
198.5567206811388
 30
0.0
 40
1.3
  1
冬期以外(凍結の心配がない期間)や長期間使用しないときは電源をOFFにしてください
  0
POLYLINE
  5
93A0
  8
0
 66
     1
 10
0.0
 20
0.0
 30
0.0
 70
     1
  0
VERTEX
  5
A9BA
  8
0
 10
42.75218928780006
 20
200.4403722225793
 30
0.0
  0
VERTEX
  5
A9BB
  8
0
 10
41.5397537225019
 20
198.3403722225789
 30
0.0
 42
0.5773502691896262
  0
VERTEX
  5
A9BC
  8
0
 10
41.62635626288031
 20
198.1903722225793
 30
0.0
  0
VERTEX
  5
A9BD
  8
0
 10
44.05122739347664
 20
198.1903722225793
 30
0.0
 42
0.577350269189628
  0
VERTEX
  5
A9BE
  8
0
 10
44.13782993385504
 20
198.3403722225789
 30
0.0
  0
VERTEX
  5
A9BF
  8
0
 10
42.92539436855688
 20
200.4403722225793
 30
0.0
 42
0.577350269189626
  0
SEQEND
  5
A9DA
  8
0
  0
POLYLINE
  5
93A1
  8
0
 66
     1
 10
0.0
 20
0.0
 30
0.0
 70
     1
  0
VERTEX
  5
A9C0
  8
0
 10
42.79549055868458
 20
200.3153722225793
 30
0.0
  0
VERTEX
  5
A9C1
  8
0
 10
41.6696575331018
 20
198.3653722225904
 30
0.0
 42
0.577350269275458
  0
VERTEX
  5
A9C2
  8
0
 10
41.71295880328464
 20
198.2903722225788
 30
0.0
  0
VERTEX
  5
A9C3
  8
0
 10
43.96462485312415
 20
198.2903722225788
 30
0.0
 42
0.5773502691037941
  0
VERTEX
  5
A9C4
  8
0
 10
44.00792612331972
 20
198.3653722225677
 30
0.0
  0
VERTEX
  5
A9C5
  8
0
 10
42.88209309906298
 20
200.3153722225793
 30
0.0
 42
0.5773502691896244
  0
SEQEND
  5
A9DB
  8
0
  0
CIRCLE
  5
93A2
  8
0
 10
42.83879182817847
 20
198.5903722225789
 30
0.0
 40
0.1
  0
LINE
  5
93A3
  8
0
 10
42.73879182817856
 20
199.5903722225789
 30
0.0
 11
42.78923430605457
 21
198.8337350544384
 31
0.0
  0
LINE
  5
93A4
  8
0
 10
42.93879182817884
 20
199.5903722225789
 30
0.0
 11
42.88834935030238
 21
198.8337350544366
 31
0.0
  0
ARC
  5
93A5
  8
0
 10
42.83879182817847
 20
199.5903722225789
 30
0.0
 40
0.1
 50
0.0
 51
180.0
  0
ARC
  5
93A6
  8
0
 10
42.83879182817847
 20
198.8403722225789
 30
0.0
 40
0.05
 50
187.6281496673324
 51
352.3718503305627
  0
CIRCLE
  5
93AA
  8
0
 10
82.52185615177362
 20
213.8911378947826
 30
0.0
 40
1.5
  0
CIRCLE
  5
93AB
  8
0
 10
82.52185615177362
 20
205.8911378947826
 30
0.0
 40
1.5
  0
POLYLINE
  5
93AC
  8
0
 66
     1
 10
0.0
 20
0.0
 30
0.0
 70
     1
  0
VERTEX
  5
A9C6
  8
0
 10
77.47346969118828
 20
206.201004343583
 30
0.0
  0
VERTEX
  5
A9C7
  8
0
 10
77.20511747474669
 20
206.0460711191829
 30
0.0
  0
VERTEX
  5
A9C8
  8
0
 10
77.20511747474669
 20
205.7362046703826
 30
0.0
  0
VERTEX
  5
A9C9
  8
0
 10
77.47346969118828
 20
205.5812714459825
 30
0.0
  0
VERTEX
  5
A9CA
  8
0
 10
77.74182190762988
 20
205.7362046703826
 30
0.0
  0
VERTEX
  5
A9CB
  8
0
 10
77.74182190762988
 20
206.0460711191829
 30
0.0
  0
SEQEND
  5
A9DC
  8
0
  0
POLYLINE
  5
93AD
  8
0
 66
     1
 10
0.0
 20
0.0
 30
0.0
  0
VERTEX
  5
A9CC
  8
0
 10
77.3234696911882
 20
206.498654730172
 30
0.0
  0
VERTEX
  5
A9CD
  8
0
 10
77.02234467851466
 20
206.3248001230451
 30
0.0
  0
SEQEND
  5
A9DD
  8
0
  0
LINE
  5
93AE
  8
0
 10
77.3234696911882
 20
202.7911378947827
 30
0.0
 11
77.3234696911882
 21
203.3375845041894
 31
0.0
1001
GENIUS_GENODEF_13
1002
{
1000
HIER
1070
     0
1002
}
1002
{
1000
MANEDIT
1070
     0
1002
}
1002
{
1000
NOSEL
1070
     0
1002
}
1002
{
1000
BEHIND
1070
     0
1002
}
1002
{
1000
OTHER
1070
     0
1002
}
1002
{
1000
REACTOR
1002
}
1001
GENIUS_GENOBJ-N-CEN_13
1002
{
1000
OWNER
1000
GEN
1002
}
1001
GENIUS_GENCEN_19
1002
{
1040
3.0
1002
}
  0
LINE
  5
93AF
  8
0
 10
77.62346969118838
 20
202.7911378947827
 30
0.0
 11
77.62346969118838
 21
203.3375845041894
 31
0.0
1001
GENIUS_GENODEF_13
1002
{
1000
HIER
1070
     0
1002
}
1002
{
1000
MANEDIT
1070
     0
1002
}
1002
{
1000
NOSEL
1070
     0
1002
}
1002
{
1000
BEHIND
1070
     0
1002
}
1002
{
1000
OTHER
1070
     0
1002
}
1002
{
1000
REACTOR
1002
}
1001
GENIUS_GENOBJ-N-CEN_13
1002
{
1000
OWNER
1000
GEN
1002
}
1001
GENIUS_GENCEN_19
1002
{
1040
3.0
1002
}
  0
LINE
  5
93B0
  8
0
 10
77.62346969118838
 20
206.8911378947828
 30
0.0
 11
78.26929649613524
 21
207.5369646997298
 31
0.0
  0
LINE
  5
93B1
  8
0
 10
77.62346969118838
 20
207.3911378947828
 30
0.0
 11
78.01929649613524
 21
207.7869646997298
 31
0.0
  0
ARC
  5
93B2
  8
0
 10
77.47346969118828
 20
208.9911378947827
 30
0.0
 40
0.1499999999999773
 50
0.0
 51
180.0
  0
ARC
  5
93B3
  8
0
 10
78.14429649613524
 20
207.6619646997298
 30
0.0
 40
0.1767766952966168
 50
315.0000000000358
 51
134.9999999999967
  0
LINE
  5
93B4
  8
0
 10
77.3234696911882
 20
206.8911378947828
 30
0.0
 11
76.67764288624133
 21
207.5369646997298
 31
0.0
  0
LINE
  5
93B5
  8
0
 10
77.3234696911882
 20
207.3911378947828
 30
0.0
 11
76.92764288624133
 21
207.7869646997298
 31
0.0
  0
ARC
  5
93B6
  8
0
 10
76.80264288624133
 20
207.6619646997298
 30
0.0
 40
0.1767766952966168
 50
45.00000000000327
 51
224.9999999999577
  0
LINE
  5
93B7
  8
0
 10
77.62346969118838
 20
208.0911378947827
 30
0.0
 11
78.02225558840976
 21
208.4899237920041
 31
0.0
  0
LINE
  5
93B8
  8
0
 10
77.62346969118838
 20
208.4446912853759
 30
0.0
 11
77.8454788931131
 21
208.6667004873007
 31
0.0
  0
ARC
  5
93B9
  8
0
 10
77.9338672407612
 20
208.5783121396526
 30
0.0
 40
0.1249999999999206
 50
314.9999999999125
 51
134.9999999999309
  0
LINE
  5
93BA
  8
0
 10
79.30372557951412
 20
204.6612340842152
 30
0.0
 11
79.449691348568
 21
204.1164824179398
 31
0.0
  0
LINE
  5
93BB
  8
0
 10
79.609911797362
 20
204.4844573889185
 30
0.0
 11
79.69117280514027
 21
204.1811871792155
 31
0.0
  0
ARC
  5
93BC
  8
0
 10
80.03082962642728
 20
204.9462667461182
 30
0.0
 40
0.1249999999999206
 50
285.0000000000109
 51
105.0000000000046
  0
LINE
  5
93BD
  8
0
 10
77.62346969118838
 20
204.8911378947828
 30
0.0
 11
77.62346969118838
 21
205.2836210593935
 31
0.0
1001
GENIUS_GENODEF_13
1002
{
1000
HIER
1070
     0
1002
}
1002
{
1000
MANEDIT
1070
     0
1002
}
1002
{
1000
NOSEL
1070
     0
1002
}
1002
{
1000
BEHIND
1070
     0
1002
}
1002
{
1000
OTHER
1070
     0
1002
}
1002
{
1000
REACTOR
1002
}
1001
GENIUS_GENOBJ-N-CEN_13
1002
{
1000
OWNER
1000
GEN
1002
}
1001
GENIUS_GENCEN_19
1002
{
1040
3.0
1002
}
  0
LINE
  5
93BE
  8
0
 10
79.75991179736187
 20
204.7442650100538
 30
0.0
 11
80.06318200706508
 21
204.8255260178322
 31
0.0
  0
ARC
  5
93BF
  8
0
 10
79.57043207685436
 20
204.1488347985776
 30
0.0
 40
0.1249999999999206
 50
194.9999999999509
 51
15.00000000000457
  0
LINE
  5
93C0
  8
0
 10
79.45372557951399
 20
204.9210417053505
 30
0.0
 11
79.99847724578947
 21
205.0670074744045
 31
0.0
  0
LINE
  5
93C1
  8
0
 10
77.62346969118838
 20
203.6911378947827
 30
0.0
 11
77.62346969118838
 21
204.3911378947828
 31
0.0
1001
GENIUS_GENODEF_13
1002
{
1000
HIER
1070
     0
1002
}
1002
{
1000
MANEDIT
1070
     0
1002
}
1002
{
1000
NOSEL
1070
     0
1002
}
1002
{
1000
BEHIND
1070
     0
1002
}
1002
{
1000
OTHER
1070
     0
1002
}
1002
{
1000
REACTOR
1002
}
1001
GENIUS_GENOBJ-N-CEN_13
1002
{
1000
OWNER
1000
GEN
1002
}
1001
GENIUS_GENCEN_19
1002
{
1040
3.0
1002
}
  0
LINE
  5
93C2
  8
0
 10
77.3234696911882
 20
203.6911378947827
 30
0.0
 11
77.3234696911882
 21
204.3911378947828
 31
0.0
1001
GENIUS_GENODEF_13
1002
{
1000
HIER
1070
     0
1002
}
1002
{
1000
MANEDIT
1070
     0
1002
}
1002
{
1000
NOSEL
1070
     0
1002
}
1002
{
1000
BEHIND
1070
     0
1002
}
1002
{
1000
OTHER
1070
     0
1002
}
1002
{
1000
REACTOR
1002
}
1001
GENIUS_GENOBJ-N-CEN_13
1002
{
1000
OWNER
1000
GEN
1002
}
1001
GENIUS_GENCEN_19
1002
{
1040
3.0
1002
}
  0
LINE
  5
93C3
  8
0
 10
77.3234696911882
 20
208.4446912853759
 30
0.0
 11
77.3234696911882
 21
208.9911378947827
 31
0.0
1001
GENIUS_GENODEF_13
1002
{
1000
HIER
1070
     0
1002
}
1002
{
1000
MANEDIT
1070
     0
1002
}
1002
{
1000
NOSEL
1070
     0
1002
}
1002
{
1000
BEHIND
1070
     0
1002
}
1002
{
1000
OTHER
1070
     0
1002
}
1002
{
1000
REACTOR
1002
}
1001
GENIUS_GENOBJ-N-CEN_13
1002
{
1000
OWNER
1000
GEN
1002
}
1001
GENIUS_GENCEN_19
1002
{
1040
3.0
1002
}
  0
LINE
  5
93C4
  8
0
 10
77.62346969118838
 20
208.4446912853759
 30
0.0
 11
77.62346969118838
 21
208.9911378947827
 31
0.0
1001
GENIUS_GENODEF_13
1002
{
1000
HIER
1070
     0
1002
}
1002
{
1000
MANEDIT
1070
     0
1002
}
1002
{
1000
NOSEL
1070
     0
1002
}
1002
{
1000
BEHIND
1070
     0
1002
}
1002
{
1000
OTHER
1070
     0
1002
}
1002
{
1000
REACTOR
1002
}
1001
GENIUS_GENOBJ-N-CEN_13
1002
{
1000
OWNER
1000
GEN
1002
}
1001
GENIUS_GENCEN_19
1002
{
1040
3.0
1002
}
  0
ARC
  5
93C5
  8
0
 10
77.01307214161537
 20
208.5783121396526
 30
0.0
 40
0.1249999999999206
 50
45.00000000006909
 51
224.9999999999401
  0
LINE
  5
93C6
  8
0
 10
77.3234696911882
 20
208.4446912853759
 30
0.0
 11
77.10146048926347
 21
208.6667004873007
 31
0.0
  0
LINE
  5
93C7
  8
0
 10
77.3234696911882
 20
208.0911378947827
 30
0.0
 11
76.9246837939668
 21
208.4899237920041
 31
0.0
  0
LINE
  5
93C8
  8
0
 10
77.62346969118838
 20
207.3911378947828
 30
0.0
 11
77.62346969118838
 21
208.0911378947827
 31
0.0
1001
GENIUS_GENODEF_13
1002
{
1000
HIER
1070
     0
1002
}
1002
{
1000
MANEDIT
1070
     0
1002
}
1002
{
1000
NOSEL
1070
     0
1002
}
1002
{
1000
BEHIND
1070
     0
1002
}
1002
{
1000
OTHER
1070
     0
1002
}
1002
{
1000
REACTOR
1002
}
1001
GENIUS_GENOBJ-N-CEN_13
1002
{
1000
OWNER
1000
GEN
1002
}
1001
GENIUS_GENCEN_19
1002
{
1040
3.0
1002
}
  0
LINE
  5
93C9
  8
0
 10
77.3234696911882
 20
207.3911378947828
 30
0.0
 11
77.3234696911882
 21
208.0911378947827
 31
0.0
1001
GENIUS_GENODEF_13
1002
{
1000
HIER
1070
     0
1002
}
1002
{
1000
MANEDIT
1070
     0
1002
}
1002
{
1000
NOSEL
1070
     0
1002
}
1002
{
1000
BEHIND
1070
     0
1002
}
1002
{
1000
OTHER
1070
     0
1002
}
1002
{
1000
REACTOR
1002
}
1001
GENIUS_GENOBJ-N-CEN_13
1002
{
1000
OWNER
1000
GEN
1002
}
1001
GENIUS_GENCEN_19
1002
{
1040
3.0
1002
}
  0
LINE
  5
93CA
  8
0
 10
77.62346969118838
 20
203.3375845041894
 30
0.0
 11
77.8454788931131
 21
203.1155753022647
 31
0.0
  0
LINE
  5
93CB
  8
0
 10
77.3234696911882
 20
204.3911378947828
 30
0.0
 11
76.92764288624133
 21
203.9953110898357
 31
0.0
  0
ARC
  5
93CC
  8
0
 10
77.47346969118828
 20
202.7911378947827
 30
0.0
 40
0.1499999999999773
 50
180.0
 51
0.0
  0
ARC
  5
93CD
  8
0
 10
78.14429649613524
 20
204.1203110898357
 30
0.0
 40
0.1767766952966168
 50
224.9999999999837
 51
45.00000000000327
  0
ARC
  5
93CE
  8
0
 10
76.80264288624133
 20
204.1203110898357
 30
0.0
 40
0.1767766952966168
 50
134.9999999999967
 51
315.0000000000098
  0
LINE
  5
93CF
  8
0
 10
77.62346969118838
 20
204.3911378947828
 30
0.0
 11
78.01929649613524
 21
203.9953110898357
 31
0.0
  0
LINE
  5
93D0
  8
0
 10
77.3234696911882
 20
204.8911378947828
 30
0.0
 11
76.67764288624133
 21
204.2453110898357
 31
0.0
  0
ARC
  5
93D1
  8
0
 10
77.9338672407612
 20
203.2039636499129
 30
0.0
 40
0.1249999999999206
 50
225.0000000000507
 51
44.99999999995854
  0
LINE
  5
93D2
  8
0
 10
77.3234696911882
 20
203.6911378947827
 30
0.0
 11
76.9246837939668
 21
203.2923519975614
 31
0.0
  0
LINE
  5
93D3
  8
0
 10
77.62346969118838
 20
203.6911378947827
 30
0.0
 11
78.02225558840976
 21
203.2923519975614
 31
0.0
  0
LINE
  5
93D4
  8
0
 10
77.62346969118838
 20
204.8911378947828
 30
0.0
 11
78.26929649613524
 21
204.2453110898357
 31
0.0
  0
ARC
  5
93D5
  8
0
 10
77.01307214161537
 20
203.2039636499129
 30
0.0
 40
0.1249999999999206
 50
134.9999999998941
 51
314.9999999999125
  0
LINE
  5
93D6
  8
0
 10
77.3234696911882
 20
203.3375845041894
 30
0.0
 11
77.10146048926347
 21
203.1155753022647
 31
0.0
  0
LINE
  5
93D7
  8
0
 10
78.69750779686504
 20
206.7710417053504
 30
0.0
 11
78.84239046297446
 21
207.3117511764068
 31
0.0
  0
ARC
  5
93D8
  8
0
 10
78.67163728750145
 20
207.3575043518799
 30
0.0
 40
0.1767766952966168
 50
344.9999999999747
 51
164.9999999999747
  0
LINE
  5
93D9
  8
0
 10
75.33702758501457
 20
204.4844573889185
 30
0.0
 11
74.86379093945655
 21
204.2112340842151
 31
0.0
1001
GENIUS_GENODEF_13
1002
{
1000
HIER
1070
     0
1002
}
1002
{
1000
MANEDIT
1070
     0
1002
}
1002
{
1000
NOSEL
1070
     0
1002
}
1002
{
1000
BEHIND
1070
     0
1002
}
1002
{
1000
OTHER
1070
     0
1002
}
1002
{
1000
REACTOR
1002
}
1001
GENIUS_GENOBJ-N-CEN_13
1002
{
1000
OWNER
1000
GEN
1002
}
1001
GENIUS_GENCEN_19
1002
{
1040
3.0
1002
}
  0
LINE
  5
93DA
  8
0
 10
78.41449509497264
 20
206.2612340842151
 30
0.0
 11
79.2967109169754
 21
206.0248450671595
 31
0.0
  0
LINE
  5
93DB
  8
0
 10
79.45372557951399
 20
206.8612340842151
 30
0.0
 11
79.99847724578947
 21
206.7152683151611
 31
0.0
  0
LINE
  5
93DC
  8
0
 10
79.75991179736187
 20
207.0380107795118
 30
0.0
 11
80.06318200706508
 21
206.9567497717334
 31
0.0
  0
ARC
  5
93DD
  8
0
 10
80.03082962642728
 20
206.8360090434473
 30
0.0
 40
0.1249999999999206
 50
254.9999999999891
 51
74.99999999999544
  0
LINE
  5
93DE
  8
0
 10
79.30372557951412
 20
207.1210417053504
 30
0.0
 11
79.449691348568
 21
207.6657933716258
 31
0.0
  0
LINE
  5
93DF
  8
0
 10
76.09943158551167
 20
205.2710417053504
 30
0.0
 11
75.49321380286258
 21
204.9210417053504
 31
0.0
1001
GENIUS_GENODEF_13
1002
{
1000
HIER
1070
     0
1002
}
1002
{
1000
MANEDIT
1070
     0
1002
}
1002
{
1000
NOSEL
1070
     0
1002
}
1002
{
1000
BEHIND
1070
     0
1002
}
1002
{
1000
OTHER
1070
     0
1002
}
1002
{
1000
REACTOR
1002
}
1001
GENIUS_GENOBJ-N-CEN_13
1002
{
1000
OWNER
1000
GEN
1002
}
1001
GENIUS_GENCEN_19
1002
{
1040
3.0
1002
}
  0
ARC
  5
93E0
  8
0
 10
76.27530209487512
 20
204.4247714376855
 30
0.0
 40
0.1767766952966168
 50
164.9999999999747
 51
345.0000000000229
  0
LINE
  5
93E1
  8
0
 10
76.09943158551167
 20
205.2710417053504
 30
0.0
 11
75.55872211445515
 21
205.4159243714598
 31
0.0
  0
ARC
  5
93E2
  8
0
 10
80.15814844292007
 20
207.4411378947827
 30
0.0
 40
0.1499999999999773
 50
300.0000000000254
 51
120.0000000000254
  0
LINE
  5
93E3
  8
0
 10
78.41449509497264
 20
206.2612340842151
 30
0.0
 11
78.074594703862
 21
206.0649925019096
 31
0.0
1001
GENIUS_GENODEF_13
1002
{
1000
HIER
1070
     0
1002
}
1002
{
1000
MANEDIT
1070
     0
1002
}
1002
{
1000
NOSEL
1070
     0
1002
}
1002
{
1000
BEHIND
1070
     0
1002
}
1002
{
1000
OTHER
1070
     0
1002
}
1002
{
1000
REACTOR
1002
}
1001
GENIUS_GENOBJ-N-CEN_13
1002
{
1000
OWNER
1000
GEN
1002
}
1001
GENIUS_GENCEN_19
1002
{
1040
3.0
1002
}
  0
LINE
  5
93E4
  8
0
 10
78.26449509497277
 20
206.5210417053504
 30
0.0
 11
77.92459470386214
 21
206.324800123045
 31
0.0
1001
GENIUS_GENODEF_13
1002
{
1000
HIER
1070
     0
1002
}
1002
{
1000
MANEDIT
1070
     0
1002
}
1002
{
1000
NOSEL
1070
     0
1002
}
1002
{
1000
BEHIND
1070
     0
1002
}
1002
{
1000
OTHER
1070
     0
1002
}
1002
{
1000
REACTOR
1002
}
1001
GENIUS_GENOBJ-N-CEN_13
1002
{
1000
OWNER
1000
GEN
1002
}
1001
GENIUS_GENCEN_19
1002
{
1040
3.0
1002
}
  0
LINE
  5
93E5
  8
0
 10
76.24943158551153
 20
205.0112340842151
 30
0.0
 11
76.1045489194021
 21
204.4705246131587
 31
0.0
  0
LINE
  5
93E6
  8
0
 10
76.6824442874038
 20
205.2612340842151
 30
0.0
 11
76.44605527034835
 21
204.3790182622125
 31
0.0
  0
LINE
  5
93E7
  8
0
 10
80.23314844292011
 20
207.3112340842151
 30
0.0
 11
79.75991179736187
 21
207.0380107795118
 31
0.0
1001
GENIUS_GENODEF_13
1002
{
1000
HIER
1070
     0
1002
}
1002
{
1000
MANEDIT
1070
     0
1002
}
1002
{
1000
NOSEL
1070
     0
1002
}
1002
{
1000
BEHIND
1070
     0
1002
}
1002
{
1000
OTHER
1070
     0
1002
}
1002
{
1000
REACTOR
1002
}
1001
GENIUS_GENOBJ-N-CEN_13
1002
{
1000
OWNER
1000
GEN
1002
}
1001
GENIUS_GENCEN_19
1002
{
1040
3.0
1002
}
  0
ARC
  5
93E8
  8
0
 10
74.7887909394565
 20
204.3411378947827
 30
0.0
 40
0.1499999999999773
 50
120.0000000000254
 51
300.0000000000254
  0
ARC
  5
93E9
  8
0
 10
75.60447528992816
 20
205.5866775469328
 30
0.0
 40
0.1767766952966168
 50
75.0000000000127
 51
255.0000000000127
  0
LINE
  5
93EA
  8
0
 10
80.08314844292002
 20
207.5710417053505
 30
0.0
 11
79.609911797362
 21
207.2978184006471
 31
0.0
1001
GENIUS_GENODEF_13
1002
{
1000
HIER
1070
     0
1002
}
1002
{
1000
MANEDIT
1070
     0
1002
}
1002
{
1000
NOSEL
1070
     0
1002
}
1002
{
1000
BEHIND
1070
     0
1002
}
1002
{
1000
OTHER
1070
     0
1002
}
1002
{
1000
REACTOR
1002
}
1001
GENIUS_GENOBJ-N-CEN_13
1002
{
1000
OWNER
1000
GEN
1002
}
1001
GENIUS_GENCEN_19
1002
{
1040
3.0
1002
}
  0
LINE
  5
93EB
  8
0
 10
79.30372557951412
 20
207.1210417053504
 30
0.0
 11
78.69750779686504
 21
206.7710417053504
 31
0.0
1001
GENIUS_GENODEF_13
1002
{
1000
HIER
1070
     0
1002
}
1002
{
1000
MANEDIT
1070
     0
1002
}
1002
{
1000
NOSEL
1070
     0
1002
}
1002
{
1000
BEHIND
1070
     0
1002
}
1002
{
1000
OTHER
1070
     0
1002
}
1002
{
1000
REACTOR
1002
}
1001
GENIUS_GENOBJ-N-CEN_13
1002
{
1000
OWNER
1000
GEN
1002
}
1001
GENIUS_GENCEN_19
1002
{
1040
3.0
1002
}
  0
LINE
  5
93EC
  8
0
 10
75.1870275850147
 20
204.7442650100538
 30
0.0
 11
74.71379093945646
 21
204.4710417053504
 31
0.0
1001
GENIUS_GENODEF_13
1002
{
1000
HIER
1070
     0
1002
}
1002
{
1000
MANEDIT
1070
     0
1002
}
1002
{
1000
NOSEL
1070
     0
1002
}
1002
{
1000
BEHIND
1070
     0
1002
}
1002
{
1000
OTHER
1070
     0
1002
}
1002
{
1000
REACTOR
1002
}
1001
GENIUS_GENOBJ-N-CEN_13
1002
{
1000
OWNER
1000
GEN
1002
}
1001
GENIUS_GENCEN_19
1002
{
1040
3.0
1002
}
  0
LINE
  5
93ED
  8
0
 10
79.45372557951399
 20
206.8612340842151
 30
0.0
 11
78.8475077968649
 21
206.5112340842151
 31
0.0
1001
GENIUS_GENODEF_13
1002
{
1000
HIER
1070
     0
1002
}
1002
{
1000
MANEDIT
1070
     0
1002
}
1002
{
1000
NOSEL
1070
     0
1002
}
1002
{
1000
BEHIND
1070
     0
1002
}
1002
{
1000
OTHER
1070
     0
1002
}
1002
{
1000
REACTOR
1002
}
1001
GENIUS_GENOBJ-N-CEN_13
1002
{
1000
OWNER
1000
GEN
1002
}
1001
GENIUS_GENCEN_19
1002
{
1040
3.0
1002
}
  0
LINE
  5
93EE
  8
0
 10
75.64321380286245
 20
204.661234084215
 30
0.0
 11
75.49724803380857
 21
204.1164824179397
 31
0.0
  0
LINE
  5
93EF
  8
0
 10
75.33702758501457
 20
204.4844573889185
 30
0.0
 11
75.2557665772363
 21
204.1811871792154
 31
0.0
  0
ARC
  5
93F0
  8
0
 10
75.37650730552221
 20
204.1488347985775
 30
0.0
 40
0.1249999999999206
 50
164.9999999999954
 51
345.0000000001171
  0
LINE
  5
93F1
  8
0
 10
75.49321380286258
 20
204.9210417053504
 30
0.0
 11
74.9484621365871
 21
205.0670074744044
 31
0.0
  0
LINE
  5
93F2
  8
0
 10
75.1870275850147
 20
204.7442650100538
 30
0.0
 11
74.88375737531149
 21
204.8255260178321
 31
0.0
  0
LINE
  5
93F3
  8
0
 10
76.24943158551153
 20
205.0112340842151
 30
0.0
 11
75.64321380286245
 21
204.661234084215
 31
0.0
1001
GENIUS_GENODEF_13
1002
{
1000
HIER
1070
     0
1002
}
1002
{
1000
MANEDIT
1070
     0
1002
}
1002
{
1000
NOSEL
1070
     0
1002
}
1002
{
1000
BEHIND
1070
     0
1002
}
1002
{
1000
OTHER
1070
     0
1002
}
1002
{
1000
REACTOR
1002
}
1001
GENIUS_GENOBJ-N-CEN_13
1002
{
1000
OWNER
1000
GEN
1002
}
1001
GENIUS_GENCEN_19
1002
{
1040
3.0
1002
}
  0
LINE
  5
93F4
  8
0
 10
76.53244428740393
 20
205.5210417053504
 30
0.0
 11
75.65022846540117
 21
205.757430722406
 31
0.0
  0
ARC
  5
93F5
  8
0
 10
74.9161097559493
 20
204.9462667461181
 30
0.0
 40
0.1249999999999206
 50
74.99999999999544
 51
254.9999999999891
  0
LINE
  5
93F6
  8
0
 10
78.8475077968649
 20
206.5112340842151
 30
0.0
 11
79.38821726792142
 21
206.3663514181056
 31
0.0
  0
ARC
  5
93F7
  8
0
 10
79.34246409244841
 20
206.1955982426326
 30
0.0
 40
0.1767766952966168
 50
255.0000000000127
 51
75.0000000000127
  0
LINE
  5
93F8
  8
0
 10
78.26449509497277
 20
206.5210417053504
 30
0.0
 11
78.50088411202844
 21
207.4032575273529
 31
0.0
  0
LINE
  5
93F9
  8
0
 10
77.3234696911882
 20
204.8911378947828
 30
0.0
 11
77.3234696911882
 21
205.2836210593935
 31
0.0
1001
GENIUS_GENODEF_13
1002
{
1000
HIER
1070
     0
1002
}
1002
{
1000
MANEDIT
1070
     0
1002
}
1002
{
1000
NOSEL
1070
     0
1002
}
1002
{
1000
BEHIND
1070
     0
1002
}
1002
{
1000
OTHER
1070
     0
1002
}
1002
{
1000
REACTOR
1002
}
1001
GENIUS_GENOBJ-N-CEN_13
1002
{
1000
OWNER
1000
GEN
1002
}
1001
GENIUS_GENCEN_19
1002
{
1040
3.0
1002
}
  0
LINE
  5
93FA
  8
0
 10
79.609911797362
 20
207.2978184006471
 30
0.0
 11
79.69117280514027
 21
207.6010886103501
 31
0.0
  0
ARC
  5
93FB
  8
0
 10
79.57043207685436
 20
207.633440990988
 30
0.0
 40
0.1249999999999206
 50
345.0000000000223
 51
165.0000000001046
  0
LINE
  5
93FC
  8
0
 10
75.33702758501457
 20
207.2978184006471
 30
0.0
 11
75.2557665772363
 21
207.6010886103502
 31
0.0
  0
LINE
  5
93FD
  8
0
 10
75.49321380286258
 20
206.8612340842151
 30
0.0
 11
74.9484621365871
 21
206.7152683151611
 31
0.0
  0
LINE
  5
93FE
  8
0
 10
75.1870275850147
 20
207.0380107795118
 30
0.0
 11
74.88375737531149
 21
206.9567497717335
 31
0.0
  0
LINE
  5
93FF
  8
0
 10
79.30372557951412
 20
204.6612340842152
 30
0.0
 11
78.69750779686504
 21
205.0112340842152
 31
0.0
1001
GENIUS_GENODEF_13
1002
{
1000
HIER
1070
     0
1002
}
1002
{
1000
MANEDIT
1070
     0
1002
}
1002
{
1000
NOSEL
1070
     0
1002
}
1002
{
1000
BEHIND
1070
     0
1002
}
1002
{
1000
OTHER
1070
     0
1002
}
1002
{
1000
REACTOR
1002
}
1001
GENIUS_GENOBJ-N-CEN_13
1002
{
1000
OWNER
1000
GEN
1002
}
1001
GENIUS_GENCEN_19
1002
{
1040
3.0
1002
}
  0
LINE
  5
9400
  8
0
 10
79.45372557951399
 20
204.9210417053505
 30
0.0
 11
78.8475077968649
 21
205.2710417053505
 31
0.0
1001
GENIUS_GENODEF_13
1002
{
1000
HIER
1070
     0
1002
}
1002
{
1000
MANEDIT
1070
     0
1002
}
1002
{
1000
NOSEL
1070
     0
1002
}
1002
{
1000
BEHIND
1070
     0
1002
}
1002
{
1000
OTHER
1070
     0
1002
}
1002
{
1000
REACTOR
1002
}
1001
GENIUS_GENOBJ-N-CEN_13
1002
{
1000
OWNER
1000
GEN
1002
}
1001
GENIUS_GENCEN_19
1002
{
1040
3.0
1002
}
  0
ARC
  5
9401
  8
0
 10
75.37650730552221
 20
207.633440990988
 30
0.0
 40
0.1249999999999206
 50
14.99999999995087
 51
194.9999999999509
  0
ARC
  5
9402
  8
0
 10
74.9161097559493
 20
206.8360090434473
 30
0.0
 40
0.1249999999999206
 50
105.0000000000046
 51
285.0000000000109
  0
LINE
  5
9403
  8
0
 10
78.26449509497277
 20
205.2612340842152
 30
0.0
 11
77.92459470386214
 21
205.4574756665205
 31
0.0
1001
GENIUS_GENODEF_13
1002
{
1000
HIER
1070
     0
1002
}
1002
{
1000
MANEDIT
1070
     0
1002
}
1002
{
1000
NOSEL
1070
     0
1002
}
1002
{
1000
BEHIND
1070
     0
1002
}
1002
{
1000
OTHER
1070
     0
1002
}
1002
{
1000
REACTOR
1002
}
1001
GENIUS_GENOBJ-N-CEN_13
1002
{
1000
OWNER
1000
GEN
1002
}
1001
GENIUS_GENCEN_19
1002
{
1040
3.0
1002
}
  0
LINE
  5
9404
  8
0
 10
75.33702758501457
 20
207.2978184006471
 30
0.0
 11
74.86379093945655
 21
207.5710417053505
 31
0.0
1001
GENIUS_GENODEF_13
1002
{
1000
HIER
1070
     0
1002
}
1002
{
1000
MANEDIT
1070
     0
1002
}
1002
{
1000
NOSEL
1070
     0
1002
}
1002
{
1000
BEHIND
1070
     0
1002
}
1002
{
1000
OTHER
1070
     0
1002
}
1002
{
1000
REACTOR
1002
}
1001
GENIUS_GENOBJ-N-CEN_13
1002
{
1000
OWNER
1000
GEN
1002
}
1001
GENIUS_GENCEN_19
1002
{
1040
3.0
1002
}
  0
LINE
  5
9405
  8
0
 10
76.24943158551153
 20
206.7710417053505
 30
0.0
 11
76.1045489194021
 21
207.3117511764069
 31
0.0
  0
LINE
  5
9406
  8
0
 10
78.41449509497264
 20
205.5210417053505
 30
0.0
 11
79.2967109169754
 21
205.757430722406
 31
0.0
  0
ARC
  5
9407
  8
0
 10
76.27530209487512
 20
207.3575043518799
 30
0.0
 40
0.1767766952966168
 50
15.00000000002528
 51
194.9999999999772
  0
LINE
  5
9408
  8
0
 10
80.08314844292002
 20
204.2112340842151
 30
0.0
 11
79.609911797362
 21
204.4844573889185
 31
0.0
1001
GENIUS_GENODEF_13
1002
{
1000
HIER
1070
     0
1002
}
1002
{
1000
MANEDIT
1070
     0
1002
}
1002
{
1000
NOSEL
1070
     0
1002
}
1002
{
1000
BEHIND
1070
     0
1002
}
1002
{
1000
OTHER
1070
     0
1002
}
1002
{
1000
REACTOR
1002
}
1001
GENIUS_GENOBJ-N-CEN_13
1002
{
1000
OWNER
1000
GEN
1002
}
1001
GENIUS_GENCEN_19
1002
{
1040
3.0
1002
}
  0
LINE
  5
9409
  8
0
 10
76.53244428740393
 20
206.2612340842152
 30
0.0
 11
75.65022846540117
 21
206.0248450671596
 31
0.0
  0
LINE
  5
940A
  8
0
 10
78.41449509497264
 20
205.5210417053505
 30
0.0
 11
78.074594703862
 21
205.7172832876558
 31
0.0
1001
GENIUS_GENODEF_13
1002
{
1000
HIER
1070
     0
1002
}
1002
{
1000
MANEDIT
1070
     0
1002
}
1002
{
1000
NOSEL
1070
     0
1002
}
1002
{
1000
BEHIND
1070
     0
1002
}
1002
{
1000
OTHER
1070
     0
1002
}
1002
{
1000
REACTOR
1002
}
1001
GENIUS_GENOBJ-N-CEN_13
1002
{
1000
OWNER
1000
GEN
1002
}
1001
GENIUS_GENCEN_19
1002
{
1040
3.0
1002
}
  0
LINE
  5
940B
  8
0
 10
80.23314844292011
 20
204.4710417053504
 30
0.0
 11
79.75991179736187
 21
204.7442650100538
 31
0.0
1001
GENIUS_GENODEF_13
1002
{
1000
HIER
1070
     0
1002
}
1002
{
1000
MANEDIT
1070
     0
1002
}
1002
{
1000
NOSEL
1070
     0
1002
}
1002
{
1000
BEHIND
1070
     0
1002
}
1002
{
1000
OTHER
1070
     0
1002
}
1002
{
1000
REACTOR
1002
}
1001
GENIUS_GENOBJ-N-CEN_13
1002
{
1000
OWNER
1000
GEN
1002
}
1001
GENIUS_GENCEN_19
1002
{
1040
3.0
1002
}
  0
LINE
  5
940C
  8
0
 10
75.64321380286245
 20
207.1210417053504
 30
0.0
 11
75.49724803380857
 21
207.6657933716258
 31
0.0
  0
ARC
  5
940D
  8
0
 10
75.60447528992816
 20
206.1955982426326
 30
0.0
 40
0.1767766952966168
 50
104.9999999999873
 51
284.9999999999873
  0
ARC
  5
940E
  8
0
 10
74.7887909394565
 20
207.4411378947829
 30
0.0
 40
0.1499999999999773
 50
59.99999999997465
 51
239.9999999999746
  0
LINE
  5
940F
  8
0
 10
78.8475077968649
 20
205.2710417053505
 30
0.0
 11
79.38821726792142
 21
205.4159243714598
 31
0.0
  0
LINE
  5
9410
  8
0
 10
76.24943158551153
 20
206.7710417053505
 30
0.0
 11
75.64321380286245
 21
207.1210417053504
 31
0.0
1001
GENIUS_GENODEF_13
1002
{
1000
HIER
1070
     0
1002
}
1002
{
1000
MANEDIT
1070
     0
1002
}
1002
{
1000
NOSEL
1070
     0
1002
}
1002
{
1000
BEHIND
1070
     0
1002
}
1002
{
1000
OTHER
1070
     0
1002
}
1002
{
1000
REACTOR
1002
}
1001
GENIUS_GENOBJ-N-CEN_13
1002
{
1000
OWNER
1000
GEN
1002
}
1001
GENIUS_GENCEN_19
1002
{
1040
3.0
1002
}
  0
ARC
  5
9411
  8
0
 10
80.15814844292007
 20
204.3411378947828
 30
0.0
 40
0.1499999999999773
 50
239.9999999999746
 51
59.99999999997465
  0
ARC
  5
9412
  8
0
 10
79.34246409244841
 20
205.5866775469329
 30
0.0
 40
0.1767766952966168
 50
284.9999999999873
 51
104.9999999999873
  0
LINE
  5
9413
  8
0
 10
78.26449509497277
 20
205.2612340842152
 30
0.0
 11
78.50088411202844
 21
204.3790182622125
 31
0.0
  0
LINE
  5
9414
  8
0
 10
75.1870275850147
 20
207.0380107795118
 30
0.0
 11
74.71379093945646
 21
207.3112340842151
 31
0.0
1001
GENIUS_GENODEF_13
1002
{
1000
HIER
1070
     0
1002
}
1002
{
1000
MANEDIT
1070
     0
1002
}
1002
{
1000
NOSEL
1070
     0
1002
}
1002
{
1000
BEHIND
1070
     0
1002
}
1002
{
1000
OTHER
1070
     0
1002
}
1002
{
1000
REACTOR
1002
}
1001
GENIUS_GENOBJ-N-CEN_13
1002
{
1000
OWNER
1000
GEN
1002
}
1001
GENIUS_GENCEN_19
1002
{
1040
3.0
1002
}
  0
LINE
  5
9415
  8
0
 10
78.69750779686504
 20
205.0112340842152
 30
0.0
 11
78.84239046297446
 21
204.4705246131587
 31
0.0
  0
LINE
  5
9416
  8
0
 10
76.09943158551167
 20
206.5112340842152
 30
0.0
 11
75.55872211445515
 21
206.3663514181058
 31
0.0
  0
LINE
  5
9417
  8
0
 10
76.6824442874038
 20
206.5210417053505
 30
0.0
 11
76.44605527034835
 21
207.403257527353
 31
0.0
  0
ARC
  5
9418
  8
0
 10
78.67163728750145
 20
204.4247714376856
 30
0.0
 40
0.1767766952966168
 50
195.0000000000253
 51
14.99999999998613
  0
LINE
  5
9419
  8
0
 10
76.09943158551167
 20
206.5112340842152
 30
0.0
 11
75.49321380286258
 21
206.8612340842151
 31
0.0
1001
GENIUS_GENODEF_13
1002
{
1000
HIER
1070
     0
1002
}
1002
{
1000
MANEDIT
1070
     0
1002
}
1002
{
1000
NOSEL
1070
     0
1002
}
1002
{
1000
BEHIND
1070
     0
1002
}
1002
{
1000
OTHER
1070
     0
1002
}
1002
{
1000
REACTOR
1002
}
1001
GENIUS_GENOBJ-N-CEN_13
1002
{
1000
OWNER
1000
GEN
1002
}
1001
GENIUS_GENCEN_19
1002
{
1040
3.0
1002
}
  0
POLYLINE
  5
941A
  8
0
 66
     1
 10
0.0
 20
0.0
 30
0.0
  0
VERTEX
  5
A9CE
  8
0
 10
77.92459470386214
 20
206.324800123045
 30
0.0
  0
VERTEX
  5
A9CF
  8
0
 10
77.62346969118838
 20
206.498654730172
 30
0.0
  0
SEQEND
  5
A9DE
  8
0
  0
POLYLINE
  5
941B
  8
0
 66
     1
 10
0.0
 20
0.0
 30
0.0
  0
VERTEX
  5
A9D0
  8
0
 10
77.02234467851443
 20
205.4574756665204
 30
0.0
  0
VERTEX
  5
A9D1
  8
0
 10
77.3234696911882
 20
205.2836210593935
 30
0.0
  0
SEQEND
  5
A9DF
  8
0
  0
POLYLINE
  5
941C
  8
0
 66
     1
 10
0.0
 20
0.0
 30
0.0
  0
VERTEX
  5
A9D2
  8
0
 10
77.62346969118838
 20
205.2836210593935
 30
0.0
  0
VERTEX
  5
A9D3
  8
0
 10
77.92459470386214
 20
205.4574756665205
 30
0.0
  0
SEQEND
  5
A9E0
  8
0
  0
POLYLINE
  5
941D
  8
0
 66
     1
 10
0.0
 20
0.0
 30
0.0
  0
VERTEX
  5
A9D4
  8
0
 10
78.074594703862
 20
205.7172832876558
 30
0.0
  0
VERTEX
  5
A9D5
  8
0
 10
78.074594703862
 20
206.0649925019096
 30
0.0
  0
SEQEND
  5
A9E1
  8
0
  0
POLYLINE
  5
941E
  8
0
 66
     1
 10
0.0
 20
0.0
 30
0.0
  0
VERTEX
  5
A9D6
  8
0
 10
76.87234467851457
 20
206.0649925019097
 30
0.0
  0
VERTEX
  5
A9D7
  8
0
 10
76.87234467851457
 20
205.7172832876557
 30
0.0
  0
SEQEND
  5
A9E2
  8
0
  0
LINE
  5
941F
  8
0
 10
76.87234467851457
 20
206.0649925019097
 30
0.0
 11
76.53244428740393
 21
206.2612340842152
 31
0.0
1001
GENIUS_GENODEF_13
1002
{
1000
HIER
1070
     0
1002
}
1002
{
1000
MANEDIT
1070
     0
1002
}
1002
{
1000
NOSEL
1070
     0
1002
}
1002
{
1000
BEHIND
1070
     0
1002
}
1002
{
1000
OTHER
1070
     0
1002
}
1002
{
1000
REACTOR
1002
}
1001
GENIUS_GENOBJ-N-CEN_13
1002
{
1000
OWNER
1000
GEN
1002
}
1001
GENIUS_GENCEN_19
1002
{
1040
3.0
1002
}
  0
LINE
  5
9420
  8
0
 10
77.02234467851443
 20
205.4574756665204
 30
0.0
 11
76.6824442874038
 21
205.2612340842151
 31
0.0
1001
GENIUS_GENODEF_13
1002
{
1000
HIER
1070
     0
1002
}
1002
{
1000
MANEDIT
1070
     0
1002
}
1002
{
1000
NOSEL
1070
     0
1002
}
1002
{
1000
BEHIND
1070
     0
1002
}
1002
{
1000
OTHER
1070
     0
1002
}
1002
{
1000
REACTOR
1002
}
1001
GENIUS_GENOBJ-N-CEN_13
1002
{
1000
OWNER
1000
GEN
1002
}
1001
GENIUS_GENCEN_19
1002
{
1040
3.0
1002
}
  0
LINE
  5
9421
  8
0
 10
77.62346969118838
 20
206.498654730172
 30
0.0
 11
77.62346969118838
 21
206.8911378947828
 31
0.0
1001
GENIUS_GENODEF_13
1002
{
1000
HIER
1070
     0
1002
}
1002
{
1000
MANEDIT
1070
     0
1002
}
1002
{
1000
NOSEL
1070
     0
1002
}
1002
{
1000
BEHIND
1070
     0
1002
}
1002
{
1000
OTHER
1070
     0
1002
}
1002
{
1000
REACTOR
1002
}
1001
GENIUS_GENOBJ-N-CEN_13
1002
{
1000
OWNER
1000
GEN
1002
}
1001
GENIUS_GENCEN_19
1002
{
1040
3.0
1002
}
  0
LINE
  5
9422
  8
0
 10
76.87234467851457
 20
205.7172832876557
 30
0.0
 11
76.53244428740393
 21
205.5210417053504
 31
0.0
1001
GENIUS_GENODEF_13
1002
{
1000
HIER
1070
     0
1002
}
1002
{
1000
MANEDIT
1070
     0
1002
}
1002
{
1000
NOSEL
1070
     0
1002
}
1002
{
1000
BEHIND
1070
     0
1002
}
1002
{
1000
OTHER
1070
     0
1002
}
1002
{
1000
REACTOR
1002
}
1001
GENIUS_GENOBJ-N-CEN_13
1002
{
1000
OWNER
1000
GEN
1002
}
1001
GENIUS_GENCEN_19
1002
{
1040
3.0
1002
}
  0
LINE
  5
9423
  8
0
 10
77.02234467851466
 20
206.3248001230451
 30
0.0
 11
76.6824442874038
 21
206.5210417053505
 31
0.0
1001
GENIUS_GENODEF_13
1002
{
1000
HIER
1070
     0
1002
}
1002
{
1000
MANEDIT
1070
     0
1002
}
1002
{
1000
NOSEL
1070
     0
1002
}
1002
{
1000
BEHIND
1070
     0
1002
}
1002
{
1000
OTHER
1070
     0
1002
}
1002
{
1000
REACTOR
1002
}
1001
GENIUS_GENOBJ-N-CEN_13
1002
{
1000
OWNER
1000
GEN
1002
}
1001
GENIUS_GENCEN_19
1002
{
1040
3.0
1002
}
  0
LINE
  5
9424
  8
0
 10
77.3234696911882
 20
206.498654730172
 30
0.0
 11
77.3234696911882
 21
206.8911378947828
 31
0.0
1001
GENIUS_GENODEF_13
1002
{
1000
HIER
1070
     0
1002
}
1002
{
1000
MANEDIT
1070
     0
1002
}
1002
{
1000
NOSEL
1070
     0
1002
}
1002
{
1000
BEHIND
1070
     0
1002
}
1002
{
1000
OTHER
1070
     0
1002
}
1002
{
1000
REACTOR
1002
}
1001
GENIUS_GENOBJ-N-CEN_13
1002
{
1000
OWNER
1000
GEN
1002
}
1001
GENIUS_GENCEN_19
1002
{
1040
3.0
1002
}
  0
POINT
  5
9425
  8
0
 10
77.47346969118828
 20
205.8911378947828
 30
0.0
  0
ARC
  5
A7C3
  8
0
 10
57.65747357530604
 20
237.902093120425
 30
0.0
 40
2.818784487207035
 50
42.10643774613582
 51
72.54963860556856
  0
ARC
  5
A7C4
  8
0
 10
57.6620404200961
 20
237.8940200898162
 30
0.0
 40
2.825124600724308
 50
72.68709389380213
 51
114.8350808121767
  0
ARC
  5
A7C5
  8
0
 10
57.66886519956004
 20
237.8951251760513
 30
0.0
 40
2.82699601279636
 50
114.9700164788606
 51
159.7658782060661
  0
ARC
  5
A7C6
  8
0
 10
57.67023802492437
 20
237.9019418616495
 30
0.0
 40
2.825934871198894
 50
159.905183900427
 51
208.103315622014
  0
ARC
  5
A7C7
  8
0
 10
57.66700786976536
 20
237.9059775349336
 30
0.0
 40
2.824991178843034
 50
208.2063768521136
 51
252.9917058831043
  0
ARC
  5
A7C8
  8
0
 10
57.66113741822067
 20
237.8985091056973
 30
0.0
 40
2.816134321775382
 50
253.0614728184792
 51
303.6104044070932
  0
ARC
  5
A7C9
  8
0
 10
57.65197731125314
 20
237.9078129834095
 30
0.0
 40
2.828954381084524
 50
303.6606050060742
 51
336.6888212394869
  0
ARC
  5
A7CA
  8
0
 10
57.67302204206237
 20
237.8962017190224
 30
0.0
 40
2.805033656979198
 50
336.7365264644543
 51
352.0115546408769
  0
ARC
  5
A7CB
  8
0
 10
60.88196512445779
 20
237.4395139445802
 30
0.0
 40
0.4362831274249897
 50
124.9417661980038
 51
171.1843733476157
  0
ARC
  5
A7CC
  8
0
 10
60.95858726098088
 20
237.3812926282226
 30
0.0
 40
0.5287156028486799
 50
68.4989425064667
 51
128.1363643025125
  0
ARC
  5
A7CD
  8
0
 10
60.95744437000722
 20
237.3781542288006
 30
0.0
 40
0.5320545012467646
 50
21.1786845759318
 51
68.50830305575624
  0
ARC
  5
A7CE
  8
0
 10
60.90062769955986
 20
237.3654674059445
 30
0.0
 40
0.589681274627146
 50
351.3677592453785
 51
20.3336515506318
  0
ARC
  5
A7CF
  8
0
 10
57.68343705213383
 20
237.8923728658903
 30
0.0
 40
3.849700154783129
 50
329.2955579547443
 51
350.8012500119645
  0
ARC
  5
A7D0
  8
0
 10
57.66066851953241
 20
237.9020155056535
 30
0.0
 40
3.874201887614873
 50
272.110292872708
 51
329.3448789643533
  0
ARC
  5
A7D1
  8
0
 10
57.65755494499683
 20
237.8871220378316
 30
0.0
 40
3.859434907830362
 50
228.1538869054162
 51
272.1646262877288
  0
ARC
  5
A7D2
  8
0
 10
57.65900386452161
 20
237.9001849135696
 30
0.0
 40
3.870140110233152
 50
191.6688789272142
 51
228.2669244735644
  0
ARC
  5
A7D3
  8
0
 10
54.43289767128081
 20
239.2068410104756
 30
0.0
 40
2.164208178393929
 50
198.723963475941
 51
254.8927875963115
  0
ARC
  5
A7D4
  8
0
 10
52.35567876398024
 20
239.7876077913709
 30
0.0
 40
1.275794832121307
 50
159.5889286416677
 51
271.2373210171075
  0
ARC
  5
A7D5
  8
0
 10
52.35551363530638
 20
239.787462770831
 30
0.0
 40
1.27569066216106
 50
56.35876753652801
 51
159.5802376694569
  0
ARC
  5
A7D6
  8
0
 10
52.35508848122097
 20
239.7872880343391
 30
0.0
 40
1.27607169163755
 50
300.8474340774569
 51
56.3472215566183
  0
ARC
  5
A7D7
  8
0
 10
54.43269053159622
 20
239.2057666677554
 30
0.0
 40
1.513270340059136
 50
199.8575424768347
 51
244.8702054099216
  0
ARC
  5
A7D8
  8
0
 10
57.65322924019225
 20
237.9057753033918
 30
0.0
 40
3.863814594731709
 50
128.8924189419203
 51
181.0387416655363
  0
ARC
  5
A7D9
  8
0
 10
57.65982246991536
 20
237.9092508948343
 30
0.0
 40
3.865255996170545
 50
64.08752047055657
 51
129.0008345454499
  0
ARC
  5
A7DA
  8
0
 10
57.63603020600064
 20
237.8813368582027
 30
0.0
 40
3.900771647075106
 50
41.93148962721691
 51
63.95236016528539
  0
ARC
  5
A7DB
  8
0
 10
60.13292493824088
 20
240.1416124457193
 30
0.0
 40
0.5329691384397407
 50
326.9391245431075
 51
40.53482220835337
  0
ARC
  5
A7DC
  8
0
 10
60.13437214279045
 20
240.1420804206103
 30
0.0
 40
0.532012855346209
 50
288.8262582044613
 51
326.8118599153543
  0
ARC
  5
A7DD
  8
0
 10
60.13890334140635
 20
240.1199653234712
 30
0.0
 40
0.5096266244015553
 50
220.0392534532336
 51
289.1464231932406
  0
ARC
  5
A7DE
  8
0
 10
52.35555897674914
 20
239.7874967222042
 30
0.0
 40
0.5333610920542913
 50
358.2903179254369
 51
182.8871640299775
  0
ARC
  5
A7DF
  8
0
 10
52.35556125442243
 20
239.7872750687473
 30
0.0
 40
0.533352248318835
 50
182.8633706346291
 51
358.3141113207853
  0
ARC
  5
A7E0
  8
0
 10
56.4144240862955
 20
238.367778457716
 30
0.0
 40
0.6197235851139764
 50
269.9860909562865
 51
92.215844524471
  0
ARC
  5
A7E1
  8
0
 10
56.41454741015219
 20
238.3677808277381
 30
0.0
 40
0.619725997344469
 50
92.2272460800959
 51
269.9746892990934
  0
ARC
  5
A7E2
  8
0
 10
58.91025527816754
 20
238.3677715142138
 30
0.0
 40
0.6197167624590886
 50
269.9616101028838
 51
89.98977670141691
  0
ARC
  5
A7E3
  8
0
 10
58.90992044989132
 20
238.3677716562581
 30
0.0
 40
0.6197167706109338
 50
89.95882022245952
 51
269.9925665818412
  0
ARC
  5
A7E4
  8
0
 10
57.66213579924929
 20
238.3884339297761
 30
0.0
 40
1.621966970399848
 50
233.6417470358276
 51
306.8838773871507
  0
ARC
  5
A7E5
  8
0
 10
58.78581951004265
 20
236.8818330070972
 30
0.0
 40
0.2575808481740123
 50
48.75225273409504
 51
125.6665677964157
  0
ARC
  5
A7E6
  8
0
 10
58.78543677085516
 20
236.8815711506918
 30
0.0
 40
0.2580301008803177
 50
350.2089239138174
 51
48.72668974044582
  0
ARC
  5
A7E7
  8
0
 10
58.7822838741664
 20
236.8818145402381
 30
0.0
 40
0.2611786316846578
 50
302.7722891929776
 51
350.273929821677
  0
ARC
  5
A7E8
  8
0
 10
57.65846606407192
 20
238.3944672278571
 30
0.0
 40
2.145096291517153
 50
279.580629416799
 51
306.1433603622944
  0
ARC
  5
A7E9
  8
0
 10
57.66204946286878
 20
238.3876046226513
 30
0.0
 40
2.137734336466047
 50
255.4417152635177
 51
279.5165392426289
  0
ARC
  5
A7EA
  8
0
 10
57.6629991216026
 20
238.3854049646008
 30
0.0
 40
2.135844522087935
 50
232.8702473643658
 51
255.4022254017396
  0
ARC
  5
A7EB
  8
0
 10
56.53944883532791
 20
236.8814633550889
 30
0.0
 40
0.25887643170293
 50
155.1529278431441
 51
230.2048092005848
  0
ARC
  5
A7EC
  8
0
 10
56.53824733876176
 20
236.8819029289711
 30
0.0
 40
0.2576014684421306
 50
103.7622011258897
 51
155.1293551933427
  0
ARC
  5
A7ED
  8
0
 10
56.5385726024393
 20
236.8821431168001
 30
0.0
 40
0.2574458242313935
 50
51.00202248787202
 51
103.845228473221
  0
ARC
  5
A7EE
  8
0
 10
49.67809520652039
 20
234.8564016420973
 30
0.0
 40
0.9091768622367206
 50
133.222959671733
 51
270.1894734199499
  0
ARC
  5
A7EF
  8
0
 10
49.67852055412756
 20
234.8560179531023
 30
0.0
 40
0.9087918676904274
 50
270.1627370543721
 51
50.19893912908906
  0
ARC
  5
A7F0
  8
0
 10
49.65784207733936
 20
241.252488108723
 30
0.0
 40
0.6024320394943272
 50
2.835526177202197
 51
174.3732816204337
  0
ARC
  5
A7F1
  8
0
 10
49.65787804371772
 20
241.2524100197577
 30
0.0
 40
0.2295028634559424
 50
358.9188453068101
 51
179.9730971000994
  0
ARC
  5
A7F2
  8
0
 10
46.78493243185758
 20
235.9457532626362
 30
0.0
 40
0.0873768611613766
 50
87.47256260673397
 51
234.0891406317526
  0
ARC
  5
A7F3
  8
0
 10
48.19601220484156
 20
235.9466667433402
 30
0.0
 40
0.0863646317370953
 50
317.9031549580241
 51
87.18148688827209
  0
ARC
  5
A7F4
  8
0
 10
47.49016881076258
 20
235.2405683741884
 30
0.0
 40
0.086253216996548
 50
226.0322552542306
 51
315.2107938570516
  0
LINE
  5
A7F5
  8
0
 10
49.42837520556122
 20
241.252517781488
 30
0.0
 11
49.42837520556122
 21
237.7288068439877
 31
0.0
  0
LINE
  5
A7F6
  8
0
 10
49.42837520556122
 20
237.7288068439877
 30
0.0
 11
49.88734004931166
 21
237.7288068439877
 31
0.0
  0
LINE
  5
A7F7
  8
0
 10
49.88734004931166
 20
237.7288068439877
 30
0.0
 11
49.88734004931166
 21
241.2480796244772
 31
0.0
  0
LINE
  5
A7F8
  8
0
 10
50.25953653284297
 20
241.2822898607775
 30
0.0
 11
50.26025997118631
 21
235.5542170002375
 31
0.0
  0
LINE
  5
A7F9
  8
0
 10
49.05545528368657
 20
235.5189135992121
 30
0.0
 11
49.05545528368657
 21
237.4994123127373
 31
0.0
  0
LINE
  5
A7FA
  8
0
 10
49.05545528368657
 20
237.4994123127373
 30
0.0
 11
46.59223262743626
 21
237.4994123127373
 31
0.0
  0
LINE
  5
A7FB
  8
0
 10
46.59223262743626
 20
237.4994123127373
 30
0.0
 11
46.59223262743626
 21
237.7287229003812
 31
0.0
  0
LINE
  5
A7FC
  8
0
 10
46.59223262743626
 20
237.7287229003812
 30
0.0
 11
49.05545528368657
 21
237.7288068439877
 31
0.0
  0
LINE
  5
A7FD
  8
0
 10
49.05545528368657
 20
237.7288068439877
 30
0.0
 11
49.05831268399731
 21
241.3115547552183
 31
0.0
  0
LINE
  5
A7FE
  8
0
 10
46.73368364192788
 20
235.8749840786848
 30
0.0
 11
47.43028723017616
 21
235.1784892815023
 31
0.0
  0
LINE
  5
A7FF
  8
0
 10
47.55138301806164
 20
235.179802937738
 30
0.0
 11
48.26009586330037
 21
235.8887691239278
 31
0.0
  0
LINE
  5
A800
  8
0
 10
48.2002589693709
 20
236.0329268998791
 30
0.0
 11
47.81909786181131
 21
236.0330451252377
 31
0.0
  0
LINE
  5
A801
  8
0
 10
47.81909786181131
 20
236.0330451252377
 30
0.0
 11
47.81909786181131
 21
237.0471751945023
 31
0.0
  0
LINE
  5
A802
  8
0
 10
47.81909786181131
 20
237.0471751945023
 30
0.0
 11
47.16114864306155
 21
237.0473029377374
 31
0.0
  0
LINE
  5
A803
  8
0
 10
47.16114864306155
 20
237.0473029377374
 30
0.0
 11
47.16114864306155
 21
236.0330451252377
 31
0.0
  0
LINE
  5
A804
  8
0
 10
47.16114864306155
 20
236.0330451252377
 30
0.0
 11
46.78878555915463
 21
236.0330451252377
 31
0.0
  0
LINE
  5
A805
  8
0
 10
48.38810176806146
 20
239.6239045002378
 30
0.0
 11
48.18735958056141
 21
239.7397443439879
 31
0.0
  0
LINE
  5
A806
  8
0
 10
48.18735958056141
 20
239.7397443439879
 30
0.0
 11
47.69104122118642
 21
239.4532209064875
 31
0.0
  0
LINE
  5
A807
  8
0
 10
47.69104122118642
 20
239.4532209064875
 30
0.0
 11
47.69095333056157
 21
240.026443562738
 31
0.0
  0
LINE
  5
A808
  8
0
 10
47.69095333056157
 20
240.026443562738
 30
0.0
 11
47.49021114306152
 21
240.1422834064876
 31
0.0
  0
LINE
  5
A809
  8
0
 10
47.49021114306152
 20
240.1422834064876
 30
0.0
 11
47.28938106493661
 21
240.026443562738
 31
0.0
  0
LINE
  5
A80A
  8
0
 10
47.28938106493661
 20
240.026443562738
 30
0.0
 11
47.28938106493661
 21
239.4532209064875
 31
0.0
  0
LINE
  5
A80B
  8
0
 10
47.28938106493661
 20
239.4532209064875
 30
0.0
 11
46.79297481493631
 21
239.7397443439879
 31
0.0
  0
LINE
  5
A80C
  8
0
 10
46.79297481493631
 20
239.7397443439879
 30
0.0
 11
46.59223262743626
 21
239.6239045002378
 31
0.0
  0
LINE
  5
A80D
  8
0
 10
46.59223262743626
 20
239.6239045002378
 30
0.0
 11
46.59223262743626
 21
239.3920490314879
 31
0.0
  0
LINE
  5
A80E
  8
0
 10
46.59223262743626
 20
239.3920490314879
 30
0.0
 11
47.08863887743655
 21
239.1055255939875
 31
0.0
  0
LINE
  5
A80F
  8
0
 10
47.08863887743655
 20
239.1055255939875
 30
0.0
 11
46.59223262743626
 21
238.8188263752374
 31
0.0
  0
LINE
  5
A810
  8
0
 10
46.59223262743626
 20
238.8188263752374
 30
0.0
 11
46.59223262743626
 21
238.5869709064875
 31
0.0
  0
LINE
  5
A811
  8
0
 10
46.59223262743626
 20
238.5869709064875
 30
0.0
 11
46.79297481493631
 21
238.4711310627374
 31
0.0
  0
LINE
  5
A812
  8
0
 10
46.79297481493631
 20
238.4711310627374
 30
0.0
 11
47.28938106493661
 21
238.7576545002377
 31
0.0
  0
LINE
  5
A813
  8
0
 10
47.28938106493661
 20
238.7576545002377
 30
0.0
 11
47.28946895556146
 21
238.1844318439878
 31
0.0
  0
LINE
  5
A814
  8
0
 10
47.28946895556146
 20
238.1844318439878
 30
0.0
 11
47.49021114306152
 21
238.0685920002377
 31
0.0
  0
LINE
  5
A815
  8
0
 10
47.49021114306152
 20
238.0685920002377
 30
0.0
 11
47.69104122118642
 21
238.1844318439878
 31
0.0
  0
LINE
  5
A816
  8
0
 10
47.69104122118642
 20
238.1844318439878
 30
0.0
 11
47.69095333056157
 21
238.7576545002377
 31
0.0
  0
LINE
  5
A817
  8
0
 10
47.69095333056157
 20
238.7576545002377
 30
0.0
 11
48.18735958056141
 21
238.4711310627374
 31
0.0
  0
LINE
  5
A818
  8
0
 10
48.18735958056141
 20
238.4711310627374
 30
0.0
 11
48.38810176806146
 21
238.5869709064875
 31
0.0
  0
LINE
  5
A819
  8
0
 10
48.38810176806146
 20
238.5869709064875
 30
0.0
 11
48.38810176806146
 21
238.8188263752374
 31
0.0
  0
LINE
  5
A81A
  8
0
 10
48.38810176806146
 20
238.8188263752374
 30
0.0
 11
47.89178340868648
 21
239.1055255939875
 31
0.0
  0
LINE
  5
A81B
  8
0
 10
47.89178340868648
 20
239.1055255939875
 30
0.0
 11
48.38810176806146
 21
239.3920490314879
 31
0.0
  0
LINE
  5
A81C
  8
0
 10
48.38810176806146
 20
239.3920490314879
 30
0.0
 11
48.38810176806146
 21
239.6239045002378
 31
0.0
  0
ARC
  5
A81D
  8
0
 10
43.12195934609593
 20
230.2040461175394
 30
0.0
 40
0.3670849884844836
 50
88.43595018400146
 51
181.5907611346543
  0
ARC
  5
A81E
  8
0
 10
43.11635833128778
 20
230.1781510429493
 30
0.0
 40
0.3616836161732613
 50
177.5113831094955
 51
272.4752596742406
  0
ARC
  5
A81F
  8
0
 10
47.84987986345515
 20
228.8144651248952
 30
0.0
 40
1.757421872517575
 50
58.63205765538193
 51
91.82624667791212
  0
ARC
  5
A820
  8
0
 10
48.0311043742193
 20
229.1539907987189
 30
0.0
 40
1.373363550070809
 50
357.3646905701011
 51
57.71432541069638
  0
ARC
  5
A821
  8
0
 10
47.37222606000248
 20
229.1492422607029
 30
0.0
 40
2.031628876196131
 50
312.3580077297276
 51
358.3528725601312
  0
ARC
  5
A822
  8
0
 10
46.53428715551012
 20
230.2834019362964
 30
0.0
 40
3.437343882281632
 50
279.6428930056555
 51
309.9410387066556
  0
ARC
  5
A823
  8
0
 10
45.82933059788145
 20
233.063806192022
 30
0.0
 40
6.30072093565917
 50
275.4117803201625
 51
281.7281302859267
  0
ARC
  5
A824
  8
0
 10
46.41897769867541
 20
226.6870106084646
 30
0.0
 40
0.104260725704256
 50
87.4752300347481
 51
163.7199139015231
  0
ARC
  5
A825
  8
0
 10
46.61712834302536
 20
226.6564088110248
 30
0.0
 40
0.3041729537229
 50
168.6561978748385
 51
200.0889648778359
  0
ARC
  5
A826
  8
0
 10
46.25955381345899
 20
225.9016457477541
 30
0.0
 40
0.2537512839947012
 50
261.3372320245579
 51
20.62119432797275
  0
ARC
  5
A827
  8
0
 10
45.89216037940254
 20
227.3439477861901
 30
0.0
 40
1.693196324176135
 50
200.7119394462078
 51
269.6171287198742
  0
ARC
  5
A828
  8
0
 10
44.01207273051698
 20
228.5589452964029
 30
0.0
 40
0.2418104089398966
 50
78.56434552526832
 51
205.2442294015707
  0
ARC
  5
A829
  8
0
 10
45.20963082066834
 20
228.2511782454147
 30
0.0
 40
0.5454708950328662
 50
22.03436718337224
 51
87.10976279916946
  0
ARC
  5
A82A
  8
0
 10
46.42807187546425
 20
228.0722214662457
 30
0.0
 40
0.5575982287956304
 50
198.5615711856641
 51
231.4697421334256
  0
ARC
  5
A82B
  8
0
 10
46.2752280833615
 20
227.9079736769734
 30
0.0
 40
0.3343453227859988
 50
234.4274826077689
 51
282.9237961332864
  0
ARC
  5
A82C
  8
0
 10
45.96412109231598
 20
228.9255412780143
 30
0.0
 40
1.397765155718417
 50
286.0259576150772
 51
322.7723331413743
  0
ARC
  5
A82D
  8
0
 10
45.45650265127791
 20
229.3733444574605
 30
0.0
 40
2.073453716718684
 50
321.405557856657
 51
357.0055140470168
  0
ARC
  5
A82E
  8
0
 10
46.9816655724087
 20
229.3036561898546
 30
0.0
 40
0.5468257340680802
 50
355.949160792519
 51
43.9861427071242
  0
ARC
  5
A82F
  8
0
 10
46.98970571345917
 20
229.20310682548
 30
0.0
 40
0.6158215084356161
 50
51.25619189844242
 51
94.75943482914414
  0
ARC
  5
A830
  8
0
 10
50.95033516609465
 20
228.1107993292348
 30
0.0
 40
0.9170993127764647
 50
90.00286747961208
 51
268.2497146487426
  0
ARC
  5
A831
  8
0
 10
50.95025858474779
 20
228.1108004971217
 30
0.0
 40
0.9170981442542538
 50
268.2544990708273
 51
89.99808305752734
  0
ARC
  5
A832
  8
0
 10
53.00544743993542
 20
230.1893399795398
 30
0.0
 40
0.3770840596473977
 50
89.9884213680942
 51
178.6192995487076
  0
ARC
  5
A833
  8
0
 10
54.17349042306676
 20
230.1893399589195
 30
0.0
 40
0.3770841082509337
 50
1.380703407340469
 51
90.02492579868495
  0
ARC
  5
A834
  8
0
 10
54.17356772625749
 20
227.623165058527
 30
0.0
 40
0.3768973543141036
 50
269.9633102497762
 51
0.0233356470828619
  0
ARC
  5
A835
  8
0
 10
53.00537010634592
 20
227.6231650260223
 30
0.0
 40
0.3768972758079303
 50
179.9766594067293
 51
270.0233405932998
  0
ARC
  5
A836
  8
0
 10
56.67348593965098
 20
230.189971797474
 30
0.0
 40
0.3765533069000618
 50
91.32755171042443
 51
178.7135156246359
  0
ARC
  5
A837
  8
0
 10
57.84184585275494
 20
230.1892545724264
 30
0.0
 40
0.3772853742403397
 50
1.39293758417252
 51
88.57968746194234
  0
ARC
  5
A838
  8
0
 10
55.35470066232916
 20
227.3334167157238
 30
0.0
 40
0.9424222807007966
 50
270.2596160298706
 51
359.1847732707243
  0
ARC
  5
A839
  8
0
 10
55.08760860399889
 20
226.0185675861751
 30
0.0
 40
0.3724651062386549
 50
89.29017710179693
 51
270.7098228982031
  0
ARC
  5
A83A
  8
0
 10
56.02878113638237
 20
227.7815170254543
 30
0.0
 40
2.135678174171317
 50
269.0521856153052
 51
304.9431031995392
  0
ARC
  5
A83B
  8
0
 10
55.98388093546896
 20
227.8864460633892
 30
0.0
 40
2.247528607778139
 50
304.3492687691318
 51
342.0336073987834
  0
ARC
  5
A83C
  8
0
 10
55.96985022703156
 20
227.8474222520683
 30
0.0
 40
2.249219839620582
 50
343.0895187182542
 51
0.3832968636579526
  0
ARC
  5
A83D
  8
0
 10
59.44663312707419
 20
230.2030402424254
 30
0.0
 40
0.3724661917305334
 50
89.27682506750826
 51
270.7231749324918
  0
ARC
  5
A83E
  8
0
 10
59.21692130887207
 20
228.526087117425
 30
0.0
 40
0.3541906372867973
 50
86.29944766479187
 51
273.7005523352082
  0
ARC
  5
A83F
  8
0
 10
60.42079770475281
 20
229.2378800547968
 30
0.0
 40
0.358803858625055
 50
267.0887535299613
 51
356.4733133196503
  0
ARC
  5
A840
  8
0
 10
60.44140533907057
 20
229.4931615072561
 30
0.0
 40
0.3396690833730922
 50
354.8685998202262
 51
96.56439594170052
  0
ARC
  5
A841
  8
0
 10
64.74309688524865
 20
230.2030402424254
 30
0.0
 40
0.3724651062386495
 50
269.2901771018636
 51
90.7098228981364
  0
ARC
  5
A842
  8
0
 10
63.07886620009538
 20
229.4537064744539
 30
0.0
 40
0.3768972758071489
 50
89.97665940658239
 51
180.0233405934893
  0
ARC
  5
A843
  8
0
 10
63.03671043351206
 20
229.2116225455038
 30
0.0
 40
0.3347676534002981
 50
179.2835006658344
 51
277.2606919210987
  0
ARC
  5
A844
  8
0
 10
63.06765651134682
 20
227.8065124993263
 30
0.0
 40
0.3662987656052747
 50
88.22229995736356
 51
176.6896381244135
  0
ARC
  5
A845
  8
0
 10
63.61358972471127
 20
227.2567690069361
 30
0.0
 40
0.9125541393853733
 50
182.5916258786893
 51
271.6600393676819
  0
ARC
  5
A846
  8
0
 10
64.76530104827293
 20
225.9953644611753
 30
0.0
 40
0.3502616083451314
 50
265.608746066266
 51
94.39125393373403
  0
ARC
  5
A847
  8
0
 10
62.96167971981934
 20
227.8729635991351
 30
0.0
 40
2.227259321723195
 50
225.0349285396396
 51
271.1216669202527
  0
ARC
  5
A848
  8
0
 10
62.70746166970247
 20
227.7024394841687
 30
0.0
 40
1.927871578424823
 50
179.3527648258316
 51
226.7994771726991
  0
ARC
  5
A849
  8
0
 10
60.60008253863435
 20
227.957350206881
 30
0.0
 40
0.1798521029892861
 50
357.1558279388276
 51
48.65700890603938
  0
ARC
  5
A84A
  8
0
 10
60.52984032741133
 20
227.8613072589521
 30
0.0
 40
0.2985497565163959
 50
50.7122642471553
 51
78.58034235835271
  0
ARC
  5
A84B
  8
0
 10
60.41503395109239
 20
227.3581861819763
 30
0.0
 40
0.8145440850389851
 50
77.67158325142975
 51
90.87644874463575
  0
ARC
  5
A84C
  8
0
 10
64.94827264105763
 20
228.5523506930918
 30
0.0
 40
0.3797198155434018
 50
270.2659772238895
 51
356.0405792706824
  0
ARC
  5
A84D
  8
0
 10
64.96166616666896
 20
228.5141065463087
 30
0.0
 40
0.365617762344841
 50
1.884695911894787
 51
91.822965253088
  0
LINE
  5
A84E
  8
0
 10
43.13197872118644
 20
230.5709943439876
 30
0.0
 11
47.7938732524367
 21
230.5709943439876
 31
0.0
  0
LINE
  5
A84F
  8
0
 10
46.93860958056166
 20
229.816804890863
 30
0.0
 11
43.13197872118644
 21
229.816804890863
 31
0.0
  0
LINE
  5
A850
  8
0
 10
44.0600158305615
 20
228.7959552814875
 30
0.0
 11
45.23713497118615
 21
228.7959552814875
 31
0.0
  0
LINE
  5
A851
  8
0
 10
45.7152599711867
 20
228.4558185627377
 30
0.0
 11
45.89947872118637
 21
227.8947248127376
 31
0.0
  0
LINE
  5
A852
  8
0
 10
43.79335567431143
 20
228.4558185627377
 30
0.0
 11
44.30839473681181
 21
226.7451154377379
 31
0.0
  0
LINE
  5
A853
  8
0
 10
45.8808459086863
 20
225.650789265863
 30
0.0
 11
46.22133418993644
 21
225.650789265863
 31
0.0
  0
LINE
  5
A854
  8
0
 10
46.49704708056152
 20
225.9910138752377
 30
0.0
 11
46.33146114306147
 21
226.5519318439876
 31
0.0
  0
LINE
  5
A855
  8
0
 10
52.62847286181113
 20
230.1984259846124
 30
0.0
 11
52.62847286181113
 21
227.6233185627377
 31
0.0
  0
LINE
  5
A856
  8
0
 10
53.00552364306122
 20
227.2462677814876
 30
0.0
 11
54.1733263774363
 21
227.2462677814876
 31
0.0
  0
LINE
  5
A857
  8
0
 10
54.5504650493117
 20
227.6233185627377
 30
0.0
 11
54.5504650493117
 21
230.1984259846124
 31
0.0
  0
LINE
  5
A858
  8
0
 10
54.1733263774363
 20
230.5664240314875
 30
0.0
 11
53.00552364306122
 21
230.5664240314875
 31
0.0
  0
LINE
  5
A859
  8
0
 10
56.29702754931122
 20
230.1984259846124
 30
0.0
 11
56.29702754931122
 21
227.3200080158624
 31
0.0
  0
LINE
  5
A85A
  8
0
 10
55.35897090868639
 20
226.3910041096126
 30
0.0
 11
55.09222286181148
 21
226.3910041096126
 31
0.0
  0
LINE
  5
A85B
  8
0
 10
55.09222286181148
 20
225.6461310627376
 30
0.0
 11
55.99345333056181
 21
225.6461310627376
 31
0.0
  0
LINE
  5
A85C
  8
0
 10
58.21901973681133
 20
227.8624689533628
 30
0.0
 11
58.21901973681133
 21
230.1984259846124
 31
0.0
  0
LINE
  5
A85D
  8
0
 10
57.85119747118642
 20
230.5664240314875
 30
0.0
 11
56.66476192431173
 21
230.5664240314875
 31
0.0
  0
LINE
  5
A85E
  8
0
 10
59.45133418993646
 20
230.5754767658629
 30
0.0
 11
64.7384826274365
 21
230.5754767658629
 31
0.0
  0
LINE
  5
A85F
  8
0
 10
64.7384826274365
 20
229.8306037189879
 30
0.0
 11
63.07901973681146
 21
229.8306037189879
 31
0.0
  0
LINE
  5
A860
  8
0
 10
62.70196895556138
 20
229.4535529377374
 30
0.0
 11
62.70196895556137
 21
229.2158087971127
 31
0.0
  0
LINE
  5
A861
  8
0
 10
63.07901973681146
 20
228.8795392658623
 30
0.0
 11
64.95003536181139
 21
228.8795392658623
 31
0.0
  0
LINE
  5
A862
  8
0
 10
64.95003536181139
 20
228.1726349689877
 30
0.0
 11
63.07901973681146
 21
228.1726349689877
 31
0.0
  0
LINE
  5
A863
  8
0
 10
62.70196895556137
 20
227.8276642658627
 30
0.0
 11
62.70196895556137
 21
227.2155060627376
 31
0.0
  0
LINE
  5
A864
  8
0
 10
63.64002559618666
 20
226.344597859613
 30
0.0
 11
64.7384826274365
 21
226.344597859613
 31
0.0
  0
LINE
  5
A865
  8
0
 10
64.7384826274365
 20
225.6461310627376
 30
0.0
 11
63.00527950243622
 21
225.6461310627376
 31
0.0
  0
LINE
  5
A866
  8
0
 10
60.7797130961867
 20
227.7242170002375
 30
0.0
 11
60.7797130961867
 21
227.9484259846124
 31
0.0
  0
LINE
  5
A867
  8
0
 10
60.4025744243113
 20
228.1726349689877
 30
0.0
 11
59.23978145556157
 21
228.1726349689877
 31
0.0
  0
LINE
  5
A868
  8
0
 10
59.23978145556157
 20
228.8795392658623
 30
0.0
 11
60.4025744243113
 21
228.8795392658623
 31
0.0
  0
LINE
  5
A869
  8
0
 10
60.77892208056165
 20
229.2158087971127
 30
0.0
 11
60.7797130961867
 21
229.4627814533626
 31
0.0
  0
LINE
  5
A86A
  8
0
 10
60.4025744243113
 20
229.8306037189879
 30
0.0
 11
59.45133418993646
 21
229.8306037189879
 31
0.0
  0
LINE
  5
A86E
  8
0
 10
44.90033809618626
 20
232.4509748127377
 30
0.0
 11
44.01844356493666
 21
232.4509748127377
 31
0.0
  0
LINE
  5
A86F
  8
0
 10
44.01844356493666
 20
232.4509748127377
 30
0.0
 11
44.01844356493666
 21
232.6163849689876
 31
0.0
  0
LINE
  5
A870
  8
0
 10
44.01844356493666
 20
232.6163849689876
 30
0.0
 11
45.09387325243642
 21
232.6163849689876
 31
0.0
  0
LINE
  5
A871
  8
0
 10
45.09387325243642
 20
232.6163849689876
 30
0.0
 11
45.09387325243642
 21
232.4509748127377
 31
0.0
  0
LINE
  5
A872
  8
0
 10
44.47477168993646
 20
232.030593953363
 30
0.0
 11
44.32403926806137
 21
232.2360822346129
 31
0.0
  0
LINE
  5
A873
  8
0
 10
44.32403926806137
 20
232.2360822346129
 30
0.0
 11
44.1705822368117
 21
232.1334259846128
 31
0.0
  0
LINE
  5
A874
  8
0
 10
44.57083614306157
 20
231.563631062738
 30
0.0
 11
44.72824825243652
 21
231.6623322346124
 31
0.0
  0
LINE
  5
A875
  8
0
 10
44.72824825243652
 20
231.6623322346124
 30
0.0
 11
44.58015254931115
 21
231.881179890863
 31
0.0
  0
ARC
  5
A876
  8
0
 10
34.35775638356554
 20
224.8149041090199
 30
0.0
 40
12.24141795992888
 50
33.45643062216249
 51
36.71601240395405
  0
ARC
  5
A877
  8
0
 10
44.07174330386146
 20
232.8641922264345
 30
0.0
 40
0.9259146617534648
 50
295.8028544447355
 51
333.4947229782731
  0
ARC
  5
A878
  8
0
 10
44.14461749811932
 20
232.7903332717608
 30
0.0
 40
1.008092580477948
 50
295.5970136290768
 51
340.3280553328837
  0
LINE
  5
A879
  8
0
 10
45.86775020556115
 20
232.1560138752377
 30
0.0
 11
45.86775020556115
 21
231.5796271564879
 31
0.0
  0
LINE
  5
A87A
  8
0
 10
45.86775020556115
 20
231.5796271564879
 30
0.0
 11
46.05987911181137
 21
231.5796271564879
 31
0.0
  0
LINE
  5
A87B
  8
0
 10
46.05987911181137
 20
231.5796271564879
 30
0.0
 11
46.05987911181137
 21
232.248123250238
 31
0.0
  0
LINE
  5
A87C
  8
0
 10
46.44545528368644
 20
232.5283185627379
 30
0.0
 11
46.33603145556162
 21
232.6537384846126
 31
0.0
  0
LINE
  5
A87D
  8
0
 10
45.33803340868644
 20
232.1800959064878
 30
0.0
 11
45.36607051806141
 21
232.0160041096126
 31
0.0
  0
ARC
  5
A87E
  8
0
 10
45.09474995630627
 20
233.9809583002087
 30
0.0
 40
1.817221010036674
 50
277.6936667564446
 51
313.0836814663463
  0
ARC
  5
A87F
  8
0
 10
45.27396661180975
 20
233.7350086952105
 30
0.0
 40
1.681810567258462
 50
297.8592692614841
 51
314.1519780416271
  0
ARC
  5
A880
  8
0
 10
45.08145891948325
 20
234.0046259621698
 30
0.0
 40
2.008885420952019
 50
278.1448623061171
 51
293.0420589932965
  0
LINE
  5
A881
  8
0
 10
47.17529903368631
 20
232.2468048908624
 30
0.0
 11
47.17529903368631
 21
232.2774787189876
 31
0.0
  0
LINE
  5
A882
  8
0
 10
47.17529903368631
 20
232.2774787189876
 30
0.0
 11
46.66025997118641
 21
232.2774787189876
 31
0.0
  0
LINE
  5
A883
  8
0
 10
46.66025997118641
 20
232.2774787189876
 30
0.0
 11
46.66025997118641
 21
232.446931843988
 31
0.0
  0
LINE
  5
A884
  8
0
 10
46.66025997118641
 20
232.446931843988
 30
0.0
 11
47.17529903368631
 21
232.446931843988
 31
0.0
  0
LINE
  5
A885
  8
0
 10
47.17529903368631
 20
232.446931843988
 30
0.0
 11
47.17529903368631
 21
232.696365437738
 31
0.0
  0
LINE
  5
A886
  8
0
 10
47.17529903368631
 20
232.696365437738
 30
0.0
 11
47.36206661181131
 21
232.696365437738
 31
0.0
  0
LINE
  5
A887
  8
0
 10
47.36206661181131
 20
232.696365437738
 30
0.0
 11
47.36206661181131
 21
232.446931843988
 31
0.0
  0
LINE
  5
A888
  8
0
 10
47.36206661181131
 20
232.446931843988
 30
0.0
 11
47.78903926806152
 21
232.446931843988
 31
0.0
  0
LINE
  5
A889
  8
0
 10
47.78903926806152
 20
232.446931843988
 30
0.0
 11
47.78903926806152
 21
232.2774787189876
 31
0.0
  0
LINE
  5
A88A
  8
0
 10
47.78903926806152
 20
232.2774787189876
 30
0.0
 11
47.36206661181131
 21
232.2774787189876
 31
0.0
  0
LINE
  5
A88B
  8
0
 10
47.36206661181131
 20
232.2774787189876
 30
0.0
 11
47.36206661181131
 21
232.2468048908624
 31
0.0
  0
LINE
  5
A88C
  8
0
 10
46.82971309618642
 20
231.5835822346127
 30
0.0
 11
46.7736388774365
 21
231.7490802814875
 31
0.0
  0
ARC
  5
A88D
  8
0
 10
46.40237051412204
 20
232.2322993591542
 30
0.0
 40
0.7730646200712835
 50
342.2910204567376
 51
1.075142363622295
  0
ARC
  5
A88E
  8
0
 10
46.84883908709902
 20
232.0961143962702
 30
0.0
 40
0.3063876798952075
 50
304.2370088981581
 51
341.1546735930816
  0
ARC
  5
A88F
  8
0
 10
46.67687034067105
 20
232.3784833253577
 30
0.0
 40
0.6367985092080606
 50
278.7405863986838
 51
302.7346045229082
  0
ARC
  5
A890
  8
0
 10
46.70441931145874
 20
232.359438901799
 30
0.0
 40
0.7859084555523594
 50
279.1735470624585
 51
305.3414915022681
  0
ARC
  5
A891
  8
0
 10
46.85359934896995
 20
232.1064557582046
 30
0.0
 40
0.4938678410143298
 50
308.2022886499759
 51
350.7296062183676
  0
ARC
  5
A892
  8
0
 10
46.30947755310304
 20
232.2365979788981
 30
0.0
 40
1.05263854554364
 50
348.508946732466
 51
0.5555773579723515
  0
LINE
  5
A893
  8
0
 10
48.78712520556155
 20
232.4602912189877
 30
0.0
 11
48.13198848681122
 21
232.4602912189877
 31
0.0
  0
LINE
  5
A894
  8
0
 10
48.13198848681122
 20
232.4602912189877
 30
0.0
 11
48.13198848681122
 21
232.624383015863
 31
0.0
  0
LINE
  5
A895
  8
0
 10
48.13198848681122
 20
232.624383015863
 30
0.0
 11
48.98584590868631
 21
232.624383015863
 31
0.0
  0
LINE
  5
A896
  8
0
 10
48.98584590868631
 20
232.624383015863
 30
0.0
 11
48.98584590868631
 21
232.4602912189877
 31
0.0
  0
LINE
  5
A897
  8
0
 10
49.10063106493681
 20
231.7156818439878
 30
0.0
 11
48.97784786181137
 21
231.5943048908627
 31
0.0
  0
LINE
  5
A898
  8
0
 10
48.09454708056137
 20
231.6023029377377
 30
0.0
 11
48.01447872118615
 21
231.7490802814875
 31
0.0
  0
ARC
  5
A899
  8
0
 10
47.31555533298866
 20
233.283677733416
 30
0.0
 40
1.686263099876902
 50
294.4866134087317
 51
330.7717068869524
  0
ARC
  5
A89A
  8
0
 10
47.24978877546855
 20
233.4126750133434
 30
0.0
 40
1.997764662355422
 50
295.0147624386637
 51
312.8436054073329
  0
ARC
  5
A89B
  8
0
 10
41.37531573621816
 20
224.0177771033201
 30
0.0
 40
10.73323194737177
 50
44.90184257982877
 51
47.63246263973681
  0
ARC
  5
A89C
  8
0
 10
42.14617892478311
 20
224.7138604993628
 30
0.0
 40
9.868632464113261
 50
45.19446774917355
 51
48.17612407225278
  0
ARC
  5
A89D
  8
0
 10
47.6126482176728
 20
233.0846678220544
 30
0.0
 40
1.508482032064661
 50
317.6232793949262
 51
335.5492736743415
  0
LINE
  5
A89E
  8
0
 10
49.6476623149365
 20
232.6590998127378
 30
0.0
 11
49.47284786181126
 21
232.6790509846125
 31
0.0
  0
LINE
  5
A89F
  8
0
 10
49.47284786181126
 20
231.5742658283627
 30
0.0
 11
49.6476623149365
 21
231.5943048908627
 31
0.0
  0
ARC
  5
A8A0
  8
0
 10
51.82399673873395
 20
232.1267023518003
 30
0.0
 40
2.24050855401593
 50
166.2536808747335
 51
193.7463191252665
  0
ARC
  5
A8A1
  8
0
 10
51.72627309725129
 20
232.1266584064876
 30
0.0
 40
2.320142851654927
 50
166.2264222050919
 51
193.7735777949081
  0
LINE
  5
A8A2
  8
0
 10
49.85578731493661
 20
232.4202130939877
 30
0.0
 11
49.85578731493661
 21
232.5763068439876
 31
0.0
  0
LINE
  5
A8A3
  8
0
 10
49.85578731493661
 20
232.5763068439876
 30
0.0
 11
50.42953731493662
 21
232.5763068439876
 31
0.0
  0
LINE
  5
A8A4
  8
0
 10
50.42953731493662
 20
232.5763068439876
 30
0.0
 11
50.42953731493662
 21
232.4202130939877
 31
0.0
  0
LINE
  5
A8A5
  8
0
 10
50.42953731493662
 20
232.4202130939877
 30
0.0
 11
49.85578731493661
 21
232.4202130939877
 31
0.0
  0
LINE
  5
A8A6
  8
0
 10
50.03596309618615
 20
232.0827130939876
 30
0.0
 11
49.91045528368613
 21
232.1828205158629
 31
0.0
  0
LINE
  5
A8A7
  8
0
 10
50.44149043993639
 20
231.8238752033623
 30
0.0
 11
50.46557247118653
 21
231.669099812738
 31
0.0
  0
ARC
  5
A8A8
  8
0
 10
50.2700635122457
 20
231.7648586887774
 30
0.0
 40
0.5513711698559726
 50
130.708220238404
 51
157.703625479385
  0
ARC
  5
A8A9
  8
0
 10
49.96061856925136
 20
231.8917203619308
 30
0.0
 40
0.2169312572480087
 50
157.6967650917142
 51
205.3984993646999
  0
ARC
  5
A8AA
  8
0
 10
50.02698863958527
 20
231.946017697811
 30
0.0
 40
0.3008800009813904
 50
209.3210192654115
 51
257.5935048122165
  0
ARC
  5
A8AB
  8
0
 10
50.15961532795592
 20
232.4580009109883
 30
0.0
 40
0.8296316180790294
 50
256.2444659394042
 51
275.2215523672216
  0
ARC
  5
A8AC
  8
0
 10
50.15724436771688
 20
232.8439037464728
 30
0.0
 40
1.214590672657983
 50
273.6760364924776
 51
284.7056607611161
  0
ARC
  5
A8AD
  8
0
 10
50.14568430461715
 20
233.0665393129799
 30
0.0
 40
1.277386143272562
 50
270.1640623199838
 51
283.3896060448867
  0
ARC
  5
A8AE
  8
0
 10
50.12692642604712
 20
232.1592078398118
 30
0.0
 40
0.3707277183708511
 50
242.6706422703897
 51
273.4664302047655
  0
ARC
  5
A8AF
  8
0
 10
50.00640184778203
 20
231.9008943963434
 30
0.0
 40
0.0866823147437489
 50
154.8854560630789
 51
235.0327799996414
  0
ARC
  5
A8B0
  8
0
 10
50.34545015413537
 20
231.7393761963848
 30
0.0
 40
0.4622363727478137
 50
132.0317914832259
 51
154.5946083240112
  0
LINE
  5
A8B1
  8
0
 10
50.90186153368631
 20
232.3976252033628
 30
0.0
 11
50.71641231493641
 21
232.3976252033628
 31
0.0
  0
LINE
  5
A8B2
  8
0
 10
50.71641231493641
 20
232.3976252033628
 30
0.0
 11
50.71641231493641
 21
232.549675984613
 31
0.0
  0
LINE
  5
A8B3
  8
0
 10
50.71641231493641
 20
232.549675984613
 30
0.0
 11
50.94457637743653
 21
232.549675984613
 31
0.0
  0
LINE
  5
A8B4
  8
0
 10
50.99124629931157
 20
232.7378498127375
 30
0.0
 11
51.15138301806155
 21
232.7164923908624
 31
0.0
  0
LINE
  5
A8B5
  8
0
 10
51.11130489306152
 20
232.549675984613
 30
0.0
 11
51.33419551806173
 21
232.549675984613
 31
0.0
  0
LINE
  5
A8B6
  8
0
 10
51.33419551806173
 20
232.549675984613
 30
0.0
 11
51.33419551806173
 21
232.3976252033628
 31
0.0
  0
LINE
  5
A8B7
  8
0
 10
51.33419551806173
 20
232.3976252033628
 30
0.0
 11
51.07131465868633
 21
232.3976252033628
 31
0.0
  0
LINE
  5
A8B8
  8
0
 10
50.84042598681162
 20
231.7291291096128
 30
0.0
 11
50.68573848681126
 21
231.781160359613
 31
0.0
  0
LINE
  5
A8B9
  8
0
 10
51.46893184618648
 20
232.549675984613
 30
0.0
 11
51.46893184618648
 21
232.0479962971123
 31
0.0
  0
LINE
  5
A8BA
  8
0
 10
51.6383849711865
 20
232.3934943439874
 30
0.0
 11
51.6383849711865
 21
231.965203328363
 31
0.0
  0
LINE
  5
A8BB
  8
0
 10
51.88790645556173
 20
232.5229572346127
 30
0.0
 11
51.86786739306126
 21
232.3708185627376
 31
0.0
  0
LINE
  5
A8BC
  8
0
 10
51.89449825243673
 20
231.7650763752374
 30
0.0
 11
51.78911739306113
 21
231.6477423908629
 31
0.0
  0
LINE
  5
A8BD
  8
0
 10
51.78911739306113
 20
231.6477423908629
 30
0.0
 11
51.63038692431155
 21
231.7798420002375
 31
0.0
  0
ARC
  5
A8BE
  8
0
 10
42.92107959564646
 20
234.6394974411344
 30
0.0
 40
8.291191369612257
 50
345.4009556896889
 51
346.740746954867
  0
ARC
  5
A8BF
  8
0
 10
44.37678254768481
 20
234.3390999301129
 30
0.0
 40
6.807788178855744
 50
337.9301136346513
 51
343.4301309136037
  0
ARC
  5
A8C0
  8
0
 10
45.15534858739834
 20
234.0667916448845
 30
0.0
 40
6.146931849803847
 50
337.647891114247
 51
344.2437969395151
  0
ARC
  5
A8C1
  8
0
 10
48.22945414164462
 20
233.330271624596
 30
0.0
 40
2.985698127172701
 50
344.84418349645
 51
348.136949894858
  0
ARC
  5
A8C2
  8
0
 10
51.49143897058525
 20
229.6042951641307
 30
0.0
 40
2.945466813310544
 50
82.26435931630422
 51
90.43781711643568
  0
ARC
  5
A8C3
  8
0
 10
51.58570134588825
 20
230.6877911532876
 30
0.0
 40
1.706516609687102
 50
80.48265313058977
 51
88.23088210500025
  0
ARC
  5
A8C4
  8
0
 10
50.67111454107268
 20
230.4633905834092
 30
0.0
 40
1.786352038619028
 50
46.77616557053221
 51
57.2156866531281
  0
ARC
  5
A8C5
  8
0
 10
51.40025390213544
 20
231.8102680800006
 30
0.0
 40
0.2321356375605922
 50
300.4982959066362
 51
352.4685567394949
  0
ARC
  5
A8C6
  8
0
 10
51.32984951683888
 20
232.0140092876541
 30
0.0
 40
0.4454740180557357
 50
260.8493170262734
 51
294.9930070723719
  0
ARC
  5
A8C7
  8
0
 10
51.27329405189607
 20
231.8483569851789
 30
0.0
 40
0.274524516799522
 50
210.6191600754503
 51
267.0164240300838
  0
ARC
  5
A8C8
  8
0
 10
51.27264975303353
 20
231.8217014016367
 30
0.0
 40
0.2613734309622749
 50
147.2334581988806
 51
205.6564160796831
  0
ARC
  5
A8C9
  8
0
 10
51.27761829581464
 20
231.7829377677317
 30
0.0
 40
0.2880874616600608
 50
91.03111037243933
 51
141.2747978514547
  0
ARC
  5
A8CA
  8
0
 10
51.32024310807716
 20
231.6282283352585
 30
0.0
 40
0.4453240198322287
 50
70.49501453935989
 51
96.16302987731919
  0
ARC
  5
A8CB
  8
0
 10
51.32306317960322
 20
231.6381951089852
 30
0.0
 40
0.2902930385304879
 50
59.83528150936421
 51
103.2201440558064
  0
ARC
  5
A8CC
  8
0
 10
51.27816164637235
 20
231.8243284506184
 30
0.0
 40
0.0988304488869036
 50
102.5568170755454
 51
180.262765637224
  0
ARC
  5
A8CD
  8
0
 10
51.28045616725624
 20
231.8211087261631
 30
0.0
 40
0.1011617650333014
 50
178.4329333203594
 51
256.0701828760615
  0
ARC
  5
A8CE
  8
0
 10
51.32722201670424
 20
231.9739776578003
 30
0.0
 40
0.2609345439815814
 50
254.1836782918791
 51
287.6043484841652
  0
ARC
  5
A8CF
  8
0
 10
51.37699042447231
 20
231.8044086960382
 30
0.0
 40
0.0843426031298885
 50
290.2187264652916
 51
350.7581622463694
  0
ARC
  5
A8D0
  8
0
 10
51.10227097165186
 20
231.8720587313631
 30
0.0
 40
0.3670603004158596
 50
347.2201738930314
 51
2.67316898487712
  0
LINE
  5
A8D1
  8
0
 10
52.20941036181148
 20
232.1573322346128
 30
0.0
 11
52.1774181743117
 21
232.3095587971127
 31
0.0
  0
LINE
  5
A8D2
  8
0
 10
52.36550411181133
 20
231.7638459064876
 30
0.0
 11
52.37754512743641
 21
231.6116193439877
 31
0.0
  0
ARC
  5
A8D3
  8
0
 10
52.79608475219854
 20
229.9765956963135
 30
0.0
 40
2.413600042319521
 50
93.0330778001963
 51
104.852125248309
  0
ARC
  5
A8D4
  8
0
 10
52.69343224161616
 20
231.8599968683385
 30
0.0
 40
0.5274133454568837
 50
60.91960556758053
 51
92.72310713201327
  0
ARC
  5
A8D5
  8
0
 10
52.79619597207151
 20
232.0883670244394
 30
0.0
 40
0.2786914630822537
 50
9.671194361801671
 51
56.55959162043498
  0
ARC
  5
A8D6
  8
0
 10
52.63619650665364
 20
232.047879954875
 30
0.0
 40
0.4434101722744036
 50
333.9597813248128
 51
11.35547973600739
  0
ARC
  5
A8D7
  8
0
 10
52.70757506049443
 20
232.0389263999846
 30
0.0
 40
0.3760688166287614
 50
291.9740011095546
 51
330.4090690351002
  0
ARC
  5
A8D8
  8
0
 10
52.52203315210059
 20
232.4326083751933
 30
0.0
 40
0.8109562744615367
 50
277.5911083880274
 51
293.7231081887235
  0
ARC
  5
A8D9
  8
0
 10
52.388850135734
 20
233.3011250036837
 30
0.0
 40
1.689543481937406
 50
269.6166218252729
 51
278.1772037059889
  0
ARC
  5
A8DA
  8
0
 10
52.40409914763721
 20
232.9172557229353
 30
0.0
 40
1.154055363259622
 50
268.0835017580472
 51
287.3544714703422
  0
ARC
  5
A8DB
  8
0
 10
52.68169839822276
 20
232.0315326557069
 30
0.0
 40
0.2258508101221847
 50
287.1599817388461
 51
352.3121354184231
  0
ARC
  5
A8DC
  8
0
 10
52.70757749126129
 20
232.0373230228742
 30
0.0
 40
0.2011894179017752
 50
349.6911030936221
 51
46.3182034235858
  0
ARC
  5
A8DD
  8
0
 10
52.67569695710571
 20
231.9157956452047
 30
0.0
 40
0.3169953313446048
 50
57.39040451094466
 51
96.72424011120249
  0
ARC
  5
A8DE
  8
0
 10
52.85523187775931
 20
229.668341027797
 30
0.0
 40
2.571412580288827
 50
94.8331371896795
 51
104.5458325788219
  0
LINE
  5
A8DF
  8
0
 10
53.61038692431157
 20
232.4202130939877
 30
0.0
 11
53.42889278368648
 21
232.4202130939877
 31
0.0
  0
LINE
  5
A8E0
  8
0
 10
53.42889278368648
 20
232.4202130939877
 30
0.0
 11
53.42889278368648
 21
232.5710334064877
 31
0.0
  0
LINE
  5
A8E1
  8
0
 10
53.42889278368648
 20
232.5710334064877
 30
0.0
 11
53.64106075243626
 21
232.5710334064877
 31
0.0
  0
LINE
  5
A8E2
  8
0
 10
53.64106075243626
 20
232.5710334064877
 30
0.0
 11
53.66909786181122
 21
232.7324884846127
 31
0.0
  0
LINE
  5
A8E3
  8
0
 10
53.66909786181122
 20
232.7324884846127
 30
0.0
 11
53.83863887743655
 21
232.7177228596126
 31
0.0
  0
LINE
  5
A8E4
  8
0
 10
53.83863887743655
 20
232.7177228596126
 30
0.0
 11
53.81323848681131
 21
232.5710334064877
 31
0.0
  0
LINE
  5
A8E5
  8
0
 10
53.81323848681131
 20
232.5710334064877
 30
0.0
 11
54.27897090868646
 21
232.5710334064877
 31
0.0
  0
LINE
  5
A8E6
  8
0
 10
54.27897090868646
 20
232.5710334064877
 30
0.0
 11
54.27897090868646
 21
232.4202130939877
 31
0.0
  0
LINE
  5
A8E7
  8
0
 10
54.27897090868646
 20
232.4202130939877
 30
0.0
 11
53.78397090868657
 21
232.4202130939877
 31
0.0
  0
LINE
  5
A8E8
  8
0
 10
53.55703731493622
 20
231.5689923908623
 30
0.0
 11
53.3889025493113
 21
231.6076642658629
 31
0.0
  0
LINE
  5
A8E9
  8
0
 10
53.94129512743666
 20
232.1334259846128
 30
0.0
 11
53.93066036181153
 21
232.2827521564879
 31
0.0
  0
LINE
  5
A8EA
  8
0
 10
54.48032833056141
 20
232.3135138752379
 30
0.0
 11
54.48032833056141
 21
232.1640998127379
 31
0.0
  0
LINE
  5
A8EB
  8
0
 10
54.08007442431153
 20
231.9626545002377
 30
0.0
 11
53.9586974711865
 21
232.039910359613
 31
0.0
  0
LINE
  5
A8EC
  8
0
 10
54.49105098681139
 20
231.7704377033626
 30
0.0
 11
54.51109004931141
 21
231.619705281488
 31
0.0
  0
ARC
  5
A8ED
  8
0
 10
47.01143885224883
 20
233.7824923661472
 30
0.0
 40
6.738094721294446
 50
341.1697144444025
 51
348.3357808241415
  0
ARC
  5
A8EE
  8
0
 10
47.03051474647854
 20
233.7648095097253
 30
0.0
 40
6.886008252687487
 50
341.4047346856015
 51
348.7397953124075
  0
ARC
  5
A8EF
  8
0
 10
54.46814351763316
 20
227.6049675352133
 30
0.0
 40
4.708562105975219
 50
89.85172986605279
 51
96.5546104840503
  0
ARC
  5
A8F0
  8
0
 10
54.46915602137184
 20
227.6088616232212
 30
0.0
 40
4.555251890260736
 50
89.85947499256585
 51
96.65436322543613
  0
ARC
  5
A8F1
  8
0
 10
54.18685431908089
 20
231.7252769045773
 30
0.0
 40
0.3886512038689388
 50
125.9477923082765
 51
153.9456213275426
  0
ARC
  5
A8F2
  8
0
 10
53.99978889060158
 20
231.8312986978014
 30
0.0
 40
0.1745196541164178
 50
158.2451995748853
 51
211.937738790848
  0
ARC
  5
A8F3
  8
0
 10
54.10853904793871
 20
231.9254057176591
 30
0.0
 40
0.3173766808952333
 50
215.9728103304899
 51
258.577083270988
  0
ARC
  5
A8F4
  8
0
 10
54.22196071284161
 20
232.3136901616562
 30
0.0
 40
0.7212479843673572
 50
255.8532185042195
 51
272.6578213791558
  0
ARC
  5
A8F5
  8
0
 10
54.22575990582907
 20
233.126710631685
 30
0.0
 40
1.533779128917274
 50
271.1075186277241
 51
280.7212356446171
  0
ARC
  5
A8F6
  8
0
 10
54.21305002584164
 20
233.210916122205
 30
0.0
 40
1.467059170398629
 50
270.0695624886666
 51
280.923337658684
  0
ARC
  5
A8F7
  8
0
 10
54.20865017539031
 20
232.111155951949
 30
0.0
 40
0.3680274217404644
 50
240.6869572496387
 51
273.2459162436446
  0
ARC
  5
A8F8
  8
0
 10
54.06797053583703
 20
231.8536670534447
 30
0.0
 40
0.074711058388821
 50
182.4248820533392
 51
238.082482720991
  0
ARC
  5
A8F9
  8
0
 10
54.07651269374476
 20
231.8455408576844
 30
0.0
 40
0.0833343655532817
 50
131.1757227927974
 51
176.5841957139148
  0
ARC
  5
A8FA
  8
0
 10
54.53985796740214
 20
231.410156172382
 30
0.0
 40
0.7187873877436253
 50
129.7668863169349
 51
136.1330162188036
  0
LINE
  5
A8FB
  8
0
 10
54.99941036181144
 20
232.6604181721125
 30
0.0
 11
54.98077754931137
 21
232.509597859613
 31
0.0
  0
LINE
  5
A8FC
  8
0
 10
55.6345080180613
 20
232.6203400471124
 30
0.0
 11
55.6345080180613
 21
232.4695197346129
 31
0.0
  0
LINE
  5
A8FD
  8
0
 10
55.05267208056148
 20
232.3934943439874
 30
0.0
 11
54.8793517680615
 21
232.4069416096129
 31
0.0
  0
LINE
  5
A8FE
  8
0
 10
54.8793517680615
 20
232.4069416096129
 30
0.0
 11
54.81255489306113
 21
231.9892853596127
 31
0.0
  0
LINE
  5
A8FF
  8
0
 10
54.81255489306113
 20
231.9892853596127
 30
0.0
 11
54.97146114306133
 21
231.9545685627374
 31
0.0
  0
LINE
  5
A900
  8
0
 10
55.01813106493637
 20
232.1373810627376
 30
0.0
 11
55.05267208056148
 21
232.3934943439874
 31
0.0
  0
LINE
  5
A901
  8
0
 10
54.92602168993653
 20
231.750398640863
 30
0.0
 11
54.91406856493631
 21
231.5970295002378
 31
0.0
  0
ARC
  5
A902
  8
0
 10
55.43399971825424
 20
231.543122329285
 30
0.0
 40
0.725320742221686
 50
82.73839553073087
 51
124.9847424284259
  0
ARC
  5
A903
  8
0
 10
55.51424843690595
 20
231.9691595461937
 30
0.0
 40
0.2936885684487056
 50
25.47750666320868
 51
87.76921556057754
  0
ARC
  5
A904
  8
0
 10
55.44638886227668
 20
231.962586120039
 30
0.0
 40
0.3585317338785675
 50
321.3543299701645
 51
21.75842031571825
  0
ARC
  5
A905
  8
0
 10
55.37076651704883
 20
232.0944522268409
 30
0.0
 40
0.5030455772132802
 50
274.9636499740979
 51
314.989839151749
  0
ARC
  5
A906
  8
0
 10
55.17878747626947
 20
233.5507961891931
 30
0.0
 40
1.971618719957279
 50
262.2838934043666
 51
276.8602022226234
  0
ARC
  5
A907
  8
0
 10
55.23959338752316
 20
234.4587422115916
 30
0.0
 40
2.726435788097946
 50
263.3957068302936
 51
271.0732963894559
  0
ARC
  5
A908
  8
0
 10
55.29777609091045
 20
232.1218444150419
 30
0.0
 40
0.3891246493399197
 50
268.9526659567916
 51
311.9026700510424
  0
ARC
  5
A909
  8
0
 10
55.42184816720466
 20
231.9532990527719
 30
0.0
 40
0.1819431806139916
 50
318.2838146029565
 51
32.76134975180928
  0
ARC
  5
A90A
  8
0
 10
55.42043164783957
 20
231.9029170411498
 30
0.0
 40
0.2144715613892272
 50
43.94597849543317
 51
93.25534829105182
  0
ARC
  5
A90B
  8
0
 10
55.39829567840501
 20
231.5990274728393
 30
0.0
 40
0.518110737832
 50
88.89882867160388
 51
112.7433476052045
  0
ARC
  5
A90C
  8
0
 10
55.64190501428747
 20
230.9835419925859
 30
0.0
 40
1.179994739142887
 50
112.0984440204111
 51
124.6230820154886
  0
ARC
  5
A90D
  8
0
 10
55.63247403871698
 20
237.6401823931386
 30
0.0
 40
5.019842758098118
 50
262.7550085222148
 51
270.023215555127
  0
ARC
  5
A90E
  8
0
 10
55.63385476779281
 20
237.8105340992689
 30
0.0
 40
5.341014404604963
 50
262.9765318468749
 51
270.0070077480808
  0
LINE
  5
A90F
  8
0
 10
56.20025997118637
 20
232.0559943439877
 30
0.0
 11
56.20025997118637
 21
232.6563752033628
 31
0.0
  0
LINE
  5
A910
  8
0
 10
56.20025997118637
 20
232.6563752033628
 30
0.0
 11
56.38702754931137
 21
232.6563752033628
 31
0.0
  0
LINE
  5
A911
  8
0
 10
56.38702754931137
 20
232.6563752033628
 30
0.0
 11
56.38702754931137
 21
232.0559943439877
 31
0.0
  0
LINE
  5
A912
  8
0
 10
56.38702754931137
 20
232.0559943439877
 30
0.0
 11
56.20025997118637
 21
232.0559943439877
 31
0.0
  0
LINE
  5
A913
  8
0
 10
56.87130489306173
 20
232.2868830158625
 30
0.0
 11
56.87130489306173
 21
232.6563752033628
 31
0.0
  0
LINE
  5
A914
  8
0
 10
56.87130489306173
 20
232.6563752033628
 30
0.0
 11
57.06220333056126
 21
232.6563752033628
 31
0.0
  0
LINE
  5
A915
  8
0
 10
57.06220333056126
 20
232.6563752033628
 30
0.0
 11
57.06220333056126
 21
232.2908380939877
 31
0.0
  0
LINE
  5
A916
  8
0
 10
56.36567012743626
 20
231.5663556721126
 30
0.0
 11
56.32831661181126
 21
231.7304474689874
 31
0.0
  0
LINE
  5
A917
  8
0
 10
57.76128536181113
 20
231.9304865314877
 30
0.0
 11
57.76128536181113
 21
232.0733087971127
 31
0.0
  0
LINE
  5
A918
  8
0
 10
57.76128536181113
 20
232.0733087971127
 30
0.0
 11
57.39179317431126
 21
232.0733087971127
 31
0.0
  0
LINE
  5
A919
  8
0
 10
57.39179317431126
 20
232.0733087971127
 30
0.0
 11
57.39179317431126
 21
232.2334455158627
 31
0.0
  0
LINE
  5
A91A
  8
0
 10
57.39179317431126
 20
232.2334455158627
 30
0.0
 11
57.76128536181113
 21
232.2334455158627
 31
0.0
  0
LINE
  5
A91B
  8
0
 10
57.76128536181113
 20
232.2334455158627
 30
0.0
 11
57.76128536181113
 21
232.4695197346129
 31
0.0
  0
LINE
  5
A91C
  8
0
 10
57.76128536181113
 20
232.4695197346129
 30
0.0
 11
57.50772090868622
 21
232.4695197346129
 31
0.0
  0
LINE
  5
A91D
  8
0
 10
57.50772090868622
 20
232.4695197346129
 30
0.0
 11
57.50772090868622
 21
232.6337873127379
 31
0.0
  0
LINE
  5
A91E
  8
0
 10
57.50772090868622
 20
232.6337873127379
 30
0.0
 11
58.42310176806131
 21
232.6337873127379
 31
0.0
  0
LINE
  5
A91F
  8
0
 10
58.42310176806131
 20
232.6337873127379
 30
0.0
 11
58.42310176806131
 21
232.4695197346129
 31
0.0
  0
LINE
  5
A920
  8
0
 10
58.42310176806131
 20
232.4695197346129
 30
0.0
 11
57.95613887743639
 21
232.4695197346129
 31
0.0
  0
LINE
  5
A921
  8
0
 10
57.95613887743639
 20
232.4695197346129
 30
0.0
 11
57.95613887743639
 21
232.2334455158627
 31
0.0
  0
LINE
  5
A922
  8
0
 10
57.95613887743639
 20
232.2334455158627
 30
0.0
 11
58.53920528368644
 21
232.2334455158627
 31
0.0
  0
LINE
  5
A923
  8
0
 10
58.53920528368644
 20
232.2334455158627
 30
0.0
 11
58.53920528368644
 21
232.0733087971127
 31
0.0
  0
LINE
  5
A924
  8
0
 10
58.53920528368644
 20
232.0733087971127
 30
0.0
 11
57.95613887743639
 21
232.0733087971127
 31
0.0
  0
LINE
  5
A925
  8
0
 10
57.95613887743639
 20
232.0733087971127
 30
0.0
 11
57.95613887743639
 21
231.9358478596125
 31
0.0
  0
LINE
  5
A926
  8
0
 10
58.43646114306148
 20
231.775711140863
 30
0.0
 11
58.44173458056139
 21
231.6103888752379
 31
0.0
  0
ARC
  5
A927
  8
0
 10
56.06603300268429
 20
232.2696609479491
 30
0.0
 40
0.8054560304915982
 50
340.9437882329723
 51
1.225178000018496
  0
ARC
  5
A928
  8
0
 10
56.50331369974418
 20
232.1275839226177
 30
0.0
 40
0.345855307889423
 50
291.670576553406
 51
339.5389467977661
  0
ARC
  5
A929
  8
0
 10
56.22617633258466
 20
232.7816549279286
 30
0.0
 40
1.056158017710445
 50
275.5497072742328
 51
292.5397602820191
  0
ARC
  5
A92A
  8
0
 10
56.29352495102288
 20
232.6144564293255
 30
0.0
 40
1.050580850648829
 50
273.9376978144313
 51
296.3652409231708
  0
ARC
  5
A92B
  8
0
 10
56.50691325681837
 20
232.1494255982346
 30
0.0
 40
0.5393756653461665
 50
297.9933108679138
 51
349.2973959047167
  0
ARC
  5
A92C
  8
0
 10
56.01234402685574
 20
232.2786596305362
 30
0.0
 40
1.049929936971548
 50
347.3794742886816
 51
0.6646064465848662
  0
ARC
  5
A92D
  8
0
 10
58.25061254406245
 20
231.9008968154135
 30
0.0
 40
0.4902210140205808
 50
176.5395261482863
 51
206.0121964930288
  0
ARC
  5
A92E
  8
0
 10
57.99301301416079
 20
231.8380190520938
 30
0.0
 40
0.2379373016522034
 50
219.7400975832281
 51
273.8636407009164
  0
ARC
  5
A92F
  8
0
 10
58.14657881403456
 20
235.0971672917791
 30
0.0
 40
3.499248583992225
 50
267.747489334722
 51
274.8385522250587
  0
ARC
  5
A930
  8
0
 10
58.13313627712591
 20
235.2947706773207
 30
0.0
 40
3.532107868600457
 50
269.5594493554569
 51
274.926425743971
  0
ARC
  5
A931
  8
0
 10
58.10685295089337
 20
232.0980338163639
 30
0.0
 40
0.3352677379612373
 50
252.6101303751348
 51
269.8504673977251
  0
ARC
  5
A932
  8
0
 10
58.03117260889041
 20
231.8388802392654
 30
0.0
 40
0.0655496828836007
 50
188.1794661638693
 51
248.0315991587105
  0
ARC
  5
A933
  8
0
 10
58.41283809890551
 20
231.9258303563874
 30
0.0
 40
0.4568090730928223
 50
178.7434429434794
 51
192.1667740459287
  0
LINE
  5
A934
  8
0
 10
58.74864864306164
 20
232.0372736408628
 30
0.0
 11
58.74864864306164
 21
232.2160431721124
 31
0.0
  0
LINE
  5
A935
  8
0
 10
58.74864864306164
 20
232.2160431721124
 30
0.0
 11
59.85070918993642
 21
232.2160431721124
 31
0.0
  0
LINE
  5
A936
  8
0
 10
59.85070918993642
 20
232.2160431721124
 30
0.0
 11
59.85070918993642
 21
232.0372736408628
 31
0.0
  0
LINE
  5
A937
  8
0
 10
59.85070918993642
 20
232.0372736408628
 30
0.0
 11
58.74864864306164
 21
232.0372736408628
 31
0.0
  0
LINE
  5
A938
  8
0
 10
60.45645137743622
 20
232.1213849689877
 30
0.0
 11
60.45645137743622
 21
231.5756720783627
 31
0.0
  0
LINE
  5
A939
  8
0
 10
60.45645137743622
 20
231.5756720783627
 30
0.0
 11
60.26968379931122
 21
231.5756720783627
 31
0.0
  0
LINE
  5
A93A
  8
0
 10
60.26968379931122
 20
231.5756720783627
 30
0.0
 11
60.26968379931122
 21
232.6778205158627
 31
0.0
  0
LINE
  5
A93B
  8
0
 10
60.26968379931122
 20
232.6778205158627
 30
0.0
 11
60.45645137743622
 21
232.6778205158627
 31
0.0
  0
LINE
  5
A93C
  8
0
 10
60.45645137743622
 20
232.6778205158627
 30
0.0
 11
60.45645137743622
 21
232.304109578363
 31
0.0
  0
LINE
  5
A93D
  8
0
 10
61.18225215868642
 20
232.0813068439877
 30
0.0
 11
61.12626583056181
 21
231.9132599689876
 31
0.0
  0
ARC
  5
A93E
  8
0
 10
58.86105535365106
 20
225.8133741716572
 30
0.0
 40
6.683931073296139
 50
69.67895110286437
 51
76.19068882595862
  0
ARC
  5
A93F
  8
0
 10
58.91330410086649
 20
225.9731276343791
 30
0.0
 40
6.338956678330691
 50
69.56741481783094
 51
75.9104163881585
  0
LINE
  5
A940
  8
0
 10
61.52379512743664
 20
231.7304474689874
 30
0.0
 11
61.52379512743664
 21
231.9065802814877
 31
0.0
  0
LINE
  5
A941
  8
0
 10
61.52379512743664
 20
231.9065802814877
 30
0.0
 11
61.41850215868681
 21
231.883904500238
 31
0.0
  0
LINE
  5
A942
  8
0
 10
61.41850215868681
 20
231.883904500238
 30
0.0
 11
61.40646114306173
 21
232.039910359613
 31
0.0
  0
LINE
  5
A943
  8
0
 10
61.40646114306173
 20
232.039910359613
 30
0.0
 11
61.52379512743664
 21
232.0639923908627
 31
0.0
  0
LINE
  5
A944
  8
0
 10
61.52379512743664
 20
232.0639923908627
 30
0.0
 11
61.52379512743664
 21
232.353592000238
 31
0.0
  0
LINE
  5
A945
  8
0
 10
61.52379512743664
 20
232.353592000238
 30
0.0
 11
61.40786739306122
 21
232.353592000238
 31
0.0
  0
LINE
  5
A946
  8
0
 10
61.40786739306122
 20
232.353592000238
 30
0.0
 11
61.40786739306122
 21
232.5002814533629
 31
0.0
  0
LINE
  5
A947
  8
0
 10
61.40786739306122
 20
232.5002814533629
 30
0.0
 11
61.52379512743664
 21
232.5002814533629
 31
0.0
  0
LINE
  5
A948
  8
0
 10
61.52379512743664
 20
232.5002814533629
 30
0.0
 11
61.52379512743664
 21
232.7310822346128
 31
0.0
  0
LINE
  5
A949
  8
0
 10
61.52379512743664
 20
232.7310822346128
 30
0.0
 11
61.69201778368642
 21
232.7310822346128
 31
0.0
  0
LINE
  5
A94A
  8
0
 10
61.69201778368642
 20
232.7310822346128
 30
0.0
 11
61.69201778368642
 21
232.5002814533629
 31
0.0
  0
LINE
  5
A94B
  8
0
 10
61.69201778368642
 20
232.5002814533629
 30
0.0
 11
61.80407833056142
 21
232.5002814533629
 31
0.0
  0
LINE
  5
A94C
  8
0
 10
61.80407833056142
 20
232.5002814533629
 30
0.0
 11
61.80407833056142
 21
232.3695880939879
 31
0.0
  0
LINE
  5
A94D
  8
0
 10
61.80407833056142
 20
232.3695880939879
 30
0.0
 11
62.19237911181153
 21
232.3695880939879
 31
0.0
  0
LINE
  5
A94E
  8
0
 10
62.19237911181153
 20
232.3695880939879
 30
0.0
 11
62.19237911181153
 21
232.0866681721129
 31
0.0
  0
LINE
  5
A94F
  8
0
 10
62.19237911181153
 20
232.0866681721129
 30
0.0
 11
62.23236934618626
 21
232.0866681721129
 31
0.0
  0
LINE
  5
A950
  8
0
 10
62.23236934618626
 20
232.0866681721129
 30
0.0
 11
62.23236934618626
 21
232.3695880939879
 31
0.0
  0
LINE
  5
A951
  8
0
 10
62.23236934618626
 20
232.3695880939879
 30
0.0
 11
62.63525997118631
 21
232.3695880939879
 31
0.0
  0
LINE
  5
A952
  8
0
 10
62.63525997118631
 20
232.3695880939879
 30
0.0
 11
62.63525997118631
 21
232.0532697346127
 31
0.0
  0
LINE
  5
A953
  8
0
 10
62.63525997118631
 20
232.0532697346127
 30
0.0
 11
62.29644161181113
 21
232.0532697346127
 31
0.0
  0
LINE
  5
A954
  8
0
 10
62.29644161181113
 20
232.0532697346127
 30
0.0
 11
62.29644161181113
 21
232.0039630939875
 31
0.0
  0
LINE
  5
A955
  8
0
 10
62.29644161181113
 20
232.0039630939875
 30
0.0
 11
62.65793575243652
 21
232.0039630939875
 31
0.0
  0
LINE
  5
A956
  8
0
 10
62.65793575243652
 20
232.0039630939875
 30
0.0
 11
62.65793575243652
 21
231.8665021564877
 31
0.0
  0
LINE
  5
A957
  8
0
 10
62.65793575243652
 20
231.8665021564877
 30
0.0
 11
62.38986934618652
 21
231.8665021564877
 31
0.0
  0
LINE
  5
A958
  8
0
 10
62.03224239306155
 20
231.8665021564877
 30
0.0
 11
61.75872676806148
 21
231.8665021564877
 31
0.0
  0
LINE
  5
A959
  8
0
 10
61.75872676806148
 20
231.8665021564877
 30
0.0
 11
61.75872676806148
 21
231.974519734613
 31
0.0
  0
LINE
  5
A95A
  8
0
 10
61.75872676806148
 20
231.974519734613
 30
0.0
 11
61.69201778368642
 21
231.9532502033628
 31
0.0
  0
LINE
  5
A95B
  8
0
 10
61.69201778368642
 20
231.9532502033628
 30
0.0
 11
61.69201778368642
 21
231.7437189533627
 31
0.0
  0
LINE
  5
A95C
  8
0
 10
61.72005489306139
 20
231.6797345783627
 30
0.0
 11
61.79608028368648
 21
231.5449103596127
 31
0.0
  0
LINE
  5
A95D
  8
0
 10
62.1230334086863
 20
231.778435750238
 30
0.0
 11
62.1230334086863
 21
231.5289142658628
 31
0.0
  0
LINE
  5
A95E
  8
0
 10
62.1230334086863
 20
231.5289142658628
 30
0.0
 11
62.29644161181113
 21
231.5289142658628
 31
0.0
  0
LINE
  5
A95F
  8
0
 10
62.29644161181113
 20
231.5289142658628
 30
0.0
 11
62.29644161181113
 21
231.781160359613
 31
0.0
  0
LINE
  5
A960
  8
0
 10
62.67929317431162
 20
231.6797345783627
 30
0.0
 11
62.59931270556126
 21
231.5449103596127
 31
0.0
  0
LINE
  5
A961
  8
0
 10
61.8681505961863
 20
232.7177228596126
 30
0.0
 11
62.57531856493642
 21
232.7177228596126
 31
0.0
  0
LINE
  5
A962
  8
0
 10
62.57531856493642
 20
232.7177228596126
 30
0.0
 11
62.57531856493642
 21
232.4055353596125
 31
0.0
  0
LINE
  5
A963
  8
0
 10
62.57531856493642
 20
232.4055353596125
 30
0.0
 11
61.8681505961863
 21
232.4055353596125
 31
0.0
  0
LINE
  5
A964
  8
0
 10
61.8681505961863
 20
232.4055353596125
 30
0.0
 11
61.8681505961863
 21
232.7177228596126
 31
0.0
  0
LINE
  5
A965
  8
0
 10
62.03083614306161
 20
232.5829865314874
 30
0.0
 11
62.03083614306161
 21
232.5242755939878
 31
0.0
  0
LINE
  5
A966
  8
0
 10
62.03083614306161
 20
232.5242755939878
 30
0.0
 11
62.40577754931155
 21
232.5242755939878
 31
0.0
  0
LINE
  5
A967
  8
0
 10
62.40577754931155
 20
232.5242755939878
 30
0.0
 11
62.40577754931155
 21
232.5829865314874
 31
0.0
  0
LINE
  5
A968
  8
0
 10
62.40577754931155
 20
232.5829865314874
 30
0.0
 11
62.03083614306161
 21
232.5829865314874
 31
0.0
  0
LINE
  5
A969
  8
0
 10
61.69201778368642
 20
232.108025593988
 30
0.0
 11
61.69201778368642
 21
232.353592000238
 31
0.0
  0
LINE
  5
A96A
  8
0
 10
61.69201778368642
 20
232.353592000238
 30
0.0
 11
61.79071895556126
 21
232.353592000238
 31
0.0
  0
LINE
  5
A96B
  8
0
 10
61.79071895556126
 20
232.353592000238
 30
0.0
 11
61.79071895556126
 21
232.1400177814878
 31
0.0
  0
LINE
  5
A96C
  8
0
 10
61.79071895556126
 20
232.1400177814878
 30
0.0
 11
61.69201778370252
 21
232.1080255939931
 31
0.0
  0
LINE
  5
A96D
  8
0
 10
62.1230334086863
 20
232.0039630939875
 30
0.0
 11
61.80548458056137
 21
232.0039630939875
 31
0.0
  0
LINE
  5
A96E
  8
0
 10
61.80548458056137
 20
232.0039630939875
 30
0.0
 11
61.80275997118633
 21
232.0532697346127
 31
0.0
  0
LINE
  5
A96F
  8
0
 10
61.80275997118633
 20
232.0532697346127
 30
0.0
 11
62.1230334086863
 21
232.0532697346127
 31
0.0
  0
LINE
  5
A970
  8
0
 10
62.1230334086863
 20
232.0532697346127
 30
0.0
 11
62.1230334086863
 21
232.0039630939875
 31
0.0
  0
LINE
  5
A971
  8
0
 10
62.05351192431135
 20
232.173416218988
 30
0.0
 11
61.93617793993644
 21
232.173416218988
 31
0.0
  0
LINE
  5
A972
  8
0
 10
61.93617793993644
 20
232.173416218988
 30
0.0
 11
61.93617793993644
 21
232.2453986408629
 31
0.0
  0
LINE
  5
A973
  8
0
 10
61.93617793993644
 20
232.2453986408629
 30
0.0
 11
62.05351192431135
 21
232.2453986408629
 31
0.0
  0
LINE
  5
A974
  8
0
 10
62.05351192431135
 20
232.2453986408629
 30
0.0
 11
62.05351192431135
 21
232.173416218988
 31
0.0
  0
LINE
  5
A975
  8
0
 10
62.36842403368655
 20
232.173416218988
 30
0.0
 11
62.36842403368655
 21
232.2453986408629
 31
0.0
  0
LINE
  5
A976
  8
0
 10
62.36842403368655
 20
232.2453986408629
 30
0.0
 11
62.48452754931122
 21
232.2453986408629
 31
0.0
  0
LINE
  5
A977
  8
0
 10
62.48452754931122
 20
232.2453986408629
 30
0.0
 11
62.48452754931122
 21
232.173416218988
 31
0.0
  0
LINE
  5
A978
  8
0
 10
62.48452754931122
 20
232.173416218988
 30
0.0
 11
62.36842403368655
 21
232.173416218988
 31
0.0
  0
LINE
  5
A979
  8
0
 10
61.41314083056113
 20
231.6757795002379
 30
0.0
 11
61.42122676806139
 21
231.5329572346129
 31
0.0
  0
ARC
  5
A97A
  8
0
 10
61.62535261721457
 20
233.9382258582081
 30
0.0
 40
2.272377029695415
 50
264.6414777738622
 51
266.9348152461827
  0
ARC
  5
A97B
  8
0
 10
61.50617972700464
 20
231.6914545920967
 30
0.0
 40
0.022476476334337
 50
264.03501221812
 51
306.5640674473047
  0
ARC
  5
A97C
  8
0
 10
61.50749320566494
 20
231.6820250596175
 30
0.0
 40
0.014839073681366
 50
324.4701988857918
 51
4.421974038740647
  0
ARC
  5
A97D
  8
0
 10
61.01692946217358
 20
231.7229409086969
 30
0.0
 40
0.5069212474043316
 50
355.5000960438273
 51
0.8484748777902161
  0
ARC
  5
A97E
  8
0
 10
61.63483598799701
 20
234.0666576726074
 30
0.0
 40
2.542688893344043
 50
265.1809484774698
 51
267.5208014624529
  0
ARC
  5
A97F
  8
0
 10
61.53231194556473
 20
232.2737689070639
 30
0.0
 40
0.7474574208886295
 50
269.4278258300276
 51
274.7828769779775
  0
ARC
  5
A980
  8
0
 10
61.58194420662668
 20
231.6700955668766
 30
0.0
 40
0.1417505388387061
 50
275.1365035074422
 51
297.894765149848
  0
ARC
  5
A981
  8
0
 10
61.61222055856106
 20
231.6042063668816
 30
0.0
 40
0.0694715375261978
 50
301.2514755256504
 51
351.3397225057918
  0
ARC
  5
A982
  8
0
 10
61.37097983889954
 20
231.6740162292263
 30
0.0
 40
0.3201466567477245
 50
345.4792488797654
 51
359.0668339659391
  0
ARC
  5
A983
  8
0
 10
59.49868979905703
 20
231.733592059267
 30
0.0
 40
2.193351363129598
 50
358.3072842196231
 51
0.2645405394391241
  0
ARC
  5
A984
  8
0
 10
61.25338018083364
 20
232.8140941687784
 30
0.0
 40
1.226603834737866
 50
292.3622304129851
 51
309.4180965652807
  0
ARC
  5
A985
  8
0
 10
61.17970216562057
 20
232.753528309601
 30
0.0
 40
1.356716379153855
 50
297.0209406626466
 51
314.0515009572343
  0
ARC
  5
A986
  8
0
 10
63.25416393633061
 20
232.6966902092378
 30
0.0
 40
1.324925264474462
 50
223.7097081622024
 51
240.3793491799922
  0
ARC
  5
A987
  8
0
 10
63.27546236360382
 20
232.9212225901773
 30
0.0
 40
1.377211017143197
 50
229.981595629291
 51
244.349432299083
  0
LINE
  5
A988
  8
0
 10
63.23968379931148
 20
232.7044513752378
 30
0.0
 11
63.07559200243622
 21
232.736443562738
 31
0.0
  0
LINE
  5
A989
  8
0
 10
62.80075801806152
 20
232.1520587971129
 30
0.0
 11
62.87019161181115
 21
231.9732892658623
 31
0.0
  0
LINE
  5
A98A
  8
0
 10
62.96616817431141
 20
232.1026642658628
 30
0.0
 11
62.96616817431141
 21
231.5223224689878
 31
0.0
  0
LINE
  5
A98B
  8
0
 10
62.96616817431141
 20
231.5223224689878
 30
0.0
 11
63.14502559618631
 21
231.5223224689878
 31
0.0
  0
LINE
  5
A98C
  8
0
 10
63.14502559618631
 20
231.5223224689878
 30
0.0
 11
63.14502559618631
 21
232.3882209064879
 31
0.0
  0
LINE
  5
A98D
  8
0
 10
63.15829708056162
 20
232.2187677814875
 30
0.0
 11
63.29980098681153
 21
232.110750203363
 31
0.0
  0
LINE
  5
A98E
  8
0
 10
63.5065197368117
 20
232.4736505939875
 30
0.0
 11
63.5065197368117
 21
231.5223224689878
 31
0.0
  0
LINE
  5
A98F
  8
0
 10
63.5065197368117
 20
231.5223224689878
 30
0.0
 11
63.68933223681142
 21
231.5223224689878
 31
0.0
  0
LINE
  5
A990
  8
0
 10
63.68933223681142
 20
231.5223224689878
 30
0.0
 11
63.68933223681142
 21
231.7837970783628
 31
0.0
  0
LINE
  5
A991
  8
0
 10
63.68933223681142
 20
231.7837970783628
 30
0.0
 11
64.0228771586867
 21
231.7837970783628
 31
0.0
  0
LINE
  5
A992
  8
0
 10
64.0228771586867
 20
231.7837970783628
 30
0.0
 11
64.0228771586867
 21
231.9358478596125
 31
0.0
  0
LINE
  5
A993
  8
0
 10
64.0228771586867
 20
231.9358478596125
 30
0.0
 11
63.68933223681142
 21
231.9358478596125
 31
0.0
  0
LINE
  5
A994
  8
0
 10
63.68933223681142
 20
231.9358478596125
 30
0.0
 11
63.68933223681142
 21
232.1334259846128
 31
0.0
  0
LINE
  5
A995
  8
0
 10
63.68933223681142
 20
232.1334259846128
 30
0.0
 11
64.0228771586867
 21
232.1334259846128
 31
0.0
  0
LINE
  5
A996
  8
0
 10
64.0228771586867
 20
232.1334259846128
 30
0.0
 11
64.0228771586867
 21
232.2801154377377
 31
0.0
  0
LINE
  5
A997
  8
0
 10
64.0228771586867
 20
232.2801154377377
 30
0.0
 11
63.68933223681142
 21
232.2801154377377
 31
0.0
  0
LINE
  5
A998
  8
0
 10
63.68933223681142
 20
232.2801154377377
 30
0.0
 11
63.68933223681142
 21
232.4736505939875
 31
0.0
  0
LINE
  5
A999
  8
0
 10
63.68933223681142
 20
232.4736505939875
 30
0.0
 11
64.06295528368673
 21
232.4736505939875
 31
0.0
  0
LINE
  5
A99A
  8
0
 10
64.06295528368673
 20
232.4736505939875
 30
0.0
 11
64.06295528368673
 21
232.6203400471124
 31
0.0
  0
LINE
  5
A99B
  8
0
 10
64.06295528368673
 20
232.6203400471124
 30
0.0
 11
63.54527950243664
 21
232.6203400471124
 31
0.0
  0
LINE
  5
A99C
  8
0
 10
63.57604122118664
 20
232.7164923908624
 30
0.0
 11
63.40650020556131
 21
232.7511212971123
 31
0.0
  0
ARC
  5
A99D
  8
0
 10
61.59772252786777
 20
233.0423331382044
 30
0.0
 40
1.509194028694409
 50
335.5457096686311
 51
348.3060403035889
  0
ARC
  5
A99E
  8
0
 10
61.88909118811161
 20
232.9260864202257
 30
0.0
 40
1.195932761560066
 50
319.6679218269052
 51
334.8367065032426
  0
ARC
  5
A99F
  8
0
 10
62.10095993385134
 20
232.6442296159466
 30
0.0
 40
1.020724413232922
 50
318.9043658670693
 51
327.9560510819899
  0
ARC
  5
A9A0
  8
0
 10
61.96384773900751
 20
232.9140687685914
 30
0.0
 40
1.292941260989209
 50
336.0018785125659
 51
350.6697714262836
  0
ARC
  5
A9A1
  8
0
 10
61.43628519640504
 20
233.3456716935598
 30
0.0
 40
2.057969231116068
 50
326.7988139724891
 51
343.207798180194
  0
ARC
  5
A9A2
  8
0
 10
61.22811460479021
 20
233.4228778709783
 30
0.0
 40
2.452256813952018
 50
327.6513795623706
 51
337.2268745923164
  0
LINE
  5
A9A3
  8
0
 10
63.48920528368626
 20
232.4736505939875
 30
0.0
 11
63.5065197368117
 21
232.4736505939875
 31
0.0
  0
LINE
  5
A9A4
  8
0
 10
63.57604122118664
 20
232.7164923908624
 30
0.0
 11
63.56090449122625
 21
232.6679138942752
 31
0.0
  0
LINE
  5
A9A5
  8
0
 10
63.56090449122625
 20
232.6679138942752
 30
0.0
 11
63.54527950243664
 21
232.6203400471124
 31
0.0
  0
VIEWPORT
  5
22
 67
     1
  8
0
 10
5.269134197284911
 20
5.545311567251436
 30
0.0
 40
11.13808705479925
 41
12.32365374410561
 68
     1
 69
     1
1001
GENIUS_GENSCREG_15
1000
PF
1040
1.0
1000
DF
1040
1.0
1000
MIN
1011
-0.2999093301147138
1021
-0.6165153048013714
1031
0.0
1021
-0.6165153048013714
1031
0.0
1000
MAX
1011
10.83817772468454
1021
11.70713843930424
1031
0.0
1021
11.70713843930424
1031
0.0
1000
FLAGS
1070
     4
1001
GENIUS_GENODEF_13
1002
{
1000
HIER
1070
     0
1002
}
1002
{
1000
MANEDIT
1070
     0
1002
}
1002
{
1000
NOSEL
1070
     0
1002
}
1002
{
1000
BEHIND
1070
     0
1002
}
1002
{
1000
OTHER
1070
     0
1002
}
1002
{
1000
REACTOR
1002
}
1001
GENIUS_GENOBJ-N-SDF_13
1002
{
1000
OWNER
1000
GEN
1002
}
1001
ACAD
1000
MVIEW
1002
{
1070
    16
1010
0.0
1020
0.0
1030
0.0
1020
0.0
1030
0.0
1010
0.0
1020
0.0
1030
1.0
1020
0.0
1030
1.0
1040
0.0
1040
12.32365374410561
1040
5.269134197284911
1040
5.545311567251436
1040
50.0
1040
0.0
1040
0.0
1070
     0
1070
   100
1070
     0
1070
     1
1070
     0
1070
     0
1070
     0
1070
     0
1040
0.0
1040
0.0
1040
0.0
1040
1.0
1040
1.0
1040
10.0
1040
10.0
1070
     0
1002
{
1002
}
1002
}
  0
ENDSEC
  0
EOF
