  0
SECTION
  2
HEADER
  9
$ACADVER
  1
AC1009
  9
$DWGCODEPAGE
  3
ansi_932
  9
$INSBASE
 10
0.0
 20
0.0
 30
0.0
  9
$EXTMIN
 10
0.0000019319777493
 20
-0.0000016024546312
 30
0.0
  9
$EXTMAX
 10
229.3158562747082
 20
294.6851295940472
 30
0.0
  9
$LIMMIN
 10
0.0
 20
0.0
  9
$LIMMAX
 10
420.0
 20
420.0
  9
$ORTHOMODE
 70
     0
  9
$REGENMODE
 70
     1
  9
$FILLMODE
 70
     1
  9
$QTEXTMODE
 70
     0
  9
$MIRRTEXT
 70
     0
  9
$DRAGMODE
 70
     2
  9
$LTSCALE
 40
10.0
  9
$OSMODE
 70
   549
  9
$ATTMODE
 70
     1
  9
$TEXTSIZE
 40
1.0
  9
$TRACEWID
 40
1.0
  9
$TEXTSTYLE
  7
STANDARD
  9
$CLAYER
  8
0
  9
$CELTYPE
  6
BYLAYER
  9
$CECOLOR
 62
   256
  9
$DIMSCALE
 40
1.0
  9
$DIMASZ
 40
2.5
  9
$DIMEXO
 40
1.0
  9
$DIMDLI
 40
7.0
  9
$DIMRND
 40
0.0
  9
$DIMDLE
 40
0.0
  9
$DIMEXE
 40
1.0
  9
$DIMTP
 40
0.1
  9
$DIMTM
 40
0.1
  9
$DIMTXT
 40
3.0
  9
$DIMCEN
 40
0.0
  9
$DIMTSZ
 40
0.0
  9
$DIMTOL
 70
     0
  9
$DIMLIM
 70
     0
  9
$DIMTIH
 70
     0
  9
$DIMTOH
 70
     0
  9
$DIMSE1
 70
     0
  9
$DIMSE2
 70
     0
  9
$DIMTAD
 70
     3
  9
$DIMZIN
 70
     8
  9
$DIMBLK
  1
OPEN
  9
$DIMASO
 70
     1
  9
$DIMSHO
 70
     1
  9
$DIMPOST
  1

  9
$DIMAPOST
  1
"
  9
$DIMALT
 70
     0
  9
$DIMALTD
 70
     2
  9
$DIMALTF
 40
0.0393701
  9
$DIMLFAC
 40
1.0
  9
$DIMTOFL
 70
     1
  9
$DIMTVP
 40
0.0
  9
$DIMTIX
 70
     0
  9
$DIMSOXD
 70
     0
  9
$DIMSAH
 70
     0
  9
$DIMBLK1
  1

  9
$DIMBLK2
  1

  9
$DIMSTYLE
  2
AM_JIS
  9
$DIMCLRD
 70
   256
  9
$DIMCLRE
 70
   256
  9
$DIMCLRT
 70
     2
  9
$DIMTFAC
 40
0.71
  9
$DIMGAP
 40
1.0
  9
$LUNITS
 70
     2
  9
$LUPREC
 70
     2
  9
$SKETCHINC
 40
1.0
  9
$FILLETRAD
 40
2.5
  9
$AUNITS
 70
     0
  9
$AUPREC
 70
     0
  9
$MENU
  1
.
  9
$ELEVATION
 40
0.0
  9
$PELEVATION
 40
0.0
  9
$THICKNESS
 40
0.0
  9
$LIMCHECK
 70
     0
  9
$CHAMFERA
 40
2.5
  9
$CHAMFERB
 40
2.5
  9
$SKPOLY
 70
     1
  9
$TDCREATE
 40
2457177.658757349
  9
$TDUPDATE
 40
2460346.659365845
  9
$TDINDWG
 40
0.0113520949
  9
$TDUSRTIMER
 40
0.0113470602
  9
$USRTIMER
 70
     1
  9
$ANGBASE
 50
0.0
  9
$ANGDIR
 70
     0
  9
$PDMODE
 70
     0
  9
$PDSIZE
 40
0.0
  9
$PLINEWID
 40
0.0
  9
$COORDS
 70
     0
  9
$SPLFRAME
 70
     0
  9
$SPLINETYPE
 70
     6
  9
$SPLINESEGS
 70
     8
  9
$ATTDIA
 70
     1
  9
$ATTREQ
 70
     1
  9
$HANDLING
 70
     1
  9
$HANDSEED
  5
A4E7
  9
$SURFTAB1
 70
     6
  9
$SURFTAB2
 70
     6
  9
$SURFTYPE
 70
     6
  9
$SURFU
 70
     6
  9
$SURFV
 70
     6
  9
$UCSNAME
  2

  9
$UCSORG
 10
0.0
 20
0.0
 30
0.0
  9
$UCSXDIR
 10
1.0
 20
0.0
 30
0.0
  9
$UCSYDIR
 10
0.0
 20
1.0
 30
0.0
  9
$PUCSNAME
  2

  9
$PUCSORG
 10
0.0
 20
0.0
 30
0.0
  9
$PUCSXDIR
 10
1.0
 20
0.0
 30
0.0
  9
$PUCSYDIR
 10
0.0
 20
1.0
 30
0.0
  9
$USERI1
 70
     0
  9
$USERI2
 70
     0
  9
$USERI3
 70
     0
  9
$USERI4
 70
     0
  9
$USERI5
 70
     0
  9
$USERR1
 40
0.0
  9
$USERR2
 40
0.0
  9
$USERR3
 40
0.0
  9
$USERR4
 40
0.0
  9
$USERR5
 40
0.0
  9
$WORLDVIEW
 70
     1
  9
$SHADEDGE
 70
     3
  9
$SHADEDIF
 70
    70
  9
$TILEMODE
 70
     1
  9
$MAXACTVP
 70
    48
  9
$PLIMCHECK
 70
     0
  9
$PEXTMIN
 10
1.000000000000000E+20
 20
1.000000000000000E+20
 30
1.000000000000000E+20
  9
$PEXTMAX
 10
-1.000000000000000E+20
 20
-1.000000000000000E+20
 30
-1.000000000000000E+20
  9
$PLIMMIN
 10
-0.2500002402958907
 20
-0.2499999962453767
  9
$PLIMMAX
 10
10.74999951940822
 20
8.249999763458732
  9
$UNITMODE
 70
     0
  9
$VISRETAIN
 70
     1
  9
$PLINEGEN
 70
     0
  9
$PSLTSCALE
 70
     1
  0
ENDSEC
  0
SECTION
  2
TABLES
  0
TABLE
  2
VPORT
 70
     1
  0
VPORT
  2
*ACTIVE
 70
     0
 10
0.0
 20
0.0
 11
1.0
 21
1.0
 12
209.9999999999999
 22
209.9999991987726
 13
0.0
 23
0.0
 14
2.5
 24
2.5
 15
10.0
 25
10.0
 16
0.0
 26
0.0
 36
1.0
 17
0.0
 27
0.0
 37
0.0
 40
423.2589734868578
 41
2.05293551491819
 42
50.0
 43
0.0
 44
0.0
 50
0.0
 51
0.0
 71
     0
 72
   100
 73
     1
 74
     3
 75
     0
 76
     0
 77
     0
 78
     0
  0
ENDTAB
  0
TABLE
  2
LTYPE
 70
    22
  0
LTYPE
  2
CONTINUOUS
 70
     0
  3
Solid line
 72
    65
 73
     0
 40
0.0
  0
LTYPE
  2
HIDDEN
 70
     0
  3
__ __ __ __ __ __ __ __ __ __ __ __ __ __ __ __
 72
    65
 73
     2
 40
0.375
 49
0.25
 49
-0.125
  0
LTYPE
  2
PHANTOM2
 70
     0
  3
___ _ _ ___ _ _ ___ _ _ ___ _ _ ___ _ _ ___ _ _
 72
    65
 73
     6
 40
1.25
 49
0.625
 49
-0.125
 49
0.125
 49
-0.125
 49
0.125
 49
-0.125
  0
LTYPE
  2
CENTER
 70
     0
  3
____ _ ____ _ ____ _ ____ _ ____ _ ____ _ ____ 
 72
    65
 73
     4
 40
2.0
 49
1.25
 49
-0.25
 49
0.25
 49
-0.25
  0
LTYPE
  2
ACJISTGB
 70
     0
  3
__ . . __ . .
 72
    65
 73
     6
 40
9.0
 49
4.0
 49
-1.0
 49
1.0
 49
-1.0
 49
1.0
 49
-1.0
  0
LTYPE
  2
ACJISTGL
 70
     0
  3
_ _ _ _ _
 72
    65
 73
     2
 40
3.0
 49
2.0
 49
-1.0
  0
LTYPE
  2
ACISOWELD
 70
     0
  3
_ _ _ _ _
 72
    65
 73
     2
 40
2.0
 49
2.0
 49
-1.0
  0
LTYPE
  2
ACISOTGB
 70
     0
  3
__ . . __ . .
 72
    65
 73
     6
 40
9.0
 49
4.0
 49
-1.0
 49
1.0
 49
-1.0
 49
1.0
 49
-1.0
  0
LTYPE
  2
ACISOTGL
 70
     0
  3
_ _ _ _ _
 72
    65
 73
     2
 40
3.0
 49
2.0
 49
-1.0
  0
LTYPE
  2
AM_ISO02W050
 70
     0
  3
__ __ __ __ __ __ __ __ __ __ __ __ __ __ __
 72
    65
 73
     2
 40
7.5
 49
6.0
 49
-1.5
  0
LTYPE
  2
AM_ISO08W050
 70
     0
  3
____ . ____ . ____ . ____ . ____ . ____ . ____
 72
    65
 73
     4
 40
18.0
 49
12.0
 49
-1.5
 49
3.0
 49
-1.5
  0
LTYPE
  2
AM_ISO09W050
 70
     0
  3
_____ . . _____ . . _____ . . ____ .. ____
 72
    65
 73
     6
 40
22.5
 49
12.0
 49
-1.5
 49
3.0
 49
-1.5
 49
3.0
 49
-1.5
  0
LTYPE
  2
AM_ISO02W050X2
 70
     0
  3
 _ _ _ _ _ _ _ _ _ _ _ _
 72
    65
 73
     2
 40
3.75
 49
3.0
 49
-0.75
  0
LTYPE
  2
AM_ISO08W050X2
 70
     0
  3
__ . __ . __ . __ . __ . __
 72
    65
 73
     4
 40
9.0
 49
6.0
 49
-0.75
 49
1.5
 49
-0.75
  0
LTYPE
  2
AMZIGZAG
 70
     0
  3
/\/-/\/-/\/-/\/-/\/-/\/
 72
    65
 73
     2
 40
11.0001
 49
0.0001
 49
-11.0
  0
LTYPE
  2
AMCONSTR
 70
     0
  3
_______________________
 72
    65
 73
     2
 40
9999.0
 49
9999.0
 49
0.0
  0
LTYPE
  2
CENTER2
 70
     0
  3
Center (.5x) ___ _ ___ _ ___ _ ___ _ ___ _ ___
 72
    65
 73
     4
 40
1.125
 49
0.75
 49
-0.125
 49
0.125
 49
-0.125
  0
LTYPE
  2
HIDDEN2
 70
     0
  3
Hidden (.5x) _ _ _ _ _ _ _ _ _ _ _ _ _ _ _ _ _
 72
    65
 73
     2
 40
0.1875
 49
0.125
 49
-0.0625
  0
LTYPE
  2
ACJISWELD
 70
     0
  3
_ _ _ _ _
 72
    65
 73
     2
 40
2.0
 49
2.0
 49
-1.0
  0
LTYPE
  2
AMZIGZAG2
 70
     0
  3
/\/-/\/-/\/-/\/-/\/-/\/
 72
    65
 73
     2
 40
0.4401
 49
0.0001
 49
-0.44
  0
LTYPE
  2
ACANSTGB
 70
     0
  3
__ . . __ . .
 72
    65
 73
     6
 40
0.35433070866
 49
0.15748031496
 49
-0.03937007874
 49
0.03937007874
 49
-0.03937007874
 49
0.03937007874
 49
-0.03937007874
  0
LTYPE
  2
ACANSTGL
 70
     0
  3
_ _ _ _ _
 72
    65
 73
     2
 40
0.11811023622
 49
0.07874015748
 49
-0.03937007874
  0
ENDTAB
  0
TABLE
  2
LAYER
 70
     5
  0
LAYER
  2
0
 70
     0
 62
     7
  6
CONTINUOUS
  0
LAYER
  2
7
 70
     0
 62
     4
  6
CENTER2
  0
LAYER
  2
10
 70
     0
 62
     2
  6
CONTINUOUS
  0
LAYER
  2
DEFPOINTS
 70
     0
 62
     7
  6
CONTINUOUS
  0
LAYER
  2
AM_0
 70
     0
 62
     7
  6
CONTINUOUS
  0
ENDTAB
  0
TABLE
  2
STYLE
 70
     8
  0
STYLE
  2
STANDARD
 70
     0
 40
0.0
 41
1.0
 50
0.0
 71
     0
 42
1.0
  3
ISOCP.SHX
  4
EXTFONT.SHX
  0
STYLE
  2
ACJISTS
 70
     0
 40
1.0
 41
1.0
 50
0.0
 71
     0
 42
3.5
  3
isocp.shx
  4
extfont.shx
  0
STYLE
  2
ACJISGDT
 70
     0
 40
0.0
 41
1.0
 50
0.0
 71
     0
 42
3.5
  3
amgdt.shx
  4
extfont.shx
  0
STYLE
  2
ACISOTS
 70
     0
 40
1.0
 41
1.0
 50
0.0
 71
     0
 42
1.0
  3
isocp.shx
  4
extfont.shx
  0
STYLE
  2
ACISOGDT
 70
     0
 40
0.0
 41
1.0
 50
0.0
 71
     0
 42
3.5
  3
amgdt.shx
  4
extfont.shx
  0
STYLE
  2

 70
     1
 40
0.0
 41
1.0
 50
0.0
 71
     0
 42
3.5
  3
ltypeshp.shx
  4

  0
STYLE
  2

 70
     1
 40
0.0
 41
1.0
 50
0.0
 71
     0
 42
4.0
  3
genltshp.shx
  4

  0
STYLE
  2
ACANSGDT
 70
     0
 40
0.0
 41
1.0
 50
0.0
 71
     0
 42
4.0
  3
amgdt.shx
  4

  0
ENDTAB
  0
TABLE
  2
VIEW
 70
     3
  0
VIEW
  2
AMDTVIEW1
 70
     0
 40
329.0721649484536
 10
210.0
 20
164.5360824742268
 41
420.0
 11
0.0
 21
0.0
 31
1.0
 12
0.0
 22
0.0
 32
0.0
 42
50.0
 43
0.0
 44
0.0
 50
0.0
 71
     0
  0
VIEW
  2
AMDTVIEW2
 70
     0
 40
329.0721649484536
 10
210.0
 20
164.5360824742268
 41
420.0
 11
0.0
 21
0.0
 31
1.0
 12
0.0
 22
0.0
 32
0.0
 42
50.0
 43
0.0
 44
0.0
 50
0.0
 71
     0
  0
VIEW
  2
AMDTVIEW3
 70
     0
 40
329.0721649484536
 10
210.0
 20
164.5360824742268
 41
420.0
 11
0.0
 21
0.0
 31
1.0
 12
0.0
 22
0.0
 32
0.0
 42
50.0
 43
0.0
 44
0.0
 50
0.0
 71
     0
  0
ENDTAB
  0
TABLE
  2
UCS
 70
     0
  0
ENDTAB
  0
TABLE
  2
APPID
 70
    67
  0
APPID
  2
ACAD
 70
     0
  0
APPID
  2
AD_DRAW
 70
     0
  0
APPID
  2
DESIGNERASSEMBLIES
 70
     0
  0
APPID
  2
MCAD_NO_VIS
 70
     0
  0
APPID
  2
ASURF_PCURVE_APPNAME
 70
     0
  0
APPID
  2
ACAD_TEMP_GRAPHIC
 70
     0
  0
APPID
  2
ACATTRIBSERVICES
 70
     0
  0
APPID
  2
ACADM_DIM_EDIT
 70
     0
  0
APPID
  2
GENIUS_GENDIM_13
 70
     0
  0
APPID
  2
GENIUS_GENDTOL_13
 70
     0
  0
APPID
  2
GENIUS_GE3DTOL_13
 70
     0
  0
APPID
  2
AMG_3D2D_5_0
 70
     0
  0
APPID
  2
AMDT_DM_ADJ
 70
     0
  0
APPID
  2
ACAD_PSEXT
 70
     0
  0
APPID
  2
ACAD_DSTYLE_DIMTEXT_FILL
 70
     0
  0
APPID
  2
ACAECLAYERSTANDARD
 70
     0
  0
APPID
  2
GENIUS_GENREC_14
 70
     0
  0
APPID
  2
GENIUS_GENODEF_13
 70
     0
  0
APPID
  2
GENIUS_GENOBJ-N-REC_13
 70
     0
  0
APPID
  2
DCO15
 70
     0
  0
APPID
  2
ACAD_DSTYLE_DIMJAG
 70
     0
  0
APPID
  2
ACAD_DSTYLE_DIMTALN
 70
     0
  0
APPID
  2
ACAD_MLEADERVER
 70
     0
  0
APPID
  2
GENIUS_GENSCREG_15
 70
     0
  0
APPID
  2
GENIUS_GENOBJ-N-SDF_13
 70
     0
  0
APPID
  2
ACAD_NAV_VCDISPLAY
 70
     0
  0
APPID
  2
ACAD_EXEMPT_FROM_CAD_STAND
 70
     0
  0
APPID
  2
ACCMTRANSPARENCY
 70
     0
  0
APPID
  2
GENIUS_GENOBJ-N-CEN_13
 70
     0
  0
APPID
  2
GENIUS_GENOBJ-N-FIL_13
 70
     0
  0
APPID
  2
GENIUS_GENCEN_19
 70
     0
  0
APPID
  2
ACAD_DSTYLE_DIMBREAK
 70
     0
  0
APPID
  2
PLOTTRANSPARENCY
 70
     0
  0
APPID
  2
ACAD_SPLINE_DATA
 70
     0
  0
APPID
  2
ACAD_SPLINE_DATA2
 70
     0
  0
APPID
  2
HC_SUPERPART
 70
     0
  0
APPID
  2
HC_SP4BLOCK
 70
     0
  0
APPID
  2
HC_XDATA_SPRING
 70
     0
  0
APPID
  2
HCCAD_FRAME
 70
     0
  0
APPID
  2
GENIUS_GENOLIS_13
 70
     0
  0
APPID
  2
GENIUS_GENOENT_13
 70
     0
  0
APPID
  2
GENIUS_GENOREF_13
 70
     0
  0
APPID
  2
GENIUS_GENOBJ-N-TIT_13
 70
     0
  0
APPID
  2
GENIUS_GENOBJ-N-ZOO_13
 70
     0
  0
APPID
  2
GENIUS_GENTITLE_13
 70
     0
  0
APPID
  2
GENIUS_GENSYMENT_13
 70
     0
  0
APPID
  2
GENIUS_GENSCSYM_13
 70
     0
  0
APPID
  2
GENIUS_GENOBJ-N-REV_13
 70
     0
  0
APPID
  2
GENIUS_GENOBJ-N-RSSYM_13
 70
     0
  0
APPID
  2
GENIUS_GENREV_15
 70
     0
  0
APPID
  2
HRA
 70
     0
  0
APPID
  2
HTIT
 70
     0
  0
APPID
  2
GENIUS_GENZOO_17
 70
     0
  0
APPID
  2
GENIUS_GENOBJ-N-CRS_13
 70
     0
  0
APPID
  2
GENIUS_GENCRS_20
 70
     0
  0
APPID
  2
GENIUS_GENOBJ-N-CRC_13
 70
     0
  0
APPID
  2
GENIUS_GENCRC_14
 70
     0
  0
APPID
  2
GENIUS_GENFIL_13
 70
     0
  0
APPID
  2
GENIUS_GENOBJ-N-CHA_13
 70
     0
  0
APPID
  2
GENIUS_GENHATCH_13
 70
     0
  0
APPID
  2
GENIUS_GENOBJ-N-HTC_13
 70
     0
  0
APPID
  2
GENIUS_GENOBJ-N-DIM_13
 70
     0
  0
APPID
  2
GENIUS_GENOBJ-N-DIMLI_13
 70
     0
  0
APPID
  2
GENIUS_GENOBJ-N-FITL_13
 70
     0
  0
APPID
  2
GENIUS_GENFITL_13
 70
     0
  0
APPID
  2
GENLAYCOLOR
 70
     0
  0
APPID
  2
ACADANNOTATIVE
 70
     0
  0
ENDTAB
  0
TABLE
  2
DIMSTYLE
 70
    23
  0
DIMSTYLE
  2
STANDARD
 70
     0
  3

  4

  5

  6

  7

 40
1.0
 41
2.5
 42
0.625
 43
3.75
 44
1.25
 45
0.0
 46
0.0
 47
0.0
 48
0.0
140
2.5
141
2.5
142
0.0
143
0.0394
144
1.0
145
0.0
146
1.0
147
0.625
 71
     0
 72
     0
 73
     0
 74
     0
 75
     0
 76
     0
 77
     1
 78
     8
170
     0
171
     4
172
     1
173
     0
174
     0
175
     0
176
     0
177
     0
178
     0
  0
DIMSTYLE
  2
AM_JIS
 70
     0
  3

  4
"
  5
OPEN
  6

  7

 40
1.0
 41
2.5
 42
1.0
 43
7.0
 44
1.0
 45
0.0
 46
0.0
 47
0.1
 48
0.1
140
3.0
141
0.0
142
0.0
143
0.0393701
144
1.0
145
0.0
146
0.71
147
1.0
 71
     0
 72
     0
 73
     0
 74
     0
 75
     0
 76
     0
 77
     3
 78
     8
170
     0
171
     2
172
     1
173
     0
174
     0
175
     0
176
   256
177
   256
178
     2
  0
DIMSTYLE
  2
AM_JIS$3
 70
     0
  3

  4
"
  5
OPEN
  6

  7

 40
1.0
 41
2.5
 42
1.0
 43
10.0
 44
1.0
 45
0.0
 46
0.0
 47
0.1
 48
0.1
140
3.0
141
0.0
142
0.0
143
0.0393701
144
1.0
145
0.0
146
0.71
147
1.0
 71
     0
 72
     0
 73
     0
 74
     0
 75
     0
 76
     0
 77
     3
 78
     8
170
     0
171
     2
172
     1
173
     0
174
     0
175
     0
176
   256
177
   256
178
     2
  0
DIMSTYLE
  2
AM_JIS$4
 70
     0
  3

  4
"
  5

  6
OPEN30
  7
OPEN
 40
1.0
 41
2.5
 42
1.0
 43
10.0
 44
1.0
 45
0.0
 46
0.0
 47
0.1
 48
0.1
140
3.0
141
0.0
142
0.0
143
0.0393701
144
1.0
145
0.0
146
0.71
147
1.0
 71
     0
 72
     0
 73
     0
 74
     0
 75
     0
 76
     0
 77
     3
 78
     8
170
     0
171
     2
172
     1
173
     1
174
     0
175
     0
176
   256
177
   256
178
     2
  0
DIMSTYLE
  2
AM_JIS$6
 70
     0
  3

  4
"
  5
OPEN30
  6
OPEN30
  7
OPEN30
 40
1.0
 41
2.5
 42
1.0
 43
10.0
 44
1.0
 45
0.0
 46
0.0
 47
0.1
 48
0.1
140
3.5
141
0.0
142
0.0
143
0.0393701
144
1.0
145
0.0
146
0.71
147
1.5
 71
     0
 72
     0
 73
     0
 74
     0
 75
     0
 76
     0
 77
     0
 78
     8
170
     0
171
     2
172
     1
173
     0
174
     0
175
     0
176
   256
177
   256
178
     2
  0
DIMSTYLE
  2
AM_JIS$7
 70
     0
  3

  4
"
  5
OPEN30
  6

  7

 40
1.0
 41
2.5
 42
1.0
 43
10.0
 44
1.0
 45
0.0
 46
0.0
 47
0.1
 48
0.1
140
3.0
141
0.0
142
0.0
143
0.0393701
144
1.0
145
0.0
146
0.71
147
1.0
 71
     0
 72
     0
 73
     0
 74
     0
 75
     0
 76
     0
 77
     3
 78
     8
170
     0
171
     2
172
     1
173
     0
174
     0
175
     0
176
   256
177
   256
178
     2
  0
DIMSTYLE
  2
AM_JIS$SF
 70
     0
  3

  4
"
  5
OPEN
  6

  7

 40
1.0
 41
2.5
 42
1.0
 43
7.0
 44
1.0
 45
0.0
 46
0.0
 47
0.1
 48
0.1
140
3.5
141
0.0
142
0.0
143
0.0393701
144
1.0
145
0.0
146
0.71
147
1.5
 71
     0
 72
     0
 73
     0
 74
     0
 75
     1
 76
     1
 77
     3
 78
     8
170
     0
171
     2
172
     1
173
     0
174
     0
175
     0
176
   256
177
   256
178
     2
  0
DIMSTYLE
  2
AM_JIS$SH
 70
     0
  3

  4
"
  5

  6
GENAXEH
  7
OPEN
 40
1.0
 41
2.5
 42
1.0
 43
7.0
 44
1.0
 45
0.0
 46
0.0
 47
0.1
 48
0.1
140
3.5
141
0.0
142
0.0
143
0.0393701
144
2.0
145
0.0
146
0.71
147
1.5
 71
     0
 72
     0
 73
     0
 74
     0
 75
     1
 76
     1
 77
     3
 78
     8
170
     0
171
     2
172
     1
173
     1
174
     0
175
     0
176
   256
177
   256
178
     2
  0
DIMSTYLE
  2
AM_ISO
 70
     0
  3

  4
"
  5

  6

  7

 40
1.0
 41
2.5
 42
1.0
 43
10.0
 44
1.0
 45
0.0
 46
0.0
 47
0.1
 48
0.1
140
3.5
141
0.0
142
0.0
143
0.0393701
144
1.0
145
0.0
146
0.71
147
1.5
 71
     0
 72
     0
 73
     0
 74
     0
 75
     0
 76
     0
 77
     1
 78
     8
170
     0
171
     2
172
     1
173
     0
174
     0
175
     0
176
   256
177
   256
178
     2
  0
DIMSTYLE
  2
AM_ISO$3
 70
     0
  3

  4
"
  5

  6

  7

 40
1.0
 41
2.5
 42
1.0
 43
10.0
 44
1.0
 45
0.0
 46
0.0
 47
0.1
 48
0.1
140
3.5
141
0.0
142
0.0
143
0.0393701
144
1.0
145
0.0
146
0.71
147
1.5
 71
     0
 72
     0
 73
     0
 74
     1
 75
     0
 76
     0
 77
     1
 78
     8
170
     0
171
     2
172
     0
173
     0
174
     0
175
     0
176
   256
177
   256
178
     2
  0
DIMSTYLE
  2
AM_ISO$4
 70
     0
  3

  4
"
  5

  6

  7

 40
1.0
 41
2.5
 42
1.0
 43
10.0
 44
1.0
 45
0.0
 46
0.0
 47
0.1
 48
0.1
140
3.5
141
0.0
142
0.0
143
0.0393701
144
1.0
145
0.0
146
0.71
147
1.5
 71
     0
 72
     0
 73
     0
 74
     1
 75
     0
 76
     0
 77
     1
 78
     8
170
     0
171
     2
172
     0
173
     0
174
     0
175
     0
176
   256
177
   256
178
     2
  0
DIMSTYLE
  2
AM_ISO$6
 70
     0
  3

  4
"
  5

  6

  7

 40
1.0
 41
2.5
 42
1.0
 43
10.0
 44
1.0
 45
0.0
 46
0.0
 47
0.1
 48
0.1
140
3.5
141
0.0
142
0.0
143
0.0393701
144
1.0
145
0.0
146
0.71
147
1.5
 71
     0
 72
     0
 73
     0
 74
     0
 75
     0
 76
     0
 77
     0
 78
     8
170
     0
171
     2
172
     1
173
     0
174
     0
175
     0
176
   256
177
   256
178
     2
  0
DIMSTYLE
  2
AM_ISO$7
 70
     0
  3

  4
"
  5

  6

  7

 40
1.0
 41
2.5
 42
1.0
 43
10.0
 44
1.0
 45
0.0
 46
0.0
 47
0.1
 48
0.1
140
5.0
141
0.0
142
0.0
143
0.0393701
144
1.0
145
0.0
146
0.71
147
1.5
 71
     0
 72
     0
 73
     0
 74
     0
 75
     0
 76
     0
 77
     1
 78
     8
170
     0
171
     2
172
     1
173
     0
174
     0
175
     0
176
   256
177
   256
178
     2
  0
DIMSTYLE
  2
AM_ISO$SF
 70
     0
  3

  4
"
  5

  6

  7

 40
1.0
 41
2.5
 42
1.0
 43
10.0
 44
1.0
 45
0.0
 46
0.0
 47
0.1
 48
0.1
140
3.5
141
0.0
142
0.0
143
0.0393701
144
1.0
145
0.0
146
0.71
147
1.5
 71
     0
 72
     0
 73
     0
 74
     0
 75
     1
 76
     1
 77
     1
 78
     8
170
     0
171
     2
172
     1
173
     0
174
     0
175
     0
176
   256
177
   256
178
     2
  0
DIMSTYLE
  2
AM_ISO$SH
 70
     0
  3

  4
"
  5

  6
GENAXEH
  7

 40
1.0
 41
2.5
 42
1.0
 43
10.0
 44
1.0
 45
0.0
 46
0.0
 47
0.1
 48
0.1
140
3.5
141
0.0
142
0.0
143
0.0393701
144
2.0
145
0.0
146
0.71
147
1.5
 71
     0
 72
     0
 73
     0
 74
     0
 75
     1
 76
     1
 77
     1
 78
     8
170
     0
171
     2
172
     1
173
     1
174
     0
175
     0
176
   256
177
   256
178
     2
  0
DIMSTYLE
  2
AM_JIS$2
 70
     0
  3

  4
"
  5
OPEN
  6

  7

 40
1.0
 41
2.5
 42
1.0
 43
7.0
 44
1.0
 45
0.0
 46
0.0
 47
0.1
 48
0.1
140
3.0
141
0.0
142
0.0
143
0.0393701
144
1.0
145
0.0
146
0.71
147
1.0
 71
     0
 72
     0
 73
     0
 74
     0
 75
     0
 76
     0
 77
     3
 78
     8
170
     0
171
     2
172
     1
173
     0
174
     0
175
     0
176
   256
177
   256
178
     2
  0
DIMSTYLE
  2
AM_JIS$0
 70
     0
  3

  4
"
  5
OPEN
  6

  7

 40
1.0
 41
2.5
 42
1.0
 43
7.0
 44
1.0
 45
0.0
 46
0.0
 47
0.1
 48
0.1
140
3.0
141
0.0
142
0.0
143
0.0393701
144
1.0
145
0.0
146
0.71
147
1.0
 71
     0
 72
     0
 73
     0
 74
     0
 75
     0
 76
     0
 77
     3
 78
     8
170
     0
171
     2
172
     1
173
     0
174
     0
175
     0
176
   256
177
   256
178
     2
  0
DIMSTYLE
  2
AM_ANSI
 70
     0
  3

  4
mm
  5

  6

  7

 40
1.0
 41
0.12
 42
0.05
 43
0.5
 44
0.1
 45
0.0
 46
0.0
 47
0.1
 48
0.1
140
0.12
141
0.0
142
0.0
143
25.4
144
1.0
145
0.0
146
0.71
147
0.06
 71
     0
 72
     0
 73
     1
 74
     1
 75
     0
 76
     0
 77
     0
 78
     7
170
     0
171
     2
172
     0
173
     0
174
     0
175
     0
176
   256
177
   256
178
     2
  0
DIMSTYLE
  2
AM_ANSI$3
 70
     0
  3

  4
mm
  5

  6

  7

 40
1.0
 41
0.12
 42
0.05
 43
0.5
 44
0.1
 45
0.0
 46
0.0
 47
0.1
 48
0.1
140
0.12
141
0.0
142
0.0
143
25.4
144
1.0
145
0.0
146
0.71
147
0.06
 71
     0
 72
     0
 73
     1
 74
     1
 75
     0
 76
     0
 77
     0
 78
     7
170
     0
171
     2
172
     0
173
     0
174
     0
175
     0
176
   256
177
   256
178
     2
  0
DIMSTYLE
  2
AM_ANSI$4
 70
     0
  3

  4
mm
  5

  6

  7

 40
1.0
 41
0.12
 42
0.05
 43
0.5
 44
0.1
 45
0.0
 46
0.0
 47
0.1
 48
0.1
140
0.12
141
0.0
142
0.0
143
25.4
144
1.0
145
0.0
146
0.71
147
0.06
 71
     0
 72
     0
 73
     1
 74
     1
 75
     0
 76
     0
 77
     0
 78
     7
170
     0
171
     2
172
     0
173
     0
174
     0
175
     0
176
   256
177
   256
178
     2
  0
DIMSTYLE
  2
AM_ANSI$7
 70
     0
  3

  4
mm
  5

  6

  7

 40
1.0
 41
0.12
 42
0.05
 43
0.5
 44
0.1
 45
0.0
 46
0.0
 47
0.1
 48
0.1
140
0.12
141
0.0
142
0.0
143
25.4
144
1.0
145
0.0
146
0.71
147
0.06
 71
     0
 72
     0
 73
     1
 74
     1
 75
     0
 76
     0
 77
     0
 78
     7
170
     0
171
     2
172
     0
173
     0
174
     0
175
     0
176
   256
177
   256
178
     2
  0
DIMSTYLE
  2
AM_ANSI$SF
 70
     0
  3

  4
mm
  5

  6

  7

 40
1.0
 41
0.12
 42
0.05
 43
0.5
 44
0.1
 45
0.0
 46
0.0
 47
0.1
 48
0.1
140
0.12
141
0.0
142
0.0
143
25.4
144
1.0
145
0.0
146
0.71
147
0.06
 71
     0
 72
     0
 73
     1
 74
     1
 75
     1
 76
     1
 77
     0
 78
     7
170
     0
171
     2
172
     0
173
     0
174
     0
175
     0
176
   256
177
   256
178
     2
  0
DIMSTYLE
  2
AM_ANSI$SH
 70
     0
  3

  4
mm
  5

  6
GENAXEH
  7

 40
1.0
 41
0.12
 42
0.05
 43
0.5
 44
0.1
 45
0.0
 46
0.0
 47
0.1
 48
0.1
140
0.12
141
0.0
142
0.0
143
25.4
144
1.0
145
0.0
146
0.71
147
0.06
 71
     0
 72
     0
 73
     1
 74
     1
 75
     1
 76
     1
 77
     0
 78
     7
170
     0
171
     2
172
     0
173
     1
174
     0
175
     0
176
   256
177
   256
178
     2
  0
ENDTAB
  0
ENDSEC
  0
SECTION
  2
BLOCKS
  0
BLOCK
  8
0
  2
$MODEL_SPACE
 70
     0
 10
0.0
 20
0.0
 30
0.0
  3
$MODEL_SPACE
  1

  0
ENDBLK
  5
1C
  8
0
  0
BLOCK
 67
     1
  8
0
  2
$PAPER_SPACE
 70
     0
 10
0.0
 20
0.0
 30
0.0
  3
$PAPER_SPACE
  1

  0
ENDBLK
  5
19
 67
     1
  8
0
  0
BLOCK
  8
0
  2
_OPEN30
 70
     0
 10
0.0
 20
0.0
 30
0.0
  3
_OPEN30
  1

  0
LINE
  5
2EF
  8
0
  6
BYBLOCK
 62
     0
 10
-1.0
 20
0.26794919
 30
0.0
 11
0.0
 21
0.0
 31
0.0
  0
LINE
  5
2F0
  8
0
  6
BYBLOCK
 62
     0
 10
0.0
 20
0.0
 30
0.0
 11
-1.0
 21
-0.26794919
 31
0.0
  0
LINE
  5
2F1
  8
0
  6
BYBLOCK
 62
     0
 10
0.0
 20
0.0
 30
0.0
 11
-1.0
 21
0.0
 31
0.0
  0
ENDBLK
  5
2F3
  8
0
  0
BLOCK
  8
0
  2
GENAXEH
 70
     0
 10
0.0
 20
0.0
 30
0.0
  3
GENAXEH
  1

  0
LINE
  5
2F5
  8
0
 10
-1.0
 20
0.0
 30
0.0
 11
1.0
 21
0.0
 31
0.0
  0
ENDBLK
  5
2F7
  8
0
  0
BLOCK
  8
0
  2
_OPEN
 70
     0
 10
0.0
 20
0.0
 30
0.0
  3
_OPEN
  1

  0
LINE
  5
597
  8
0
  6
BYBLOCK
 62
     0
 10
-1.0
 20
0.1666666666666667
 30
0.0
 11
0.0
 21
0.0
 31
0.0
  0
LINE
  5
598
  8
0
  6
BYBLOCK
 62
     0
 10
-1.0
 20
-0.1666666666666667
 30
0.0
 11
0.0
 21
0.0
 31
0.0
  0
LINE
  5
599
  8
0
  6
BYBLOCK
 62
     0
 10
0.0
 20
0.0
 30
0.0
 11
-1.0
 21
0.0
 31
0.0
  0
ENDBLK
  5
59B
  8
0
  0
BLOCK
  8
0
  2
_TAGCIRCLE
 70
     2
 10
0.0
 20
0.0
 30
0.0
  3
_TAGCIRCLE
  1

  0
CIRCLE
  5
1151
  8
0
  6
BYBLOCK
 62
     0
 10
0.0
 20
0.0
 30
0.0
 40
4.0
  0
ATTDEF
  5
1152
  8
0
 62
     0
 10
-7.1
 20
-1.5
 30
0.0
 40
3.0
  1
タグ番号
 72
     1
 11
0.0
 21
-1.5
 31
0.0
  3
タグ番号を入力
  2
タグ番号
 70
     0
  0
ENDBLK
  5
1154
  8
0
  0
BLOCK
  8
0
  2
_ACMFILLED15
 70
     0
 10
0.0
 20
0.0
 30
0.0
  3
_ACMFILLED15
  1
Acad:XRef
  0
TRACE
  5
7F81
  8
AM_0
 62
     0
 10
-1.0
 20
0.1316524975873958
 30
0.0
 11
-1.0
 21
-0.1316524975873958
 31
0.0
 12
0.0
 22
0.0
 32
0.0
 13
0.0
 23
0.0
 33
0.0
  0
ENDBLK
  5
7F7F
  8
0
  0
BLOCK
  8
0
  2
_ACMOPEN30
 70
     0
 10
0.0
 20
0.0
 30
0.0
  3
_ACMOPEN30
  1
Acad:XRef
  0
LINE
  5
7F8B
  8
AM_0
 62
     0
 10
-1.0
 20
0.0
 30
0.0
 11
0.0
 21
0.0
 31
0.0
  0
LINE
  5
7F8C
  8
AM_0
 62
     0
 10
-1.0
 20
-0.2679491924311227
 30
0.0
 11
0.0
 21
0.0
 31
0.0
  0
LINE
  5
7F8D
  8
AM_0
 62
     0
 10
-1.0
 20
0.2679491924311227
 30
0.0
 11
0.0
 21
0.0
 31
0.0
  0
ENDBLK
  5
7F8A
  8
0
  0
BLOCK
  8
0
  2
_ACMFILLEDHALF
 70
     0
 10
0.0
 20
0.0
 30
0.0
  3
_ACMFILLEDHALF
  1

  0
TRACE
  5
7F96
  8
0
 62
     0
 10
-0.8
 20
0.0
 30
0.0
 11
-1.0
 21
0.166666666
 31
0.0
 12
0.0
 22
0.0
 32
0.0
 13
0.0
 23
0.0
 33
0.0
  0
LINE
  5
7F97
  8
0
 62
     0
 10
-1.0
 20
0.0
 30
0.0
 11
-0.8
 21
0.0
 31
0.0
  0
ENDBLK
  5
7F98
  8
0
  0
BLOCK
  8
0
  2
_ACMOPEN15
 70
     0
 10
0.0
 20
0.0
 30
0.0
  3
_ACMOPEN15
  1
Acad:XRef
  0
LINE
  5
7FA5
  8
AM_0
 62
     0
 10
-1.0
 20
0.0
 30
0.0
 11
0.0
 21
0.0
 31
0.0
  0
LINE
  5
7FA6
  8
AM_0
 62
     0
 10
-1.0
 20
-0.1316524975873958
 30
0.0
 11
0.0
 21
0.0
 31
0.0
  0
LINE
  5
7FA7
  8
AM_0
 62
     0
 10
-1.0
 20
0.1316524975873958
 30
0.0
 11
0.0
 21
0.0
 31
0.0
  0
ENDBLK
  5
7FA4
  8
0
  0
BLOCK
  8
0
  2
*X9
 70
     1
 10
0.0
 20
0.0
 30
0.0
  3
*X9
  1
Acad:XRef
  0
TEXT
  5
A49E
  8
0
 62
     7
 10
69.35712706503348
 20
206.6384394270714
 30
0.0
 40
1.9
  1
凍結
  0
TEXT
  5
A49F
  8
0
 62
     7
 10
69.34302687950473
 20
203.3143206886669
 30
0.0
 40
1.9
  1
予防
  0
ENDBLK
  5
A4D4
  8
0
  0
BLOCK
  8
0
  2
*X10
 70
     1
 10
0.0
 20
0.0
 30
0.0
  3
*X10
  1
Acad:XRef
  0
TEXT
  5
A4BF
  8
0
 62
     7
 10
69.35712706503348
 20
226.6384394270715
 30
0.0
 40
1.9
  1
凍結
  0
TEXT
  5
A4C0
  8
0
 62
     7
 10
69.34302687950473
 20
223.314320688667
 30
0.0
 40
1.9
  1
予防
  0
ENDBLK
  5
A4D6
  8
0
  0
ENDSEC
  0
SECTION
  2
ENTITIES
  0
TEXT
  5
1807
  8
10
 10
-1.499998068022251
 20
-0.0000016024546312
 30
0.0
 40
10.0
  1
2024.02.01 EV2 2台単独 露出型
 11
-1.499998068022251
 21
-0.0000016024546312
 31
0.0
 73
     1
  0
LINE
  5
45F1
  8
0
 10
25.52185615177359
 20
289.8911295940472
 30
0.0
 11
125.5218561517736
 21
289.891129594047
 31
0.0
  0
LINE
  5
45F2
  8
0
 10
25.52185615177359
 20
169.8911295940471
 30
0.0
 11
125.5218561517736
 21
169.8911295940471
 31
0.0
  0
ARC
  5
45F3
  8
0
 10
25.52185615177359
 20
281.8911295940472
 30
0.0
 40
8.0
 50
90.0
 51
180.0
  0
LINE
  5
45F4
  8
0
 10
21.27921546465427
 20
286.1337702811663
 30
0.0
 11
29.52185615177359
 21
277.8911295940472
 31
0.0
  0
LINE
  5
45F5
  8
0
 10
31.52185615177359
 20
181.8911295940471
 30
0.0
 11
119.5218561517736
 21
181.8911295940473
 31
0.0
  0
LINE
  5
45F6
  8
0
 10
31.52185615177359
 20
277.8911295940472
 30
0.0
 11
119.5218561517736
 21
277.8911295940471
 31
0.0
  0
LINE
  5
45F9
  8
0
 10
29.52185615177359
 20
275.8911295940472
 30
0.0
 11
29.52185615177359
 21
183.8911295940471
 31
0.0
  0
LINE
  5
45FB
  8
0
 10
17.52185615177359
 20
281.8911295940472
 30
0.0
 11
17.52185615177359
 21
177.8911295940471
 31
0.0
  0
LINE
  5
45FC
  8
0
 10
21.2792154646545
 20
173.6484889069278
 30
0.0
 11
29.52185615177359
 21
181.8911295940471
 31
0.0
  0
ARC
  5
45FD
  8
0
 10
25.52185615177359
 20
177.8911295940471
 30
0.0
 40
8.0
 50
180.0
 51
270.0
  0
ARC
  5
4601
  8
0
 10
125.5218561517736
 20
281.891129594047
 30
0.0
 40
8.0
 50
0.0
 51
90.0
  0
LINE
  5
4602
  8
0
 10
129.7644968388929
 20
286.1337702811663
 30
0.0
 11
121.5218561517736
 21
277.891129594047
 31
0.0
  0
LINE
  5
4604
  8
0
 10
121.5218561517736
 20
275.8911295940471
 30
0.0
 11
121.5218561517736
 21
183.8911295940473
 31
0.0
  0
LINE
  5
4605
  8
0
 10
133.5218561517736
 20
281.891129594047
 30
0.0
 11
133.5218561517736
 21
177.8911295940471
 31
0.0
  0
LINE
  5
4606
  8
0
 10
121.5218561517736
 20
181.8911295940472
 30
0.0
 11
129.7644968388929
 21
173.6484889069277
 31
0.0
  0
ARC
  5
4607
  8
0
 10
125.5218561517736
 20
177.8911295940471
 30
0.0
 40
8.0
 50
270.0
 51
0.0
  0
LINE
  5
6E0D
  8
0
 10
25.52185615177359
 20
290.5544295940472
 30
0.0
 11
125.5218561517736
 21
290.554429594047
 31
0.0
  0
ARC
  5
6E0E
  8
0
 10
25.52185615177359
 20
281.8911295940472
 30
0.0
 40
8.6633
 50
90.0
 51
180.0
  0
LINE
  5
6E0F
  8
0
 10
16.85855615177366
 20
281.8911295940472
 30
0.0
 11
16.85855615177366
 21
177.8911295940471
 31
0.0
  0
ARC
  5
6E10
  8
0
 10
25.52185615177359
 20
177.8911295940471
 30
0.0
 40
8.6633
 50
180.0
 51
270.0
  0
LINE
  5
6E11
  8
0
 10
25.52185615177359
 20
169.2278295940471
 30
0.0
 11
125.5218561517736
 21
169.2278295940471
 31
0.0
  0
ARC
  5
6E12
  8
0
 10
125.5218561517736
 20
177.8911295940471
 30
0.0
 40
8.6633
 50
270.0
 51
0.0
  0
LINE
  5
6E13
  8
0
 10
134.1851561517735
 20
281.891129594047
 30
0.0
 11
134.1851561517735
 21
177.8911295940471
 31
0.0
  0
ARC
  5
6E14
  8
0
 10
125.5218561517736
 20
281.891129594047
 30
0.0
 40
8.6633
 50
0.0
 51
90.0
  0
LINE
  5
7ED2
  8
0
 10
178.9776239078598
 20
280.4759150182771
 30
0.0
 11
180.2735099621404
 21
287.8252500382144
 31
0.0
  0
LINE
  5
7ED3
  8
0
 10
184.021856498226
 20
169.8911295940474
 30
0.0
 11
184.021856498226
 21
289.8911295940474
 31
0.0
  0
LINE
  5
7ED4
  8
0
 10
178.521856498226
 20
184.5157894998249
 30
0.0
 11
178.521856498226
 21
275.2664696882692
 31
0.0
  0
LINE
  5
7ED5
  8
0
 10
178.9776239078598
 20
179.3063441698171
 30
0.0
 11
180.2735099621403
 21
171.9570091498802
 31
0.0
  0
ARC
  5
7ED6
  8
0
 10
182.7355293446709
 20
172.3911295940475
 30
0.0
 40
2.5
 50
189.9999999999986
 51
270.0
  0
LINE
  5
7ED7
  8
0
 10
184.021856498226
 20
169.8911295940475
 30
0.0
 11
182.7355293446707
 21
169.8911295940475
 31
0.0
  0
ARC
  5
7ED8
  8
0
 10
208.521856498226
 20
184.5157894998249
 30
0.0
 40
30.0
 50
180.0
 51
189.9999999999986
  0
ARC
  5
7ED9
  8
0
 10
208.521856498226
 20
275.2664696882692
 30
0.0
 40
30.0
 50
169.9999999999982
 51
180.0
  0
ARC
  5
7EDA
  8
0
 10
182.735529344671
 20
287.3911295940471
 30
0.0
 40
2.5
 50
90.0
 51
169.9999999999982
  0
LINE
  5
7EDB
  8
0
 10
184.0218564982194
 20
289.8911295940474
 30
0.0
 11
182.7355293446641
 21
289.8911295940474
 31
0.0
  0
ARC
  5
7EDC
  8
0
 10
175.8218564982255
 20
259.6911295940473
 30
0.0
 40
1.0
 50
90.0
 51
180.0
  0
LINE
  5
7EDD
  8
0
 10
175.8218564982255
 20
260.6911295940473
 30
0.0
 11
178.5218564982255
 21
260.6911295940473
 31
0.0
  0
LINE
  5
7EDE
  8
0
 10
175.8218564982255
 20
253.6911295940473
 30
0.0
 11
178.5218564982255
 21
253.6911295940473
 31
0.0
  0
LINE
  5
7EDF
  8
0
 10
174.8218564982255
 20
259.6911295940473
 30
0.0
 11
174.8218564982255
 21
254.6911295940473
 31
0.0
  0
ARC
  5
7EE0
  8
0
 10
175.8218564982255
 20
254.6911295940473
 30
0.0
 40
1.0
 50
180.0
 51
270.0
  0
LINE
  5
7EE1
  8
0
 10
125.5218568968316
 20
144.5474987580378
 30
0.0
 11
25.52185540671553
 21
144.5474987580378
 31
0.0
  0
LINE
  5
7EE2
  8
0
 10
125.5218568968316
 20
140.547498917294
 30
0.0
 11
25.52185540671553
 21
140.547498917294
 31
0.0
  0
LINE
  5
7EE3
  8
0
 10
17.52185782070364
 20
140.547498917294
 30
0.0
 11
17.52185782070364
 21
144.5474987580378
 31
0.0
  0
LINE
  5
7EE4
  8
0
 10
25.52185540671553
 20
144.5474987580378
 30
0.0
 11
17.52185782070364
 21
144.5474987580378
 31
0.0
  0
LINE
  5
7EE5
  8
0
 10
25.52185540671553
 20
140.547498917294
 30
0.0
 11
17.52185782070364
 21
140.547498917294
 31
0.0
  0
LINE
  5
7EE6
  8
0
 10
133.5218544828435
 20
140.547498917294
 30
0.0
 11
133.5218544828435
 21
144.5474987580378
 31
0.0
  0
LINE
  5
7EE7
  8
0
 10
133.5218544828435
 20
144.5474987580378
 30
0.0
 11
125.5218568968316
 21
144.5474987580378
 31
0.0
  0
LINE
  5
7EE8
  8
0
 10
133.5218544828435
 20
140.547498917294
 30
0.0
 11
125.5218568968316
 21
140.547498917294
 31
0.0
  0
LINE
  5
7EE9
  8
0
 10
18.62185781474318
 20
144.5474987580378
 30
0.0
 11
18.62185781474318
 21
145.047498758035
 31
0.0
  0
LINE
  5
7EEA
  8
0
 10
132.4218544888039
 20
144.5474987580378
 30
0.0
 11
132.4218544888039
 21
145.047498758035
 31
0.0
  0
LINE
  5
7EEB
  8
0
 10
39.02185668821539
 20
150.5474986937766
 30
0.0
 11
112.0218556153317
 21
150.5474986937766
 31
0.0
  0
LINE
  5
7EEC
  8
0
 10
52.96668634991806
 20
153.7471314291407
 30
0.0
 11
51.96668634991829
 21
153.7471314291407
 31
0.0
  0
LINE
  5
7EED
  8
0
 10
53.96668634991829
 20
154.2471314291407
 30
0.0
 11
52.96668634991829
 21
154.2471314291407
 31
0.0
  0
LINE
  5
7EEE
  8
0
 10
51.96668634991829
 20
154.2471314291407
 30
0.0
 11
50.96668634991829
 21
154.2471314291407
 31
0.0
  0
LINE
  5
7EEF
  8
0
 10
51.96668634991829
 20
154.2471314291407
 30
0.0
 11
51.96668634991829
 21
153.7471314291407
 31
0.0
  0
LINE
  5
7EF0
  8
0
 10
54.96668634991829
 20
154.2471314291407
 30
0.0
 11
54.96668634991829
 21
153.7471314291407
 31
0.0
  0
LINE
  5
7EF1
  8
0
 10
52.96668634991829
 20
154.2471314291407
 30
0.0
 11
52.96668634991806
 21
153.7471314291407
 31
0.0
  0
LINE
  5
7EF2
  8
0
 10
53.96668634991829
 20
154.2471314291407
 30
0.0
 11
53.96668634991829
 21
153.7471314291407
 31
0.0
  0
LINE
  5
7EF3
  8
0
 10
54.96668634991829
 20
153.7471314291407
 30
0.0
 11
53.96668634991829
 21
153.7471314291407
 31
0.0
  0
LINE
  5
7EF4
  8
0
 10
56.96668634991823
 20
150.5474986937766
 30
0.0
 11
56.96668634991801
 21
153.2471314291407
 31
0.0
  0
ARC
  5
7EF5
  8
0
 10
55.96668634991806
 20
153.2471314291407
 30
0.0
 40
1.0
 50
0.0
 51
90.0
  0
LINE
  5
7EF6
  8
0
 10
55.96668634991806
 20
154.2471314291407
 30
0.0
 11
54.96668634991829
 21
154.2471314291407
 31
0.0
  0
LINE
  5
7EF7
  8
0
 10
49.96668634991829
 20
150.5474986937766
 30
0.0
 11
49.96668634991829
 21
153.2471314291407
 31
0.0
  0
ARC
  5
7EF8
  8
0
 10
50.96668634991829
 20
153.2471314291407
 30
0.0
 40
1.0
 50
90.0
 51
180.0
  0
LINE
  5
7EF9
  8
0
 10
133.5218561517733
 20
145.047498758035
 30
0.0
 11
17.52185615177314
 21
145.047498758035
 31
0.0
  0
ARC
  5
7EFA
  8
0
 10
118.8971962459959
 20
120.547498758035
 30
0.0
 40
30.0
 50
80.00000000000139
 51
90.0
  0
LINE
  5
7EFB
  8
0
 10
118.8971962459959
 20
150.547498758035
 30
0.0
 11
32.14651605755125
 21
150.547498758035
 31
0.0
  0
ARC
  5
7EFC
  8
0
 10
131.0218561517733
 20
146.3338259115901
 30
0.0
 40
2.5
 50
0.0
 51
80.00000000000139
  0
LINE
  5
7EFD
  8
0
 10
133.5218561517733
 20
145.047498758035
 30
0.0
 11
133.5218561517733
 21
146.3338259115901
 31
0.0
  0
LINE
  5
7EFE
  8
0
 10
124.1066415760037
 20
150.0917313484011
 30
0.0
 11
131.4559765959406
 21
148.7958452941207
 31
0.0
  0
ARC
  5
7EFF
  8
0
 10
32.14651605755125
 20
120.547498758035
 30
0.0
 40
30.0
 50
90.0
 51
99.99999999999861
  0
ARC
  5
7F00
  8
0
 10
20.02185615177336
 20
146.3338259115901
 30
0.0
 40
2.5
 50
99.99999999999861
 51
180.0
  0
LINE
  5
7F01
  8
0
 10
26.93707072754341
 20
150.0917313484011
 30
0.0
 11
19.58773570760604
 21
148.7958452941206
 31
0.0
  0
LINE
  5
7F02
  8
0
 10
17.52185615177314
 20
145.0474987580416
 30
0.0
 11
17.52185615177314
 21
146.3338259115967
 31
0.0
  0
LINE
  5
7F03
  8
0
 10
188.5218562747081
 20
290.0161275749408
 30
0.0
 11
184.5218564339643
 21
290.0161275749408
 31
0.0
  0
LINE
  5
7F04
  8
0
 10
184.5218564339643
 20
290.0161275749408
 30
0.0
 11
184.5218564339643
 21
282.0161299889289
 31
0.0
  0
LINE
  5
7F05
  8
0
 10
188.5218562747081
 20
290.0161275749408
 30
0.0
 11
188.5218562747081
 21
282.0161299889289
 31
0.0
  0
LINE
  5
7F06
  8
0
 10
184.5218564339643
 20
282.0161299889289
 30
0.0
 11
184.5218564339643
 21
178.0161278431617
 31
0.0
  0
LINE
  5
7F07
  8
0
 10
188.5218562747081
 20
282.0161299889289
 30
0.0
 11
188.5218562747081
 21
178.0161278431617
 31
0.0
  0
LINE
  5
7F08
  8
0
 10
188.5218562747081
 20
170.0161302571498
 30
0.0
 11
184.5218564339643
 21
170.0161302571498
 31
0.0
  0
LINE
  5
7F09
  8
0
 10
184.5218564339643
 20
178.0161278431617
 30
0.0
 11
184.5218564339643
 21
170.0161302571498
 31
0.0
  0
LINE
  5
7F0A
  8
0
 10
188.5218562747081
 20
178.0161278431617
 30
0.0
 11
188.5218562747081
 21
170.0161302571498
 31
0.0
  0
LINE
  5
7F0B
  8
0
 10
184.5218564339643
 20
171.1161302511894
 30
0.0
 11
184.021856498226
 21
171.1161302511894
 31
0.0
  0
LINE
  5
7F0C
  8
0
 10
184.5218564339643
 20
288.9161275809013
 30
0.0
 11
184.021856498226
 21
288.9161275809013
 31
0.0
  0
LINE
  5
7F0D
  8
0
 10
188.5218562747081
 20
290.0161289160452
 30
0.0
 11
188.5218562747081
 21
170.0161289160454
 31
0.0
  0
LINE
  5
7F0E
  8
0
 10
226.5218562747083
 20
290.6794213833176
 30
0.0
 11
226.521856274708
 21
169.3528364487731
 31
0.0
  0
LINE
  5
7F0F
  8
0
 10
188.5218562747081
 20
170.0161289160454
 30
0.0
 11
226.521856274708
 21
169.3528364487731
 31
0.0
  0
LINE
  5
7F10
  8
0
 10
188.5218562747081
 20
290.0161289160452
 30
0.0
 11
226.5218562747083
 21
290.6794213833176
 31
0.0
  0
LINE
  5
7F11
  8
0
 10
133.5218561517738
 20
140.547498917294
 30
0.0
 11
134.1851486190457
 21
102.547498917294
 31
0.0
  0
LINE
  5
7F12
  8
0
 10
17.52185615177348
 20
140.547498917294
 30
0.0
 11
16.85856368450106
 21
102.5474989172941
 31
0.0
  0
ARC
  5
7F13
  8
0
 10
70.0218561517733
 20
106.547498917294
 30
0.0
 40
4.0
 50
0.0
 51
90.0
  0
ARC
  5
7F14
  8
0
 10
70.0218561517733
 20
106.547498917294
 30
0.0
 40
3.0
 50
0.0
 51
180.0
  0
LINE
  5
7F15
  8
0
 10
16.85856368450106
 20
102.5474989172941
 30
0.0
 11
134.1851486190457
 21
102.547498917294
 31
0.0
  0
LINE
  5
7F16
  8
0
 10
66.0218561517733
 20
102.547498917294
 30
0.0
 11
66.0218561517733
 21
106.547498917294
 31
0.0
  0
LINE
  5
7F17
  8
0
 10
67.0218561517733
 20
102.547498917294
 30
0.0
 11
67.0218561517733
 21
106.547498917294
 31
0.0
  0
LINE
  5
7F18
  8
0
 10
55.52185615177336
 20
102.547498917294
 30
0.0
 11
55.52185615177336
 21
106.547498917294
 31
0.0
  0
LINE
  5
7F19
  8
0
 10
56.52185615177331
 20
102.547498917294
 30
0.0
 11
56.52185615177331
 21
106.547498917294
 31
0.0
  0
LINE
  5
7F1A
  8
0
 10
63.52185615177331
 20
106.547498917294
 30
0.0
 11
63.52185615177331
 21
102.547498917294
 31
0.0
  0
LINE
  5
7F1B
  8
0
 10
62.52185615177331
 20
106.547498917294
 30
0.0
 11
62.52185615177331
 21
102.547498917294
 31
0.0
  0
ARC
  5
7F1C
  8
0
 10
59.52185615177331
 20
106.547498917294
 30
0.0
 40
4.0
 50
0.0
 51
48.59037789073079
  0
ARC
  5
7F1D
  8
0
 10
59.52185615177331
 20
106.547498917294
 30
0.0
 40
3.0
 50
0.0
 51
180.0
  0
LINE
  5
7F1E
  8
0
 10
62.16760746283802
 20
109.547498917294
 30
0.0
 11
67.37610484070882
 21
109.547498917294
 31
0.0
  0
ARC
  5
7F1F
  8
0
 10
70.0218561517733
 20
106.547498917294
 30
0.0
 40
4.0
 50
131.4096221092692
 51
180.0
  0
ARC
  5
7F20
  8
0
 10
59.52185615177331
 20
106.547498917294
 30
0.0
 40
4.0
 50
90.0
 51
180.0
  0
LINE
  5
7F21
  8
0
 10
59.52185615177331
 20
110.547498917294
 30
0.0
 11
70.0218561517733
 21
110.547498917294
 31
0.0
  0
LINE
  5
7F22
  8
0
 10
94.5218561517733
 20
106.547498917294
 30
0.0
 11
94.5218561517733
 21
102.547498917294
 31
0.0
  0
LINE
  5
7F23
  8
0
 10
95.5218561517733
 20
106.547498917294
 30
0.0
 11
95.5218561517733
 21
102.547498917294
 31
0.0
  0
LINE
  5
7F24
  8
0
 10
88.5218561517733
 20
102.547498917294
 30
0.0
 11
88.5218561517733
 21
106.547498917294
 31
0.0
  0
LINE
  5
7F25
  8
0
 10
87.5218561517733
 20
102.547498917294
 30
0.0
 11
87.5218561517733
 21
106.547498917294
 31
0.0
  0
LINE
  5
7F26
  8
0
 10
74.0218561517733
 20
106.547498917294
 30
0.0
 11
74.0218561517733
 21
102.547498917294
 31
0.0
  0
LINE
  5
7F27
  8
0
 10
73.0218561517733
 20
106.547498917294
 30
0.0
 11
73.0218561517733
 21
102.547498917294
 31
0.0
  0
LINE
  5
7F28
  8
0
 10
77.0218561517733
 20
102.547498917294
 30
0.0
 11
77.0218561517733
 21
106.547498917294
 31
0.0
  0
LINE
  5
7F29
  8
0
 10
78.0218561517733
 20
102.547498917294
 30
0.0
 11
78.0218561517733
 21
106.547498917294
 31
0.0
  0
LINE
  5
7F2A
  8
0
 10
85.0218561517733
 20
106.547498917294
 30
0.0
 11
85.0218561517733
 21
102.547498917294
 31
0.0
  0
LINE
  5
7F2B
  8
0
 10
84.0218561517733
 20
106.547498917294
 30
0.0
 11
84.0218561517733
 21
102.547498917294
 31
0.0
  0
LINE
  5
7F2C
  8
0
 10
81.0218561517733
 20
110.547498917294
 30
0.0
 11
91.5218561517733
 21
110.547498917294
 31
0.0
  0
ARC
  5
7F2D
  8
0
 10
91.5218561517733
 20
106.547498917294
 30
0.0
 40
4.0
 50
131.4096221092692
 51
180.0
  0
LINE
  5
7F2E
  8
0
 10
83.6676074628378
 20
109.547498917294
 30
0.0
 11
88.87610484070882
 21
109.547498917294
 31
0.0
  0
ARC
  5
7F2F
  8
0
 10
81.0218561517733
 20
106.547498917294
 30
0.0
 40
4.0
 50
0.0
 51
48.59037789073079
  0
ARC
  5
7F30
  8
0
 10
81.0218561517733
 20
106.547498917294
 30
0.0
 40
3.0
 50
0.0
 51
180.0
  0
ARC
  5
7F31
  8
0
 10
81.0218561517733
 20
106.547498917294
 30
0.0
 40
4.0
 50
90.0
 51
180.0
  0
ARC
  5
7F32
  8
0
 10
91.5218561517733
 20
106.547498917294
 30
0.0
 40
3.0
 50
0.0
 51
180.0
  0
ARC
  5
7F33
  8
0
 10
91.5218561517733
 20
106.547498917294
 30
0.0
 40
4.0
 50
0.0
 51
90.0
  0
LINE
  5
7F34
  8
0
 10
17.52185615177348
 20
140.547498917294
 30
0.0
 11
133.5218561517738
 21
140.547498917294
 31
0.0
  0
LINE
  5
7F35
  8
7
 10
12.72785615177349
 20
229.8911295940471
 30
0.0
 11
138.3158561517734
 21
229.8911295940469
 31
0.0
1001
GENIUS_GENOBJ-N-CEN_13
1002
{
1000
OWNER
1000
GEN
1002
}
1001
GENIUS_GENODEF_13
1002
{
1000
HIER
1070
     0
1002
}
1002
{
1000
MANEDIT
1070
     0
1002
}
1002
{
1000
NOSEL
1070
     0
1002
}
1002
{
1000
BEHIND
1070
     0
1002
}
1002
{
1000
OTHER
1070
     0
1002
}
1002
{
1000
REACTOR
1002
}
1001
GENIUS_GENCEN_19
1002
{
1040
2.794
1002
}
  0
LINE
  5
7F36
  8
7
 10
75.52185615177353
 20
294.6851295940472
 30
0.0
 11
75.52185615177353
 21
165.097129594047
 31
0.0
1001
GENIUS_GENOBJ-N-CEN_13
1002
{
1000
OWNER
1000
GEN
1002
}
1001
GENIUS_GENODEF_13
1002
{
1000
HIER
1070
     0
1002
}
1002
{
1000
MANEDIT
1070
     0
1002
}
1002
{
1000
NOSEL
1070
     0
1002
}
1002
{
1000
BEHIND
1070
     0
1002
}
1002
{
1000
OTHER
1070
     0
1002
}
1002
{
1000
REACTOR
1002
}
1001
GENIUS_GENCEN_19
1002
{
1040
2.794
1002
}
  0
LINE
  5
7F37
  8
7
 10
75.52185615177353
 20
153.341498758035
 30
0.0
 11
75.52185615177353
 21
99.75349891729405
 31
0.0
1001
GENIUS_GENOBJ-N-CEN_13
1002
{
1000
OWNER
1000
GEN
1002
}
1001
GENIUS_GENODEF_13
1002
{
1000
HIER
1070
     0
1002
}
1002
{
1000
MANEDIT
1070
     0
1002
}
1002
{
1000
NOSEL
1070
     0
1002
}
1002
{
1000
BEHIND
1070
     0
1002
}
1002
{
1000
OTHER
1070
     0
1002
}
1002
{
1000
REACTOR
1002
}
1001
GENIUS_GENCEN_19
1002
{
1040
2.794
1002
}
  0
LINE
  5
7F38
  8
7
 10
175.727856498226
 20
229.8911295940467
 30
0.0
 11
229.3158562747082
 21
229.8911295940466
 31
0.0
1001
GENIUS_GENODEF_13
1002
{
1000
HIER
1070
     0
1002
}
1002
{
1000
MANEDIT
1070
     0
1002
}
1002
{
1000
NOSEL
1070
     0
1002
}
1002
{
1000
BEHIND
1070
     0
1002
}
1002
{
1000
OTHER
1070
     0
1002
}
1002
{
1000
REACTOR
1002
}
1001
GENIUS_GENOBJ-N-CEN_13
1002
{
1000
OWNER
1000
GEN
1002
}
1001
GENIUS_GENCEN_19
1002
{
1040
2.794
1002
}
  0
LINE
  5
88A9
  8
0
 10
38.27185615177351
 20
264.991129594047
 30
0.0
 11
112.7718561517735
 21
264.991129594047
 31
0.0
  0
LINE
  5
88AA
  8
0
 10
38.27185615177351
 20
194.791129594047
 30
0.0
 11
112.7718561517735
 21
194.791129594047
 31
0.0
  0
LINE
  5
88AB
  8
0
 10
38.27185615177351
 20
264.991129594047
 30
0.0
 11
38.27185615177351
 21
194.791129594047
 31
0.0
  0
LINE
  5
88AC
  8
0
 10
112.7718561517735
 20
264.991129594047
 30
0.0
 11
112.7718561517735
 21
194.791129594047
 31
0.0
  0
LINE
  5
88AD
  8
0
 10
112.0218556153317
 20
195.3911304583144
 30
0.0
 11
112.0218556153317
 21
264.3911287297797
 31
0.0
  0
LINE
  5
88AE
  8
0
 10
39.02185668821531
 20
195.3911304583144
 30
0.0
 11
112.0218556153317
 21
195.3911304583144
 31
0.0
  0
LINE
  5
88AF
  8
0
 10
39.02185668821531
 20
264.3911287297797
 30
0.0
 11
39.02185668821531
 21
195.3911304583144
 31
0.0
  0
LINE
  5
88B0
  8
0
 10
112.0218556153317
 20
264.3911287297797
 30
0.0
 11
39.02185668821531
 21
264.3911287297797
 31
0.0
  0
LINE
  5
88B1
  8
0
 10
40.52185600276189
 20
196.891129772861
 30
0.0
 11
110.5218563007851
 21
196.891129772861
 31
0.0
  0
LINE
  5
88B2
  8
0
 10
110.5218563007851
 20
196.891129772861
 30
0.0
 11
110.5218563007851
 21
262.8911294152331
 31
0.0
  0
LINE
  5
88B3
  8
0
 10
110.5218563007851
 20
262.8911294152331
 30
0.0
 11
65.52185637529092
 21
262.8911294152331
 31
0.0
  0
LINE
  5
88B4
  8
0
 10
40.52185600276189
 20
250.891129310925
 30
0.0
 11
65.52185637529092
 21
250.891129310925
 31
0.0
  0
LINE
  5
88B5
  8
0
 10
40.52185600276189
 20
250.891129310925
 30
0.0
 11
40.52185600276189
 21
196.891129772861
 31
0.0
  0
LINE
  5
88B6
  8
0
 10
47.32185562725263
 20
253.1911291291308
 30
0.0
 11
57.32185540373521
 21
253.1911291291308
 31
0.0
  0
LINE
  5
88B7
  8
0
 10
57.32185540373521
 20
253.1911291291308
 30
0.0
 11
57.32185540373521
 21
261.191130440433
 31
0.0
  0
LINE
  5
88B8
  8
0
 10
57.32185540373521
 20
261.191130440433
 30
0.0
 11
47.32185562725263
 21
261.191130440433
 31
0.0
  0
LINE
  5
88B9
  8
0
 10
47.32185562725263
 20
261.191130440433
 30
0.0
 11
47.32185562725263
 21
253.1911291291308
 31
0.0
  0
LINE
  5
88BA
  8
0
 10
65.52185637529092
 20
250.891129310925
 30
0.0
 11
65.52185637529092
 21
262.8911294152331
 31
0.0
  0
LINE
  5
88BB
  8
0
 10
112.5218566286107
 20
194.8911294450354
 30
0.0
 11
112.5218566286107
 21
264.8911297430586
 31
0.0
  0
LINE
  5
88BC
  8
0
 10
38.52185567493635
 20
194.8911294450354
 30
0.0
 11
112.5218566286107
 21
194.8911294450354
 31
0.0
  0
LINE
  5
88BD
  8
0
 10
38.52185567493635
 20
264.8911297430586
 30
0.0
 11
38.52185567493635
 21
194.8911294450354
 31
0.0
  0
LINE
  5
88BE
  8
0
 10
112.5218566286107
 20
264.8911297430586
 30
0.0
 11
38.52185567493635
 21
264.8911297430586
 31
0.0
  0
ARC
  5
88BF
  8
0
 10
48.7218555154939
 20
259.6911291291308
 30
0.0
 40
1.0
 50
90.0
 51
180.0
  0
ARC
  5
88C0
  8
0
 10
53.7218555154939
 20
259.6911291291308
 30
0.0
 40
1.0
 50
0.0
 51
90.0
  0
LINE
  5
88C1
  8
0
 10
48.7218555154939
 20
260.6911291291308
 30
0.0
 11
53.7218555154939
 21
260.6911291291308
 31
0.0
  0
LINE
  5
88C2
  8
0
 10
53.7218555154939
 20
253.6911291291309
 30
0.0
 11
48.7218555154939
 21
253.6911291291308
 31
0.0
  0
ARC
  5
88C3
  8
0
 10
48.7218555154939
 20
254.6911291291308
 30
0.0
 40
1.0
 50
180.0
 51
270.0000000000016
  0
ARC
  5
88C4
  8
0
 10
53.7218555154939
 20
254.6911291291309
 30
0.0
 40
1.0
 50
270.0
 51
0.0
  0
LINE
  5
88C5
  8
0
 10
52.7218555154939
 20
253.6911291291309
 30
0.0
 11
52.7218555154939
 21
260.6911291291308
 31
0.0
  0
LINE
  5
88C6
  8
0
 10
51.7218555154939
 20
253.6911291291308
 30
0.0
 11
51.7218555154939
 21
260.6911291291308
 31
0.0
  0
LINE
  5
88C7
  8
0
 10
50.7218555154939
 20
253.6911291291307
 30
0.0
 11
50.7218555154939
 21
260.6911291291308
 31
0.0
  0
LINE
  5
88C8
  8
0
 10
49.7218555154939
 20
253.6911291291307
 30
0.0
 11
49.7218555154939
 21
260.6911291291308
 31
0.0
  0
LINE
  5
88C9
  8
0
 10
47.7218555154939
 20
254.6911291291308
 30
0.0
 11
47.7218555154939
 21
259.6911291291308
 31
0.0
  0
LINE
  5
88CA
  8
0
 10
54.7218555154939
 20
259.6911291291308
 30
0.0
 11
54.7218555154939
 21
254.6911291291309
 31
0.0
  0
LINE
  5
88CB
  8
0
 10
65.77185637529092
 20
262.6411295940471
 30
0.0
 11
110.2718561517735
 21
262.641129594047
 31
0.0
  0
LINE
  5
88CC
  8
0
 10
110.2718561517735
 20
262.641129594047
 30
0.0
 11
110.2718561517735
 21
197.141129594047
 31
0.0
  0
LINE
  5
88CD
  8
0
 10
40.77185615177351
 20
197.1411295940472
 30
0.0
 11
40.77185615177351
 21
250.641129310925
 31
0.0
  0
LINE
  5
88CE
  8
0
 10
110.2718561517735
 20
197.141129594047
 30
0.0
 11
40.77185615177351
 21
197.1411295940472
 31
0.0
  0
LINE
  5
88CF
  8
0
  6
CONTINUOUS
 10
65.77185637529092
 20
250.641129310925
 30
0.0
 11
65.77185637529092
 21
262.6411295940471
 31
0.0
  0
LINE
  5
88D0
  8
0
  6
CONTINUOUS
 10
40.77185615177351
 20
250.641129310925
 30
0.0
 11
65.77185637529092
 21
250.641129310925
 31
0.0
  0
INSERT
  5
88D1
  8
0
 62
     7
  2
*X9
 10
0.0
 20
0.0
 30
0.0
  0
TEXT
  5
88D2
  8
0
 62
     7
 10
69.34772694134764
 20
212.9769675655995
 30
0.0
 40
1.9
  1
給水
  0
TEXT
  5
88D3
  8
0
 62
     7
 10
89.3430064300667
 20
207.9715253887287
 30
0.0
 40
4.0
  1
PUSH
 41
1.2
  0
TEXT
  5
88D4
  8
0
 62
     7
 10
49.75042694406535
 20
246.2980250795142
 30
0.0
 40
2.0
  1
電源
  0
LINE
  5
88D6
  8
0
 10
41.77185615177351
 20
217.1012377013523
 30
0.0
 11
41.77185615177351
 21
219.6387377013529
 31
0.0
  0
LINE
  5
88D7
  8
0
 10
43.87435615177347
 20
217.1012377013523
 30
0.0
 11
43.87435615177347
 21
219.6387377013529
 31
0.0
  0
LINE
  5
88D8
  8
0
 10
44.09185615177367
 20
217.1012377013523
 30
0.0
 11
44.09185615177367
 21
219.6387377013529
 31
0.0
  0
LINE
  5
88D9
  8
0
 10
41.77185615177351
 20
217.1012377013523
 30
0.0
 11
42.56935615177363
 21
217.1012377013523
 31
0.0
  0
LINE
  5
88DA
  8
0
 10
41.77185615177351
 20
219.6387377013529
 30
0.0
 11
42.56935615177363
 21
219.6387377013529
 31
0.0
  0
LINE
  5
88DB
  8
0
 10
42.56935615177363
 20
219.6387377013529
 30
0.0
 11
42.56935615177363
 21
218.7687377013528
 31
0.0
  0
LINE
  5
88DC
  8
0
 10
43.07685615177334
 20
219.6387377013529
 30
0.0
 11
43.07685615177334
 21
218.7687377013528
 31
0.0
  0
LINE
  5
88DD
  8
0
 10
42.56935615177363
 20
217.1012377013523
 30
0.0
 11
42.56935615177363
 21
217.9712377013522
 31
0.0
  0
LINE
  5
88DE
  8
0
 10
43.07685615177334
 20
217.1012377013523
 30
0.0
 11
43.07685615177334
 21
217.9712377013522
 31
0.0
  0
LINE
  5
88DF
  8
0
 10
43.07685615177334
 20
219.6387377013529
 30
0.0
 11
43.87435615177347
 21
219.6387377013529
 31
0.0
  0
LINE
  5
88E0
  8
0
 10
43.07685615177334
 20
217.1012377013523
 30
0.0
 11
43.87435615177347
 21
217.1012377013523
 31
0.0
  0
LINE
  5
88E1
  8
0
 10
42.56935615177363
 20
218.7687377013528
 30
0.0
 11
43.07685615177334
 21
218.7687377013528
 31
0.0
  0
LINE
  5
88E2
  8
0
 10
42.56935615177363
 20
217.9712377013522
 30
0.0
 11
43.07685615177334
 21
217.9712377013522
 31
0.0
  0
LINE
  5
88E3
  8
0
 10
44.88935615177334
 20
217.1012377013523
 30
0.0
 11
44.88935615177334
 21
219.6387377013529
 31
0.0
  0
LINE
  5
88E4
  8
0
 10
45.10685615177354
 20
217.1012377013523
 30
0.0
 11
45.10685615177354
 21
219.6387377013529
 31
0.0
  0
LINE
  5
88E5
  8
0
 10
44.09185615177367
 20
219.6387377013529
 30
0.0
 11
44.88935615177334
 21
219.6387377013529
 31
0.0
  0
LINE
  5
88E6
  8
0
 10
44.09185615177367
 20
217.1012377013523
 30
0.0
 11
44.88935615177334
 21
217.1012377013523
 31
0.0
  0
LINE
  5
88E7
  8
0
 10
47.20935615177351
 20
217.1012377013523
 30
0.0
 11
47.20935615177351
 21
217.6812377013522
 31
0.0
  0
LINE
  5
88E8
  8
0
 10
47.20935615177351
 20
219.058737701353
 30
0.0
 11
47.20935615177351
 21
219.6387377013529
 31
0.0
  0
LINE
  5
88E9
  8
0
 10
45.10685615177354
 20
217.1012377013523
 30
0.0
 11
45.90435615177367
 21
217.1012377013523
 31
0.0
  0
LINE
  5
88EA
  8
0
 10
45.10685615177354
 20
219.6387377013529
 30
0.0
 11
45.90435615177367
 21
219.6387377013529
 31
0.0
  0
LINE
  5
88EB
  8
0
 10
45.90435615177367
 20
219.6387377013529
 30
0.0
 11
45.90435615177367
 21
218.7687377013528
 31
0.0
  0
LINE
  5
88EC
  8
0
 10
46.41185615177338
 20
219.6387377013529
 30
0.0
 11
46.41185615177338
 21
219.058737701353
 31
0.0
  0
LINE
  5
88ED
  8
0
 10
45.90435615177367
 20
217.1012377013523
 30
0.0
 11
45.90435615177367
 21
217.9712377013522
 31
0.0
  0
LINE
  5
88EE
  8
0
 10
46.41185615177338
 20
217.1012377013523
 30
0.0
 11
46.41185615177338
 21
217.6812377013522
 31
0.0
  0
ARC
  5
88EF
  8
0
 10
46.12185615177341
 20
217.6812377013522
 30
0.0
 40
0.29
 50
0.0
 51
90.0
  0
ARC
  5
88F0
  8
0
 10
46.12185615177341
 20
217.6812377013522
 30
0.0
 40
1.0875
 50
0.0
 51
39.29648023918966
  0
LINE
  5
88F1
  8
0
 10
46.41185615177338
 20
219.6387377013529
 30
0.0
 11
47.20935615177351
 21
219.6387377013529
 31
0.0
  0
LINE
  5
88F2
  8
0
 10
46.41185615177338
 20
217.1012377013523
 30
0.0
 11
47.20935615177351
 21
217.1012377013523
 31
0.0
  0
LINE
  5
88F3
  8
0
 10
45.90435615177367
 20
218.7687377013528
 30
0.0
 11
46.12185615177341
 21
218.7687377013528
 31
0.0
  0
ARC
  5
88F4
  8
0
 10
46.12185615177341
 20
219.058737701353
 30
0.0
 40
0.29
 50
270.0
 51
0.0
  0
ARC
  5
88F5
  8
0
 10
46.12185615177341
 20
219.058737701353
 30
0.0
 40
1.0875
 50
320.7035197608187
 51
0.0
  0
LINE
  5
88F6
  8
0
 10
45.90435615177367
 20
217.9712377013522
 30
0.0
 11
46.12185615177341
 21
217.9712377013522
 31
0.0
  0
LINE
  5
88F7
  8
0
 10
47.42685615177371
 20
217.1012377013523
 30
0.0
 11
47.42685615177371
 21
218.5874877013522
 31
0.0
  0
LINE
  5
88F8
  8
0
 10
49.52935615177367
 20
217.1012377013523
 30
0.0
 11
49.52935615177367
 21
218.5874877013522
 31
0.0
  0
LINE
  5
88F9
  8
0
 10
47.42685615177371
 20
217.1012377013523
 30
0.0
 11
48.22435615177338
 21
217.1012377013523
 31
0.0
  0
LINE
  5
88FA
  8
0
 10
48.22435615177338
 20
217.1012377013523
 30
0.0
 11
48.22435615177338
 21
217.608737701352
 31
0.0
  0
LINE
  5
88FB
  8
0
 10
48.73185615177354
 20
217.1012377013523
 30
0.0
 11
48.73185615177354
 21
217.608737701352
 31
0.0
  0
LINE
  5
88FC
  8
0
 10
48.73185615177354
 20
217.1012377013523
 30
0.0
 11
49.52935615177367
 21
217.1012377013523
 31
0.0
  0
LINE
  5
88FD
  8
0
 10
48.22435615177338
 20
217.608737701352
 30
0.0
 11
48.73185615177354
 21
217.608737701352
 31
0.0
  0
LINE
  5
88FE
  8
0
 10
48.22435615177338
 20
218.3337377013524
 30
0.0
 11
48.73185615177354
 21
218.3337377013524
 31
0.0
  0
ARC
  5
88FF
  8
0
 10
48.47810615177369
 20
218.5874877013522
 30
0.0
 40
1.05125
 50
0.0
 51
180.0
  0
ARC
  5
8900
  8
0
 10
48.47810615177369
 20
218.5874877013522
 30
0.0
 40
0.25375
 50
0.0
 51
180.0
  0
LINE
  5
8901
  8
0
 10
48.22435615177338
 20
218.3337377013524
 30
0.0
 11
48.22435615177338
 21
218.5874877013522
 31
0.0
  0
LINE
  5
8902
  8
0
 10
48.73185615177354
 20
218.5874877013522
 30
0.0
 11
48.73185615177354
 21
218.3337377013524
 31
0.0
  0
LINE
  5
8903
  8
0
 10
49.74685615177341
 20
217.1012377013523
 30
0.0
 11
49.74685615177341
 21
219.6387377013529
 31
0.0
  0
LINE
  5
8904
  8
0
 10
51.84935615177338
 20
217.1012377013523
 30
0.0
 11
51.84935615177338
 21
217.6812377013522
 31
0.0
  0
LINE
  5
8905
  8
0
 10
49.74685615177341
 20
217.1012377013523
 30
0.0
 11
50.54435615177354
 21
217.1012377013523
 31
0.0
  0
LINE
  5
8906
  8
0
 10
50.68935615177352
 20
217.8987377013524
 30
0.0
 11
50.83435615177351
 21
217.8987377013524
 31
0.0
  0
LINE
  5
8907
  8
0
 10
50.68935615177352
 20
218.4787377013528
 30
0.0
 11
50.83435615177351
 21
218.4787377013528
 31
0.0
  0
LINE
  5
8908
  8
0
 10
50.54435615177354
 20
217.1012377013523
 30
0.0
 11
50.54435615177354
 21
218.9137377013525
 31
0.0
  0
LINE
  5
8909
  8
0
 10
51.05185615177371
 20
217.1012377013523
 30
0.0
 11
51.05185615177371
 21
217.6812377013522
 31
0.0
  0
ARC
  5
890A
  8
0
 10
50.83435615177351
 20
217.6812377013522
 30
0.0
 40
0.2175
 50
0.0
 51
90.0
  0
ARC
  5
890B
  8
0
 10
50.83435615177351
 20
217.6812377013522
 30
0.0
 40
1.015
 50
0.0
 51
30.66296328368225
  0
LINE
  5
890C
  8
0
 10
49.74685615177341
 20
219.6387377013529
 30
0.0
 11
50.90685615177327
 21
219.6387377013529
 31
0.0
  0
LINE
  5
890D
  8
0
 10
50.54435615177354
 20
218.9137377013525
 30
0.0
 11
50.83435615177351
 21
218.9137377013525
 31
0.0
  0
LINE
  5
890E
  8
0
 10
51.05185615177371
 20
217.1012377013523
 30
0.0
 11
51.84935615177338
 21
217.1012377013523
 31
0.0
  0
ARC
  5
890F
  8
0
 10
50.83435615177351
 20
218.6962377013525
 30
0.0
 40
0.2175
 50
270.0
 51
90.0
  0
ARC
  5
8910
  8
0
 10
50.90685615177327
 20
218.6962377013525
 30
0.0
 40
0.9425
 50
328.1493895340805
 51
90.0
  0
LINE
  5
8911
  8
0
 10
50.68935615177352
 20
218.4787377013528
 30
0.0
 11
50.68935615177352
 21
217.8987377013524
 31
0.0
  0
LINE
  5
8912
  8
0
 10
52.06685615177358
 20
217.1012377013523
 30
0.0
 11
52.06685615177358
 21
219.6387377013529
 31
0.0
  0
LINE
  5
8913
  8
0
 10
52.86435615177371
 20
217.1012377013523
 30
0.0
 11
52.86435615177371
 21
219.6387377013529
 31
0.0
  0
LINE
  5
8914
  8
0
 10
55.76435615177334
 20
217.1374877013524
 30
0.0
 11
55.76435615177334
 21
218.5874877013522
 31
0.0
  0
LINE
  5
8915
  8
0
 10
52.06685615177358
 20
219.6387377013529
 30
0.0
 11
52.86435615177371
 21
219.6387377013529
 31
0.0
  0
LINE
  5
8916
  8
0
 10
52.06685615177358
 20
217.1012377013523
 30
0.0
 11
52.86435615177371
 21
217.1012377013523
 31
0.0
  0
ARC
  5
8917
  8
0
 10
55.03935615177343
 20
218.3699877013525
 30
0.0
 40
1.305
 50
84.27518954777628
 51
281.4211862750086
  0
ARC
  5
8918
  8
0
 10
55.03935615177343
 20
218.3699877013525
 30
0.0
 40
0.5075000000000001
 50
84.27518954777645
 51
270.0
  0
CIRCLE
  5
8919
  8
0
 10
57.28685615177338
 20
218.3699877013525
 30
0.0
 40
1.305
  0
CIRCLE
  5
891A
  8
0
 10
57.28685615177338
 20
218.3699877013525
 30
0.0
 40
0.5075000000000001
  0
LINE
  5
891B
  8
0
 10
55.03935615177343
 20
217.8624877013528
 30
0.0
 11
55.03935615177343
 21
218.5874877013522
 31
0.0
  0
LINE
  5
891C
  8
0
 10
55.03935615177343
 20
218.5874877013522
 30
0.0
 11
55.76435615177334
 21
218.5874877013522
 31
0.0
  0
LINE
  5
891D
  8
0
 10
55.29777199335777
 20
217.0908292855112
 30
0.0
 11
55.76435615177334
 21
217.1374877013524
 31
0.0
  0
LINE
  5
891E
  8
0
 10
55.16953071536446
 20
219.6684789731729
 30
0.0
 11
55.76435615177334
 21
219.6387377013529
 31
0.0
  0
LINE
  5
891F
  8
0
 10
55.76435615177334
 20
219.6387377013529
 30
0.0
 11
55.76435615177334
 21
218.8412377013523
 31
0.0
  0
LINE
  5
8920
  8
0
 10
55.76435615177334
 20
218.8412377013523
 30
0.0
 11
55.08997959316994
 21
218.8749565292832
 31
0.0
  0
LINE
  5
8921
  8
0
 10
58.80935615177341
 20
217.1012377013523
 30
0.0
 11
58.80935615177341
 21
219.6387377013529
 31
0.0
  0
LINE
  5
8922
  8
0
 10
60.91185615177338
 20
217.1012377013523
 30
0.0
 11
60.91185615177338
 21
217.6812377013522
 31
0.0
  0
LINE
  5
8923
  8
0
 10
60.91185615177338
 20
219.058737701353
 30
0.0
 11
60.91185615177338
 21
219.6387377013529
 31
0.0
  0
LINE
  5
8924
  8
0
 10
58.80935615177341
 20
217.1012377013523
 30
0.0
 11
59.60685615177354
 21
217.1012377013523
 31
0.0
  0
LINE
  5
8925
  8
0
 10
58.80935615177341
 20
219.6387377013529
 30
0.0
 11
59.60685615177354
 21
219.6387377013529
 31
0.0
  0
LINE
  5
8926
  8
0
 10
59.60685615177354
 20
219.6387377013529
 30
0.0
 11
59.60685615177354
 21
218.7687377013528
 31
0.0
  0
LINE
  5
8927
  8
0
 10
60.11435615177371
 20
219.6387377013529
 30
0.0
 11
60.11435615177371
 21
219.058737701353
 31
0.0
  0
LINE
  5
8928
  8
0
 10
59.60685615177354
 20
217.1012377013523
 30
0.0
 11
59.60685615177354
 21
217.9712377013522
 31
0.0
  0
LINE
  5
8929
  8
0
 10
60.11435615177371
 20
217.1012377013523
 30
0.0
 11
60.11435615177371
 21
217.6812377013522
 31
0.0
  0
ARC
  5
892A
  8
0
 10
59.82435615177329
 20
217.6812377013522
 30
0.0
 40
0.29
 50
0.0
 51
90.0
  0
ARC
  5
892B
  8
0
 10
59.82435615177329
 20
217.6812377013522
 30
0.0
 40
1.0875
 50
0.0
 51
39.29648023918966
  0
LINE
  5
892C
  8
0
 10
60.11435615177371
 20
219.6387377013529
 30
0.0
 11
60.91185615177338
 21
219.6387377013529
 31
0.0
  0
LINE
  5
892D
  8
0
 10
60.11435615177371
 20
217.1012377013523
 30
0.0
 11
60.91185615177338
 21
217.1012377013523
 31
0.0
  0
LINE
  5
892E
  8
0
 10
59.60685615177354
 20
218.7687377013528
 30
0.0
 11
59.82435615177329
 21
218.7687377013528
 31
0.0
  0
ARC
  5
892F
  8
0
 10
59.82435615177329
 20
219.058737701353
 30
0.0
 40
0.29
 50
270.0
 51
0.0
  0
ARC
  5
8930
  8
0
 10
59.82435615177329
 20
219.058737701353
 30
0.0
 40
1.0875
 50
320.7035197608187
 51
0.0
  0
LINE
  5
8931
  8
0
 10
59.60685615177354
 20
217.9712377013522
 30
0.0
 11
59.82435615177329
 21
217.9712377013522
 31
0.0
  0
LINE
  5
8932
  8
0
 10
61.12935615177358
 20
217.1012377013523
 30
0.0
 11
61.12935615177358
 21
219.6387377013529
 31
0.0
  0
LINE
  5
8933
  8
0
 10
61.92685615177371
 20
217.1012377013523
 30
0.0
 11
61.92685615177371
 21
219.6387377013529
 31
0.0
  0
LINE
  5
8934
  8
0
 10
61.12935615177358
 20
219.6387377013529
 30
0.0
 11
61.92685615177371
 21
219.6387377013529
 31
0.0
  0
LINE
  5
8935
  8
0
 10
61.12935615177358
 20
217.1012377013523
 30
0.0
 11
61.92685615177371
 21
217.1012377013523
 31
0.0
  0
LINE
  5
8936
  8
0
 10
62.14435615177345
 20
217.1012377013523
 30
0.0
 11
62.14435615177345
 21
218.5874877013522
 31
0.0
  0
LINE
  5
8937
  8
0
 10
64.24685615177341
 20
217.1012377013523
 30
0.0
 11
64.24685615177341
 21
218.5874877013522
 31
0.0
  0
LINE
  5
8938
  8
0
 10
62.14435615177345
 20
217.1012377013523
 30
0.0
 11
62.94185615177358
 21
217.1012377013523
 31
0.0
  0
LINE
  5
8939
  8
0
 10
62.94185615177358
 20
217.1012377013523
 30
0.0
 11
62.94185615177358
 21
218.5874877013522
 31
0.0
  0
LINE
  5
893A
  8
0
 10
63.44935615177329
 20
217.1012377013523
 30
0.0
 11
63.44935615177329
 21
218.5874877013522
 31
0.0
  0
LINE
  5
893B
  8
0
 10
63.44935615177329
 20
217.1012377013523
 30
0.0
 11
64.24685615177341
 21
217.1012377013523
 31
0.0
  0
ARC
  5
893C
  8
0
 10
63.19560615177343
 20
218.5874877013522
 30
0.0
 40
1.05125
 50
0.0
 51
180.0
  0
ARC
  5
893D
  8
0
 10
63.19560615177343
 20
218.5874877013522
 30
0.0
 40
0.25375
 50
0.0
 51
180.0
  0
CIRCLE
  5
893E
  8
0
 10
95.52185615177356
 20
209.8911295940472
 30
0.0
 40
8.25
  0
LINE
  5
893F
  8
0
 10
68.27185615177311
 20
203.8911295940466
 30
0.0
 11
68.27185615177311
 21
215.891129594047
 31
0.0
  0
ARC
  5
8940
  8
0
 10
70.27185615177311
 20
203.8911295940466
 30
0.0
 40
2.0
 50
180.0
 51
270.0
1001
GENIUS_GENOBJ-N-FIL_13
1002
{
1000
OWNER
1000
GEN
1002
}
1001
GENIUS_GENODEF_13
1002
{
1000
HIER
1070
     0
1002
}
1002
{
1000
MANEDIT
1070
     0
1002
}
1002
{
1000
NOSEL
1070
     0
1002
}
1002
{
1000
BEHIND
1070
     0
1002
}
1002
{
1000
OTHER
1070
     0
1002
}
1002
{
1000
REACTOR
1002
}
  0
LINE
  5
8941
  8
0
 10
86.2718561517722
 20
203.8911295940466
 30
0.0
 11
86.2718561517722
 21
215.8911295940461
 31
0.0
  0
ARC
  5
8942
  8
0
 10
84.2718561517722
 20
215.8911295940461
 30
0.0
 40
2.0
 50
0.0
 51
90.0
1001
GENIUS_GENODEF_13
1002
{
1000
HIER
1070
     0
1002
}
1002
{
1000
MANEDIT
1070
     0
1002
}
1002
{
1000
NOSEL
1070
     0
1002
}
1002
{
1000
BEHIND
1070
     0
1002
}
1002
{
1000
OTHER
1070
     0
1002
}
1002
{
1000
REACTOR
1002
}
1001
GENIUS_GENOBJ-N-FIL_13
1002
{
1000
OWNER
1000
GEN
1002
}
  0
LINE
  5
8943
  8
0
 10
86.2718561517722
 20
209.3911295940466
 30
0.0
 11
86.24963589325918
 21
209.3911295940466
 31
0.0
  0
LINE
  5
8944
  8
0
 10
84.82185615177261
 20
209.5411295940465
 30
0.0
 11
69.7218561517727
 21
209.5411295940465
 31
0.0
  0
LINE
  5
8945
  8
0
 10
86.2718561517722
 20
210.3911295940466
 30
0.0
 11
86.24963589325918
 21
210.3911295940466
 31
0.0
  0
LINE
  5
8946
  8
0
 10
84.82185615177261
 20
210.2411295940465
 30
0.0
 11
69.7218561517727
 21
210.2411295940465
 31
0.0
  0
CIRCLE
  5
8947
  8
0
 10
77.47346969118823
 20
213.891129594047
 30
0.0
 40
2.0
  0
LINE
  5
8948
  8
0
 10
84.2718561517722
 20
217.8911295940461
 30
0.0
 11
70.27185615177311
 21
217.891129594047
 31
0.0
  0
ARC
  5
8949
  8
0
 10
70.27185615177311
 20
215.891129594047
 30
0.0
 40
2.0
 50
90.0
 51
180.0
1001
GENIUS_GENOBJ-N-FIL_13
1002
{
1000
OWNER
1000
GEN
1002
}
1001
GENIUS_GENODEF_13
1002
{
1000
HIER
1070
     0
1002
}
1002
{
1000
MANEDIT
1070
     0
1002
}
1002
{
1000
NOSEL
1070
     0
1002
}
1002
{
1000
BEHIND
1070
     0
1002
}
1002
{
1000
OTHER
1070
     0
1002
}
1002
{
1000
REACTOR
1002
}
  0
LINE
  5
894A
  8
0
 10
84.2718561517722
 20
201.8911295940466
 30
0.0
 11
70.27185615177311
 21
201.8911295940466
 31
0.0
  0
ARC
  5
894B
  8
0
 10
84.2718561517722
 20
203.8911295940466
 30
0.0
 40
2.0
 50
270.0
 51
0.0
1001
GENIUS_GENODEF_13
1002
{
1000
HIER
1070
     0
1002
}
1002
{
1000
MANEDIT
1070
     0
1002
}
1002
{
1000
NOSEL
1070
     0
1002
}
1002
{
1000
BEHIND
1070
     0
1002
}
1002
{
1000
OTHER
1070
     0
1002
}
1002
{
1000
REACTOR
1002
}
1001
GENIUS_GENOBJ-N-FIL_13
1002
{
1000
OWNER
1000
GEN
1002
}
  0
TEXT
  5
894C
  8
0
 10
41.65052034472341
 20
220.3458320968152
 30
0.0
 40
1.8
  1
電動水抜操作盤 EV2
  0
CIRCLE
  5
897D
  8
0
 10
65.82231811433545
 20
224.3742941193276
 30
0.0
 40
1.125
  0
TEXT
  5
897E
  8
0
 10
65.10231811433545
 20
223.6062941193276
 30
0.0
 40
1.44
  1
Ｒ
 72
     4
 11
65.82231811433545
 21
224.3742941193276
 31
0.0
  0
LINE
  5
8987
  8
0
 10
55.82185551549392
 20
248.2411295940473
 30
0.0
 11
55.82185551549392
 21
246.2411295940473
 31
0.0
  0
LINE
  5
8988
  8
0
 10
48.82185551549392
 20
248.2411295940473
 30
0.0
 11
48.82185551549392
 21
246.2411295940473
 31
0.0
  0
ARC
  5
8989
  8
0
 10
49.82185551549392
 20
248.2411295940473
 30
0.0
 40
1.0
 50
90.0
 51
180.0
  0
ARC
  5
898A
  8
0
 10
49.82185551549392
 20
246.2411295940473
 30
0.0
 40
1.0
 50
180.0
 51
270.0
  0
ARC
  5
898B
  8
0
 10
54.82185551549392
 20
246.2411295940473
 30
0.0
 40
1.0
 50
270.0
 51
0.0
  0
ARC
  5
898C
  8
0
 10
54.82185551549392
 20
248.2411295940473
 30
0.0
 40
1.0
 50
0.0
 51
90.0
  0
LINE
  5
898D
  8
0
 10
49.82185551549392
 20
249.2411295940473
 30
0.0
 11
54.82185551549392
 21
249.2411295940473
 31
0.0
  0
LINE
  5
898E
  8
0
 10
49.82185551549392
 20
245.2411295940473
 30
0.0
 11
54.82185551549392
 21
245.2411295940473
 31
0.0
  0
TEXT
  5
898F
  8
0
 10
42.16044235838105
 20
246.2788537746286
 30
0.0
 40
2.0
  1
OFF
 41
1.5
  0
TEXT
  5
8990
  8
0
 10
57.20729150807277
 20
246.2788537746286
 30
0.0
 40
2.0
  1
ON
 41
1.5
  0
ARC
  5
8991
  8
0
 10
69.7218561517727
 20
209.8911295940466
 30
0.0
 40
0.3500000000000227
 50
90.0
 51
270.0
  0
ARC
  5
8992
  8
0
 10
84.82185615177261
 20
209.8911295940466
 30
0.0
 40
0.3500000000000227
 50
270.0
 51
90.0
  0
LINE
  5
8993
  8
0
 10
56.52185615177351
 20
212.8911295940472
 30
0.0
 11
64.5218561517735
 21
212.8911295940472
 31
0.0
  0
ARC
  5
8994
  8
0
 10
64.5218561517735
 20
210.8911295940472
 30
0.0
 40
2.0
 50
0.0
 51
90.0
  0
ARC
  5
8995
  8
0
 10
56.52185615177351
 20
210.8911295940472
 30
0.0
 40
2.0
 50
90.0
 51
180.0
  0
ARC
  5
8996
  8
0
 10
64.5218561517735
 20
203.8911295940467
 30
0.0
 40
2.0
 50
270.0
 51
0.0
  0
LINE
  5
8997
  8
0
 10
66.5218561517735
 20
203.8911295940467
 30
0.0
 11
66.5218561517735
 21
210.8911295940472
 31
0.0
  0
LINE
  5
8998
  8
0
 10
56.52185615177351
 20
201.8911295940467
 30
0.0
 11
64.5218561517735
 21
201.8911295940467
 31
0.0
  0
ARC
  5
8999
  8
0
 10
56.52185615177351
 20
203.8911295940467
 30
0.0
 40
2.0
 50
180.0
 51
270.0
  0
LINE
  5
899A
  8
0
 10
54.52185615177351
 20
203.8911295940467
 30
0.0
 11
54.52185615177351
 21
210.8911295940472
 31
0.0
  0
TEXT
  5
899B
  8
0
 10
55.65609042412056
 20
203.1068489877333
 30
0.0
 40
1.9
  1
点検
  0
ARC
  5
899C
  8
0
 10
64.27349234550167
 20
204.4584453594697
 30
0.0
 40
0.9999999999999992
 50
233.0491207032591
 51
57.32628399712605
  0
LINE
  5
899D
  8
0
 10
63.67236222803109
 20
203.6592941961285
 30
0.0
 11
58.96522801641649
 21
207.2000512786115
 31
0.0
  0
LINE
  5
899E
  8
0
 10
59.85524786706128
 20
208.4800357080802
 30
0.0
 11
64.8133465725638
 21
205.3002038839431
 31
0.0
  0
ARC
  5
899F
  8
0
 10
57.40559677286424
 20
209.2339436007542
 30
0.0
 40
1.99079584716086
 50
1.683229077249547
 51
160.7903378653517
  0
ARC
  5
89A0
  8
0
 10
60.39510209412384
 20
209.3217942325534
 30
0.0
 40
0.9999999999999992
 50
181.6832290772424
 51
237.326283997126
1001
GENIUS_GENODEF_13
1002
{
1000
HIER
1070
     0
1002
}
1002
{
1000
MANEDIT
1070
     0
1002
}
1002
{
1000
NOSEL
1070
     0
1002
}
1002
{
1000
BEHIND
1070
     0
1002
}
1002
{
1000
OTHER
1070
     0
1002
}
1002
{
1000
REACTOR
1002
}
1001
GENIUS_GENOBJ-N-FIL_13
1002
{
1000
OWNER
1000
GEN
1002
}
  0
ARC
  5
89A1
  8
0
 10
57.40559677286424
 20
209.2339436007542
 30
0.0
 40
1.99079584716086
 50
219.5850668351122
 51
288.6921756231417
  0
ARC
  5
89A2
  8
0
 10
58.36409789894628
 20
206.40090011527
 30
0.0
 40
0.9999999999999992
 50
53.04912070325908
 51
108.6921756231398
1001
GENIUS_GENOBJ-N-FIL_13
1002
{
1000
OWNER
1000
GEN
1002
}
1001
GENIUS_GENODEF_13
1002
{
1000
HIER
1070
     0
1002
}
1002
{
1000
MANEDIT
1070
     0
1002
}
1002
{
1000
NOSEL
1070
     0
1002
}
1002
{
1000
BEHIND
1070
     0
1002
}
1002
{
1000
OTHER
1070
     0
1002
}
1002
{
1000
REACTOR
1002
}
  0
LINE
  5
89A3
  8
0
 10
57.96654129808888
 20
209.3347491602306
 30
0.0
 11
57.58408692139585
 21
208.2731562401908
 31
0.0
  0
LINE
  5
89A4
  8
0
 10
57.58408692139585
 20
208.2731562401908
 30
0.0
 11
55.87133152286597
 21
207.9653624059855
 31
0.0
  0
LINE
  5
89A5
  8
0
 10
57.96654129808877
 20
209.3347491602313
 30
0.0
 11
57.23840204920205
 21
210.1967608262557
 31
0.0
  0
LINE
  5
89A6
  8
0
 10
57.23840204920205
 20
210.1967608262557
 30
0.0
 11
55.52564665067192
 21
209.8889669920501
 31
0.0
  0
CIRCLE
  5
89A7
  8
0
 10
64.27349234550167
 20
204.4584453594697
 30
0.0
 40
0.4999999999999996
  0
LINE
  5
89A8
  8
0
 10
42.53436654623866
 20
212.5722645940467
 30
0.0
 11
44.87114804623869
 21
212.5722645940467
 31
0.0
  0
LINE
  5
89A9
  8
0
 10
44.87114804623869
 20
212.5722645940467
 30
0.0
 11
44.87114804623869
 21
212.9062484940467
 31
0.0
  0
LINE
  5
89AA
  8
0
 10
44.87114804623869
 20
212.9062484940467
 30
0.0
 11
42.53436654623866
 21
212.9062484940467
 31
0.0
  0
LINE
  5
89AB
  8
0
 10
42.53436654623866
 20
212.9062484940467
 30
0.0
 11
42.53436654623866
 21
212.5722645940467
 31
0.0
  0
LINE
  5
89AC
  8
0
 10
45.53874154623864
 20
212.5722645940467
 30
0.0
 11
46.53995604623864
 21
212.5722645940467
 31
0.0
  0
LINE
  5
89AD
  8
0
 10
46.53995604623864
 20
212.5722645940467
 30
0.0
 11
46.53995604623864
 21
212.9062484940467
 31
0.0
  0
LINE
  5
89AE
  8
0
 10
46.53995604623864
 20
212.9062484940467
 30
0.0
 11
45.53874154623864
 21
212.9062484940467
 31
0.0
  0
LINE
  5
89AF
  8
0
 10
45.53874154623864
 20
212.9062484940467
 30
0.0
 11
45.53874154623864
 21
212.5722645940467
 31
0.0
  0
LINE
  5
89B0
  8
0
 10
47.20751154623866
 20
212.5722645940467
 30
0.0
 11
47.54149544623868
 21
212.5722645940467
 31
0.0
  0
LINE
  5
89B1
  8
0
 10
47.54149544623868
 20
212.5722645940467
 30
0.0
 11
47.54149544623868
 21
212.9062484940467
 31
0.0
  0
LINE
  5
89B2
  8
0
 10
47.54149544623868
 20
212.9062484940467
 30
0.0
 11
47.20751154623866
 21
212.9062484940467
 31
0.0
  0
LINE
  5
89B3
  8
0
 10
47.20751154623866
 20
212.9062484940467
 30
0.0
 11
47.20751154623866
 21
212.5722645940467
 31
0.0
  0
LINE
  5
89B4
  8
0
 10
47.87507654623866
 20
212.5722645940467
 30
0.0
 11
48.20906139623867
 21
212.5722645940467
 31
0.0
  0
LINE
  5
89B5
  8
0
 10
48.20906139623867
 20
212.5722645940467
 30
0.0
 11
48.20906139623867
 21
212.9062484940467
 31
0.0
  0
LINE
  5
89B6
  8
0
 10
48.20906139623867
 20
212.9062484940467
 30
0.0
 11
47.87507654623866
 21
212.9062484940467
 31
0.0
  0
LINE
  5
89B7
  8
0
 10
47.87507654623866
 20
212.9062484940467
 30
0.0
 11
47.87507654623866
 21
212.5722645940467
 31
0.0
  0
LINE
  5
89B8
  8
0
 10
48.54273654623867
 20
212.5722645940467
 30
0.0
 11
48.87672139623865
 21
212.5722645940467
 31
0.0
  0
LINE
  5
89B9
  8
0
 10
48.87672139623865
 20
212.5722645940467
 30
0.0
 11
48.87672139623865
 21
212.9062484940467
 31
0.0
  0
LINE
  5
89BA
  8
0
 10
48.87672139623865
 20
212.9062484940467
 30
0.0
 11
48.54273654623867
 21
212.9062484940467
 31
0.0
  0
LINE
  5
89BB
  8
0
 10
48.54273654623867
 20
212.9062484940467
 30
0.0
 11
48.54273654623867
 21
212.5722645940467
 31
0.0
  0
LINE
  5
89BC
  8
0
 10
49.87748654623866
 20
212.5722645940467
 30
0.0
 11
50.21147044623868
 21
212.5722645940467
 31
0.0
  0
LINE
  5
89BD
  8
0
 10
50.21147044623868
 20
212.5722645940467
 30
0.0
 11
50.21147044623868
 21
212.9062484940467
 31
0.0
  0
LINE
  5
89BE
  8
0
 10
50.21147044623868
 20
212.9062484940467
 30
0.0
 11
49.87748654623866
 21
212.9062484940467
 31
0.0
  0
LINE
  5
89BF
  8
0
 10
49.87748654623866
 20
212.9062484940467
 30
0.0
 11
49.87748654623866
 21
212.5722645940467
 31
0.0
  0
LINE
  5
89C1
  8
0
 10
51.54707544623867
 20
212.5722645940467
 30
0.0
 11
53.21550154623867
 21
212.5722645940467
 31
0.0
  0
LINE
  5
89C2
  8
0
 10
53.54987304623867
 20
210.5690945940467
 30
0.0
 11
53.54987304623867
 21
212.9062484940467
 31
0.0
  0
LINE
  5
89C3
  8
0
 10
53.54987304623867
 20
212.9062484940467
 30
0.0
 11
51.21309154623867
 21
212.9062484940467
 31
0.0
  0
LINE
  5
89C4
  8
0
 10
51.21309154623867
 20
212.9062484940467
 30
0.0
 11
51.21309154623867
 21
210.5690945940467
 31
0.0
  0
LINE
  5
89C5
  8
0
 10
42.53436654623866
 20
212.2383395940467
 30
0.0
 11
42.86872189623867
 21
212.2383395940467
 31
0.0
  0
LINE
  5
89C6
  8
0
 10
42.86872189623867
 20
212.2383395940467
 30
0.0
 11
42.86872189623867
 21
212.5723244440467
 31
0.0
  0
LINE
  5
89C7
  8
0
 10
42.86872189623867
 20
212.5723244440467
 30
0.0
 11
42.53436654623866
 21
212.5723244440467
 31
0.0
  0
LINE
  5
89C8
  8
0
 10
42.53436654623866
 20
212.5723244440467
 30
0.0
 11
42.53436654623866
 21
212.2383395940467
 31
0.0
  0
LINE
  5
89C9
  8
0
 10
44.53744154623865
 20
212.2383395940467
 30
0.0
 11
44.87142544623865
 21
212.2383395940467
 31
0.0
  0
LINE
  5
89CA
  8
0
 10
44.87142544623865
 20
212.2383395940467
 30
0.0
 11
44.87142544623865
 21
212.5723244440467
 31
0.0
  0
LINE
  5
89CB
  8
0
 10
44.87142544623865
 20
212.5723244440467
 30
0.0
 11
44.53744154623865
 21
212.5723244440467
 31
0.0
  0
LINE
  5
89CC
  8
0
 10
44.53744154623865
 20
212.5723244440467
 30
0.0
 11
44.53744154623865
 21
212.2383395940467
 31
0.0
  0
LINE
  5
89CD
  8
0
 10
45.20510154623867
 20
212.2383395940467
 30
0.0
 11
46.20668654623867
 21
212.2383395940467
 31
0.0
  0
LINE
  5
89CE
  8
0
 10
46.20668654623867
 20
212.2383395940467
 30
0.0
 11
46.20668654623867
 21
212.5723244440467
 31
0.0
  0
LINE
  5
89CF
  8
0
 10
46.20668654623867
 20
212.5723244440467
 30
0.0
 11
45.20510154623867
 21
212.5723244440467
 31
0.0
  0
LINE
  5
89D0
  8
0
 10
45.20510154623867
 20
212.5723244440467
 30
0.0
 11
45.20510154623867
 21
212.2383395940467
 31
0.0
  0
LINE
  5
89D1
  8
0
 10
46.54032654623867
 20
212.2383395940467
 30
0.0
 11
47.54154104623868
 21
212.2383395940467
 31
0.0
  0
LINE
  5
89D2
  8
0
 10
47.54154104623868
 20
212.2383395940467
 30
0.0
 11
47.54154104623868
 21
212.5723244440467
 31
0.0
  0
LINE
  5
89D3
  8
0
 10
47.54154104623868
 20
212.5723244440467
 30
0.0
 11
46.54032654623867
 21
212.5723244440467
 31
0.0
  0
LINE
  5
89D4
  8
0
 10
46.54032654623867
 20
212.5723244440467
 30
0.0
 11
46.54032654623867
 21
212.2383395940467
 31
0.0
  0
LINE
  5
89D5
  8
0
 10
48.20909654623867
 20
212.2383395940467
 30
0.0
 11
48.54308044623866
 21
212.2383395940467
 31
0.0
  0
LINE
  5
89D6
  8
0
 10
48.54308044623866
 20
212.2383395940467
 30
0.0
 11
48.54308044623866
 21
212.5723244440467
 31
0.0
  0
LINE
  5
89D7
  8
0
 10
48.54308044623866
 20
212.5723244440467
 30
0.0
 11
48.20909654623867
 21
212.5723244440467
 31
0.0
  0
LINE
  5
89D8
  8
0
 10
48.20909654623867
 20
212.5723244440467
 30
0.0
 11
48.20909654623867
 21
212.2383395940467
 31
0.0
  0
LINE
  5
89D9
  8
0
 10
49.20992154623866
 20
212.2383395940467
 30
0.0
 11
49.54427689623867
 21
212.2383395940467
 31
0.0
  0
LINE
  5
89DA
  8
0
 10
49.54427689623867
 20
212.2383395940467
 30
0.0
 11
49.54427689623867
 21
212.5723244440467
 31
0.0
  0
LINE
  5
89DB
  8
0
 10
49.54427689623867
 20
212.5723244440467
 30
0.0
 11
49.20992154623866
 21
212.5723244440467
 31
0.0
  0
LINE
  5
89DC
  8
0
 10
49.20992154623866
 20
212.5723244440467
 30
0.0
 11
49.20992154623866
 21
212.2383395940467
 31
0.0
  0
LINE
  5
89DD
  8
0
 10
49.87748654623866
 20
212.2383395940467
 30
0.0
 11
50.21147044623868
 21
212.2383395940467
 31
0.0
  0
LINE
  5
89DE
  8
0
 10
50.21147044623868
 20
212.2383395940467
 30
0.0
 11
50.21147044623868
 21
212.5723244440467
 31
0.0
  0
LINE
  5
89DF
  8
0
 10
50.21147044623868
 20
212.5723244440467
 30
0.0
 11
49.87748654623866
 21
212.5723244440467
 31
0.0
  0
LINE
  5
89E0
  8
0
 10
49.87748654623866
 20
212.5723244440467
 30
0.0
 11
49.87748654623866
 21
212.2383395940467
 31
0.0
  0
LINE
  5
89E1
  8
0
 10
50.54590654623865
 20
212.2383395940467
 30
0.0
 11
50.87989139623866
 21
212.2383395940467
 31
0.0
  0
LINE
  5
89E3
  8
0
 10
50.87989139623866
 20
212.2382949440467
 30
0.0
 11
50.87989139623866
 21
212.5723244440467
 31
0.0
  0
LINE
  5
89E4
  8
0
 10
50.87989139623866
 20
212.5723244440467
 30
0.0
 11
50.54590654623865
 21
212.5723244440467
 31
0.0
  0
LINE
  5
89E5
  8
0
 10
50.54590654623865
 20
212.5723244440467
 30
0.0
 11
50.54590654623865
 21
212.2382949440467
 31
0.0
  0
LINE
  5
89E6
  8
0
 10
42.53436654623866
 20
211.9039395940467
 30
0.0
 11
42.86872189623867
 21
211.9039395940467
 31
0.0
  0
LINE
  5
89E7
  8
0
 10
42.86872189623867
 20
211.9039395940467
 30
0.0
 11
42.86872189623867
 21
212.2382949440467
 31
0.0
  0
LINE
  5
89E8
  8
0
 10
42.86872189623867
 20
212.2382949440467
 30
0.0
 11
42.53436654623866
 21
212.2382949440467
 31
0.0
  0
LINE
  5
89E9
  8
0
 10
42.53436654623866
 20
212.2382949440467
 30
0.0
 11
42.53436654623866
 21
211.9039395940467
 31
0.0
  0
LINE
  5
89EA
  8
0
 10
43.20193154623865
 20
211.9039395940467
 30
0.0
 11
44.20351654623866
 21
211.9039395940467
 31
0.0
  0
LINE
  5
89EB
  8
0
 10
44.20351654623866
 20
211.9039395940467
 30
0.0
 11
44.20351654623866
 21
212.2382949440467
 31
0.0
  0
LINE
  5
89EC
  8
0
 10
44.20351654623866
 20
212.2382949440467
 30
0.0
 11
43.20193154623865
 21
212.2382949440467
 31
0.0
  0
LINE
  5
89ED
  8
0
 10
43.20193154623865
 20
212.2382949440467
 30
0.0
 11
43.20193154623865
 21
211.9039395940467
 31
0.0
  0
LINE
  5
89EE
  8
0
 10
44.53744154623865
 20
211.9039395940467
 30
0.0
 11
44.87142544623865
 21
211.9039395940467
 31
0.0
  0
LINE
  5
89EF
  8
0
 10
44.87142544623865
 20
211.9039395940467
 30
0.0
 11
44.87142544623865
 21
212.2382949440467
 31
0.0
  0
LINE
  5
89F0
  8
0
 10
44.87142544623865
 20
212.2382949440467
 30
0.0
 11
44.53744154623865
 21
212.2382949440467
 31
0.0
  0
LINE
  5
89F1
  8
0
 10
44.53744154623865
 20
212.2382949440467
 30
0.0
 11
44.53744154623865
 21
211.9039395940467
 31
0.0
  0
LINE
  5
89F2
  8
0
 10
45.20510154623867
 20
211.9039395940467
 30
0.0
 11
46.20668654623867
 21
211.9039395940467
 31
0.0
  0
LINE
  5
89F3
  8
0
 10
46.20668654623867
 20
211.9039395940467
 30
0.0
 11
46.20668654623867
 21
212.2382949440467
 31
0.0
  0
LINE
  5
89F4
  8
0
 10
46.20668654623867
 20
212.2382949440467
 30
0.0
 11
45.20510154623867
 21
212.2382949440467
 31
0.0
  0
LINE
  5
89F5
  8
0
 10
45.20510154623867
 20
212.2382949440467
 30
0.0
 11
45.20510154623867
 21
211.9039395940467
 31
0.0
  0
LINE
  5
89F6
  8
0
 10
46.54032654623867
 20
211.9039395940467
 30
0.0
 11
47.20755334623865
 21
211.9039395940467
 31
0.0
  0
LINE
  5
89F7
  8
0
 10
47.20755334623865
 20
211.9039395940467
 30
0.0
 11
47.20755334623865
 21
212.2382949440467
 31
0.0
  0
LINE
  5
89F8
  8
0
 10
47.20755334623865
 20
212.2382949440467
 30
0.0
 11
46.54032654623867
 21
212.2382949440467
 31
0.0
  0
LINE
  5
89F9
  8
0
 10
46.54032654623867
 20
212.2382949440467
 30
0.0
 11
46.54032654623867
 21
211.9039395940467
 31
0.0
  0
LINE
  5
89FA
  8
0
 10
47.54153154623867
 20
211.9039395940467
 30
0.0
 11
47.87588689623868
 21
211.9039395940467
 31
0.0
  0
LINE
  5
89FB
  8
0
 10
47.87588689623868
 20
211.9039395940467
 30
0.0
 11
47.87588689623868
 21
212.2382949440467
 31
0.0
  0
LINE
  5
89FC
  8
0
 10
47.87588689623868
 20
212.2382949440467
 30
0.0
 11
47.54153154623867
 21
212.2382949440467
 31
0.0
  0
LINE
  5
89FD
  8
0
 10
47.54153154623867
 20
212.2382949440467
 30
0.0
 11
47.54153154623867
 21
211.9039395940467
 31
0.0
  0
LINE
  5
89FE
  8
0
 10
48.20909654623867
 20
211.9039395940467
 30
0.0
 11
49.21068154623867
 21
211.9039395940467
 31
0.0
  0
LINE
  5
89FF
  8
0
 10
49.21068154623867
 20
211.9039395940467
 30
0.0
 11
49.21068154623867
 21
212.2382949440467
 31
0.0
  0
LINE
  5
8A00
  8
0
 10
49.21068154623867
 20
212.2382949440467
 30
0.0
 11
48.20909654623867
 21
212.2382949440467
 31
0.0
  0
LINE
  5
8A01
  8
0
 10
48.20909654623867
 20
212.2382949440467
 30
0.0
 11
48.20909654623867
 21
211.9039395940467
 31
0.0
  0
LINE
  5
8A02
  8
0
 10
49.54432154623865
 20
211.9039395940467
 30
0.0
 11
49.87830639623866
 21
211.9039395940467
 31
0.0
  0
LINE
  5
8A03
  8
0
 10
49.87830639623866
 20
211.9039395940467
 30
0.0
 11
49.87830639623866
 21
212.2382949440467
 31
0.0
  0
LINE
  5
8A04
  8
0
 10
49.87830639623866
 20
212.2382949440467
 30
0.0
 11
49.54432154623865
 21
212.2382949440467
 31
0.0
  0
LINE
  5
8A05
  8
0
 10
49.54432154623865
 20
212.2382949440467
 30
0.0
 11
49.54432154623865
 21
211.9039395940467
 31
0.0
  0
LINE
  5
8A06
  8
0
 10
50.54590654623865
 20
211.9039395940467
 30
0.0
 11
50.87989139623866
 21
211.9039395940467
 31
0.0
  0
LINE
  5
8A07
  8
0
 10
50.87989139623866
 20
211.9039395940467
 30
0.0
 11
50.87989139623866
 21
212.2382949440467
 31
0.0
  0
LINE
  5
8A08
  8
0
 10
50.87989139623866
 20
212.2382949440467
 30
0.0
 11
50.54590654623865
 21
212.2382949440467
 31
0.0
  0
LINE
  5
8A09
  8
0
 10
50.54590654623865
 20
212.2382949440467
 30
0.0
 11
50.54590654623865
 21
211.9039395940467
 31
0.0
  0
LINE
  5
8A0B
  8
0
 10
52.88224154623865
 20
211.2367545940467
 30
0.0
 11
52.88224154623865
 21
212.2382949440467
 31
0.0
  0
LINE
  5
8A0C
  8
0
 10
52.88224154623865
 20
212.2382949440467
 30
0.0
 11
51.88065654623867
 21
212.2382949440467
 31
0.0
  0
LINE
  5
8A0D
  8
0
 10
51.88065654623867
 20
212.2382949440467
 30
0.0
 11
51.88065654623867
 21
211.2367545940467
 31
0.0
  0
LINE
  5
8A0E
  8
0
 10
42.53436654623866
 20
211.5706795940467
 30
0.0
 11
42.86872189623867
 21
211.5706795940467
 31
0.0
  0
LINE
  5
8A0F
  8
0
 10
42.86872189623867
 20
211.5706795940467
 30
0.0
 11
42.86872189623867
 21
211.9046634940467
 31
0.0
  0
LINE
  5
8A10
  8
0
 10
42.86872189623867
 20
211.9046634940467
 30
0.0
 11
42.53436654623866
 21
211.9046634940467
 31
0.0
  0
LINE
  5
8A11
  8
0
 10
42.53436654623866
 20
211.9046634940467
 30
0.0
 11
42.53436654623866
 21
211.5706795940467
 31
0.0
  0
LINE
  5
8A12
  8
0
 10
43.20193154623865
 20
211.5706795940467
 30
0.0
 11
44.20351654623866
 21
211.5706795940467
 31
0.0
  0
LINE
  5
8A13
  8
0
 10
44.20351654623866
 20
211.5706795940467
 30
0.0
 11
44.20351654623866
 21
211.9046634940467
 31
0.0
  0
LINE
  5
8A14
  8
0
 10
44.20351654623866
 20
211.9046634940467
 30
0.0
 11
43.20193154623865
 21
211.9046634940467
 31
0.0
  0
LINE
  5
8A15
  8
0
 10
43.20193154623865
 20
211.9046634940467
 30
0.0
 11
43.20193154623865
 21
211.5706795940467
 31
0.0
  0
LINE
  5
8A16
  8
0
 10
44.53744154623865
 20
211.5706795940467
 30
0.0
 11
44.87142544623865
 21
211.5706795940467
 31
0.0
  0
LINE
  5
8A17
  8
0
 10
44.87142544623865
 20
211.5706795940467
 30
0.0
 11
44.87142544623865
 21
211.9046634940467
 31
0.0
  0
LINE
  5
8A18
  8
0
 10
44.87142544623865
 20
211.9046634940467
 30
0.0
 11
44.53744154623865
 21
211.9046634940467
 31
0.0
  0
LINE
  5
8A19
  8
0
 10
44.53744154623865
 20
211.9046634940467
 30
0.0
 11
44.53744154623865
 21
211.5706795940467
 31
0.0
  0
LINE
  5
8A1A
  8
0
 10
45.20510154623867
 20
211.5706795940467
 30
0.0
 11
45.53908639623867
 21
211.5706795940467
 31
0.0
  0
LINE
  5
8A1B
  8
0
 10
45.53908639623867
 20
211.5706795940467
 30
0.0
 11
45.53908639623867
 21
211.9046634940467
 31
0.0
  0
LINE
  5
8A1C
  8
0
 10
45.53908639623867
 20
211.9046634940467
 30
0.0
 11
45.20510154623867
 21
211.9046634940467
 31
0.0
  0
LINE
  5
8A1D
  8
0
 10
45.20510154623867
 20
211.9046634940467
 30
0.0
 11
45.20510154623867
 21
211.5706795940467
 31
0.0
  0
LINE
  5
8A1E
  8
0
 10
48.87666154623867
 20
211.5706795940467
 30
0.0
 11
49.21064544623866
 21
211.5706795940467
 31
0.0
  0
LINE
  5
8A1F
  8
0
 10
49.21064544623866
 20
211.5706795940467
 30
0.0
 11
49.21064544623866
 21
211.9046634940467
 31
0.0
  0
LINE
  5
8A20
  8
0
 10
49.21064544623866
 20
211.9046634940467
 30
0.0
 11
48.87666154623867
 21
211.9046634940467
 31
0.0
  0
LINE
  5
8A21
  8
0
 10
48.87666154623867
 20
211.9046634940467
 30
0.0
 11
48.87666154623867
 21
211.5706795940467
 31
0.0
  0
LINE
  5
8A22
  8
0
 10
49.54432154623865
 20
211.5706795940467
 30
0.0
 11
50.87914754623867
 21
211.5706795940467
 31
0.0
  0
LINE
  5
8A23
  8
0
 10
50.87914754623867
 20
211.5706795940467
 30
0.0
 11
50.87914754623867
 21
211.9046634940467
 31
0.0
  0
LINE
  5
8A24
  8
0
 10
50.87914754623867
 20
211.9046634940467
 30
0.0
 11
49.54432154623865
 21
211.9046634940467
 31
0.0
  0
LINE
  5
8A25
  8
0
 10
49.54432154623865
 20
211.9046634940467
 30
0.0
 11
49.54432154623865
 21
211.5706795940467
 31
0.0
  0
LINE
  5
8A26
  8
0
 10
42.53436654623866
 20
211.2367545940467
 30
0.0
 11
42.86872189623867
 21
211.2367545940467
 31
0.0
  0
LINE
  5
8A27
  8
0
 10
42.86872189623867
 20
211.2367545940467
 30
0.0
 11
42.86872189623867
 21
211.5707394440467
 31
0.0
  0
LINE
  5
8A28
  8
0
 10
42.86872189623867
 20
211.5707394440467
 30
0.0
 11
42.53436654623866
 21
211.5707394440467
 31
0.0
  0
LINE
  5
8A29
  8
0
 10
42.53436654623866
 20
211.5707394440467
 30
0.0
 11
42.53436654623866
 21
211.2367545940467
 31
0.0
  0
LINE
  5
8A2A
  8
0
 10
43.20193154623865
 20
211.2367545940467
 30
0.0
 11
44.20351654623866
 21
211.2367545940467
 31
0.0
  0
LINE
  5
8A2B
  8
0
 10
44.20351654623866
 20
211.2367545940467
 30
0.0
 11
44.20351654623866
 21
211.5707394440467
 31
0.0
  0
LINE
  5
8A2C
  8
0
 10
44.20351654623866
 20
211.5707394440467
 30
0.0
 11
43.20193154623865
 21
211.5707394440467
 31
0.0
  0
LINE
  5
8A2D
  8
0
 10
43.20193154623865
 20
211.5707394440467
 30
0.0
 11
43.20193154623865
 21
211.2367545940467
 31
0.0
  0
LINE
  5
8A2E
  8
0
 10
44.53744154623865
 20
211.2367545940467
 30
0.0
 11
44.87142544623865
 21
211.2367545940467
 31
0.0
  0
LINE
  5
8A2F
  8
0
 10
44.87142544623865
 20
211.2367545940467
 30
0.0
 11
44.87142544623865
 21
211.5707394440467
 31
0.0
  0
LINE
  5
8A30
  8
0
 10
44.87142544623865
 20
211.5707394440467
 30
0.0
 11
44.53744154623865
 21
211.5707394440467
 31
0.0
  0
LINE
  5
8A31
  8
0
 10
44.53744154623865
 20
211.5707394440467
 30
0.0
 11
44.53744154623865
 21
211.2367545940467
 31
0.0
  0
LINE
  5
8A32
  8
0
 10
45.53874154623864
 20
211.2367545940467
 30
0.0
 11
45.87272639623865
 21
211.2367545940467
 31
0.0
  0
LINE
  5
8A33
  8
0
 10
45.87272639623865
 20
211.2367545940467
 30
0.0
 11
45.87272639623865
 21
211.5707394440467
 31
0.0
  0
LINE
  5
8A34
  8
0
 10
45.87272639623865
 20
211.5707394440467
 30
0.0
 11
45.53874154623864
 21
211.5707394440467
 31
0.0
  0
LINE
  5
8A35
  8
0
 10
45.53874154623864
 20
211.5707394440467
 30
0.0
 11
45.53874154623864
 21
211.2367545940467
 31
0.0
  0
LINE
  5
8A36
  8
0
 10
46.20592654623866
 20
211.2367545940467
 30
0.0
 11
47.20751154623866
 21
211.2367545940467
 31
0.0
  0
LINE
  5
8A37
  8
0
 10
47.20751154623866
 20
211.2367545940467
 30
0.0
 11
47.20751154623866
 21
211.5707394440467
 31
0.0
  0
LINE
  5
8A38
  8
0
 10
47.20751154623866
 20
211.5707394440467
 30
0.0
 11
46.20592654623866
 21
211.5707394440467
 31
0.0
  0
LINE
  5
8A39
  8
0
 10
46.20592654623866
 20
211.5707394440467
 30
0.0
 11
46.20592654623866
 21
211.2367545940467
 31
0.0
  0
LINE
  5
8A3A
  8
0
 10
47.54153154623867
 20
211.2367545940467
 30
0.0
 11
47.87588689623868
 21
211.2367545940467
 31
0.0
  0
LINE
  5
8A3B
  8
0
 10
47.87588689623868
 20
211.2367545940467
 30
0.0
 11
47.87588689623868
 21
211.5707394440467
 31
0.0
  0
LINE
  5
8A3C
  8
0
 10
47.87588689623868
 20
211.5707394440467
 30
0.0
 11
47.54153154623867
 21
211.5707394440467
 31
0.0
  0
LINE
  5
8A3D
  8
0
 10
47.54153154623867
 20
211.5707394440467
 30
0.0
 11
47.54153154623867
 21
211.2367545940467
 31
0.0
  0
LINE
  5
8A3E
  8
0
 10
48.20909654623867
 20
211.2367545940467
 30
0.0
 11
48.87669384623865
 21
211.2367545940467
 31
0.0
  0
LINE
  5
8A3F
  8
0
 10
48.87669384623865
 20
211.2367545940467
 30
0.0
 11
48.87669384623865
 21
211.5707394440467
 31
0.0
  0
LINE
  5
8A40
  8
0
 10
48.87669384623865
 20
211.5707394440467
 30
0.0
 11
48.20909654623867
 21
211.5707394440467
 31
0.0
  0
LINE
  5
8A41
  8
0
 10
48.20909654623867
 20
211.5707394440467
 30
0.0
 11
48.20909654623867
 21
211.2367545940467
 31
0.0
  0
LINE
  5
8A42
  8
0
 10
50.21150654623867
 20
211.2367545940467
 30
0.0
 11
50.54586189623868
 21
211.2367545940467
 31
0.0
  0
LINE
  5
8A43
  8
0
 10
50.54586189623868
 20
211.2367545940467
 30
0.0
 11
50.54586189623868
 21
211.5707394440467
 31
0.0
  0
LINE
  5
8A44
  8
0
 10
50.54586189623868
 20
211.5707394440467
 30
0.0
 11
50.21150654623867
 21
211.5707394440467
 31
0.0
  0
LINE
  5
8A45
  8
0
 10
50.21150654623867
 20
211.5707394440467
 30
0.0
 11
50.21150654623867
 21
211.2367545940467
 31
0.0
  0
LINE
  5
8A46
  8
0
 10
51.88065654623867
 20
211.2367545940467
 30
0.0
 11
52.88224154623865
 21
211.2367545940467
 31
0.0
  0
LINE
  5
8A47
  8
0
 10
42.53436654623866
 20
210.9031145940467
 30
0.0
 11
42.86872189623867
 21
210.9031145940467
 31
0.0
  0
LINE
  5
8A48
  8
0
 10
42.86872189623867
 20
210.9031145940467
 30
0.0
 11
42.86872189623867
 21
211.2370994440467
 31
0.0
  0
LINE
  5
8A49
  8
0
 10
42.86872189623867
 20
211.2370994440467
 30
0.0
 11
42.53436654623866
 21
211.2370994440467
 31
0.0
  0
LINE
  5
8A4A
  8
0
 10
42.53436654623866
 20
211.2370994440467
 30
0.0
 11
42.53436654623866
 21
210.9031145940467
 31
0.0
  0
LINE
  5
8A4B
  8
0
 10
44.53744154623865
 20
210.9031145940467
 30
0.0
 11
44.87142544623865
 21
210.9031145940467
 31
0.0
  0
LINE
  5
8A4C
  8
0
 10
44.87142544623865
 20
210.9031145940467
 30
0.0
 11
44.87142544623865
 21
211.2370994440467
 31
0.0
  0
LINE
  5
8A4D
  8
0
 10
44.87142544623865
 20
211.2370994440467
 30
0.0
 11
44.53744154623865
 21
211.2370994440467
 31
0.0
  0
LINE
  5
8A4E
  8
0
 10
44.53744154623865
 20
211.2370994440467
 30
0.0
 11
44.53744154623865
 21
210.9031145940467
 31
0.0
  0
LINE
  5
8A4F
  8
0
 10
46.87349154623865
 20
210.9031145940467
 30
0.0
 11
47.54108979623868
 21
210.9031145940467
 31
0.0
  0
LINE
  5
8A50
  8
0
 10
47.54108979623868
 20
210.9031145940467
 30
0.0
 11
47.54108979623868
 21
211.2370994440467
 31
0.0
  0
LINE
  5
8A51
  8
0
 10
47.54108979623868
 20
211.2370994440467
 30
0.0
 11
46.87349154623865
 21
211.2370994440467
 31
0.0
  0
LINE
  5
8A52
  8
0
 10
46.87349154623865
 20
211.2370994440467
 30
0.0
 11
46.87349154623865
 21
210.9031145940467
 31
0.0
  0
LINE
  5
8A53
  8
0
 10
47.87507654623866
 20
210.9031145940467
 30
0.0
 11
48.20906139623867
 21
210.9031145940467
 31
0.0
  0
LINE
  5
8A54
  8
0
 10
48.20906139623867
 20
210.9031145940467
 30
0.0
 11
48.20906139623867
 21
211.2370994440467
 31
0.0
  0
LINE
  5
8A55
  8
0
 10
48.20906139623867
 20
211.2370994440467
 30
0.0
 11
47.87507654623866
 21
211.2370994440467
 31
0.0
  0
LINE
  5
8A56
  8
0
 10
47.87507654623866
 20
211.2370994440467
 30
0.0
 11
47.87507654623866
 21
210.9031145940467
 31
0.0
  0
LINE
  5
8A57
  8
0
 10
48.54273654623867
 20
210.9031145940467
 30
0.0
 11
48.87672139623865
 21
210.9031145940467
 31
0.0
  0
LINE
  5
8A58
  8
0
 10
48.87672139623865
 20
210.9031145940467
 30
0.0
 11
48.87672139623865
 21
211.2370994440467
 31
0.0
  0
LINE
  5
8A59
  8
0
 10
48.87672139623865
 20
211.2370994440467
 30
0.0
 11
48.54273654623867
 21
211.2370994440467
 31
0.0
  0
LINE
  5
8A5A
  8
0
 10
48.54273654623867
 20
211.2370994440467
 30
0.0
 11
48.54273654623867
 21
210.9031145940467
 31
0.0
  0
LINE
  5
8A5B
  8
0
 10
49.20992154623866
 20
210.9031145940467
 30
0.0
 11
49.54427689623867
 21
210.9031145940467
 31
0.0
  0
LINE
  5
8A5C
  8
0
 10
49.54427689623867
 20
210.9031145940467
 30
0.0
 11
49.54427689623867
 21
211.2370994440467
 31
0.0
  0
LINE
  5
8A5D
  8
0
 10
49.54427689623867
 20
211.2370994440467
 30
0.0
 11
49.20992154623866
 21
211.2370994440467
 31
0.0
  0
LINE
  5
8A5E
  8
0
 10
49.20992154623866
 20
211.2370994440467
 30
0.0
 11
49.20992154623866
 21
210.9031145940467
 31
0.0
  0
LINE
  5
8A5F
  8
0
 10
51.54707544623867
 20
210.9030784940467
 30
0.0
 11
51.54707544623867
 21
212.5722645940467
 31
0.0
  0
LINE
  5
8A60
  8
0
 10
53.21550154623867
 20
212.5722645940467
 30
0.0
 11
53.21550154623867
 21
210.9030784940467
 31
0.0
  0
LINE
  5
8A61
  8
0
 10
42.53436654623866
 20
210.5690945940467
 30
0.0
 11
44.87114804623869
 21
210.5690945940467
 31
0.0
  0
LINE
  5
8A62
  8
0
 10
44.87114804623869
 20
210.5690945940467
 30
0.0
 11
44.87114804623869
 21
210.9030784940467
 31
0.0
  0
LINE
  5
8A63
  8
0
 10
44.87114804623869
 20
210.9030784940467
 30
0.0
 11
42.53436654623866
 21
210.9030784940467
 31
0.0
  0
LINE
  5
8A64
  8
0
 10
42.53436654623866
 20
210.9030784940467
 30
0.0
 11
42.53436654623866
 21
210.5690945940467
 31
0.0
  0
LINE
  5
8A65
  8
0
 10
45.20510154623867
 20
210.5690945940467
 30
0.0
 11
45.53908639623867
 21
210.5690945940467
 31
0.0
  0
LINE
  5
8A66
  8
0
 10
45.53908639623867
 20
210.5690945940467
 30
0.0
 11
45.53908639623867
 21
210.9030784940467
 31
0.0
  0
LINE
  5
8A67
  8
0
 10
45.53908639623867
 20
210.9030784940467
 30
0.0
 11
45.20510154623867
 21
210.9030784940467
 31
0.0
  0
LINE
  5
8A68
  8
0
 10
45.20510154623867
 20
210.9030784940467
 30
0.0
 11
45.20510154623867
 21
210.5690945940467
 31
0.0
  0
LINE
  5
8A69
  8
0
 10
45.87266654623866
 20
210.5690945940467
 30
0.0
 11
46.20665044623868
 21
210.5690945940467
 31
0.0
  0
LINE
  5
8A6A
  8
0
 10
46.20665044623868
 20
210.5690945940467
 30
0.0
 11
46.20665044623868
 21
210.9030784940467
 31
0.0
  0
LINE
  5
8A6B
  8
0
 10
46.20665044623868
 20
210.9030784940467
 30
0.0
 11
45.87266654623866
 21
210.9030784940467
 31
0.0
  0
LINE
  5
8A6C
  8
0
 10
45.87266654623866
 20
210.9030784940467
 30
0.0
 11
45.87266654623866
 21
210.5690945940467
 31
0.0
  0
LINE
  5
8A6D
  8
0
 10
46.54032654623867
 20
210.5690945940467
 30
0.0
 11
46.87431044623867
 21
210.5690945940467
 31
0.0
  0
LINE
  5
8A6E
  8
0
 10
46.87431044623867
 20
210.5690945940467
 30
0.0
 11
46.87431044623867
 21
210.9030784940467
 31
0.0
  0
LINE
  5
8A6F
  8
0
 10
46.87431044623867
 20
210.9030784940467
 30
0.0
 11
46.54032654623867
 21
210.9030784940467
 31
0.0
  0
LINE
  5
8A70
  8
0
 10
46.54032654623867
 20
210.9030784940467
 30
0.0
 11
46.54032654623867
 21
210.5690945940467
 31
0.0
  0
LINE
  5
8A71
  8
0
 10
47.20751154623866
 20
210.5690945940467
 30
0.0
 11
47.54149544623868
 21
210.5690945940467
 31
0.0
  0
LINE
  5
8A72
  8
0
 10
47.54149544623868
 20
210.5690945940467
 30
0.0
 11
47.54149544623868
 21
210.9030784940467
 31
0.0
  0
LINE
  5
8A73
  8
0
 10
47.54149544623868
 20
210.9030784940467
 30
0.0
 11
47.20751154623866
 21
210.9030784940467
 31
0.0
  0
LINE
  5
8A74
  8
0
 10
47.20751154623866
 20
210.9030784940467
 30
0.0
 11
47.20751154623866
 21
210.5690945940467
 31
0.0
  0
LINE
  5
8A75
  8
0
 10
47.87507654623866
 20
210.5690945940467
 30
0.0
 11
48.20906139623867
 21
210.5690945940467
 31
0.0
  0
LINE
  5
8A76
  8
0
 10
48.20906139623867
 20
210.5690945940467
 30
0.0
 11
48.20906139623867
 21
210.9030784940467
 31
0.0
  0
LINE
  5
8A77
  8
0
 10
48.20906139623867
 20
210.9030784940467
 30
0.0
 11
47.87507654623866
 21
210.9030784940467
 31
0.0
  0
LINE
  5
8A78
  8
0
 10
47.87507654623866
 20
210.9030784940467
 30
0.0
 11
47.87507654623866
 21
210.5690945940467
 31
0.0
  0
LINE
  5
8A79
  8
0
 10
48.54273654623867
 20
210.5690945940467
 30
0.0
 11
48.87672139623865
 21
210.5690945940467
 31
0.0
  0
LINE
  5
8A7A
  8
0
 10
48.87672139623865
 20
210.5690945940467
 30
0.0
 11
48.87672139623865
 21
210.9030784940467
 31
0.0
  0
LINE
  5
8A7B
  8
0
 10
48.87672139623865
 20
210.9030784940467
 30
0.0
 11
48.54273654623867
 21
210.9030784940467
 31
0.0
  0
LINE
  5
8A7C
  8
0
 10
48.54273654623867
 20
210.9030784940467
 30
0.0
 11
48.54273654623867
 21
210.5690945940467
 31
0.0
  0
LINE
  5
8A7D
  8
0
 10
49.20992154623866
 20
210.5690945940467
 30
0.0
 11
49.54427689623867
 21
210.5690945940467
 31
0.0
  0
LINE
  5
8A7E
  8
0
 10
49.54427689623867
 20
210.5690945940467
 30
0.0
 11
49.54427689623867
 21
210.9030784940467
 31
0.0
  0
LINE
  5
8A7F
  8
0
 10
49.54427689623867
 20
210.9030784940467
 30
0.0
 11
49.20992154623866
 21
210.9030784940467
 31
0.0
  0
LINE
  5
8A80
  8
0
 10
49.20992154623866
 20
210.9030784940467
 30
0.0
 11
49.20992154623866
 21
210.5690945940467
 31
0.0
  0
LINE
  5
8A81
  8
0
 10
49.87748654623866
 20
210.5690945940467
 30
0.0
 11
50.21147044623868
 21
210.5690945940467
 31
0.0
  0
LINE
  5
8A82
  8
0
 10
50.21147044623868
 20
210.5690945940467
 30
0.0
 11
50.21147044623868
 21
210.9030784940467
 31
0.0
  0
LINE
  5
8A83
  8
0
 10
50.21147044623868
 20
210.9030784940467
 30
0.0
 11
49.87748654623866
 21
210.9030784940467
 31
0.0
  0
LINE
  5
8A84
  8
0
 10
49.87748654623866
 20
210.9030784940467
 30
0.0
 11
49.87748654623866
 21
210.5690945940467
 31
0.0
  0
LINE
  5
8A85
  8
0
 10
50.54590654623865
 20
210.5690945940467
 30
0.0
 11
50.87989139623866
 21
210.5690945940467
 31
0.0
  0
LINE
  5
8A86
  8
0
 10
50.87989139623866
 20
210.5690945940467
 30
0.0
 11
50.87989139623866
 21
210.9030784940467
 31
0.0
  0
LINE
  5
8A87
  8
0
 10
50.87989139623866
 20
210.9030784940467
 30
0.0
 11
50.54590654623865
 21
210.9030784940467
 31
0.0
  0
LINE
  5
8A88
  8
0
 10
50.54590654623865
 20
210.9030784940467
 30
0.0
 11
50.54590654623865
 21
210.5690945940467
 31
0.0
  0
LINE
  5
8A89
  8
0
 10
51.21309154623867
 20
210.5690945940467
 30
0.0
 11
53.54987304623867
 21
210.5690945940467
 31
0.0
  0
LINE
  5
8A8A
  8
0
 10
53.21550154623867
 20
210.9030784940467
 30
0.0
 11
51.54707544623867
 21
210.9030784940467
 31
0.0
  0
LINE
  5
8A8B
  8
0
 10
45.20510154623867
 20
210.2359295940467
 30
0.0
 11
45.53908639623867
 21
210.2359295940467
 31
0.0
  0
LINE
  5
8A8C
  8
0
 10
45.53908639623867
 20
210.2359295940467
 30
0.0
 11
45.53908639623867
 21
210.5699134940467
 31
0.0
  0
LINE
  5
8A8D
  8
0
 10
45.53908639623867
 20
210.5699134940467
 30
0.0
 11
45.20510154623867
 21
210.5699134940467
 31
0.0
  0
LINE
  5
8A8E
  8
0
 10
45.20510154623867
 20
210.5699134940467
 30
0.0
 11
45.20510154623867
 21
210.2359295940467
 31
0.0
  0
LINE
  5
8A8F
  8
0
 10
46.54032654623867
 20
210.2359295940467
 30
0.0
 11
46.87431044623867
 21
210.2359295940467
 31
0.0
  0
LINE
  5
8A90
  8
0
 10
46.87431044623867
 20
210.2359295940467
 30
0.0
 11
46.87431044623867
 21
210.5699134940467
 31
0.0
  0
LINE
  5
8A91
  8
0
 10
46.87431044623867
 20
210.5699134940467
 30
0.0
 11
46.54032654623867
 21
210.5699134940467
 31
0.0
  0
LINE
  5
8A92
  8
0
 10
46.54032654623867
 20
210.5699134940467
 30
0.0
 11
46.54032654623867
 21
210.2359295940467
 31
0.0
  0
LINE
  5
8A93
  8
0
 10
47.20751154623866
 20
210.2359295940467
 30
0.0
 11
47.54149544623868
 21
210.2359295940467
 31
0.0
  0
LINE
  5
8A94
  8
0
 10
47.54149544623868
 20
210.2359295940467
 30
0.0
 11
47.54149544623868
 21
210.5699134940467
 31
0.0
  0
LINE
  5
8A95
  8
0
 10
47.54149544623868
 20
210.5699134940467
 30
0.0
 11
47.20751154623866
 21
210.5699134940467
 31
0.0
  0
LINE
  5
8A96
  8
0
 10
47.20751154623866
 20
210.5699134940467
 30
0.0
 11
47.20751154623866
 21
210.2359295940467
 31
0.0
  0
LINE
  5
8A97
  8
0
 10
49.87748654623866
 20
210.2359295940467
 30
0.0
 11
50.21147044623868
 21
210.2359295940467
 31
0.0
  0
LINE
  5
8A98
  8
0
 10
50.21147044623868
 20
210.2359295940467
 30
0.0
 11
50.21147044623868
 21
210.5699134940467
 31
0.0
  0
LINE
  5
8A99
  8
0
 10
50.21147044623868
 20
210.5699134940467
 30
0.0
 11
49.87748654623866
 21
210.5699134940467
 31
0.0
  0
LINE
  5
8A9A
  8
0
 10
49.87748654623866
 20
210.5699134940467
 30
0.0
 11
49.87748654623866
 21
210.2359295940467
 31
0.0
  0
LINE
  5
8A9B
  8
0
 10
50.54590654623865
 20
210.2359295940467
 30
0.0
 11
50.87989139623866
 21
210.2359295940467
 31
0.0
  0
LINE
  5
8A9C
  8
0
 10
50.87989139623866
 20
210.2359295940467
 30
0.0
 11
50.87989139623866
 21
210.5699134940467
 31
0.0
  0
LINE
  5
8A9D
  8
0
 10
50.87989139623866
 20
210.5699134940467
 30
0.0
 11
50.54590654623865
 21
210.5699134940467
 31
0.0
  0
LINE
  5
8A9E
  8
0
 10
50.54590654623865
 20
210.5699134940467
 30
0.0
 11
50.54590654623865
 21
210.2359295940467
 31
0.0
  0
LINE
  5
8A9F
  8
0
 10
42.53436654623866
 20
209.9015295940467
 30
0.0
 11
42.86872189623867
 21
209.9015295940467
 31
0.0
  0
LINE
  5
8AA0
  8
0
 10
42.86872189623867
 20
209.9015295940467
 30
0.0
 11
42.86872189623867
 21
210.2358849440467
 31
0.0
  0
LINE
  5
8AA1
  8
0
 10
42.86872189623867
 20
210.2358849440467
 30
0.0
 11
42.53436654623866
 21
210.2358849440467
 31
0.0
  0
LINE
  5
8AA2
  8
0
 10
42.53436654623866
 20
210.2358849440467
 30
0.0
 11
42.53436654623866
 21
209.9015295940467
 31
0.0
  0
LINE
  5
8AA3
  8
0
 10
44.53744154623865
 20
209.9015295940467
 30
0.0
 11
44.87142544623865
 21
209.9015295940467
 31
0.0
  0
LINE
  5
8AA4
  8
0
 10
44.87142544623865
 20
209.9015295940467
 30
0.0
 11
44.87142544623865
 21
210.2358849440467
 31
0.0
  0
LINE
  5
8AA5
  8
0
 10
44.87142544623865
 20
210.2358849440467
 30
0.0
 11
44.53744154623865
 21
210.2358849440467
 31
0.0
  0
LINE
  5
8AA6
  8
0
 10
44.53744154623865
 20
210.2358849440467
 30
0.0
 11
44.53744154623865
 21
209.9015295940467
 31
0.0
  0
LINE
  5
8AA7
  8
0
 10
45.20510154623867
 20
209.9015295940467
 30
0.0
 11
46.20668654623867
 21
209.9015295940467
 31
0.0
  0
LINE
  5
8AA8
  8
0
 10
46.20668654623867
 20
209.9015295940467
 30
0.0
 11
46.20668654623867
 21
210.2358849440467
 31
0.0
  0
LINE
  5
8AA9
  8
0
 10
46.20668654623867
 20
210.2358849440467
 30
0.0
 11
45.20510154623867
 21
210.2358849440467
 31
0.0
  0
LINE
  5
8AAA
  8
0
 10
45.20510154623867
 20
210.2358849440467
 30
0.0
 11
45.20510154623867
 21
209.9015295940467
 31
0.0
  0
LINE
  5
8AAB
  8
0
 10
46.87349154623865
 20
209.9015295940467
 30
0.0
 11
48.54267004623867
 21
209.9015295940467
 31
0.0
  0
LINE
  5
8AAC
  8
0
 10
48.54267004623867
 20
209.9015295940467
 30
0.0
 11
48.54267004623867
 21
210.2358849440467
 31
0.0
  0
LINE
  5
8AAD
  8
0
 10
48.54267004623867
 20
210.2358849440467
 30
0.0
 11
46.87349154623865
 21
210.2358849440467
 31
0.0
  0
LINE
  5
8AAE
  8
0
 10
46.87349154623865
 20
210.2358849440467
 30
0.0
 11
46.87349154623865
 21
209.9015295940467
 31
0.0
  0
LINE
  5
8AAF
  8
0
 10
49.87748654623866
 20
209.9015295940467
 30
0.0
 11
50.21147044623868
 21
209.9015295940467
 31
0.0
  0
LINE
  5
8AB0
  8
0
 10
50.21147044623868
 20
209.9015295940467
 30
0.0
 11
50.21147044623868
 21
210.2358849440467
 31
0.0
  0
LINE
  5
8AB1
  8
0
 10
50.21147044623868
 20
210.2358849440467
 30
0.0
 11
49.87748654623866
 21
210.2358849440467
 31
0.0
  0
LINE
  5
8AB2
  8
0
 10
49.87748654623866
 20
210.2358849440467
 30
0.0
 11
49.87748654623866
 21
209.9015295940467
 31
0.0
  0
LINE
  5
8AB3
  8
0
 10
50.54590654623865
 20
209.9015295940467
 30
0.0
 11
51.54712104623866
 21
209.9015295940467
 31
0.0
  0
LINE
  5
8AB4
  8
0
 10
51.54712104623866
 20
209.9015295940467
 30
0.0
 11
51.54712104623866
 21
210.2358849440467
 31
0.0
  0
LINE
  5
8AB5
  8
0
 10
51.54712104623866
 20
210.2358849440467
 30
0.0
 11
50.54590654623865
 21
210.2358849440467
 31
0.0
  0
LINE
  5
8AB6
  8
0
 10
50.54590654623865
 20
210.2358849440467
 30
0.0
 11
50.54590654623865
 21
209.9015295940467
 31
0.0
  0
LINE
  5
8AB7
  8
0
 10
52.21391654623866
 20
209.9015295940467
 30
0.0
 11
53.21550154623867
 21
209.9015295940467
 31
0.0
  0
LINE
  5
8AB8
  8
0
 10
53.21550154623867
 20
209.9015295940467
 30
0.0
 11
53.21550154623867
 21
210.2358849440467
 31
0.0
  0
LINE
  5
8AB9
  8
0
 10
53.21550154623867
 20
210.2358849440467
 30
0.0
 11
52.21391654623866
 21
210.2358849440467
 31
0.0
  0
LINE
  5
8ABA
  8
0
 10
52.21391654623866
 20
210.2358849440467
 30
0.0
 11
52.21391654623866
 21
209.9015295940467
 31
0.0
  0
LINE
  5
8ABB
  8
0
 10
42.53436654623866
 20
209.5682695940467
 30
0.0
 11
42.86872189623867
 21
209.5682695940467
 31
0.0
  0
LINE
  5
8ABC
  8
0
 10
42.86872189623867
 20
209.5682695940467
 30
0.0
 11
42.86872189623867
 21
209.9022544440467
 31
0.0
  0
LINE
  5
8ABD
  8
0
 10
42.86872189623867
 20
209.9022544440467
 30
0.0
 11
42.53436654623866
 21
209.9022544440467
 31
0.0
  0
LINE
  5
8ABE
  8
0
 10
42.53436654623866
 20
209.9022544440467
 30
0.0
 11
42.53436654623866
 21
209.5682695940467
 31
0.0
  0
LINE
  5
8ABF
  8
0
 10
44.20351654623866
 20
209.5682695940467
 30
0.0
 11
44.53750139623867
 21
209.5682695940467
 31
0.0
  0
LINE
  5
8AC0
  8
0
 10
44.53750139623867
 20
209.5682695940467
 30
0.0
 11
44.53750139623867
 21
209.9022544440467
 31
0.0
  0
LINE
  5
8AC1
  8
0
 10
44.53750139623867
 20
209.9022544440467
 30
0.0
 11
44.20351654623866
 21
209.9022544440467
 31
0.0
  0
LINE
  5
8AC2
  8
0
 10
44.20351654623866
 20
209.9022544440467
 30
0.0
 11
44.20351654623866
 21
209.5682695940467
 31
0.0
  0
LINE
  5
8AC3
  8
0
 10
45.20510154623867
 20
209.5682695940467
 30
0.0
 11
45.53908639623867
 21
209.5682695940467
 31
0.0
  0
LINE
  5
8AC4
  8
0
 10
45.53908639623867
 20
209.5682695940467
 30
0.0
 11
45.53908639623867
 21
209.9022544440467
 31
0.0
  0
LINE
  5
8AC5
  8
0
 10
45.53908639623867
 20
209.9022544440467
 30
0.0
 11
45.20510154623867
 21
209.9022544440467
 31
0.0
  0
LINE
  5
8AC6
  8
0
 10
45.20510154623867
 20
209.9022544440467
 30
0.0
 11
45.20510154623867
 21
209.5682695940467
 31
0.0
  0
LINE
  5
8AC7
  8
0
 10
45.87266654623866
 20
209.5682695940467
 30
0.0
 11
46.87388104623867
 21
209.5682695940467
 31
0.0
  0
LINE
  5
8AC8
  8
0
 10
46.87388104623867
 20
209.5682695940467
 30
0.0
 11
46.87388104623867
 21
209.9022544440467
 31
0.0
  0
LINE
  5
8AC9
  8
0
 10
46.87388104623867
 20
209.9022544440467
 30
0.0
 11
45.87266654623866
 21
209.9022544440467
 31
0.0
  0
LINE
  5
8ACA
  8
0
 10
45.87266654623866
 20
209.9022544440467
 30
0.0
 11
45.87266654623866
 21
209.5682695940467
 31
0.0
  0
LINE
  5
8ACB
  8
0
 10
47.54153154623867
 20
209.5682695940467
 30
0.0
 11
47.87588689623868
 21
209.5682695940467
 31
0.0
  0
LINE
  5
8ACC
  8
0
 10
47.87588689623868
 20
209.5682695940467
 30
0.0
 11
47.87588689623868
 21
209.9022544440467
 31
0.0
  0
LINE
  5
8ACD
  8
0
 10
47.87588689623868
 20
209.9022544440467
 30
0.0
 11
47.54153154623867
 21
209.9022544440467
 31
0.0
  0
LINE
  5
8ACE
  8
0
 10
47.54153154623867
 20
209.9022544440467
 30
0.0
 11
47.54153154623867
 21
209.5682695940467
 31
0.0
  0
LINE
  5
8ACF
  8
0
 10
48.54273654623867
 20
209.5682695940467
 30
0.0
 11
49.20996334623868
 21
209.5682695940467
 31
0.0
  0
LINE
  5
8AD0
  8
0
 10
49.20996334623868
 20
209.5682695940467
 30
0.0
 11
49.20996334623868
 21
209.9022544440467
 31
0.0
  0
LINE
  5
8AD1
  8
0
 10
49.20996334623868
 20
209.9022544440467
 30
0.0
 11
48.54273654623867
 21
209.9022544440467
 31
0.0
  0
LINE
  5
8AD2
  8
0
 10
48.54273654623867
 20
209.9022544440467
 30
0.0
 11
48.54273654623867
 21
209.5682695940467
 31
0.0
  0
LINE
  5
8AD3
  8
0
 10
49.54432154623865
 20
209.5682695940467
 30
0.0
 11
50.54590654623865
 21
209.5682695940467
 31
0.0
  0
LINE
  5
8AD4
  8
0
 10
50.54590654623865
 20
209.5682695940467
 30
0.0
 11
50.54590654623865
 21
209.9022544440467
 31
0.0
  0
LINE
  5
8AD5
  8
0
 10
50.54590654623865
 20
209.9022544440467
 30
0.0
 11
49.54432154623865
 21
209.9022544440467
 31
0.0
  0
LINE
  5
8AD6
  8
0
 10
49.54432154623865
 20
209.9022544440467
 30
0.0
 11
49.54432154623865
 21
209.5682695940467
 31
0.0
  0
LINE
  5
8AD7
  8
0
 10
51.88065654623867
 20
209.5682695940467
 30
0.0
 11
52.88224154623865
 21
209.5682695940467
 31
0.0
  0
LINE
  5
8AD8
  8
0
 10
52.88224154623865
 20
209.5682695940467
 30
0.0
 11
52.88224154623865
 21
209.9022544440467
 31
0.0
  0
LINE
  5
8AD9
  8
0
 10
52.88224154623865
 20
209.9022544440467
 30
0.0
 11
51.88065654623867
 21
209.9022544440467
 31
0.0
  0
LINE
  5
8ADA
  8
0
 10
51.88065654623867
 20
209.9022544440467
 30
0.0
 11
51.88065654623867
 21
209.5682695940467
 31
0.0
  0
LINE
  5
8ADB
  8
0
 10
43.20193154623865
 20
209.2343445940467
 30
0.0
 11
43.53628784623865
 21
209.2343445940467
 31
0.0
  0
LINE
  5
8ADC
  8
0
 10
43.53628784623865
 20
209.2343445940467
 30
0.0
 11
43.53628784623865
 21
209.5683284940467
 31
0.0
  0
LINE
  5
8ADD
  8
0
 10
43.53628784623865
 20
209.5683284940467
 30
0.0
 11
43.20193154623865
 21
209.5683284940467
 31
0.0
  0
LINE
  5
8ADE
  8
0
 10
43.20193154623865
 20
209.5683284940467
 30
0.0
 11
43.20193154623865
 21
209.2343445940467
 31
0.0
  0
LINE
  5
8ADF
  8
0
 10
43.86949654623868
 20
209.2343445940467
 30
0.0
 11
45.20469304623865
 21
209.2343445940467
 31
0.0
  0
LINE
  5
8AE0
  8
0
 10
45.20469304623865
 20
209.2343445940467
 30
0.0
 11
45.20469304623865
 21
209.5683284940467
 31
0.0
  0
LINE
  5
8AE1
  8
0
 10
45.20469304623865
 20
209.5683284940467
 30
0.0
 11
43.86949654623868
 21
209.5683284940467
 31
0.0
  0
LINE
  5
8AE2
  8
0
 10
43.86949654623868
 20
209.5683284940467
 30
0.0
 11
43.86949654623868
 21
209.2343445940467
 31
0.0
  0
LINE
  5
8AE3
  8
0
 10
45.53874154623864
 20
209.2343445940467
 30
0.0
 11
46.20596834623868
 21
209.2343445940467
 31
0.0
  0
LINE
  5
8AE4
  8
0
 10
46.20596834623868
 20
209.2343445940467
 30
0.0
 11
46.20596834623868
 21
209.5683284940467
 31
0.0
  0
LINE
  5
8AE5
  8
0
 10
46.20596834623868
 20
209.5683284940467
 30
0.0
 11
45.53874154623864
 21
209.5683284940467
 31
0.0
  0
LINE
  5
8AE6
  8
0
 10
45.53874154623864
 20
209.5683284940467
 30
0.0
 11
45.53874154623864
 21
209.2343445940467
 31
0.0
  0
LINE
  5
8AE7
  8
0
 10
46.54032654623867
 20
209.2343445940467
 30
0.0
 11
46.87431044623867
 21
209.2343445940467
 31
0.0
  0
LINE
  5
8AE8
  8
0
 10
46.87431044623867
 20
209.2343445940467
 30
0.0
 11
46.87431044623867
 21
209.5683284940467
 31
0.0
  0
LINE
  5
8AE9
  8
0
 10
46.87431044623867
 20
209.5683284940467
 30
0.0
 11
46.54032654623867
 21
209.5683284940467
 31
0.0
  0
LINE
  5
8AEA
  8
0
 10
46.54032654623867
 20
209.5683284940467
 30
0.0
 11
46.54032654623867
 21
209.2343445940467
 31
0.0
  0
LINE
  5
8AEB
  8
0
 10
47.54153154623867
 20
209.2343445940467
 30
0.0
 11
47.87588689623868
 21
209.2343445940467
 31
0.0
  0
LINE
  5
8AEC
  8
0
 10
47.87588689623868
 20
209.2343445940467
 30
0.0
 11
47.87588689623868
 21
209.5683284940467
 31
0.0
  0
LINE
  5
8AED
  8
0
 10
47.87588689623868
 20
209.5683284940467
 30
0.0
 11
47.54153154623867
 21
209.5683284940467
 31
0.0
  0
LINE
  5
8AEE
  8
0
 10
47.54153154623867
 20
209.5683284940467
 30
0.0
 11
47.54153154623867
 21
209.2343445940467
 31
0.0
  0
LINE
  5
8AEF
  8
0
 10
48.54273654623867
 20
209.2343445940467
 30
0.0
 11
48.87672139623865
 21
209.2343445940467
 31
0.0
  0
LINE
  5
8AF0
  8
0
 10
48.87672139623865
 20
209.2343445940467
 30
0.0
 11
48.87672139623865
 21
209.5683284940467
 31
0.0
  0
LINE
  5
8AF1
  8
0
 10
48.87672139623865
 20
209.5683284940467
 30
0.0
 11
48.54273654623867
 21
209.5683284940467
 31
0.0
  0
LINE
  5
8AF2
  8
0
 10
48.54273654623867
 20
209.5683284940467
 30
0.0
 11
48.54273654623867
 21
209.2343445940467
 31
0.0
  0
LINE
  5
8AF3
  8
0
 10
49.20992154623866
 20
209.2343445940467
 30
0.0
 11
49.54427689623867
 21
209.2343445940467
 31
0.0
  0
LINE
  5
8AF4
  8
0
 10
49.54427689623867
 20
209.2343445940467
 30
0.0
 11
49.54427689623867
 21
209.5683284940467
 31
0.0
  0
LINE
  5
8AF5
  8
0
 10
49.54427689623867
 20
209.5683284940467
 30
0.0
 11
49.20992154623866
 21
209.5683284940467
 31
0.0
  0
LINE
  5
8AF6
  8
0
 10
49.20992154623866
 20
209.5683284940467
 30
0.0
 11
49.20992154623866
 21
209.2343445940467
 31
0.0
  0
LINE
  5
8AF7
  8
0
 10
49.87748654623866
 20
209.2343445940467
 30
0.0
 11
50.21147044623868
 21
209.2343445940467
 31
0.0
  0
LINE
  5
8AF8
  8
0
 10
50.21147044623868
 20
209.2343445940467
 30
0.0
 11
50.21147044623868
 21
209.5683284940467
 31
0.0
  0
LINE
  5
8AF9
  8
0
 10
50.21147044623868
 20
209.5683284940467
 30
0.0
 11
49.87748654623866
 21
209.5683284940467
 31
0.0
  0
LINE
  5
8AFA
  8
0
 10
49.87748654623866
 20
209.5683284940467
 30
0.0
 11
49.87748654623866
 21
209.2343445940467
 31
0.0
  0
LINE
  5
8AFB
  8
0
 10
50.54590654623865
 20
209.2343445940467
 30
0.0
 11
51.54712104623866
 21
209.2343445940467
 31
0.0
  0
LINE
  5
8AFC
  8
0
 10
51.54712104623866
 20
209.2343445940467
 30
0.0
 11
51.54712104623866
 21
209.5683284940467
 31
0.0
  0
LINE
  5
8AFD
  8
0
 10
51.54712104623866
 20
209.5683284940467
 30
0.0
 11
50.54590654623865
 21
209.5683284940467
 31
0.0
  0
LINE
  5
8AFE
  8
0
 10
50.54590654623865
 20
209.5683284940467
 30
0.0
 11
50.54590654623865
 21
209.2343445940467
 31
0.0
  0
LINE
  5
8AFF
  8
0
 10
51.88065654623867
 20
209.2343445940467
 30
0.0
 11
52.21464139623865
 21
209.2343445940467
 31
0.0
  0
LINE
  5
8B00
  8
0
 10
52.21464139623865
 20
209.2343445940467
 30
0.0
 11
52.21464139623865
 21
209.5683284940467
 31
0.0
  0
LINE
  5
8B01
  8
0
 10
52.21464139623865
 20
209.5683284940467
 30
0.0
 11
51.88065654623867
 21
209.5683284940467
 31
0.0
  0
LINE
  5
8B02
  8
0
 10
51.88065654623867
 20
209.5683284940467
 30
0.0
 11
51.88065654623867
 21
209.2343445940467
 31
0.0
  0
LINE
  5
8B03
  8
0
 10
52.54831654623865
 20
209.2343445940467
 30
0.0
 11
53.21554239623867
 21
209.2343445940467
 31
0.0
  0
LINE
  5
8B04
  8
0
 10
53.21554239623867
 20
209.2343445940467
 30
0.0
 11
53.21554239623867
 21
209.5683284940467
 31
0.0
  0
LINE
  5
8B05
  8
0
 10
53.21554239623867
 20
209.5683284940467
 30
0.0
 11
52.54831654623865
 21
209.5683284940467
 31
0.0
  0
LINE
  5
8B06
  8
0
 10
52.54831654623865
 20
209.5683284940467
 30
0.0
 11
52.54831654623865
 21
209.2343445940467
 31
0.0
  0
LINE
  5
8B07
  8
0
 10
42.53436654623866
 20
208.8999445940467
 30
0.0
 11
43.20196384623864
 21
208.8999445940467
 31
0.0
  0
LINE
  5
8B08
  8
0
 10
43.20196384623864
 20
208.8999445940467
 30
0.0
 11
43.20196384623864
 21
209.2342999440467
 31
0.0
  0
LINE
  5
8B09
  8
0
 10
43.20196384623864
 20
209.2342999440467
 30
0.0
 11
42.53436654623866
 21
209.2342999440467
 31
0.0
  0
LINE
  5
8B0A
  8
0
 10
42.53436654623866
 20
209.2342999440467
 30
0.0
 11
42.53436654623866
 21
208.8999445940467
 31
0.0
  0
LINE
  5
8B0B
  8
0
 10
43.53585654623868
 20
208.8999445940467
 30
0.0
 11
44.20345384623866
 21
208.8999445940467
 31
0.0
  0
LINE
  5
8B0C
  8
0
 10
44.20345384623866
 20
208.8999445940467
 30
0.0
 11
44.20345384623866
 21
209.2342999440467
 31
0.0
  0
LINE
  5
8B0D
  8
0
 10
44.20345384623866
 20
209.2342999440467
 30
0.0
 11
43.53585654623868
 21
209.2342999440467
 31
0.0
  0
LINE
  5
8B0E
  8
0
 10
43.53585654623868
 20
209.2342999440467
 30
0.0
 11
43.53585654623868
 21
208.8999445940467
 31
0.0
  0
LINE
  5
8B0F
  8
0
 10
44.87108154623866
 20
208.8999445940467
 30
0.0
 11
45.20506544623865
 21
208.8999445940467
 31
0.0
  0
LINE
  5
8B10
  8
0
 10
45.20506544623865
 20
208.8999445940467
 30
0.0
 11
45.20506544623865
 21
209.2342999440467
 31
0.0
  0
LINE
  5
8B11
  8
0
 10
45.20506544623865
 20
209.2342999440467
 30
0.0
 11
44.87108154623866
 21
209.2342999440467
 31
0.0
  0
LINE
  5
8B12
  8
0
 10
44.87108154623866
 20
209.2342999440467
 30
0.0
 11
44.87108154623866
 21
208.8999445940467
 31
0.0
  0
LINE
  5
8B13
  8
0
 10
45.87266654623866
 20
208.8999445940467
 30
0.0
 11
46.53989239623866
 21
208.8999445940467
 31
0.0
  0
LINE
  5
8B14
  8
0
 10
46.53989239623866
 20
208.8999445940467
 30
0.0
 11
46.53989239623866
 21
209.2342999440467
 31
0.0
  0
LINE
  5
8B15
  8
0
 10
46.53989239623866
 20
209.2342999440467
 30
0.0
 11
45.87266654623866
 21
209.2342999440467
 31
0.0
  0
LINE
  5
8B16
  8
0
 10
45.87266654623866
 20
209.2342999440467
 30
0.0
 11
45.87266654623866
 21
208.8999445940467
 31
0.0
  0
LINE
  5
8B17
  8
0
 10
47.20751154623866
 20
208.8999445940467
 30
0.0
 11
47.87510884623867
 21
208.8999445940467
 31
0.0
  0
LINE
  5
8B18
  8
0
 10
47.87510884623867
 20
208.8999445940467
 30
0.0
 11
47.87510884623867
 21
209.2342999440467
 31
0.0
  0
LINE
  5
8B19
  8
0
 10
47.87510884623867
 20
209.2342999440467
 30
0.0
 11
47.20751154623866
 21
209.2342999440467
 31
0.0
  0
LINE
  5
8B1A
  8
0
 10
47.20751154623866
 20
209.2342999440467
 30
0.0
 11
47.20751154623866
 21
208.8999445940467
 31
0.0
  0
LINE
  5
8B1B
  8
0
 10
48.87666154623867
 20
208.8999445940467
 30
0.0
 11
49.54425884623865
 21
208.8999445940467
 31
0.0
  0
LINE
  5
8B1C
  8
0
 10
49.54425884623865
 20
208.8999445940467
 30
0.0
 11
49.54425884623865
 21
209.2342999440467
 31
0.0
  0
LINE
  5
8B1D
  8
0
 10
49.54425884623865
 20
209.2342999440467
 30
0.0
 11
48.87666154623867
 21
209.2342999440467
 31
0.0
  0
LINE
  5
8B1E
  8
0
 10
48.87666154623867
 20
209.2342999440467
 30
0.0
 11
48.87666154623867
 21
208.8999445940467
 31
0.0
  0
LINE
  5
8B1F
  8
0
 10
49.87748654623866
 20
208.8999445940467
 30
0.0
 11
50.54508384623867
 21
208.8999445940467
 31
0.0
  0
LINE
  5
8B20
  8
0
 10
50.54508384623867
 20
208.8999445940467
 30
0.0
 11
50.54508384623867
 21
209.2342999440467
 31
0.0
  0
LINE
  5
8B21
  8
0
 10
50.54508384623867
 20
209.2342999440467
 30
0.0
 11
49.87748654623866
 21
209.2342999440467
 31
0.0
  0
LINE
  5
8B22
  8
0
 10
49.87748654623866
 20
209.2342999440467
 30
0.0
 11
49.87748654623866
 21
208.8999445940467
 31
0.0
  0
LINE
  5
8B23
  8
0
 10
50.87907154623866
 20
208.8999445940467
 30
0.0
 11
51.21305639623867
 21
208.8999445940467
 31
0.0
  0
LINE
  5
8B24
  8
0
 10
51.21305639623867
 20
208.8999445940467
 30
0.0
 11
51.21305639623867
 21
209.2342999440467
 31
0.0
  0
LINE
  5
8B25
  8
0
 10
51.21305639623867
 20
209.2342999440467
 30
0.0
 11
50.87907154623866
 21
209.2342999440467
 31
0.0
  0
LINE
  5
8B26
  8
0
 10
50.87907154623866
 20
209.2342999440467
 30
0.0
 11
50.87907154623866
 21
208.8999445940467
 31
0.0
  0
LINE
  5
8B27
  8
0
 10
51.54673154623865
 20
208.8999445940467
 30
0.0
 11
53.54915104623868
 21
208.8999445940467
 31
0.0
  0
LINE
  5
8B28
  8
0
 10
53.54915104623868
 20
208.8999445940467
 30
0.0
 11
53.54915104623868
 21
209.2342999440467
 31
0.0
  0
LINE
  5
8B29
  8
0
 10
53.54915104623868
 20
209.2342999440467
 30
0.0
 11
51.54673154623865
 21
209.2342999440467
 31
0.0
  0
LINE
  5
8B2A
  8
0
 10
51.54673154623865
 20
209.2342999440467
 30
0.0
 11
51.54673154623865
 21
208.8999445940467
 31
0.0
  0
LINE
  5
8B2B
  8
0
 10
42.86867154623866
 20
208.5666845940467
 30
0.0
 11
43.20265639623867
 21
208.5666845940467
 31
0.0
  0
LINE
  5
8B2C
  8
0
 10
43.20265639623867
 20
208.5666845940467
 30
0.0
 11
43.20265639623867
 21
208.9006694440467
 31
0.0
  0
LINE
  5
8B2D
  8
0
 10
43.20265639623867
 20
208.9006694440467
 30
0.0
 11
42.86867154623866
 21
208.9006694440467
 31
0.0
  0
LINE
  5
8B2E
  8
0
 10
42.86867154623866
 20
208.9006694440467
 30
0.0
 11
42.86867154623866
 21
208.5666845940467
 31
0.0
  0
LINE
  5
8B2F
  8
0
 10
43.53585654623868
 20
208.5666845940467
 30
0.0
 11
43.86984044623867
 21
208.5666845940467
 31
0.0
  0
LINE
  5
8B30
  8
0
 10
43.86984044623867
 20
208.5666845940467
 30
0.0
 11
43.86984044623867
 21
208.9006694440467
 31
0.0
  0
LINE
  5
8B31
  8
0
 10
43.86984044623867
 20
208.9006694440467
 30
0.0
 11
43.53585654623868
 21
208.9006694440467
 31
0.0
  0
LINE
  5
8B32
  8
0
 10
43.53585654623868
 20
208.9006694440467
 30
0.0
 11
43.53585654623868
 21
208.5666845940467
 31
0.0
  0
LINE
  5
8B33
  8
0
 10
44.53744154623865
 20
208.5666845940467
 30
0.0
 11
45.53902654623866
 21
208.5666845940467
 31
0.0
  0
LINE
  5
8B34
  8
0
 10
45.53902654623866
 20
208.5666845940467
 30
0.0
 11
45.53902654623866
 21
208.9006694440467
 31
0.0
  0
LINE
  5
8B35
  8
0
 10
45.53902654623866
 20
208.9006694440467
 30
0.0
 11
44.53744154623865
 21
208.9006694440467
 31
0.0
  0
LINE
  5
8B36
  8
0
 10
44.53744154623865
 20
208.9006694440467
 30
0.0
 11
44.53744154623865
 21
208.5666845940467
 31
0.0
  0
LINE
  5
8B37
  8
0
 10
46.87349154623865
 20
208.5666845940467
 30
0.0
 11
47.54108979623868
 21
208.5666845940467
 31
0.0
  0
LINE
  5
8B38
  8
0
 10
47.54108979623868
 20
208.5666845940467
 30
0.0
 11
47.54108979623868
 21
208.9006694440467
 31
0.0
  0
LINE
  5
8B39
  8
0
 10
47.54108979623868
 20
208.9006694440467
 30
0.0
 11
46.87349154623865
 21
208.9006694440467
 31
0.0
  0
LINE
  5
8B3A
  8
0
 10
46.87349154623865
 20
208.9006694440467
 30
0.0
 11
46.87349154623865
 21
208.5666845940467
 31
0.0
  0
LINE
  5
8B3B
  8
0
 10
47.87507654623866
 20
208.5666845940467
 30
0.0
 11
48.87666154623867
 21
208.5666845940467
 31
0.0
  0
LINE
  5
8B3C
  8
0
 10
48.87666154623867
 20
208.5666845940467
 30
0.0
 11
48.87666154623867
 21
208.9006694440467
 31
0.0
  0
LINE
  5
8B3D
  8
0
 10
48.87666154623867
 20
208.9006694440467
 30
0.0
 11
47.87507654623866
 21
208.9006694440467
 31
0.0
  0
LINE
  5
8B3E
  8
0
 10
47.87507654623866
 20
208.9006694440467
 30
0.0
 11
47.87507654623866
 21
208.5666845940467
 31
0.0
  0
LINE
  5
8B3F
  8
0
 10
49.20992154623866
 20
208.5666845940467
 30
0.0
 11
50.21150654623867
 21
208.5666845940467
 31
0.0
  0
LINE
  5
8B40
  8
0
 10
50.21150654623867
 20
208.5666845940467
 30
0.0
 11
50.21150654623867
 21
208.9006694440467
 31
0.0
  0
LINE
  5
8B41
  8
0
 10
50.21150654623867
 20
208.9006694440467
 30
0.0
 11
49.20992154623866
 21
208.9006694440467
 31
0.0
  0
LINE
  5
8B42
  8
0
 10
49.20992154623866
 20
208.9006694440467
 30
0.0
 11
49.20992154623866
 21
208.5666845940467
 31
0.0
  0
LINE
  5
8B43
  8
0
 10
50.54590654623865
 20
208.5666845940467
 30
0.0
 11
50.87989139623866
 21
208.5666845940467
 31
0.0
  0
LINE
  5
8B44
  8
0
 10
50.87989139623866
 20
208.5666845940467
 30
0.0
 11
50.87989139623866
 21
208.9006694440467
 31
0.0
  0
LINE
  5
8B45
  8
0
 10
50.87989139623866
 20
208.9006694440467
 30
0.0
 11
50.54590654623865
 21
208.9006694440467
 31
0.0
  0
LINE
  5
8B46
  8
0
 10
50.54590654623865
 20
208.9006694440467
 30
0.0
 11
50.54590654623865
 21
208.5666845940467
 31
0.0
  0
LINE
  5
8B47
  8
0
 10
51.21309154623867
 20
208.5666845940467
 30
0.0
 11
51.88068884623866
 21
208.5666845940467
 31
0.0
  0
LINE
  5
8B48
  8
0
 10
51.88068884623866
 20
208.5666845940467
 30
0.0
 11
51.88068884623866
 21
208.9006694440467
 31
0.0
  0
LINE
  5
8B49
  8
0
 10
51.88068884623866
 20
208.9006694440467
 30
0.0
 11
51.21309154623867
 21
208.9006694440467
 31
0.0
  0
LINE
  5
8B4A
  8
0
 10
51.21309154623867
 20
208.9006694440467
 30
0.0
 11
51.21309154623867
 21
208.5666845940467
 31
0.0
  0
LINE
  5
8B4B
  8
0
 10
42.53436654623866
 20
208.2327595940467
 30
0.0
 11
43.20196384623864
 21
208.2327595940467
 31
0.0
  0
LINE
  5
8B4C
  8
0
 10
43.20196384623864
 20
208.2327595940467
 30
0.0
 11
43.20196384623864
 21
208.5667434940467
 31
0.0
  0
LINE
  5
8B4D
  8
0
 10
43.20196384623864
 20
208.5667434940467
 30
0.0
 11
42.53436654623866
 21
208.5667434940467
 31
0.0
  0
LINE
  5
8B4E
  8
0
 10
42.53436654623866
 20
208.5667434940467
 30
0.0
 11
42.53436654623866
 21
208.2327595940467
 31
0.0
  0
LINE
  5
8B4F
  8
0
 10
43.53585654623868
 20
208.2327595940467
 30
0.0
 11
44.20345384623866
 21
208.2327595940467
 31
0.0
  0
LINE
  5
8B50
  8
0
 10
44.20345384623866
 20
208.2327595940467
 30
0.0
 11
44.20345384623866
 21
208.5667434940467
 31
0.0
  0
LINE
  5
8B51
  8
0
 10
44.20345384623866
 20
208.5667434940467
 30
0.0
 11
43.53585654623868
 21
208.5667434940467
 31
0.0
  0
LINE
  5
8B52
  8
0
 10
43.53585654623868
 20
208.5667434940467
 30
0.0
 11
43.53585654623868
 21
208.2327595940467
 31
0.0
  0
LINE
  5
8B53
  8
0
 10
44.87108154623866
 20
208.2327595940467
 30
0.0
 11
45.53867884623864
 21
208.2327595940467
 31
0.0
  0
LINE
  5
8B54
  8
0
 10
45.53867884623864
 20
208.2327595940467
 30
0.0
 11
45.53867884623864
 21
208.5667434940467
 31
0.0
  0
LINE
  5
8B55
  8
0
 10
45.53867884623864
 20
208.5667434940467
 30
0.0
 11
44.87108154623866
 21
208.5667434940467
 31
0.0
  0
LINE
  5
8B56
  8
0
 10
44.87108154623866
 20
208.5667434940467
 30
0.0
 11
44.87108154623866
 21
208.2327595940467
 31
0.0
  0
LINE
  5
8B57
  8
0
 10
46.20592654623866
 20
208.2327595940467
 30
0.0
 11
46.87352384623867
 21
208.2327595940467
 31
0.0
  0
LINE
  5
8B58
  8
0
 10
46.87352384623867
 20
208.2327595940467
 30
0.0
 11
46.87352384623867
 21
208.5667434940467
 31
0.0
  0
LINE
  5
8B59
  8
0
 10
46.87352384623867
 20
208.5667434940467
 30
0.0
 11
46.20592654623866
 21
208.5667434940467
 31
0.0
  0
LINE
  5
8B5A
  8
0
 10
46.20592654623866
 20
208.5667434940467
 30
0.0
 11
46.20592654623866
 21
208.2327595940467
 31
0.0
  0
LINE
  5
8B5B
  8
0
 10
47.20751154623866
 20
208.2327595940467
 30
0.0
 11
47.54149544623868
 21
208.2327595940467
 31
0.0
  0
LINE
  5
8B5C
  8
0
 10
47.54149544623868
 20
208.2327595940467
 30
0.0
 11
47.54149544623868
 21
208.5667434940467
 31
0.0
  0
LINE
  5
8B5D
  8
0
 10
47.54149544623868
 20
208.5667434940467
 30
0.0
 11
47.20751154623866
 21
208.5667434940467
 31
0.0
  0
LINE
  5
8B5E
  8
0
 10
47.20751154623866
 20
208.5667434940467
 30
0.0
 11
47.20751154623866
 21
208.2327595940467
 31
0.0
  0
LINE
  5
8B5F
  8
0
 10
47.87507654623866
 20
208.2327595940467
 30
0.0
 11
48.54267384623867
 21
208.2327595940467
 31
0.0
  0
LINE
  5
8B60
  8
0
 10
48.54267384623867
 20
208.2327595940467
 30
0.0
 11
48.54267384623867
 21
208.5667434940467
 31
0.0
  0
LINE
  5
8B61
  8
0
 10
48.54267384623867
 20
208.5667434940467
 30
0.0
 11
47.87507654623866
 21
208.5667434940467
 31
0.0
  0
LINE
  5
8B62
  8
0
 10
47.87507654623866
 20
208.5667434940467
 30
0.0
 11
47.87507654623866
 21
208.2327595940467
 31
0.0
  0
LINE
  5
8B63
  8
0
 10
49.20992154623866
 20
208.2327595940467
 30
0.0
 11
49.87751979623866
 21
208.2327595940467
 31
0.0
  0
LINE
  5
8B64
  8
0
 10
49.87751979623866
 20
208.2327595940467
 30
0.0
 11
49.87751979623866
 21
208.5667434940467
 31
0.0
  0
LINE
  5
8B65
  8
0
 10
49.87751979623866
 20
208.5667434940467
 30
0.0
 11
49.20992154623866
 21
208.5667434940467
 31
0.0
  0
LINE
  5
8B66
  8
0
 10
49.20992154623866
 20
208.5667434940467
 30
0.0
 11
49.20992154623866
 21
208.2327595940467
 31
0.0
  0
LINE
  5
8B67
  8
0
 10
50.21150654623867
 20
208.2327595940467
 30
0.0
 11
50.54586189623868
 21
208.2327595940467
 31
0.0
  0
LINE
  5
8B68
  8
0
 10
50.54586189623868
 20
208.2327595940467
 30
0.0
 11
50.54586189623868
 21
208.5667434940467
 31
0.0
  0
LINE
  5
8B69
  8
0
 10
50.54586189623868
 20
208.5667434940467
 30
0.0
 11
50.21150654623867
 21
208.5667434940467
 31
0.0
  0
LINE
  5
8B6A
  8
0
 10
50.21150654623867
 20
208.5667434940467
 30
0.0
 11
50.21150654623867
 21
208.2327595940467
 31
0.0
  0
LINE
  5
8B6B
  8
0
 10
51.21309154623867
 20
208.2327595940467
 30
0.0
 11
51.54707544623867
 21
208.2327595940467
 31
0.0
  0
LINE
  5
8B6C
  8
0
 10
51.54707544623867
 20
208.2327595940467
 30
0.0
 11
51.54707544623867
 21
208.5667434940467
 31
0.0
  0
LINE
  5
8B6D
  8
0
 10
51.54707544623867
 20
208.5667434940467
 30
0.0
 11
51.21309154623867
 21
208.5667434940467
 31
0.0
  0
LINE
  5
8B6E
  8
0
 10
51.21309154623867
 20
208.5667434940467
 30
0.0
 11
51.21309154623867
 21
208.2327595940467
 31
0.0
  0
LINE
  5
8B6F
  8
0
 10
52.21391654623866
 20
208.2327595940467
 30
0.0
 11
53.54911304623866
 21
208.2327595940467
 31
0.0
  0
LINE
  5
8B70
  8
0
 10
53.54911304623866
 20
208.2327595940467
 30
0.0
 11
53.54911304623866
 21
208.5667434940467
 31
0.0
  0
LINE
  5
8B71
  8
0
 10
53.54911304623866
 20
208.5667434940467
 30
0.0
 11
52.21391654623866
 21
208.5667434940467
 31
0.0
  0
LINE
  5
8B72
  8
0
 10
52.21391654623866
 20
208.5667434940467
 30
0.0
 11
52.21391654623866
 21
208.2327595940467
 31
0.0
  0
LINE
  5
8B73
  8
0
 10
42.86867154623866
 20
207.8991195940467
 30
0.0
 11
46.20665804623866
 21
207.8991195940467
 31
0.0
  0
LINE
  5
8B74
  8
0
 10
46.20665804623866
 20
207.8991195940467
 30
0.0
 11
46.20665804623866
 21
208.2331044440467
 31
0.0
  0
LINE
  5
8B75
  8
0
 10
46.20665804623866
 20
208.2331044440467
 30
0.0
 11
42.86867154623866
 21
208.2331044440467
 31
0.0
  0
LINE
  5
8B76
  8
0
 10
42.86867154623866
 20
208.2331044440467
 30
0.0
 11
42.86867154623866
 21
207.8991195940467
 31
0.0
  0
LINE
  5
8B77
  8
0
 10
46.87349154623865
 20
207.8991195940467
 30
0.0
 11
47.20747639623866
 21
207.8991195940467
 31
0.0
  0
LINE
  5
8B78
  8
0
 10
47.20747639623866
 20
207.8991195940467
 30
0.0
 11
47.20747639623866
 21
208.2331044440467
 31
0.0
  0
LINE
  5
8B79
  8
0
 10
47.20747639623866
 20
208.2331044440467
 30
0.0
 11
46.87349154623865
 21
208.2331044440467
 31
0.0
  0
LINE
  5
8B7A
  8
0
 10
46.87349154623865
 20
208.2331044440467
 30
0.0
 11
46.87349154623865
 21
207.8991195940467
 31
0.0
  0
LINE
  5
8B7B
  8
0
 10
48.20909654623867
 20
207.8991195940467
 30
0.0
 11
48.54308044623866
 21
207.8991195940467
 31
0.0
  0
LINE
  5
8B7C
  8
0
 10
48.54308044623866
 20
207.8991195940467
 30
0.0
 11
48.54308044623866
 21
208.2331044440467
 31
0.0
  0
LINE
  5
8B7D
  8
0
 10
48.54308044623866
 20
208.2331044440467
 30
0.0
 11
48.20909654623867
 21
208.2331044440467
 31
0.0
  0
LINE
  5
8B7E
  8
0
 10
48.20909654623867
 20
208.2331044440467
 30
0.0
 11
48.20909654623867
 21
207.8991195940467
 31
0.0
  0
LINE
  5
8B7F
  8
0
 10
48.87666154623867
 20
207.8991195940467
 30
0.0
 11
49.21064544623866
 21
207.8991195940467
 31
0.0
  0
LINE
  5
8B80
  8
0
 10
49.21064544623866
 20
207.8991195940467
 30
0.0
 11
49.21064544623866
 21
208.2331044440467
 31
0.0
  0
LINE
  5
8B81
  8
0
 10
49.21064544623866
 20
208.2331044440467
 30
0.0
 11
48.87666154623867
 21
208.2331044440467
 31
0.0
  0
LINE
  5
8B82
  8
0
 10
48.87666154623867
 20
208.2331044440467
 30
0.0
 11
48.87666154623867
 21
207.8991195940467
 31
0.0
  0
LINE
  5
8B83
  8
0
 10
50.87907154623866
 20
207.8991195940467
 30
0.0
 11
51.54666979623866
 21
207.8991195940467
 31
0.0
  0
LINE
  5
8B84
  8
0
 10
51.54666979623866
 20
207.8991195940467
 30
0.0
 11
51.54666979623866
 21
208.2331044440467
 31
0.0
  0
LINE
  5
8B85
  8
0
 10
51.54666979623866
 20
208.2331044440467
 30
0.0
 11
50.87907154623866
 21
208.2331044440467
 31
0.0
  0
LINE
  5
8B86
  8
0
 10
50.87907154623866
 20
208.2331044440467
 30
0.0
 11
50.87907154623866
 21
207.8991195940467
 31
0.0
  0
LINE
  5
8B87
  8
0
 10
51.88065654623867
 20
207.8991195940467
 30
0.0
 11
52.21464139623865
 21
207.8991195940467
 31
0.0
  0
LINE
  5
8B88
  8
0
 10
52.21464139623865
 20
207.8991195940467
 30
0.0
 11
52.21464139623865
 21
208.2331044440467
 31
0.0
  0
LINE
  5
8B89
  8
0
 10
52.21464139623865
 20
208.2331044440467
 30
0.0
 11
51.88065654623867
 21
208.2331044440467
 31
0.0
  0
LINE
  5
8B8A
  8
0
 10
51.88065654623867
 20
208.2331044440467
 30
0.0
 11
51.88065654623867
 21
207.8991195940467
 31
0.0
  0
LINE
  5
8B8B
  8
0
 10
52.54831654623865
 20
207.8991195940467
 30
0.0
 11
53.21554239623867
 21
207.8991195940467
 31
0.0
  0
LINE
  5
8B8C
  8
0
 10
53.21554239623867
 20
207.8991195940467
 30
0.0
 11
53.21554239623867
 21
208.2331044440467
 31
0.0
  0
LINE
  5
8B8D
  8
0
 10
53.21554239623867
 20
208.2331044440467
 30
0.0
 11
52.54831654623865
 21
208.2331044440467
 31
0.0
  0
LINE
  5
8B8E
  8
0
 10
52.54831654623865
 20
208.2331044440467
 30
0.0
 11
52.54831654623865
 21
207.8991195940467
 31
0.0
  0
LINE
  5
8B8F
  8
0
 10
42.53436654623866
 20
207.5650995940467
 30
0.0
 11
43.20196384623864
 21
207.5650995940467
 31
0.0
  0
LINE
  5
8B90
  8
0
 10
43.20196384623864
 20
207.5650995940467
 30
0.0
 11
43.20196384623864
 21
207.8991195940467
 31
0.0
  0
LINE
  5
8B91
  8
0
 10
43.20196384623864
 20
207.8991195940467
 30
0.0
 11
42.53436654623866
 21
207.8991195940467
 31
0.0
  0
LINE
  5
8B92
  8
0
 10
42.53436654623866
 20
207.8991195940467
 30
0.0
 11
42.53436654623866
 21
207.5650995940467
 31
0.0
  0
LINE
  5
8B93
  8
0
 10
43.53585654623868
 20
207.5650995940467
 30
0.0
 11
44.20345384623866
 21
207.5650995940467
 31
0.0
  0
LINE
  5
8B94
  8
0
 10
44.20345384623866
 20
207.5650995940467
 30
0.0
 11
44.20345384623866
 21
207.8991195940467
 31
0.0
  0
LINE
  5
8B95
  8
0
 10
44.20345384623866
 20
207.8991195940467
 30
0.0
 11
43.53585654623868
 21
207.8991195940467
 31
0.0
  0
LINE
  5
8B96
  8
0
 10
43.53585654623868
 20
207.8991195940467
 30
0.0
 11
43.53585654623868
 21
207.5650995940467
 31
0.0
  0
LINE
  5
8B97
  8
0
 10
45.53874154623864
 20
207.5650995940467
 30
0.0
 11
45.87272639623865
 21
207.5650995940467
 31
0.0
  0
LINE
  5
8B98
  8
0
 10
45.87272639623865
 20
207.5650995940467
 30
0.0
 11
45.87272639623865
 21
207.8991195940467
 31
0.0
  0
LINE
  5
8B99
  8
0
 10
45.87272639623865
 20
207.8991195940467
 30
0.0
 11
45.53874154623864
 21
207.8991195940467
 31
0.0
  0
LINE
  5
8B9A
  8
0
 10
45.53874154623864
 20
207.8991195940467
 30
0.0
 11
45.53874154623864
 21
207.5650995940467
 31
0.0
  0
LINE
  5
8B9B
  8
0
 10
46.54032654623867
 20
207.5650995940467
 30
0.0
 11
46.87431044623867
 21
207.5650995940467
 31
0.0
  0
LINE
  5
8B9C
  8
0
 10
46.87431044623867
 20
207.5650995940467
 30
0.0
 11
46.87431044623867
 21
207.8991195940467
 31
0.0
  0
LINE
  5
8B9D
  8
0
 10
46.87431044623867
 20
207.8991195940467
 30
0.0
 11
46.54032654623867
 21
207.8991195940467
 31
0.0
  0
LINE
  5
8B9E
  8
0
 10
46.54032654623867
 20
207.8991195940467
 30
0.0
 11
46.54032654623867
 21
207.5650995940467
 31
0.0
  0
LINE
  5
8B9F
  8
0
 10
47.20751154623866
 20
207.5650995940467
 30
0.0
 11
47.87510884623867
 21
207.5650995940467
 31
0.0
  0
LINE
  5
8BA0
  8
0
 10
47.87510884623867
 20
207.5650995940467
 30
0.0
 11
47.87510884623867
 21
207.8991195940467
 31
0.0
  0
LINE
  5
8BA1
  8
0
 10
47.87510884623867
 20
207.8991195940467
 30
0.0
 11
47.20751154623866
 21
207.8991195940467
 31
0.0
  0
LINE
  5
8BA2
  8
0
 10
47.20751154623866
 20
207.8991195940467
 30
0.0
 11
47.20751154623866
 21
207.5650995940467
 31
0.0
  0
LINE
  5
8BA3
  8
0
 10
48.54273654623867
 20
207.5650995940467
 30
0.0
 11
49.20996334623868
 21
207.5650995940467
 31
0.0
  0
LINE
  5
8BA4
  8
0
 10
49.20996334623868
 20
207.5650995940467
 30
0.0
 11
49.20996334623868
 21
207.8991195940467
 31
0.0
  0
LINE
  5
8BA5
  8
0
 10
49.20996334623868
 20
207.8991195940467
 30
0.0
 11
48.54273654623867
 21
207.8991195940467
 31
0.0
  0
LINE
  5
8BA6
  8
0
 10
48.54273654623867
 20
207.8991195940467
 30
0.0
 11
48.54273654623867
 21
207.5650995940467
 31
0.0
  0
LINE
  5
8BA7
  8
0
 10
50.87907154623866
 20
207.5650995940467
 30
0.0
 11
51.21309154623867
 21
207.5650995940467
 31
0.0
  0
LINE
  5
8BA8
  8
0
 10
51.21309154623867
 20
207.5650995940467
 30
0.0
 11
51.21309154623867
 21
207.8991195940467
 31
0.0
  0
LINE
  5
8BA9
  8
0
 10
51.21309154623867
 20
207.8991195940467
 30
0.0
 11
50.87910669623867
 21
207.8991195940467
 31
0.0
  0
LINE
  5
8BAA
  8
0
 10
50.87910669623867
 20
207.8991195940467
 30
0.0
 11
50.87907154623866
 21
207.5650995940467
 31
0.0
  0
LINE
  5
8BAB
  8
0
 10
51.88065654623867
 20
207.5650995940467
 30
0.0
 11
52.88224154623865
 21
207.5650995940467
 31
0.0
  0
LINE
  5
8BAC
  8
0
 10
52.88224154623865
 20
207.5650995940467
 30
0.0
 11
52.88224154623865
 21
207.8991195940467
 31
0.0
  0
LINE
  5
8BAD
  8
0
 10
52.88224154623865
 20
207.8991195940467
 30
0.0
 11
51.88065654623867
 21
207.8991195940467
 31
0.0
  0
LINE
  5
8BAE
  8
0
 10
51.88065654623867
 20
207.8991195940467
 30
0.0
 11
51.88065654623867
 21
207.5650995940467
 31
0.0
  0
LINE
  5
8BAF
  8
0
 10
53.21550154623867
 20
207.5650995940467
 30
0.0
 11
53.54985784623867
 21
207.5650995940467
 31
0.0
  0
LINE
  5
8BB0
  8
0
 10
53.54985784623867
 20
207.5650995940467
 30
0.0
 11
53.54985784623867
 21
207.8991195940467
 31
0.0
  0
LINE
  5
8BB1
  8
0
 10
53.54985784623867
 20
207.8991195940467
 30
0.0
 11
53.21550154623867
 21
207.8991195940467
 31
0.0
  0
LINE
  5
8BB2
  8
0
 10
53.21550154623867
 20
207.8991195940467
 30
0.0
 11
53.21550154623867
 21
207.5650995940467
 31
0.0
  0
LINE
  5
8BB3
  8
0
 10
42.86867154623866
 20
207.2315545940467
 30
0.0
 11
43.20265639623867
 21
207.2315545940467
 31
0.0
  0
LINE
  5
8BB4
  8
0
 10
43.20265639623867
 20
207.2315545940467
 30
0.0
 11
43.20265639623867
 21
207.5659099440467
 31
0.0
  0
LINE
  5
8BB5
  8
0
 10
43.20265639623867
 20
207.5659099440467
 30
0.0
 11
42.86867154623866
 21
207.5659099440467
 31
0.0
  0
LINE
  5
8BB6
  8
0
 10
42.86867154623866
 20
207.5659099440467
 30
0.0
 11
42.86867154623866
 21
207.2315545940467
 31
0.0
  0
LINE
  5
8BB7
  8
0
 10
44.53744154623865
 20
207.2315545940467
 30
0.0
 11
44.87142544623865
 21
207.2315545940467
 31
0.0
  0
LINE
  5
8BB8
  8
0
 10
44.87142544623865
 20
207.2315545940467
 30
0.0
 11
44.87142544623865
 21
207.5659099440467
 31
0.0
  0
LINE
  5
8BB9
  8
0
 10
44.87142544623865
 20
207.5659099440467
 30
0.0
 11
44.53744154623865
 21
207.5659099440467
 31
0.0
  0
LINE
  5
8BBA
  8
0
 10
44.53744154623865
 20
207.5659099440467
 30
0.0
 11
44.53744154623865
 21
207.2315545940467
 31
0.0
  0
LINE
  5
8BBB
  8
0
 10
45.53874154623864
 20
207.2315545940467
 30
0.0
 11
46.20596834623868
 21
207.2315545940467
 31
0.0
  0
LINE
  5
8BBC
  8
0
 10
46.20596834623868
 20
207.2315545940467
 30
0.0
 11
46.20596834623868
 21
207.5659099440467
 31
0.0
  0
LINE
  5
8BBD
  8
0
 10
46.20596834623868
 20
207.5659099440467
 30
0.0
 11
45.53874154623864
 21
207.5659099440467
 31
0.0
  0
LINE
  5
8BBE
  8
0
 10
45.53874154623864
 20
207.5659099440467
 30
0.0
 11
45.53874154623864
 21
207.2315545940467
 31
0.0
  0
LINE
  5
8BBF
  8
0
 10
46.54032654623867
 20
207.2315545940467
 30
0.0
 11
47.20755334623865
 21
207.2315545940467
 31
0.0
  0
LINE
  5
8BC0
  8
0
 10
47.20755334623865
 20
207.2315545940467
 30
0.0
 11
47.20755334623865
 21
207.5659099440467
 31
0.0
  0
LINE
  5
8BC1
  8
0
 10
47.20755334623865
 20
207.5659099440467
 30
0.0
 11
46.54032654623867
 21
207.5659099440467
 31
0.0
  0
LINE
  5
8BC2
  8
0
 10
46.54032654623867
 20
207.5659099440467
 30
0.0
 11
46.54032654623867
 21
207.2315545940467
 31
0.0
  0
LINE
  5
8BC3
  8
0
 10
48.20909654623867
 20
207.2315545940467
 30
0.0
 11
49.21068154623867
 21
207.2315545940467
 31
0.0
  0
LINE
  5
8BC4
  8
0
 10
49.21068154623867
 20
207.2315545940467
 30
0.0
 11
49.21068154623867
 21
207.5659099440467
 31
0.0
  0
LINE
  5
8BC5
  8
0
 10
49.21068154623867
 20
207.5659099440467
 30
0.0
 11
48.20909654623867
 21
207.5659099440467
 31
0.0
  0
LINE
  5
8BC6
  8
0
 10
48.20909654623867
 20
207.5659099440467
 30
0.0
 11
48.20909654623867
 21
207.2315545940467
 31
0.0
  0
LINE
  5
8BC7
  8
0
 10
49.87748654623866
 20
207.2315545940467
 30
0.0
 11
50.21147044623868
 21
207.2315545940467
 31
0.0
  0
LINE
  5
8BC8
  8
0
 10
50.21147044623868
 20
207.2315545940467
 30
0.0
 11
50.21147044623868
 21
207.5659099440467
 31
0.0
  0
LINE
  5
8BC9
  8
0
 10
50.21147044623868
 20
207.5659099440467
 30
0.0
 11
49.87748654623866
 21
207.5659099440467
 31
0.0
  0
LINE
  5
8BCA
  8
0
 10
49.87748654623866
 20
207.5659099440467
 30
0.0
 11
49.87748654623866
 21
207.2315545940467
 31
0.0
  0
LINE
  5
8BCB
  8
0
 10
50.54590654623865
 20
207.2315545940467
 30
0.0
 11
51.21313334623866
 21
207.2315545940467
 31
0.0
  0
LINE
  5
8BCC
  8
0
 10
51.21313334623866
 20
207.2315545940467
 30
0.0
 11
51.21313334623866
 21
207.5659099440467
 31
0.0
  0
LINE
  5
8BCD
  8
0
 10
51.21313334623866
 20
207.5659099440467
 30
0.0
 11
50.54590654623865
 21
207.5659099440467
 31
0.0
  0
LINE
  5
8BCE
  8
0
 10
50.54590654623865
 20
207.5659099440467
 30
0.0
 11
50.54590654623865
 21
207.2315545940467
 31
0.0
  0
LINE
  5
8BCF
  8
0
 10
51.54673154623865
 20
207.2315545940467
 30
0.0
 11
52.54831654623865
 21
207.2315545940467
 31
0.0
  0
LINE
  5
8BD0
  8
0
 10
52.54831654623865
 20
207.2315545940467
 30
0.0
 11
52.54831654623865
 21
207.5659099440467
 31
0.0
  0
LINE
  5
8BD1
  8
0
 10
52.54831654623865
 20
207.5659099440467
 30
0.0
 11
51.54673154623865
 21
207.5659099440467
 31
0.0
  0
LINE
  5
8BD2
  8
0
 10
51.54673154623865
 20
207.5659099440467
 30
0.0
 11
51.54673154623865
 21
207.2315545940467
 31
0.0
  0
LINE
  5
8BD3
  8
0
 10
53.21550154623867
 20
207.2315545940467
 30
0.0
 11
53.54985784623867
 21
207.2315545940467
 31
0.0
  0
LINE
  5
8BD4
  8
0
 10
53.54985784623867
 20
207.2315545940467
 30
0.0
 11
53.54985784623867
 21
207.5659099440467
 31
0.0
  0
LINE
  5
8BD5
  8
0
 10
53.54985784623867
 20
207.5659099440467
 30
0.0
 11
53.21550154623867
 21
207.5659099440467
 31
0.0
  0
LINE
  5
8BD6
  8
0
 10
53.21550154623867
 20
207.5659099440467
 30
0.0
 11
53.21550154623867
 21
207.2315545940467
 31
0.0
  0
LINE
  5
8BD7
  8
0
 10
42.86867154623866
 20
206.8975345940467
 30
0.0
 11
43.53589834623867
 21
206.8975345940467
 31
0.0
  0
LINE
  5
8BD8
  8
0
 10
43.53589834623867
 20
206.8975345940467
 30
0.0
 11
43.53589834623867
 21
207.2315194440467
 31
0.0
  0
LINE
  5
8BD9
  8
0
 10
43.53589834623867
 20
207.2315194440467
 30
0.0
 11
42.86867154623866
 21
207.2315194440467
 31
0.0
  0
LINE
  5
8BDA
  8
0
 10
42.86867154623866
 20
207.2315194440467
 30
0.0
 11
42.86867154623866
 21
206.8975345940467
 31
0.0
  0
LINE
  5
8BDB
  8
0
 10
43.86949654623868
 20
206.8975345940467
 30
0.0
 11
44.20348044623867
 21
206.8975345940467
 31
0.0
  0
LINE
  5
8BDC
  8
0
 10
44.20348044623867
 20
206.8975345940467
 30
0.0
 11
44.20348044623867
 21
207.2315194440467
 31
0.0
  0
LINE
  5
8BDD
  8
0
 10
44.20348044623867
 20
207.2315194440467
 30
0.0
 11
43.86949654623868
 21
207.2315194440467
 31
0.0
  0
LINE
  5
8BDE
  8
0
 10
43.86949654623868
 20
207.2315194440467
 30
0.0
 11
43.86949654623868
 21
206.8975345940467
 31
0.0
  0
LINE
  5
8BDF
  8
0
 10
46.20592654623866
 20
206.8975345940467
 30
0.0
 11
46.53991044623868
 21
206.8975345940467
 31
0.0
  0
LINE
  5
8BE0
  8
0
 10
46.53991044623868
 20
206.8975345940467
 30
0.0
 11
46.53991044623868
 21
207.2315194440467
 31
0.0
  0
LINE
  5
8BE1
  8
0
 10
46.53991044623868
 20
207.2315194440467
 30
0.0
 11
46.20592654623866
 21
207.2315194440467
 31
0.0
  0
LINE
  5
8BE2
  8
0
 10
46.20592654623866
 20
207.2315194440467
 30
0.0
 11
46.20592654623866
 21
206.8975345940467
 31
0.0
  0
LINE
  5
8BE3
  8
0
 10
46.87349154623865
 20
206.8975345940467
 30
0.0
 11
49.87749604623866
 21
206.8975345940467
 31
0.0
  0
LINE
  5
8BE4
  8
0
 10
49.87749604623866
 20
206.8975345940467
 30
0.0
 11
49.87749604623866
 21
207.2315194440467
 31
0.0
  0
LINE
  5
8BE5
  8
0
 10
49.87749604623866
 20
207.2315194440467
 30
0.0
 11
46.87349154623865
 21
207.2315194440467
 31
0.0
  0
LINE
  5
8BE6
  8
0
 10
46.87349154623865
 20
207.2315194440467
 30
0.0
 11
46.87349154623865
 21
206.8975345940467
 31
0.0
  0
LINE
  5
8BE7
  8
0
 10
50.21150654623867
 20
206.8975345940467
 30
0.0
 11
51.54670304623866
 21
206.8975345940467
 31
0.0
  0
LINE
  5
8BE8
  8
0
 10
51.54670304623866
 20
206.8975345940467
 30
0.0
 11
51.54670304623866
 21
207.2315194440467
 31
0.0
  0
LINE
  5
8BE9
  8
0
 10
51.54670304623866
 20
207.2315194440467
 30
0.0
 11
50.21150654623867
 21
207.2315194440467
 31
0.0
  0
LINE
  5
8BEA
  8
0
 10
50.21150654623867
 20
207.2315194440467
 30
0.0
 11
50.21150654623867
 21
206.8975345940467
 31
0.0
  0
LINE
  5
8BEB
  8
0
 10
52.21391654623866
 20
206.8975345940467
 30
0.0
 11
52.88151384623865
 21
206.8975345940467
 31
0.0
  0
LINE
  5
8BEC
  8
0
 10
52.88151384623865
 20
206.8975345940467
 30
0.0
 11
52.88151384623865
 21
207.2315194440467
 31
0.0
  0
LINE
  5
8BED
  8
0
 10
52.88151384623865
 20
207.2315194440467
 30
0.0
 11
52.21391654623866
 21
207.2315194440467
 31
0.0
  0
LINE
  5
8BEE
  8
0
 10
52.21391654623866
 20
207.2315194440467
 30
0.0
 11
52.21391654623866
 21
206.8975345940467
 31
0.0
  0
LINE
  5
8BEF
  8
0
 10
53.21550154623867
 20
206.8975345940467
 30
0.0
 11
53.54985784623867
 21
206.8975345940467
 31
0.0
  0
LINE
  5
8BF0
  8
0
 10
53.54985784623867
 20
206.8975345940467
 30
0.0
 11
53.54985784623867
 21
207.2315194440467
 31
0.0
  0
LINE
  5
8BF1
  8
0
 10
53.54985784623867
 20
207.2315194440467
 30
0.0
 11
53.21550154623867
 21
207.2315194440467
 31
0.0
  0
LINE
  5
8BF2
  8
0
 10
53.21550154623867
 20
207.2315194440467
 30
0.0
 11
53.21550154623867
 21
206.8975345940467
 31
0.0
  0
LINE
  5
8BF3
  8
0
 10
43.20193154623865
 20
206.5642745940467
 30
0.0
 11
43.53628784623865
 21
206.5642745940467
 31
0.0
  0
LINE
  5
8BF4
  8
0
 10
43.53628784623865
 20
206.5642745940467
 30
0.0
 11
43.53628784623865
 21
206.8982584940467
 31
0.0
  0
LINE
  5
8BF5
  8
0
 10
43.53628784623865
 20
206.8982584940467
 30
0.0
 11
43.20193154623865
 21
206.8982584940467
 31
0.0
  0
LINE
  5
8BF6
  8
0
 10
43.20193154623865
 20
206.8982584940467
 30
0.0
 11
43.20193154623865
 21
206.5642745940467
 31
0.0
  0
LINE
  5
8BF7
  8
0
 10
43.86949654623868
 20
206.5642745940467
 30
0.0
 11
44.20348044623867
 21
206.5642745940467
 31
0.0
  0
LINE
  5
8BF8
  8
0
 10
44.20348044623867
 20
206.5642745940467
 30
0.0
 11
44.20348044623867
 21
206.8982584940467
 31
0.0
  0
LINE
  5
8BF9
  8
0
 10
44.20348044623867
 20
206.8982584940467
 30
0.0
 11
43.86949654623868
 21
206.8982584940467
 31
0.0
  0
LINE
  5
8BFA
  8
0
 10
43.86949654623868
 20
206.8982584940467
 30
0.0
 11
43.86949654623868
 21
206.5642745940467
 31
0.0
  0
LINE
  5
8BFB
  8
0
 10
44.53744154623865
 20
206.5642745940467
 30
0.0
 11
46.54023154623866
 21
206.5642745940467
 31
0.0
  0
LINE
  5
8BFC
  8
0
 10
46.54023154623866
 20
206.5642745940467
 30
0.0
 11
46.54023154623866
 21
206.8982584940467
 31
0.0
  0
LINE
  5
8BFD
  8
0
 10
46.54023154623866
 20
206.8982584940467
 30
0.0
 11
44.53744154623865
 21
206.8982584940467
 31
0.0
  0
LINE
  5
8BFE
  8
0
 10
44.53744154623865
 20
206.8982584940467
 30
0.0
 11
44.53744154623865
 21
206.5642745940467
 31
0.0
  0
LINE
  5
8BFF
  8
0
 10
46.87349154623865
 20
206.5642745940467
 30
0.0
 11
47.20747639623866
 21
206.5642745940467
 31
0.0
  0
LINE
  5
8C00
  8
0
 10
47.20747639623866
 20
206.5642745940467
 30
0.0
 11
47.20747639623866
 21
206.8982584940467
 31
0.0
  0
LINE
  5
8C01
  8
0
 10
47.20747639623866
 20
206.8982584940467
 30
0.0
 11
46.87349154623865
 21
206.8982584940467
 31
0.0
  0
LINE
  5
8C02
  8
0
 10
46.87349154623865
 20
206.8982584940467
 30
0.0
 11
46.87349154623865
 21
206.5642745940467
 31
0.0
  0
LINE
  5
8C03
  8
0
 10
47.54153154623867
 20
206.5642745940467
 30
0.0
 11
48.20912979623864
 21
206.5642745940467
 31
0.0
  0
LINE
  5
8C04
  8
0
 10
48.20912979623864
 20
206.5642745940467
 30
0.0
 11
48.20912979623864
 21
206.8982584940467
 31
0.0
  0
LINE
  5
8C05
  8
0
 10
48.20912979623864
 20
206.8982584940467
 30
0.0
 11
47.54153154623867
 21
206.8982584940467
 31
0.0
  0
LINE
  5
8C06
  8
0
 10
47.54153154623867
 20
206.8982584940467
 30
0.0
 11
47.54153154623867
 21
206.5642745940467
 31
0.0
  0
LINE
  5
8C07
  8
0
 10
48.87666154623867
 20
206.5642745940467
 30
0.0
 11
49.21064544623866
 21
206.5642745940467
 31
0.0
  0
LINE
  5
8C08
  8
0
 10
49.21064544623866
 20
206.5642745940467
 30
0.0
 11
49.21064544623866
 21
206.8982584940467
 31
0.0
  0
LINE
  5
8C09
  8
0
 10
49.21064544623866
 20
206.8982584940467
 30
0.0
 11
48.87666154623867
 21
206.8982584940467
 31
0.0
  0
LINE
  5
8C0A
  8
0
 10
48.87666154623867
 20
206.8982584940467
 30
0.0
 11
48.87666154623867
 21
206.5642745940467
 31
0.0
  0
LINE
  5
8C0B
  8
0
 10
50.21150654623867
 20
206.5642745940467
 30
0.0
 11
50.54586189623868
 21
206.5642745940467
 31
0.0
  0
LINE
  5
8C0C
  8
0
 10
50.54586189623868
 20
206.5642745940467
 30
0.0
 11
50.54586189623868
 21
206.8982584940467
 31
0.0
  0
LINE
  5
8C0D
  8
0
 10
50.54586189623868
 20
206.8982584940467
 30
0.0
 11
50.21150654623867
 21
206.8982584940467
 31
0.0
  0
LINE
  5
8C0E
  8
0
 10
50.21150654623867
 20
206.8982584940467
 30
0.0
 11
50.21150654623867
 21
206.5642745940467
 31
0.0
  0
LINE
  5
8C0F
  8
0
 10
51.54673154623865
 20
206.5642745940467
 30
0.0
 11
51.88071544623867
 21
206.5642745940467
 31
0.0
  0
LINE
  5
8C10
  8
0
 10
51.88071544623867
 20
206.5642745940467
 30
0.0
 11
51.88071544623867
 21
206.8982584940467
 31
0.0
  0
LINE
  5
8C11
  8
0
 10
51.88071544623867
 20
206.8982584940467
 30
0.0
 11
51.54673154623865
 21
206.8982584940467
 31
0.0
  0
LINE
  5
8C12
  8
0
 10
51.54673154623865
 20
206.8982584940467
 30
0.0
 11
51.54673154623865
 21
206.5642745940467
 31
0.0
  0
LINE
  5
8C13
  8
0
 10
52.21391654623866
 20
206.5642745940467
 30
0.0
 11
52.88151384623865
 21
206.5642745940467
 31
0.0
  0
LINE
  5
8C14
  8
0
 10
52.88151384623865
 20
206.5642745940467
 30
0.0
 11
52.88151384623865
 21
206.8982584940467
 31
0.0
  0
LINE
  5
8C15
  8
0
 10
52.88151384623865
 20
206.8982584940467
 30
0.0
 11
52.21391654623866
 21
206.8982584940467
 31
0.0
  0
LINE
  5
8C16
  8
0
 10
52.21391654623866
 20
206.8982584940467
 30
0.0
 11
52.21391654623866
 21
206.5642745940467
 31
0.0
  0
LINE
  5
8C17
  8
0
 10
53.21550154623867
 20
206.5642745940467
 30
0.0
 11
53.54985784623867
 21
206.5642745940467
 31
0.0
  0
LINE
  5
8C18
  8
0
 10
53.54985784623867
 20
206.5642745940467
 30
0.0
 11
53.54985784623867
 21
206.8982584940467
 31
0.0
  0
LINE
  5
8C19
  8
0
 10
53.54985784623867
 20
206.8982584940467
 30
0.0
 11
53.21550154623867
 21
206.8982584940467
 31
0.0
  0
LINE
  5
8C1A
  8
0
 10
53.21550154623867
 20
206.8982584940467
 30
0.0
 11
53.21550154623867
 21
206.5642745940467
 31
0.0
  0
LINE
  5
8C1B
  8
0
 10
42.86867154623866
 20
206.2303495940467
 30
0.0
 11
43.20265639623867
 21
206.2303495940467
 31
0.0
  0
LINE
  5
8C1C
  8
0
 10
43.20265639623867
 20
206.2303495940467
 30
0.0
 11
43.20265639623867
 21
206.5643344440467
 31
0.0
  0
LINE
  5
8C1D
  8
0
 10
43.20265639623867
 20
206.5643344440467
 30
0.0
 11
42.86867154623866
 21
206.5643344440467
 31
0.0
  0
LINE
  5
8C1E
  8
0
 10
42.86867154623866
 20
206.5643344440467
 30
0.0
 11
42.86867154623866
 21
206.2303495940467
 31
0.0
  0
LINE
  5
8C1F
  8
0
 10
43.53585654623868
 20
206.2303495940467
 30
0.0
 11
44.53744154623865
 21
206.2303495940467
 31
0.0
  0
LINE
  5
8C20
  8
0
 10
44.53744154623865
 20
206.2303495940467
 30
0.0
 11
44.53744154623865
 21
206.5643344440467
 31
0.0
  0
LINE
  5
8C21
  8
0
 10
44.53744154623865
 20
206.5643344440467
 30
0.0
 11
43.53585654623868
 21
206.5643344440467
 31
0.0
  0
LINE
  5
8C22
  8
0
 10
43.53585654623868
 20
206.5643344440467
 30
0.0
 11
43.53585654623868
 21
206.2303495940467
 31
0.0
  0
LINE
  5
8C23
  8
0
 10
44.87108154623866
 20
206.2303495940467
 30
0.0
 11
45.53867884623864
 21
206.2303495940467
 31
0.0
  0
LINE
  5
8C24
  8
0
 10
45.53867884623864
 20
206.2303495940467
 30
0.0
 11
45.53867884623864
 21
206.5643344440467
 31
0.0
  0
LINE
  5
8C25
  8
0
 10
45.53867884623864
 20
206.5643344440467
 30
0.0
 11
44.87108154623866
 21
206.5643344440467
 31
0.0
  0
LINE
  5
8C26
  8
0
 10
44.87108154623866
 20
206.5643344440467
 30
0.0
 11
44.87108154623866
 21
206.2303495940467
 31
0.0
  0
LINE
  5
8C27
  8
0
 10
45.87266654623866
 20
206.2303495940467
 30
0.0
 11
46.20665044623868
 21
206.2303495940467
 31
0.0
  0
LINE
  5
8C28
  8
0
 10
46.20665044623868
 20
206.2303495940467
 30
0.0
 11
46.20665044623868
 21
206.5643344440467
 31
0.0
  0
LINE
  5
8C29
  8
0
 10
46.20665044623868
 20
206.5643344440467
 30
0.0
 11
45.87266654623866
 21
206.5643344440467
 31
0.0
  0
LINE
  5
8C2A
  8
0
 10
45.87266654623866
 20
206.5643344440467
 30
0.0
 11
45.87266654623866
 21
206.2303495940467
 31
0.0
  0
LINE
  5
8C2B
  8
0
 10
47.54153154623867
 20
206.2303495940467
 30
0.0
 11
49.87831304623867
 21
206.2303495940467
 31
0.0
  0
LINE
  5
8C2C
  8
0
 10
49.87831304623867
 20
206.2303495940467
 30
0.0
 11
49.87831304623867
 21
206.5643344440467
 31
0.0
  0
LINE
  5
8C2D
  8
0
 10
49.87831304623867
 20
206.5643344440467
 30
0.0
 11
47.54153154623867
 21
206.5643344440467
 31
0.0
  0
LINE
  5
8C2E
  8
0
 10
47.54153154623867
 20
206.5643344440467
 30
0.0
 11
47.54153154623867
 21
206.2303495940467
 31
0.0
  0
LINE
  5
8C2F
  8
0
 10
50.21150654623867
 20
206.2303495940467
 30
0.0
 11
50.54586189623868
 21
206.2303495940467
 31
0.0
  0
LINE
  5
8C30
  8
0
 10
50.54586189623868
 20
206.2303495940467
 30
0.0
 11
50.54586189623868
 21
206.5643344440467
 31
0.0
  0
LINE
  5
8C31
  8
0
 10
50.54586189623868
 20
206.5643344440467
 30
0.0
 11
50.21150654623867
 21
206.5643344440467
 31
0.0
  0
LINE
  5
8C32
  8
0
 10
50.21150654623867
 20
206.5643344440467
 30
0.0
 11
50.21150654623867
 21
206.2303495940467
 31
0.0
  0
LINE
  5
8C33
  8
0
 10
50.87907154623866
 20
206.2303495940467
 30
0.0
 11
51.21305639623867
 21
206.2303495940467
 31
0.0
  0
LINE
  5
8C34
  8
0
 10
51.21305639623867
 20
206.2303495940467
 30
0.0
 11
51.21305639623867
 21
206.5643344440467
 31
0.0
  0
LINE
  5
8C35
  8
0
 10
51.21305639623867
 20
206.5643344440467
 30
0.0
 11
50.87907154623866
 21
206.5643344440467
 31
0.0
  0
LINE
  5
8C36
  8
0
 10
50.87907154623866
 20
206.5643344440467
 30
0.0
 11
50.87907154623866
 21
206.2303495940467
 31
0.0
  0
LINE
  5
8C37
  8
0
 10
51.88065654623867
 20
206.2303495940467
 30
0.0
 11
52.88224154623865
 21
206.2303495940467
 31
0.0
  0
LINE
  5
8C38
  8
0
 10
52.88224154623865
 20
206.2303495940467
 30
0.0
 11
52.88224154623865
 21
206.5643344440467
 31
0.0
  0
LINE
  5
8C39
  8
0
 10
52.88224154623865
 20
206.5643344440467
 30
0.0
 11
51.88065654623867
 21
206.5643344440467
 31
0.0
  0
LINE
  5
8C3A
  8
0
 10
51.88065654623867
 20
206.5643344440467
 30
0.0
 11
51.88065654623867
 21
206.2303495940467
 31
0.0
  0
LINE
  5
8C3B
  8
0
 10
53.21550154623867
 20
206.2303495940467
 30
0.0
 11
53.54985784623867
 21
206.2303495940467
 31
0.0
  0
LINE
  5
8C3C
  8
0
 10
53.54985784623867
 20
206.2303495940467
 30
0.0
 11
53.54985784623867
 21
206.5643344440467
 31
0.0
  0
LINE
  5
8C3D
  8
0
 10
53.54985784623867
 20
206.5643344440467
 30
0.0
 11
53.21550154623867
 21
206.5643344440467
 31
0.0
  0
LINE
  5
8C3E
  8
0
 10
53.21550154623867
 20
206.5643344440467
 30
0.0
 11
53.21550154623867
 21
206.2303495940467
 31
0.0
  0
LINE
  5
8C3F
  8
0
 10
42.53436654623866
 20
205.8959495940467
 30
0.0
 11
43.86956304623865
 21
205.8959495940467
 31
0.0
  0
LINE
  5
8C40
  8
0
 10
43.86956304623865
 20
205.8959495940467
 30
0.0
 11
43.86956304623865
 21
206.2303049440467
 31
0.0
  0
LINE
  5
8C41
  8
0
 10
43.86956304623865
 20
206.2303049440467
 30
0.0
 11
42.53436654623866
 21
206.2303049440467
 31
0.0
  0
LINE
  5
8C42
  8
0
 10
42.53436654623866
 20
206.2303049440467
 30
0.0
 11
42.53436654623866
 21
205.8959495940467
 31
0.0
  0
LINE
  5
8C43
  8
0
 10
44.53744154623865
 20
205.8959495940467
 30
0.0
 11
44.87142544623865
 21
205.8959495940467
 31
0.0
  0
LINE
  5
8C44
  8
0
 10
44.87142544623865
 20
205.8959495940467
 30
0.0
 11
44.87142544623865
 21
206.2303049440467
 31
0.0
  0
LINE
  5
8C45
  8
0
 10
44.87142544623865
 20
206.2303049440467
 30
0.0
 11
44.53744154623865
 21
206.2303049440467
 31
0.0
  0
LINE
  5
8C46
  8
0
 10
44.53744154623865
 20
206.2303049440467
 30
0.0
 11
44.53744154623865
 21
205.8959495940467
 31
0.0
  0
LINE
  5
8C47
  8
0
 10
45.20510154623867
 20
205.8959495940467
 30
0.0
 11
45.53908639623867
 21
205.8959495940467
 31
0.0
  0
LINE
  5
8C48
  8
0
 10
45.53908639623867
 20
205.8959495940467
 30
0.0
 11
45.53908639623867
 21
206.2303049440467
 31
0.0
  0
LINE
  5
8C49
  8
0
 10
45.53908639623867
 20
206.2303049440467
 30
0.0
 11
45.20510154623867
 21
206.2303049440467
 31
0.0
  0
LINE
  5
8C4A
  8
0
 10
45.20510154623867
 20
206.2303049440467
 30
0.0
 11
45.20510154623867
 21
205.8959495940467
 31
0.0
  0
LINE
  5
8C4B
  8
0
 10
45.87266654623866
 20
205.8959495940467
 30
0.0
 11
46.20665044623868
 21
205.8959495940467
 31
0.0
  0
LINE
  5
8C4C
  8
0
 10
46.20665044623868
 20
205.8959495940467
 30
0.0
 11
46.20665044623868
 21
206.2303049440467
 31
0.0
  0
LINE
  5
8C4D
  8
0
 10
46.20665044623868
 20
206.2303049440467
 30
0.0
 11
45.87266654623866
 21
206.2303049440467
 31
0.0
  0
LINE
  5
8C4E
  8
0
 10
45.87266654623866
 20
206.2303049440467
 30
0.0
 11
45.87266654623866
 21
205.8959495940467
 31
0.0
  0
LINE
  5
8C4F
  8
0
 10
46.54032654623867
 20
205.8959495940467
 30
0.0
 11
47.54154104623868
 21
205.8959495940467
 31
0.0
  0
LINE
  5
8C50
  8
0
 10
47.54154104623868
 20
205.8959495940467
 30
0.0
 11
47.54154104623868
 21
206.2303049440467
 31
0.0
  0
LINE
  5
8C51
  8
0
 10
47.54154104623868
 20
206.2303049440467
 30
0.0
 11
46.54032654623867
 21
206.2303049440467
 31
0.0
  0
LINE
  5
8C52
  8
0
 10
46.54032654623867
 20
206.2303049440467
 30
0.0
 11
46.54032654623867
 21
205.8959495940467
 31
0.0
  0
LINE
  5
8C53
  8
0
 10
47.87507654623866
 20
205.8959495940467
 30
0.0
 11
48.20906139623867
 21
205.8959495940467
 31
0.0
  0
LINE
  5
8C54
  8
0
 10
48.20906139623867
 20
205.8959495940467
 30
0.0
 11
48.20906139623867
 21
206.2303049440467
 31
0.0
  0
LINE
  5
8C55
  8
0
 10
48.20906139623867
 20
206.2303049440467
 30
0.0
 11
47.87507654623866
 21
206.2303049440467
 31
0.0
  0
LINE
  5
8C56
  8
0
 10
47.87507654623866
 20
206.2303049440467
 30
0.0
 11
47.87507654623866
 21
205.8959495940467
 31
0.0
  0
LINE
  5
8C57
  8
0
 10
49.20992154623866
 20
205.8959495940467
 30
0.0
 11
50.21150654623867
 21
205.8959495940467
 31
0.0
  0
LINE
  5
8C58
  8
0
 10
50.21150654623867
 20
205.8959495940467
 30
0.0
 11
50.21150654623867
 21
206.2303049440467
 31
0.0
  0
LINE
  5
8C59
  8
0
 10
50.21150654623867
 20
206.2303049440467
 30
0.0
 11
49.20992154623866
 21
206.2303049440467
 31
0.0
  0
LINE
  5
8C5A
  8
0
 10
49.20992154623866
 20
206.2303049440467
 30
0.0
 11
49.20992154623866
 21
205.8959495940467
 31
0.0
  0
LINE
  5
8C5B
  8
0
 10
50.87907154623866
 20
205.8959495940467
 30
0.0
 11
51.21305639623867
 21
205.8959495940467
 31
0.0
  0
LINE
  5
8C5C
  8
0
 10
51.21305639623867
 20
205.8959495940467
 30
0.0
 11
51.21305639623867
 21
206.2303049440467
 31
0.0
  0
LINE
  5
8C5D
  8
0
 10
51.21305639623867
 20
206.2303049440467
 30
0.0
 11
50.87907154623866
 21
206.2303049440467
 31
0.0
  0
LINE
  5
8C5E
  8
0
 10
50.87907154623866
 20
206.2303049440467
 30
0.0
 11
50.87907154623866
 21
205.8959495940467
 31
0.0
  0
LINE
  5
8C5F
  8
0
 10
51.88065654623867
 20
205.8959495940467
 30
0.0
 11
52.54788334623868
 21
205.8959495940467
 31
0.0
  0
LINE
  5
8C60
  8
0
 10
52.54788334623868
 20
205.8959495940467
 30
0.0
 11
52.54788334623868
 21
206.2303049440467
 31
0.0
  0
LINE
  5
8C61
  8
0
 10
52.54788334623868
 20
206.2303049440467
 30
0.0
 11
51.88065654623867
 21
206.2303049440467
 31
0.0
  0
LINE
  5
8C62
  8
0
 10
51.88065654623867
 20
206.2303049440467
 30
0.0
 11
51.88065654623867
 21
205.8959495940467
 31
0.0
  0
LINE
  5
8C63
  8
0
 10
42.53436654623866
 20
205.5626895940467
 30
0.0
 11
43.20196384623864
 21
205.5626895940467
 31
0.0
  0
LINE
  5
8C64
  8
0
 10
43.20196384623864
 20
205.5626895940467
 30
0.0
 11
43.20196384623864
 21
205.8966744440467
 31
0.0
  0
LINE
  5
8C65
  8
0
 10
43.20196384623864
 20
205.8966744440467
 30
0.0
 11
42.53436654623866
 21
205.8966744440467
 31
0.0
  0
LINE
  5
8C66
  8
0
 10
42.53436654623866
 20
205.8966744440467
 30
0.0
 11
42.53436654623866
 21
205.5626895940467
 31
0.0
  0
LINE
  5
8C67
  8
0
 10
43.53585654623868
 20
205.5626895940467
 30
0.0
 11
43.86984044623867
 21
205.5626895940467
 31
0.0
  0
LINE
  5
8C68
  8
0
 10
43.86984044623867
 20
205.5626895940467
 30
0.0
 11
43.86984044623867
 21
205.8966744440467
 31
0.0
  0
LINE
  5
8C69
  8
0
 10
43.86984044623867
 20
205.8966744440467
 30
0.0
 11
43.53585654623868
 21
205.8966744440467
 31
0.0
  0
LINE
  5
8C6A
  8
0
 10
43.53585654623868
 20
205.8966744440467
 30
0.0
 11
43.53585654623868
 21
205.5626895940467
 31
0.0
  0
LINE
  5
8C6B
  8
0
 10
44.20351654623866
 20
205.5626895940467
 30
0.0
 11
44.53750139623867
 21
205.5626895940467
 31
0.0
  0
LINE
  5
8C6C
  8
0
 10
44.53750139623867
 20
205.5626895940467
 30
0.0
 11
44.53750139623867
 21
205.8966744440467
 31
0.0
  0
LINE
  5
8C6D
  8
0
 10
44.53750139623867
 20
205.8966744440467
 30
0.0
 11
44.20351654623866
 21
205.8966744440467
 31
0.0
  0
LINE
  5
8C6E
  8
0
 10
44.20351654623866
 20
205.8966744440467
 30
0.0
 11
44.20351654623866
 21
205.5626895940467
 31
0.0
  0
LINE
  5
8C6F
  8
0
 10
45.20510154623867
 20
205.5626895940467
 30
0.0
 11
45.53908639623867
 21
205.5626895940467
 31
0.0
  0
LINE
  5
8C70
  8
0
 10
45.53908639623867
 20
205.5626895940467
 30
0.0
 11
45.53908639623867
 21
205.8966744440467
 31
0.0
  0
LINE
  5
8C71
  8
0
 10
45.53908639623867
 20
205.8966744440467
 30
0.0
 11
45.20510154623867
 21
205.8966744440467
 31
0.0
  0
LINE
  5
8C72
  8
0
 10
45.20510154623867
 20
205.8966744440467
 30
0.0
 11
45.20510154623867
 21
205.5626895940467
 31
0.0
  0
LINE
  5
8C73
  8
0
 10
45.87266654623866
 20
205.5626895940467
 30
0.0
 11
46.87388104623867
 21
205.5626895940467
 31
0.0
  0
LINE
  5
8C74
  8
0
 10
46.87388104623867
 20
205.5626895940467
 30
0.0
 11
46.87388104623867
 21
205.8966744440467
 31
0.0
  0
LINE
  5
8C75
  8
0
 10
46.87388104623867
 20
205.8966744440467
 30
0.0
 11
45.87266654623866
 21
205.8966744440467
 31
0.0
  0
LINE
  5
8C76
  8
0
 10
45.87266654623866
 20
205.8966744440467
 30
0.0
 11
45.87266654623866
 21
205.5626895940467
 31
0.0
  0
LINE
  5
8C77
  8
0
 10
47.20751154623866
 20
205.5626895940467
 30
0.0
 11
47.54149544623868
 21
205.5626895940467
 31
0.0
  0
LINE
  5
8C78
  8
0
 10
47.54149544623868
 20
205.5626895940467
 30
0.0
 11
47.54149544623868
 21
205.8966744440467
 31
0.0
  0
LINE
  5
8C79
  8
0
 10
47.54149544623868
 20
205.8966744440467
 30
0.0
 11
47.20751154623866
 21
205.8966744440467
 31
0.0
  0
LINE
  5
8C7A
  8
0
 10
47.20751154623866
 20
205.8966744440467
 30
0.0
 11
47.20751154623866
 21
205.5626895940467
 31
0.0
  0
LINE
  5
8C7B
  8
0
 10
47.87507654623866
 20
205.5626895940467
 30
0.0
 11
48.87666154623867
 21
205.5626895940467
 31
0.0
  0
LINE
  5
8C7C
  8
0
 10
48.87666154623867
 20
205.5626895940467
 30
0.0
 11
48.87666154623867
 21
205.8966744440467
 31
0.0
  0
LINE
  5
8C7D
  8
0
 10
48.87666154623867
 20
205.8966744440467
 30
0.0
 11
47.87507654623866
 21
205.8966744440467
 31
0.0
  0
LINE
  5
8C7E
  8
0
 10
47.87507654623866
 20
205.8966744440467
 30
0.0
 11
47.87507654623866
 21
205.5626895940467
 31
0.0
  0
LINE
  5
8C7F
  8
0
 10
49.20992154623866
 20
205.5626895940467
 30
0.0
 11
49.54427689623867
 21
205.5626895940467
 31
0.0
  0
LINE
  5
8C80
  8
0
 10
49.54427689623867
 20
205.5626895940467
 30
0.0
 11
49.54427689623867
 21
205.8966744440467
 31
0.0
  0
LINE
  5
8C81
  8
0
 10
49.54427689623867
 20
205.8966744440467
 30
0.0
 11
49.20992154623866
 21
205.8966744440467
 31
0.0
  0
LINE
  5
8C82
  8
0
 10
49.20992154623866
 20
205.8966744440467
 30
0.0
 11
49.20992154623866
 21
205.5626895940467
 31
0.0
  0
LINE
  5
8C83
  8
0
 10
49.87748654623866
 20
205.5626895940467
 30
0.0
 11
50.54508384623867
 21
205.5626895940467
 31
0.0
  0
LINE
  5
8C84
  8
0
 10
50.54508384623867
 20
205.5626895940467
 30
0.0
 11
50.54508384623867
 21
205.8966744440467
 31
0.0
  0
LINE
  5
8C85
  8
0
 10
50.54508384623867
 20
205.8966744440467
 30
0.0
 11
49.87748654623866
 21
205.8966744440467
 31
0.0
  0
LINE
  5
8C86
  8
0
 10
49.87748654623866
 20
205.8966744440467
 30
0.0
 11
49.87748654623866
 21
205.5626895940467
 31
0.0
  0
LINE
  5
8C87
  8
0
 10
51.54673154623865
 20
205.5626895940467
 30
0.0
 11
52.88155754623867
 21
205.5626895940467
 31
0.0
  0
LINE
  5
8C88
  8
0
 10
52.88155754623867
 20
205.5626895940467
 30
0.0
 11
52.88155754623867
 21
205.8966744440467
 31
0.0
  0
LINE
  5
8C89
  8
0
 10
52.88155754623867
 20
205.8966744440467
 30
0.0
 11
51.54673154623865
 21
205.8966744440467
 31
0.0
  0
LINE
  5
8C8A
  8
0
 10
51.54673154623865
 20
205.8966744440467
 30
0.0
 11
51.54673154623865
 21
205.5626895940467
 31
0.0
  0
LINE
  5
8C8B
  8
0
 10
42.53436654623866
 20
205.2287645940467
 30
0.0
 11
42.86872189623867
 21
205.2287645940467
 31
0.0
  0
LINE
  5
8C8C
  8
0
 10
42.86872189623867
 20
205.2287645940467
 30
0.0
 11
42.86872189623867
 21
205.5627484940467
 31
0.0
  0
LINE
  5
8C8D
  8
0
 10
42.86872189623867
 20
205.5627484940467
 30
0.0
 11
42.53436654623866
 21
205.5627484940467
 31
0.0
  0
LINE
  5
8C8E
  8
0
 10
42.53436654623866
 20
205.5627484940467
 30
0.0
 11
42.53436654623866
 21
205.2287645940467
 31
0.0
  0
LINE
  5
8C8F
  8
0
 10
43.20193154623865
 20
205.2287645940467
 30
0.0
 11
43.53628784623865
 21
205.2287645940467
 31
0.0
  0
LINE
  5
8C90
  8
0
 10
43.53628784623865
 20
205.2287645940467
 30
0.0
 11
43.53628784623865
 21
205.5627484940467
 31
0.0
  0
LINE
  5
8C91
  8
0
 10
43.53628784623865
 20
205.5627484940467
 30
0.0
 11
43.20193154623865
 21
205.5627484940467
 31
0.0
  0
LINE
  5
8C92
  8
0
 10
43.20193154623865
 20
205.5627484940467
 30
0.0
 11
43.20193154623865
 21
205.2287645940467
 31
0.0
  0
LINE
  5
8C93
  8
0
 10
43.86949654623868
 20
205.2287645940467
 30
0.0
 11
44.87108154623866
 21
205.2287645940467
 31
0.0
  0
LINE
  5
8C94
  8
0
 10
44.87108154623866
 20
205.2287645940467
 30
0.0
 11
44.87108154623866
 21
205.5627484940467
 31
0.0
  0
LINE
  5
8C95
  8
0
 10
44.87108154623866
 20
205.5627484940467
 30
0.0
 11
43.86949654623868
 21
205.5627484940467
 31
0.0
  0
LINE
  5
8C96
  8
0
 10
43.86949654623868
 20
205.5627484940467
 30
0.0
 11
43.86949654623868
 21
205.2287645940467
 31
0.0
  0
LINE
  5
8C97
  8
0
 10
45.53874154623864
 20
205.2287645940467
 30
0.0
 11
45.87272639623865
 21
205.2287645940467
 31
0.0
  0
LINE
  5
8C98
  8
0
 10
45.87272639623865
 20
205.2287645940467
 30
0.0
 11
45.87272639623865
 21
205.5627484940467
 31
0.0
  0
LINE
  5
8C99
  8
0
 10
45.87272639623865
 20
205.5627484940467
 30
0.0
 11
45.53874154623864
 21
205.5627484940467
 31
0.0
  0
LINE
  5
8C9A
  8
0
 10
45.53874154623864
 20
205.5627484940467
 30
0.0
 11
45.53874154623864
 21
205.2287645940467
 31
0.0
  0
LINE
  5
8C9B
  8
0
 10
46.20592654623866
 20
205.2287645940467
 30
0.0
 11
46.53991044623868
 21
205.2287645940467
 31
0.0
  0
LINE
  5
8C9C
  8
0
 10
46.53991044623868
 20
205.2287645940467
 30
0.0
 11
46.53991044623868
 21
205.5627484940467
 31
0.0
  0
LINE
  5
8C9D
  8
0
 10
46.53991044623868
 20
205.5627484940467
 30
0.0
 11
46.20592654623866
 21
205.5627484940467
 31
0.0
  0
LINE
  5
8C9E
  8
0
 10
46.20592654623866
 20
205.5627484940467
 30
0.0
 11
46.20592654623866
 21
205.2287645940467
 31
0.0
  0
LINE
  5
8C9F
  8
0
 10
47.54153154623867
 20
205.2287645940467
 30
0.0
 11
48.54311654623865
 21
205.2287645940467
 31
0.0
  0
LINE
  5
8CA0
  8
0
 10
48.54311654623865
 20
205.2287645940467
 30
0.0
 11
48.54311654623865
 21
205.5627484940467
 31
0.0
  0
LINE
  5
8CA1
  8
0
 10
48.54311654623865
 20
205.5627484940467
 30
0.0
 11
47.54153154623867
 21
205.5627484940467
 31
0.0
  0
LINE
  5
8CA2
  8
0
 10
47.54153154623867
 20
205.5627484940467
 30
0.0
 11
47.54153154623867
 21
205.2287645940467
 31
0.0
  0
LINE
  5
8CA3
  8
0
 10
49.20992154623866
 20
205.2287645940467
 30
0.0
 11
49.87751979623866
 21
205.2287645940467
 31
0.0
  0
LINE
  5
8CA4
  8
0
 10
49.87751979623866
 20
205.2287645940467
 30
0.0
 11
49.87751979623866
 21
205.5627484940467
 31
0.0
  0
LINE
  5
8CA5
  8
0
 10
49.87751979623866
 20
205.5627484940467
 30
0.0
 11
49.20992154623866
 21
205.5627484940467
 31
0.0
  0
LINE
  5
8CA6
  8
0
 10
49.20992154623866
 20
205.5627484940467
 30
0.0
 11
49.20992154623866
 21
205.2287645940467
 31
0.0
  0
LINE
  5
8CA7
  8
0
 10
50.54590654623865
 20
205.2287645940467
 30
0.0
 11
51.21313334623866
 21
205.2287645940467
 31
0.0
  0
LINE
  5
8CA8
  8
0
 10
51.21313334623866
 20
205.2287645940467
 30
0.0
 11
51.21313334623866
 21
205.5627484940467
 31
0.0
  0
LINE
  5
8CA9
  8
0
 10
51.21313334623866
 20
205.5627484940467
 30
0.0
 11
50.54590654623865
 21
205.5627484940467
 31
0.0
  0
LINE
  5
8CAA
  8
0
 10
50.54590654623865
 20
205.5627484940467
 30
0.0
 11
50.54590654623865
 21
205.2287645940467
 31
0.0
  0
LINE
  5
8CAB
  8
0
 10
51.54673154623865
 20
205.2287645940467
 30
0.0
 11
51.88071544623867
 21
205.2287645940467
 31
0.0
  0
LINE
  5
8CAC
  8
0
 10
51.88071544623867
 20
205.2287645940467
 30
0.0
 11
51.88071544623867
 21
205.5627484940467
 31
0.0
  0
LINE
  5
8CAD
  8
0
 10
51.88071544623867
 20
205.5627484940467
 30
0.0
 11
51.54673154623865
 21
205.5627484940467
 31
0.0
  0
LINE
  5
8CAE
  8
0
 10
51.54673154623865
 20
205.5627484940467
 30
0.0
 11
51.54673154623865
 21
205.2287645940467
 31
0.0
  0
LINE
  5
8CAF
  8
0
 10
52.21391654623866
 20
205.2287645940467
 30
0.0
 11
53.21550154623867
 21
205.2287645940467
 31
0.0
  0
LINE
  5
8CB0
  8
0
 10
53.21550154623867
 20
205.2287645940467
 30
0.0
 11
53.21550154623867
 21
205.5627484940467
 31
0.0
  0
LINE
  5
8CB1
  8
0
 10
53.21550154623867
 20
205.5627484940467
 30
0.0
 11
52.21391654623866
 21
205.5627484940467
 31
0.0
  0
LINE
  5
8CB2
  8
0
 10
52.21391654623866
 20
205.5627484940467
 30
0.0
 11
52.21391654623866
 21
205.2287645940467
 31
0.0
  0
LINE
  5
8CB3
  8
0
 10
42.53436654623866
 20
204.8951245940467
 30
0.0
 11
42.86872189623867
 21
204.8951245940467
 31
0.0
  0
LINE
  5
8CB4
  8
0
 10
42.86872189623867
 20
204.8951245940467
 30
0.0
 11
42.86872189623867
 21
205.2291084940467
 31
0.0
  0
LINE
  5
8CB5
  8
0
 10
42.86872189623867
 20
205.2291084940467
 30
0.0
 11
42.53436654623866
 21
205.2291084940467
 31
0.0
  0
LINE
  5
8CB6
  8
0
 10
42.53436654623866
 20
205.2291084940467
 30
0.0
 11
42.53436654623866
 21
204.8951245940467
 31
0.0
  0
LINE
  5
8CB7
  8
0
 10
43.86949654623868
 20
204.8951245940467
 30
0.0
 11
44.53709384623866
 21
204.8951245940467
 31
0.0
  0
LINE
  5
8CB8
  8
0
 10
44.53709384623866
 20
204.8951245940467
 30
0.0
 11
44.53709384623866
 21
205.2291084940467
 31
0.0
  0
LINE
  5
8CB9
  8
0
 10
44.53709384623866
 20
205.2291084940467
 30
0.0
 11
43.86949654623868
 21
205.2291084940467
 31
0.0
  0
LINE
  5
8CBA
  8
0
 10
43.86949654623868
 20
205.2291084940467
 30
0.0
 11
43.86949654623868
 21
204.8951245940467
 31
0.0
  0
LINE
  5
8CBB
  8
0
 10
44.87108154623866
 20
204.8951245940467
 30
0.0
 11
46.87350104623866
 21
204.8951245940467
 31
0.0
  0
LINE
  5
8CBC
  8
0
 10
46.87350104623866
 20
204.8951245940467
 30
0.0
 11
46.87350104623866
 21
205.2291084940467
 31
0.0
  0
LINE
  5
8CBD
  8
0
 10
46.87350104623866
 20
205.2291084940467
 30
0.0
 11
44.87108154623866
 21
205.2291084940467
 31
0.0
  0
LINE
  5
8CBE
  8
0
 10
44.87108154623866
 20
205.2291084940467
 30
0.0
 11
44.87108154623866
 21
204.8951245940467
 31
0.0
  0
LINE
  5
8CBF
  8
0
 10
48.54273654623867
 20
204.8951245940467
 30
0.0
 11
48.87672139623865
 21
204.8951245940467
 31
0.0
  0
LINE
  5
8CC0
  8
0
 10
48.87672139623865
 20
204.8951245940467
 30
0.0
 11
48.87672139623865
 21
205.2291084940467
 31
0.0
  0
LINE
  5
8CC1
  8
0
 10
48.87672139623865
 20
205.2291084940467
 30
0.0
 11
48.54273654623867
 21
205.2291084940467
 31
0.0
  0
LINE
  5
8CC2
  8
0
 10
48.54273654623867
 20
205.2291084940467
 30
0.0
 11
48.54273654623867
 21
204.8951245940467
 31
0.0
  0
LINE
  5
8CC3
  8
0
 10
49.87748654623866
 20
204.8951245940467
 30
0.0
 11
50.54508384623867
 21
204.8951245940467
 31
0.0
  0
LINE
  5
8CC4
  8
0
 10
50.54508384623867
 20
204.8951245940467
 30
0.0
 11
50.54508384623867
 21
205.2291084940467
 31
0.0
  0
LINE
  5
8CC5
  8
0
 10
50.54508384623867
 20
205.2291084940467
 30
0.0
 11
49.87748654623866
 21
205.2291084940467
 31
0.0
  0
LINE
  5
8CC6
  8
0
 10
49.87748654623866
 20
205.2291084940467
 30
0.0
 11
49.87748654623866
 21
204.8951245940467
 31
0.0
  0
LINE
  5
8CC7
  8
0
 10
50.87907154623866
 20
204.8951245940467
 30
0.0
 11
51.88065654623867
 21
204.8951245940467
 31
0.0
  0
LINE
  5
8CC8
  8
0
 10
51.88065654623867
 20
204.8951245940467
 30
0.0
 11
51.88065654623867
 21
205.2291084940467
 31
0.0
  0
LINE
  5
8CC9
  8
0
 10
51.88065654623867
 20
205.2291084940467
 30
0.0
 11
50.87907154623866
 21
205.2291084940467
 31
0.0
  0
LINE
  5
8CCA
  8
0
 10
50.87907154623866
 20
205.2291084940467
 30
0.0
 11
50.87907154623866
 21
204.8951245940467
 31
0.0
  0
LINE
  5
8CCB
  8
0
 10
52.21391654623866
 20
204.8951245940467
 30
0.0
 11
52.88151384623865
 21
204.8951245940467
 31
0.0
  0
LINE
  5
8CCC
  8
0
 10
52.88151384623865
 20
204.8951245940467
 30
0.0
 11
52.88151384623865
 21
205.2291084940467
 31
0.0
  0
LINE
  5
8CCD
  8
0
 10
52.88151384623865
 20
205.2291084940467
 30
0.0
 11
52.21391654623866
 21
205.2291084940467
 31
0.0
  0
LINE
  5
8CCE
  8
0
 10
52.21391654623866
 20
205.2291084940467
 30
0.0
 11
52.21391654623866
 21
204.8951245940467
 31
0.0
  0
LINE
  5
8CCF
  8
0
 10
53.21550154623867
 20
204.8951245940467
 30
0.0
 11
53.54985784623867
 21
204.8951245940467
 31
0.0
  0
LINE
  5
8CD0
  8
0
 10
53.54985784623867
 20
204.8951245940467
 30
0.0
 11
53.54985784623867
 21
205.2291084940467
 31
0.0
  0
LINE
  5
8CD1
  8
0
 10
53.54985784623867
 20
205.2291084940467
 30
0.0
 11
53.21550154623867
 21
205.2291084940467
 31
0.0
  0
LINE
  5
8CD2
  8
0
 10
53.21550154623867
 20
205.2291084940467
 30
0.0
 11
53.21550154623867
 21
204.8951245940467
 31
0.0
  0
LINE
  5
8CD3
  8
0
 10
42.53436654623866
 20
204.5611045940467
 30
0.0
 11
43.20196384623864
 21
204.5611045940467
 31
0.0
  0
LINE
  5
8CD4
  8
0
 10
43.20196384623864
 20
204.5611045940467
 30
0.0
 11
43.20196384623864
 21
204.8950894440467
 31
0.0
  0
LINE
  5
8CD5
  8
0
 10
43.20196384623864
 20
204.8950894440467
 30
0.0
 11
42.53436654623866
 21
204.8950894440467
 31
0.0
  0
LINE
  5
8CD6
  8
0
 10
42.53436654623866
 20
204.8950894440467
 30
0.0
 11
42.53436654623866
 21
204.5611045940467
 31
0.0
  0
LINE
  5
8CD7
  8
0
 10
43.53585654623868
 20
204.5611045940467
 30
0.0
 11
43.86984044623867
 21
204.5611045940467
 31
0.0
  0
LINE
  5
8CD8
  8
0
 10
43.86984044623867
 20
204.5611045940467
 30
0.0
 11
43.86984044623867
 21
204.8950894440467
 31
0.0
  0
LINE
  5
8CD9
  8
0
 10
43.86984044623867
 20
204.8950894440467
 30
0.0
 11
43.53585654623868
 21
204.8950894440467
 31
0.0
  0
LINE
  5
8CDA
  8
0
 10
43.53585654623868
 20
204.8950894440467
 30
0.0
 11
43.53585654623868
 21
204.5611045940467
 31
0.0
  0
LINE
  5
8CDB
  8
0
 10
44.20351654623866
 20
204.5611045940467
 30
0.0
 11
46.20593604623866
 21
204.5611045940467
 31
0.0
  0
LINE
  5
8CDC
  8
0
 10
46.20593604623866
 20
204.5611045940467
 30
0.0
 11
46.20593604623866
 21
204.8950894440467
 31
0.0
  0
LINE
  5
8CDD
  8
0
 10
46.20593604623866
 20
204.8950894440467
 30
0.0
 11
44.20351654623866
 21
204.8950894440467
 31
0.0
  0
LINE
  5
8CDE
  8
0
 10
44.20351654623866
 20
204.8950894440467
 30
0.0
 11
44.20351654623866
 21
204.5611045940467
 31
0.0
  0
LINE
  5
8CDF
  8
0
 10
47.54153154623867
 20
204.5611045940467
 30
0.0
 11
48.20912979623864
 21
204.5611045940467
 31
0.0
  0
LINE
  5
8CE0
  8
0
 10
48.20912979623864
 20
204.5611045940467
 30
0.0
 11
48.20912979623864
 21
204.8950894440467
 31
0.0
  0
LINE
  5
8CE1
  8
0
 10
48.20912979623864
 20
204.8950894440467
 30
0.0
 11
47.54153154623867
 21
204.8950894440467
 31
0.0
  0
LINE
  5
8CE2
  8
0
 10
47.54153154623867
 20
204.8950894440467
 30
0.0
 11
47.54153154623867
 21
204.5611045940467
 31
0.0
  0
LINE
  5
8CE3
  8
0
 10
48.87666154623867
 20
204.5611045940467
 30
0.0
 11
49.54425884623865
 21
204.5611045940467
 31
0.0
  0
LINE
  5
8CE4
  8
0
 10
49.54425884623865
 20
204.5611045940467
 30
0.0
 11
49.54425884623865
 21
204.8950894440467
 31
0.0
  0
LINE
  5
8CE5
  8
0
 10
49.54425884623865
 20
204.8950894440467
 30
0.0
 11
48.87666154623867
 21
204.8950894440467
 31
0.0
  0
LINE
  5
8CE6
  8
0
 10
48.87666154623867
 20
204.8950894440467
 30
0.0
 11
48.87666154623867
 21
204.5611045940467
 31
0.0
  0
LINE
  5
8CE7
  8
0
 10
50.54590654623865
 20
204.5611045940467
 30
0.0
 11
52.54832604623866
 21
204.5611045940467
 31
0.0
  0
LINE
  5
8CE8
  8
0
 10
52.54832604623866
 20
204.5611045940467
 30
0.0
 11
52.54832604623866
 21
204.8950894440467
 31
0.0
  0
LINE
  5
8CE9
  8
0
 10
52.54832604623866
 20
204.8950894440467
 30
0.0
 11
50.54590654623865
 21
204.8950894440467
 31
0.0
  0
LINE
  5
8CEA
  8
0
 10
50.54590654623865
 20
204.8950894440467
 30
0.0
 11
50.54590654623865
 21
204.5611045940467
 31
0.0
  0
LINE
  5
8CEB
  8
0
 10
45.20510154623867
 20
204.2275595940467
 30
0.0
 11
45.53908639623867
 21
204.2275595940467
 31
0.0
  0
LINE
  5
8CEC
  8
0
 10
45.53908639623867
 20
204.2275595940467
 30
0.0
 11
45.53908639623867
 21
204.5615444440467
 31
0.0
  0
LINE
  5
8CED
  8
0
 10
45.53908639623867
 20
204.5615444440467
 30
0.0
 11
45.20510154623867
 21
204.5615444440467
 31
0.0
  0
LINE
  5
8CEE
  8
0
 10
45.20510154623867
 20
204.5615444440467
 30
0.0
 11
45.20510154623867
 21
204.2275595940467
 31
0.0
  0
LINE
  5
8CEF
  8
0
 10
46.20592654623866
 20
204.2275595940467
 30
0.0
 11
46.53991044623868
 21
204.2275595940467
 31
0.0
  0
LINE
  5
8CF0
  8
0
 10
46.53991044623868
 20
204.2275595940467
 30
0.0
 11
46.53991044623868
 21
204.5615444440467
 31
0.0
  0
LINE
  5
8CF1
  8
0
 10
46.53991044623868
 20
204.5615444440467
 30
0.0
 11
46.20592654623866
 21
204.5615444440467
 31
0.0
  0
LINE
  5
8CF2
  8
0
 10
46.20592654623866
 20
204.5615444440467
 30
0.0
 11
46.20592654623866
 21
204.2275595940467
 31
0.0
  0
LINE
  5
8CF3
  8
0
 10
46.87349154623865
 20
204.2275595940467
 30
0.0
 11
47.20747639623866
 21
204.2275595940467
 31
0.0
  0
LINE
  5
8CF4
  8
0
 10
47.20747639623866
 20
204.2275595940467
 30
0.0
 11
47.20747639623866
 21
204.5615444440467
 31
0.0
  0
LINE
  5
8CF5
  8
0
 10
47.20747639623866
 20
204.5615444440467
 30
0.0
 11
46.87349154623865
 21
204.5615444440467
 31
0.0
  0
LINE
  5
8CF6
  8
0
 10
46.87349154623865
 20
204.5615444440467
 30
0.0
 11
46.87349154623865
 21
204.2275595940467
 31
0.0
  0
LINE
  5
8CF7
  8
0
 10
47.54153154623867
 20
204.2275595940467
 30
0.0
 11
47.87588689623868
 21
204.2275595940467
 31
0.0
  0
LINE
  5
8CF8
  8
0
 10
47.87588689623868
 20
204.2275595940467
 30
0.0
 11
47.87588689623868
 21
204.5615444440467
 31
0.0
  0
LINE
  5
8CF9
  8
0
 10
47.87588689623868
 20
204.5615444440467
 30
0.0
 11
47.54153154623867
 21
204.5615444440467
 31
0.0
  0
LINE
  5
8CFA
  8
0
 10
47.54153154623867
 20
204.5615444440467
 30
0.0
 11
47.54153154623867
 21
204.2275595940467
 31
0.0
  0
LINE
  5
8CFB
  8
0
 10
48.54273654623867
 20
204.2275595940467
 30
0.0
 11
49.54395104623867
 21
204.2275595940467
 31
0.0
  0
LINE
  5
8CFC
  8
0
 10
49.54395104623867
 20
204.2275595940467
 30
0.0
 11
49.54395104623867
 21
204.5615444440467
 31
0.0
  0
LINE
  5
8CFD
  8
0
 10
49.54395104623867
 20
204.5615444440467
 30
0.0
 11
48.54273654623867
 21
204.5615444440467
 31
0.0
  0
LINE
  5
8CFE
  8
0
 10
48.54273654623867
 20
204.5615444440467
 30
0.0
 11
48.54273654623867
 21
204.2275595940467
 31
0.0
  0
LINE
  5
8CFF
  8
0
 10
49.87748654623866
 20
204.2275595940467
 30
0.0
 11
50.87907154623866
 21
204.2275595940467
 31
0.0
  0
LINE
  5
8D00
  8
0
 10
50.87907154623866
 20
204.2275595940467
 30
0.0
 11
50.87907154623866
 21
204.5615444440467
 31
0.0
  0
LINE
  5
8D01
  8
0
 10
50.87907154623866
 20
204.5615444440467
 30
0.0
 11
49.87748654623866
 21
204.5615444440467
 31
0.0
  0
LINE
  5
8D02
  8
0
 10
49.87748654623866
 20
204.5615444440467
 30
0.0
 11
49.87748654623866
 21
204.2275595940467
 31
0.0
  0
LINE
  5
8D03
  8
0
 10
51.88065654623867
 20
204.2275595940467
 30
0.0
 11
52.21464139623865
 21
204.2275595940467
 31
0.0
  0
LINE
  5
8D04
  8
0
 10
52.21464139623865
 20
204.2275595940467
 30
0.0
 11
52.21464139623865
 21
204.5615444440467
 31
0.0
  0
LINE
  5
8D05
  8
0
 10
52.21464139623865
 20
204.5615444440467
 30
0.0
 11
51.88065654623867
 21
204.5615444440467
 31
0.0
  0
LINE
  5
8D06
  8
0
 10
51.88065654623867
 20
204.5615444440467
 30
0.0
 11
51.88065654623867
 21
204.2275595940467
 31
0.0
  0
LINE
  5
8D07
  8
0
 10
52.54831654623865
 20
204.2275595940467
 30
0.0
 11
53.54990154623866
 21
204.2275595940467
 31
0.0
  0
LINE
  5
8D08
  8
0
 10
53.54990154623866
 20
204.2275595940467
 30
0.0
 11
53.54990154623866
 21
204.5615444440467
 31
0.0
  0
LINE
  5
8D09
  8
0
 10
53.54990154623866
 20
204.5615444440467
 30
0.0
 11
52.54831654623865
 21
204.5615444440467
 31
0.0
  0
LINE
  5
8D0A
  8
0
 10
52.54831654623865
 20
204.5615444440467
 30
0.0
 11
52.54831654623865
 21
204.2275595940467
 31
0.0
  0
LINE
  5
8D0B
  8
0
 10
42.53436654623866
 20
203.8935395940467
 30
0.0
 11
44.87114804623869
 21
203.8935395940467
 31
0.0
  0
LINE
  5
8D0C
  8
0
 10
44.87114804623869
 20
203.8935395940467
 30
0.0
 11
44.87114804623869
 21
204.2275234940467
 31
0.0
  0
LINE
  5
8D0D
  8
0
 10
44.87114804623869
 20
204.2275234940467
 30
0.0
 11
42.53436654623866
 21
204.2275234940467
 31
0.0
  0
LINE
  5
8D0E
  8
0
 10
42.53436654623866
 20
204.2275234940467
 30
0.0
 11
42.53436654623866
 21
203.8935395940467
 31
0.0
  0
LINE
  5
8D0F
  8
0
 10
46.20592654623866
 20
203.8935395940467
 30
0.0
 11
47.20751154623866
 21
203.8935395940467
 31
0.0
  0
LINE
  5
8D10
  8
0
 10
47.20751154623866
 20
203.8935395940467
 30
0.0
 11
47.20751154623866
 21
204.2275234940467
 31
0.0
  0
LINE
  5
8D11
  8
0
 10
47.20751154623866
 20
204.2275234940467
 30
0.0
 11
46.20592654623866
 21
204.2275234940467
 31
0.0
  0
LINE
  5
8D12
  8
0
 10
46.20592654623866
 20
204.2275234940467
 30
0.0
 11
46.20592654623866
 21
203.8935395940467
 31
0.0
  0
LINE
  5
8D13
  8
0
 10
47.54153154623867
 20
203.8935395940467
 30
0.0
 11
48.20912979623864
 21
203.8935395940467
 31
0.0
  0
LINE
  5
8D14
  8
0
 10
48.20912979623864
 20
203.8935395940467
 30
0.0
 11
48.20912979623864
 21
204.2275234940467
 31
0.0
  0
LINE
  5
8D15
  8
0
 10
48.20912979623864
 20
204.2275234940467
 30
0.0
 11
47.54153154623867
 21
204.2275234940467
 31
0.0
  0
LINE
  5
8D16
  8
0
 10
47.54153154623867
 20
204.2275234940467
 30
0.0
 11
47.54153154623867
 21
203.8935395940467
 31
0.0
  0
LINE
  5
8D17
  8
0
 10
48.54273654623867
 20
203.8935395940467
 30
0.0
 11
48.87672139623865
 21
203.8935395940467
 31
0.0
  0
LINE
  5
8D18
  8
0
 10
48.87672139623865
 20
203.8935395940467
 30
0.0
 11
48.87672139623865
 21
204.2275234940467
 31
0.0
  0
LINE
  5
8D19
  8
0
 10
48.87672139623865
 20
204.2275234940467
 30
0.0
 11
48.54273654623867
 21
204.2275234940467
 31
0.0
  0
LINE
  5
8D1A
  8
0
 10
48.54273654623867
 20
204.2275234940467
 30
0.0
 11
48.54273654623867
 21
203.8935395940467
 31
0.0
  0
LINE
  5
8D1B
  8
0
 10
49.20992154623866
 20
203.8935395940467
 30
0.0
 11
49.87751979623866
 21
203.8935395940467
 31
0.0
  0
LINE
  5
8D1C
  8
0
 10
49.87751979623866
 20
203.8935395940467
 30
0.0
 11
49.87751979623866
 21
204.2275234940467
 31
0.0
  0
LINE
  5
8D1D
  8
0
 10
49.87751979623866
 20
204.2275234940467
 30
0.0
 11
49.20992154623866
 21
204.2275234940467
 31
0.0
  0
LINE
  5
8D1E
  8
0
 10
49.20992154623866
 20
204.2275234940467
 30
0.0
 11
49.20992154623866
 21
203.8935395940467
 31
0.0
  0
LINE
  5
8D1F
  8
0
 10
50.21150654623867
 20
203.8935395940467
 30
0.0
 11
50.87910384623865
 21
203.8935395940467
 31
0.0
  0
LINE
  5
8D20
  8
0
 10
50.87910384623865
 20
203.8935395940467
 30
0.0
 11
50.87910384623865
 21
204.2275234940467
 31
0.0
  0
LINE
  5
8D21
  8
0
 10
50.87910384623865
 20
204.2275234940467
 30
0.0
 11
50.21150654623867
 21
204.2275234940467
 31
0.0
  0
LINE
  5
8D22
  8
0
 10
50.21150654623867
 20
204.2275234940467
 30
0.0
 11
50.21150654623867
 21
203.8935395940467
 31
0.0
  0
LINE
  5
8D23
  8
0
 10
51.21309154623867
 20
203.8935395940467
 30
0.0
 11
51.54707544623867
 21
203.8935395940467
 31
0.0
  0
LINE
  5
8D24
  8
0
 10
51.54707544623867
 20
203.8935395940467
 30
0.0
 11
51.54707544623867
 21
204.2275234940467
 31
0.0
  0
LINE
  5
8D25
  8
0
 10
51.54707544623867
 20
204.2275234940467
 30
0.0
 11
51.21309154623867
 21
204.2275234940467
 31
0.0
  0
LINE
  5
8D26
  8
0
 10
51.21309154623867
 20
204.2275234940467
 30
0.0
 11
51.21309154623867
 21
203.8935395940467
 31
0.0
  0
LINE
  5
8D27
  8
0
 10
51.88065654623867
 20
203.8935395940467
 30
0.0
 11
52.21464139623865
 21
203.8935395940467
 31
0.0
  0
LINE
  5
8D28
  8
0
 10
52.21464139623865
 20
203.8935395940467
 30
0.0
 11
52.21464139623865
 21
204.2275234940467
 31
0.0
  0
LINE
  5
8D29
  8
0
 10
52.21464139623865
 20
204.2275234940467
 30
0.0
 11
51.88065654623867
 21
204.2275234940467
 31
0.0
  0
LINE
  5
8D2A
  8
0
 10
51.88065654623867
 20
204.2275234940467
 30
0.0
 11
51.88065654623867
 21
203.8935395940467
 31
0.0
  0
LINE
  5
8D2B
  8
0
 10
52.54831654623865
 20
203.8935395940467
 30
0.0
 11
53.21554239623867
 21
203.8935395940467
 31
0.0
  0
LINE
  5
8D2C
  8
0
 10
53.21554239623867
 20
203.8935395940467
 30
0.0
 11
53.21554239623867
 21
204.2275234940467
 31
0.0
  0
LINE
  5
8D2D
  8
0
 10
53.21554239623867
 20
204.2275234940467
 30
0.0
 11
52.54831654623865
 21
204.2275234940467
 31
0.0
  0
LINE
  5
8D2E
  8
0
 10
52.54831654623865
 20
204.2275234940467
 30
0.0
 11
52.54831654623865
 21
203.8935395940467
 31
0.0
  0
LINE
  5
8D2F
  8
0
 10
42.53436654623866
 20
203.5602795940467
 30
0.0
 11
42.86872189623867
 21
203.5602795940467
 31
0.0
  0
LINE
  5
8D30
  8
0
 10
42.86872189623867
 20
203.5602795940467
 30
0.0
 11
42.86872189623867
 21
203.8942634940467
 31
0.0
  0
LINE
  5
8D31
  8
0
 10
42.86872189623867
 20
203.8942634940467
 30
0.0
 11
42.53436654623866
 21
203.8942634940467
 31
0.0
  0
LINE
  5
8D32
  8
0
 10
42.53436654623866
 20
203.8942634940467
 30
0.0
 11
42.53436654623866
 21
203.5602795940467
 31
0.0
  0
LINE
  5
8D33
  8
0
 10
44.53744154623865
 20
203.5602795940467
 30
0.0
 11
44.87142544623865
 21
203.5602795940467
 31
0.0
  0
LINE
  5
8D34
  8
0
 10
44.87142544623865
 20
203.5602795940467
 30
0.0
 11
44.87142544623865
 21
203.8942634940467
 31
0.0
  0
LINE
  5
8D35
  8
0
 10
44.87142544623865
 20
203.8942634940467
 30
0.0
 11
44.53744154623865
 21
203.8942634940467
 31
0.0
  0
LINE
  5
8D36
  8
0
 10
44.53744154623865
 20
203.8942634940467
 30
0.0
 11
44.53744154623865
 21
203.5602795940467
 31
0.0
  0
LINE
  5
8D37
  8
0
 10
45.53874154623864
 20
203.5602795940467
 30
0.0
 11
46.53995604623864
 21
203.5602795940467
 31
0.0
  0
LINE
  5
8D38
  8
0
 10
46.53995604623864
 20
203.5602795940467
 30
0.0
 11
46.53995604623864
 21
203.8942634940467
 31
0.0
  0
LINE
  5
8D39
  8
0
 10
46.53995604623864
 20
203.8942634940467
 30
0.0
 11
45.53874154623864
 21
203.8942634940467
 31
0.0
  0
LINE
  5
8D3A
  8
0
 10
45.53874154623864
 20
203.8942634940467
 30
0.0
 11
45.53874154623864
 21
203.5602795940467
 31
0.0
  0
LINE
  5
8D3B
  8
0
 10
47.54153154623867
 20
203.5602795940467
 30
0.0
 11
47.87588689623868
 21
203.5602795940467
 31
0.0
  0
LINE
  5
8D3C
  8
0
 10
47.87588689623868
 20
203.5602795940467
 30
0.0
 11
47.87588689623868
 21
203.8942634940467
 31
0.0
  0
LINE
  5
8D3D
  8
0
 10
47.87588689623868
 20
203.8942634940467
 30
0.0
 11
47.54153154623867
 21
203.8942634940467
 31
0.0
  0
LINE
  5
8D3E
  8
0
 10
47.54153154623867
 20
203.8942634940467
 30
0.0
 11
47.54153154623867
 21
203.5602795940467
 31
0.0
  0
LINE
  5
8D3F
  8
0
 10
49.20992154623866
 20
203.5602795940467
 30
0.0
 11
49.54427689623867
 21
203.5602795940467
 31
0.0
  0
LINE
  5
8D40
  8
0
 10
49.54427689623867
 20
203.5602795940467
 30
0.0
 11
49.54427689623867
 21
203.8942634940467
 31
0.0
  0
LINE
  5
8D41
  8
0
 10
49.54427689623867
 20
203.8942634940467
 30
0.0
 11
49.20992154623866
 21
203.8942634940467
 31
0.0
  0
LINE
  5
8D42
  8
0
 10
49.20992154623866
 20
203.8942634940467
 30
0.0
 11
49.20992154623866
 21
203.5602795940467
 31
0.0
  0
LINE
  5
8D43
  8
0
 10
50.21150654623867
 20
203.5602795940467
 30
0.0
 11
50.87910384623865
 21
203.5602795940467
 31
0.0
  0
LINE
  5
8D44
  8
0
 10
50.87910384623865
 20
203.5602795940467
 30
0.0
 11
50.87910384623865
 21
203.8942634940467
 31
0.0
  0
LINE
  5
8D45
  8
0
 10
50.87910384623865
 20
203.8942634940467
 30
0.0
 11
50.21150654623867
 21
203.8942634940467
 31
0.0
  0
LINE
  5
8D46
  8
0
 10
50.21150654623867
 20
203.8942634940467
 30
0.0
 11
50.21150654623867
 21
203.5602795940467
 31
0.0
  0
LINE
  5
8D47
  8
0
 10
51.88065654623867
 20
203.5602795940467
 30
0.0
 11
52.88224154623865
 21
203.5602795940467
 31
0.0
  0
LINE
  5
8D48
  8
0
 10
52.88224154623865
 20
203.5602795940467
 30
0.0
 11
52.88224154623865
 21
203.8942634940467
 31
0.0
  0
LINE
  5
8D49
  8
0
 10
52.88224154623865
 20
203.8942634940467
 30
0.0
 11
51.88065654623867
 21
203.8942634940467
 31
0.0
  0
LINE
  5
8D4A
  8
0
 10
51.88065654623867
 20
203.8942634940467
 30
0.0
 11
51.88065654623867
 21
203.5602795940467
 31
0.0
  0
LINE
  5
8D4B
  8
0
 10
53.21550154623867
 20
203.5602795940467
 30
0.0
 11
53.54985784623867
 21
203.5602795940467
 31
0.0
  0
LINE
  5
8D4C
  8
0
 10
53.54985784623867
 20
203.5602795940467
 30
0.0
 11
53.54985784623867
 21
203.8942634940467
 31
0.0
  0
LINE
  5
8D4D
  8
0
 10
53.54985784623867
 20
203.8942634940467
 30
0.0
 11
53.21550154623867
 21
203.8942634940467
 31
0.0
  0
LINE
  5
8D4E
  8
0
 10
53.21550154623867
 20
203.8942634940467
 30
0.0
 11
53.21550154623867
 21
203.5602795940467
 31
0.0
  0
LINE
  5
8D4F
  8
0
 10
42.53436654623866
 20
203.2262595940467
 30
0.0
 11
42.86872189623867
 21
203.2262595940467
 31
0.0
  0
LINE
  5
8D50
  8
0
 10
42.86872189623867
 20
203.2262595940467
 30
0.0
 11
42.86872189623867
 21
203.5602444440467
 31
0.0
  0
LINE
  5
8D51
  8
0
 10
42.86872189623867
 20
203.5602444440467
 30
0.0
 11
42.53436654623866
 21
203.5602444440467
 31
0.0
  0
LINE
  5
8D52
  8
0
 10
42.53436654623866
 20
203.5602444440467
 30
0.0
 11
42.53436654623866
 21
203.2262595940467
 31
0.0
  0
LINE
  5
8D53
  8
0
 10
43.20193154623865
 20
203.2262595940467
 30
0.0
 11
44.20351654623866
 21
203.2262595940467
 31
0.0
  0
LINE
  5
8D54
  8
0
 10
44.20351654623866
 20
203.2262595940467
 30
0.0
 11
44.20351654623866
 21
203.5602444440467
 31
0.0
  0
LINE
  5
8D55
  8
0
 10
44.20351654623866
 20
203.5602444440467
 30
0.0
 11
43.20193154623865
 21
203.5602444440467
 31
0.0
  0
LINE
  5
8D56
  8
0
 10
43.20193154623865
 20
203.5602444440467
 30
0.0
 11
43.20193154623865
 21
203.2262595940467
 31
0.0
  0
LINE
  5
8D57
  8
0
 10
44.53744154623865
 20
203.2262595940467
 30
0.0
 11
44.87142544623865
 21
203.2262595940467
 31
0.0
  0
LINE
  5
8D58
  8
0
 10
44.87142544623865
 20
203.2262595940467
 30
0.0
 11
44.87142544623865
 21
203.5602444440467
 31
0.0
  0
LINE
  5
8D59
  8
0
 10
44.87142544623865
 20
203.5602444440467
 30
0.0
 11
44.53744154623865
 21
203.5602444440467
 31
0.0
  0
LINE
  5
8D5A
  8
0
 10
44.53744154623865
 20
203.5602444440467
 30
0.0
 11
44.53744154623865
 21
203.2262595940467
 31
0.0
  0
LINE
  5
8D5B
  8
0
 10
45.87266654623866
 20
203.2262595940467
 30
0.0
 11
46.53989239623866
 21
203.2262595940467
 31
0.0
  0
LINE
  5
8D5C
  8
0
 10
46.53989239623866
 20
203.2262595940467
 30
0.0
 11
46.53989239623866
 21
203.5602444440467
 31
0.0
  0
LINE
  5
8D5D
  8
0
 10
46.53989239623866
 20
203.5602444440467
 30
0.0
 11
45.87266654623866
 21
203.5602444440467
 31
0.0
  0
LINE
  5
8D5E
  8
0
 10
45.87266654623866
 20
203.5602444440467
 30
0.0
 11
45.87266654623866
 21
203.2262595940467
 31
0.0
  0
LINE
  5
8D5F
  8
0
 10
46.87349154623865
 20
203.2262595940467
 30
0.0
 11
47.54108979623868
 21
203.2262595940467
 31
0.0
  0
LINE
  5
8D60
  8
0
 10
47.54108979623868
 20
203.2262595940467
 30
0.0
 11
47.54108979623868
 21
203.5602444440467
 31
0.0
  0
LINE
  5
8D61
  8
0
 10
47.54108979623868
 20
203.5602444440467
 30
0.0
 11
46.87349154623865
 21
203.5602444440467
 31
0.0
  0
LINE
  5
8D62
  8
0
 10
46.87349154623865
 20
203.5602444440467
 30
0.0
 11
46.87349154623865
 21
203.2262595940467
 31
0.0
  0
LINE
  5
8D63
  8
0
 10
48.54273654623867
 20
203.2262595940467
 30
0.0
 11
49.20996334623868
 21
203.2262595940467
 31
0.0
  0
LINE
  5
8D64
  8
0
 10
49.20996334623868
 20
203.2262595940467
 30
0.0
 11
49.20996334623868
 21
203.5602444440467
 31
0.0
  0
LINE
  5
8D65
  8
0
 10
49.20996334623868
 20
203.5602444440467
 30
0.0
 11
48.54273654623867
 21
203.5602444440467
 31
0.0
  0
LINE
  5
8D66
  8
0
 10
48.54273654623867
 20
203.5602444440467
 30
0.0
 11
48.54273654623867
 21
203.2262595940467
 31
0.0
  0
LINE
  5
8D67
  8
0
 10
49.54432154623865
 20
203.2262595940467
 30
0.0
 11
49.87830639623866
 21
203.2262595940467
 31
0.0
  0
LINE
  5
8D68
  8
0
 10
49.87830639623866
 20
203.2262595940467
 30
0.0
 11
49.87830639623866
 21
203.5602444440467
 31
0.0
  0
LINE
  5
8D69
  8
0
 10
49.87830639623866
 20
203.5602444440467
 30
0.0
 11
49.54432154623865
 21
203.5602444440467
 31
0.0
  0
LINE
  5
8D6A
  8
0
 10
49.54432154623865
 20
203.5602444440467
 30
0.0
 11
49.54432154623865
 21
203.2262595940467
 31
0.0
  0
LINE
  5
8D6B
  8
0
 10
50.54590654623865
 20
203.2262595940467
 30
0.0
 11
52.54832604623866
 21
203.2262595940467
 31
0.0
  0
LINE
  5
8D6C
  8
0
 10
52.54832604623866
 20
203.2262595940467
 30
0.0
 11
52.54832604623866
 21
203.5602444440467
 31
0.0
  0
LINE
  5
8D6D
  8
0
 10
52.54832604623866
 20
203.5602444440467
 30
0.0
 11
50.54590654623865
 21
203.5602444440467
 31
0.0
  0
LINE
  5
8D6E
  8
0
 10
50.54590654623865
 20
203.5602444440467
 30
0.0
 11
50.54590654623865
 21
203.2262595940467
 31
0.0
  0
LINE
  5
8D6F
  8
0
 10
42.53436654623866
 20
202.8919545940467
 30
0.0
 11
42.86872189623867
 21
202.8919545940467
 31
0.0
  0
LINE
  5
8D70
  8
0
 10
42.86872189623867
 20
202.8919545940467
 30
0.0
 11
42.86872189623867
 21
203.2263099440467
 31
0.0
  0
LINE
  5
8D71
  8
0
 10
42.86872189623867
 20
203.2263099440467
 30
0.0
 11
42.53436654623866
 21
203.2263099440467
 31
0.0
  0
LINE
  5
8D72
  8
0
 10
42.53436654623866
 20
203.2263099440467
 30
0.0
 11
42.53436654623866
 21
202.8919545940467
 31
0.0
  0
LINE
  5
8D73
  8
0
 10
43.20193154623865
 20
202.8919545940467
 30
0.0
 11
44.20351654623866
 21
202.8919545940467
 31
0.0
  0
LINE
  5
8D74
  8
0
 10
44.20351654623866
 20
202.8919545940467
 30
0.0
 11
44.20351654623866
 21
203.2263099440467
 31
0.0
  0
LINE
  5
8D75
  8
0
 10
44.20351654623866
 20
203.2263099440467
 30
0.0
 11
43.20193154623865
 21
203.2263099440467
 31
0.0
  0
LINE
  5
8D76
  8
0
 10
43.20193154623865
 20
203.2263099440467
 30
0.0
 11
43.20193154623865
 21
202.8919545940467
 31
0.0
  0
LINE
  5
8D77
  8
0
 10
44.53744154623865
 20
202.8919545940467
 30
0.0
 11
44.87142544623865
 21
202.8919545940467
 31
0.0
  0
LINE
  5
8D78
  8
0
 10
44.87142544623865
 20
202.8919545940467
 30
0.0
 11
44.87142544623865
 21
203.2263099440467
 31
0.0
  0
LINE
  5
8D79
  8
0
 10
44.87142544623865
 20
203.2263099440467
 30
0.0
 11
44.53744154623865
 21
203.2263099440467
 31
0.0
  0
LINE
  5
8D7A
  8
0
 10
44.53744154623865
 20
203.2263099440467
 30
0.0
 11
44.53744154623865
 21
202.8919545940467
 31
0.0
  0
LINE
  5
8D7B
  8
0
 10
45.53874154623864
 20
202.8919545940467
 30
0.0
 11
46.87356754623866
 21
202.8919545940467
 31
0.0
  0
LINE
  5
8D7C
  8
0
 10
46.87356754623866
 20
202.8919545940467
 30
0.0
 11
46.87356754623866
 21
203.2263099440467
 31
0.0
  0
LINE
  5
8D7D
  8
0
 10
46.87356754623866
 20
203.2263099440467
 30
0.0
 11
45.53874154623864
 21
203.2263099440467
 31
0.0
  0
LINE
  5
8D7E
  8
0
 10
45.53874154623864
 20
203.2263099440467
 30
0.0
 11
45.53874154623864
 21
202.8919545940467
 31
0.0
  0
LINE
  5
8D7F
  8
0
 10
47.20751154623866
 20
202.8919545940467
 30
0.0
 11
47.54149544623868
 21
202.8919545940467
 31
0.0
  0
LINE
  5
8D80
  8
0
 10
47.54149544623868
 20
202.8919545940467
 30
0.0
 11
47.54149544623868
 21
203.2263099440467
 31
0.0
  0
LINE
  5
8D81
  8
0
 10
47.54149544623868
 20
203.2263099440467
 30
0.0
 11
47.20751154623866
 21
203.2263099440467
 31
0.0
  0
LINE
  5
8D82
  8
0
 10
47.20751154623866
 20
203.2263099440467
 30
0.0
 11
47.20751154623866
 21
202.8919545940467
 31
0.0
  0
LINE
  5
8D83
  8
0
 10
47.87507654623866
 20
202.8919545940467
 30
0.0
 11
48.20906139623867
 21
202.8919545940467
 31
0.0
  0
LINE
  5
8D84
  8
0
 10
48.20906139623867
 20
202.8919545940467
 30
0.0
 11
48.20906139623867
 21
203.2263099440467
 31
0.0
  0
LINE
  5
8D85
  8
0
 10
48.20906139623867
 20
203.2263099440467
 30
0.0
 11
47.87507654623866
 21
203.2263099440467
 31
0.0
  0
LINE
  5
8D86
  8
0
 10
47.87507654623866
 20
203.2263099440467
 30
0.0
 11
47.87507654623866
 21
202.8919545940467
 31
0.0
  0
LINE
  5
8D87
  8
0
 10
49.20992154623866
 20
202.8919545940467
 30
0.0
 11
49.54427689623867
 21
202.8919545940467
 31
0.0
  0
LINE
  5
8D88
  8
0
 10
49.54427689623867
 20
202.8919545940467
 30
0.0
 11
49.54427689623867
 21
203.2263099440467
 31
0.0
  0
LINE
  5
8D89
  8
0
 10
49.54427689623867
 20
203.2263099440467
 30
0.0
 11
49.20992154623866
 21
203.2263099440467
 31
0.0
  0
LINE
  5
8D8A
  8
0
 10
49.20992154623866
 20
203.2263099440467
 30
0.0
 11
49.20992154623866
 21
202.8919545940467
 31
0.0
  0
LINE
  5
8D8B
  8
0
 10
49.87748654623866
 20
202.8919545940467
 30
0.0
 11
50.54508384623867
 21
202.8919545940467
 31
0.0
  0
LINE
  5
8D8C
  8
0
 10
50.54508384623867
 20
202.8919545940467
 30
0.0
 11
50.54508384623867
 21
203.2263099440467
 31
0.0
  0
LINE
  5
8D8D
  8
0
 10
50.54508384623867
 20
203.2263099440467
 30
0.0
 11
49.87748654623866
 21
203.2263099440467
 31
0.0
  0
LINE
  5
8D8E
  8
0
 10
49.87748654623866
 20
203.2263099440467
 30
0.0
 11
49.87748654623866
 21
202.8919545940467
 31
0.0
  0
LINE
  5
8D8F
  8
0
 10
50.87907154623866
 20
202.8919545940467
 30
0.0
 11
51.21305639623867
 21
202.8919545940467
 31
0.0
  0
LINE
  5
8D90
  8
0
 10
51.21305639623867
 20
202.8919545940467
 30
0.0
 11
51.21305639623867
 21
203.2263099440467
 31
0.0
  0
LINE
  5
8D91
  8
0
 10
51.21305639623867
 20
203.2263099440467
 30
0.0
 11
50.87907154623866
 21
203.2263099440467
 31
0.0
  0
LINE
  5
8D92
  8
0
 10
50.87907154623866
 20
203.2263099440467
 30
0.0
 11
50.87907154623866
 21
202.8919545940467
 31
0.0
  0
LINE
  5
8D93
  8
0
 10
51.54673154623865
 20
202.8919545940467
 30
0.0
 11
52.21395834623868
 21
202.8919545940467
 31
0.0
  0
LINE
  5
8D94
  8
0
 10
52.21395834623868
 20
202.8919545940467
 30
0.0
 11
52.21395834623868
 21
203.2263099440467
 31
0.0
  0
LINE
  5
8D95
  8
0
 10
52.21395834623868
 20
203.2263099440467
 30
0.0
 11
51.54673154623865
 21
203.2263099440467
 31
0.0
  0
LINE
  5
8D96
  8
0
 10
51.54673154623865
 20
203.2263099440467
 30
0.0
 11
51.54673154623865
 21
202.8919545940467
 31
0.0
  0
LINE
  5
8D97
  8
0
 10
52.54831654623865
 20
202.8919545940467
 30
0.0
 11
52.88230044623865
 21
202.8919545940467
 31
0.0
  0
LINE
  5
8D98
  8
0
 10
52.88230044623865
 20
202.8919545940467
 30
0.0
 11
52.88230044623865
 21
203.2263099440467
 31
0.0
  0
LINE
  5
8D99
  8
0
 10
52.88230044623865
 20
203.2263099440467
 30
0.0
 11
52.54831654623865
 21
203.2263099440467
 31
0.0
  0
LINE
  5
8D9A
  8
0
 10
52.54831654623865
 20
203.2263099440467
 30
0.0
 11
52.54831654623865
 21
202.8919545940467
 31
0.0
  0
LINE
  5
8D9B
  8
0
 10
53.21550154623867
 20
202.8919545940467
 30
0.0
 11
53.54985784623867
 21
202.8919545940467
 31
0.0
  0
LINE
  5
8D9C
  8
0
 10
53.54985784623867
 20
202.8919545940467
 30
0.0
 11
53.54985784623867
 21
203.2263099440467
 31
0.0
  0
LINE
  5
8D9D
  8
0
 10
53.54985784623867
 20
203.2263099440467
 30
0.0
 11
53.21550154623867
 21
203.2263099440467
 31
0.0
  0
LINE
  5
8D9E
  8
0
 10
53.21550154623867
 20
203.2263099440467
 30
0.0
 11
53.21550154623867
 21
202.8919545940467
 31
0.0
  0
LINE
  5
8D9F
  8
0
 10
42.53436654623866
 20
202.5586945940467
 30
0.0
 11
42.86872189623867
 21
202.5586945940467
 31
0.0
  0
LINE
  5
8DA0
  8
0
 10
42.86872189623867
 20
202.5586945940467
 30
0.0
 11
42.86872189623867
 21
202.8926784940467
 31
0.0
  0
LINE
  5
8DA1
  8
0
 10
42.86872189623867
 20
202.8926784940467
 30
0.0
 11
42.53436654623866
 21
202.8926784940467
 31
0.0
  0
LINE
  5
8DA2
  8
0
 10
42.53436654623866
 20
202.8926784940467
 30
0.0
 11
42.53436654623866
 21
202.5586945940467
 31
0.0
  0
LINE
  5
8DA3
  8
0
 10
43.20193154623865
 20
202.5586945940467
 30
0.0
 11
44.20351654623866
 21
202.5586945940467
 31
0.0
  0
LINE
  5
8DA4
  8
0
 10
44.20351654623866
 20
202.5586945940467
 30
0.0
 11
44.20351654623866
 21
202.8926784940467
 31
0.0
  0
LINE
  5
8DA5
  8
0
 10
44.20351654623866
 20
202.8926784940467
 30
0.0
 11
43.20193154623865
 21
202.8926784940467
 31
0.0
  0
LINE
  5
8DA6
  8
0
 10
43.20193154623865
 20
202.8926784940467
 30
0.0
 11
43.20193154623865
 21
202.5586945940467
 31
0.0
  0
LINE
  5
8DA7
  8
0
 10
44.53744154623865
 20
202.5586945940467
 30
0.0
 11
44.87142544623865
 21
202.5586945940467
 31
0.0
  0
LINE
  5
8DA8
  8
0
 10
44.87142544623865
 20
202.5586945940467
 30
0.0
 11
44.87142544623865
 21
202.8926784940467
 31
0.0
  0
LINE
  5
8DA9
  8
0
 10
44.87142544623865
 20
202.8926784940467
 30
0.0
 11
44.53744154623865
 21
202.8926784940467
 31
0.0
  0
LINE
  5
8DAA
  8
0
 10
44.53744154623865
 20
202.8926784940467
 30
0.0
 11
44.53744154623865
 21
202.5586945940467
 31
0.0
  0
LINE
  5
8DAB
  8
0
 10
45.87266654623866
 20
202.5586945940467
 30
0.0
 11
47.20749254623865
 21
202.5586945940467
 31
0.0
  0
LINE
  5
8DAC
  8
0
 10
47.20749254623865
 20
202.5586945940467
 30
0.0
 11
47.20749254623865
 21
202.8926784940467
 31
0.0
  0
LINE
  5
8DAD
  8
0
 10
47.20749254623865
 20
202.8926784940467
 30
0.0
 11
45.87266654623866
 21
202.8926784940467
 31
0.0
  0
LINE
  5
8DAE
  8
0
 10
45.87266654623866
 20
202.8926784940467
 30
0.0
 11
45.87266654623866
 21
202.5586945940467
 31
0.0
  0
LINE
  5
8DAF
  8
0
 10
47.87507654623866
 20
202.5586945940467
 30
0.0
 11
48.20906139623867
 21
202.5586945940467
 31
0.0
  0
LINE
  5
8DB0
  8
0
 10
48.20906139623867
 20
202.5586945940467
 30
0.0
 11
48.20906139623867
 21
202.8926784940467
 31
0.0
  0
LINE
  5
8DB1
  8
0
 10
48.20906139623867
 20
202.8926784940467
 30
0.0
 11
47.87507654623866
 21
202.8926784940467
 31
0.0
  0
LINE
  5
8DB2
  8
0
 10
47.87507654623866
 20
202.8926784940467
 30
0.0
 11
47.87507654623866
 21
202.5586945940467
 31
0.0
  0
LINE
  5
8DB3
  8
0
 10
48.54273654623867
 20
202.5586945940467
 30
0.0
 11
48.87672139623865
 21
202.5586945940467
 31
0.0
  0
LINE
  5
8DB4
  8
0
 10
48.87672139623865
 20
202.5586945940467
 30
0.0
 11
48.87672139623865
 21
202.8926784940467
 31
0.0
  0
LINE
  5
8DB5
  8
0
 10
48.87672139623865
 20
202.8926784940467
 30
0.0
 11
48.54273654623867
 21
202.8926784940467
 31
0.0
  0
LINE
  5
8DB6
  8
0
 10
48.54273654623867
 20
202.8926784940467
 30
0.0
 11
48.54273654623867
 21
202.5586945940467
 31
0.0
  0
LINE
  5
8DB7
  8
0
 10
49.20992154623866
 20
202.5586945940467
 30
0.0
 11
49.54427689623867
 21
202.5586945940467
 31
0.0
  0
LINE
  5
8DB8
  8
0
 10
49.54427689623867
 20
202.5586945940467
 30
0.0
 11
49.54427689623867
 21
202.8926784940467
 31
0.0
  0
LINE
  5
8DB9
  8
0
 10
49.54427689623867
 20
202.8926784940467
 30
0.0
 11
49.20992154623866
 21
202.8926784940467
 31
0.0
  0
LINE
  5
8DBA
  8
0
 10
49.20992154623866
 20
202.8926784940467
 30
0.0
 11
49.20992154623866
 21
202.5586945940467
 31
0.0
  0
LINE
  5
8DBB
  8
0
 10
49.87748654623866
 20
202.5586945940467
 30
0.0
 11
50.21147044623868
 21
202.5586945940467
 31
0.0
  0
LINE
  5
8DBC
  8
0
 10
50.21147044623868
 20
202.5586945940467
 30
0.0
 11
50.21147044623868
 21
202.8926784940467
 31
0.0
  0
LINE
  5
8DBD
  8
0
 10
50.21147044623868
 20
202.8926784940467
 30
0.0
 11
49.87748654623866
 21
202.8926784940467
 31
0.0
  0
LINE
  5
8DBE
  8
0
 10
49.87748654623866
 20
202.8926784940467
 30
0.0
 11
49.87748654623866
 21
202.5586945940467
 31
0.0
  0
LINE
  5
8DBF
  8
0
 10
50.54590654623865
 20
202.5586945940467
 30
0.0
 11
50.87989139623866
 21
202.5586945940467
 31
0.0
  0
LINE
  5
8DC0
  8
0
 10
50.87989139623866
 20
202.5586945940467
 30
0.0
 11
50.87989139623866
 21
202.8926784940467
 31
0.0
  0
LINE
  5
8DC1
  8
0
 10
50.87989139623866
 20
202.8926784940467
 30
0.0
 11
50.54590654623865
 21
202.8926784940467
 31
0.0
  0
LINE
  5
8DC2
  8
0
 10
50.54590654623865
 20
202.8926784940467
 30
0.0
 11
50.54590654623865
 21
202.5586945940467
 31
0.0
  0
LINE
  5
8DC3
  8
0
 10
51.54673154623865
 20
202.5586945940467
 30
0.0
 11
52.21395834623868
 21
202.5586945940467
 31
0.0
  0
LINE
  5
8DC4
  8
0
 10
52.21395834623868
 20
202.5586945940467
 30
0.0
 11
52.21395834623868
 21
202.8926784940467
 31
0.0
  0
LINE
  5
8DC5
  8
0
 10
52.21395834623868
 20
202.8926784940467
 30
0.0
 11
51.54673154623865
 21
202.8926784940467
 31
0.0
  0
LINE
  5
8DC6
  8
0
 10
51.54673154623865
 20
202.8926784940467
 30
0.0
 11
51.54673154623865
 21
202.5586945940467
 31
0.0
  0
LINE
  5
8DC7
  8
0
 10
52.88157654623868
 20
202.5586945940467
 30
0.0
 11
53.54917384623866
 21
202.5586945940467
 31
0.0
  0
LINE
  5
8DC8
  8
0
 10
53.54917384623866
 20
202.5586945940467
 30
0.0
 11
53.54917384623866
 21
202.8926784940467
 31
0.0
  0
LINE
  5
8DC9
  8
0
 10
53.54917384623866
 20
202.8926784940467
 30
0.0
 11
52.88157654623868
 21
202.8926784940467
 31
0.0
  0
LINE
  5
8DCA
  8
0
 10
52.88157654623868
 20
202.8926784940467
 30
0.0
 11
52.88157654623868
 21
202.5586945940467
 31
0.0
  0
LINE
  5
8DCB
  8
0
 10
42.53436654623866
 20
202.2247695940467
 30
0.0
 11
42.86872189623867
 21
202.2247695940467
 31
0.0
  0
LINE
  5
8DCC
  8
0
 10
42.86872189623867
 20
202.2247695940467
 30
0.0
 11
42.86872189623867
 21
202.5587544440467
 31
0.0
  0
LINE
  5
8DCD
  8
0
 10
42.86872189623867
 20
202.5587544440467
 30
0.0
 11
42.53436654623866
 21
202.5587544440467
 31
0.0
  0
LINE
  5
8DCE
  8
0
 10
42.53436654623866
 20
202.5587544440467
 30
0.0
 11
42.53436654623866
 21
202.2247695940467
 31
0.0
  0
LINE
  5
8DCF
  8
0
 10
44.53744154623865
 20
202.2247695940467
 30
0.0
 11
44.87142544623865
 21
202.2247695940467
 31
0.0
  0
LINE
  5
8DD0
  8
0
 10
44.87142544623865
 20
202.2247695940467
 30
0.0
 11
44.87142544623865
 21
202.5587544440467
 31
0.0
  0
LINE
  5
8DD1
  8
0
 10
44.87142544623865
 20
202.5587544440467
 30
0.0
 11
44.53744154623865
 21
202.5587544440467
 31
0.0
  0
LINE
  5
8DD2
  8
0
 10
44.53744154623865
 20
202.5587544440467
 30
0.0
 11
44.53744154623865
 21
202.2247695940467
 31
0.0
  0
LINE
  5
8DD3
  8
0
 10
45.87266654623866
 20
202.2247695940467
 30
0.0
 11
46.53989239623866
 21
202.2247695940467
 31
0.0
  0
LINE
  5
8DD4
  8
0
 10
46.53989239623866
 20
202.2247695940467
 30
0.0
 11
46.53989239623866
 21
202.5587544440467
 31
0.0
  0
LINE
  5
8DD5
  8
0
 10
46.53989239623866
 20
202.5587544440467
 30
0.0
 11
45.87266654623866
 21
202.5587544440467
 31
0.0
  0
LINE
  5
8DD6
  8
0
 10
45.87266654623866
 20
202.5587544440467
 30
0.0
 11
45.87266654623866
 21
202.2247695940467
 31
0.0
  0
LINE
  5
8DD7
  8
0
 10
47.20751154623866
 20
202.2247695940467
 30
0.0
 11
48.20909654623867
 21
202.2247695940467
 31
0.0
  0
LINE
  5
8DD8
  8
0
 10
48.20909654623867
 20
202.2247695940467
 30
0.0
 11
48.20909654623867
 21
202.5587544440467
 31
0.0
  0
LINE
  5
8DD9
  8
0
 10
48.20909654623867
 20
202.5587544440467
 30
0.0
 11
47.20751154623866
 21
202.5587544440467
 31
0.0
  0
LINE
  5
8DDA
  8
0
 10
47.20751154623866
 20
202.5587544440467
 30
0.0
 11
47.20751154623866
 21
202.2247695940467
 31
0.0
  0
LINE
  5
8DDB
  8
0
 10
48.87666154623867
 20
202.2247695940467
 30
0.0
 11
49.54425884623865
 21
202.2247695940467
 31
0.0
  0
LINE
  5
8DDC
  8
0
 10
49.54425884623865
 20
202.2247695940467
 30
0.0
 11
49.54425884623865
 21
202.5587544440467
 31
0.0
  0
LINE
  5
8DDD
  8
0
 10
49.54425884623865
 20
202.5587544440467
 30
0.0
 11
48.87666154623867
 21
202.5587544440467
 31
0.0
  0
LINE
  5
8DDE
  8
0
 10
48.87666154623867
 20
202.5587544440467
 30
0.0
 11
48.87666154623867
 21
202.2247695940467
 31
0.0
  0
LINE
  5
8DDF
  8
0
 10
51.54673154623865
 20
202.2247695940467
 30
0.0
 11
52.88155754623867
 21
202.2247695940467
 31
0.0
  0
LINE
  5
8DE0
  8
0
 10
52.88155754623867
 20
202.2247695940467
 30
0.0
 11
52.88155754623867
 21
202.5587544440467
 31
0.0
  0
LINE
  5
8DE1
  8
0
 10
52.88155754623867
 20
202.5587544440467
 30
0.0
 11
51.54673154623865
 21
202.5587544440467
 31
0.0
  0
LINE
  5
8DE2
  8
0
 10
51.54673154623865
 20
202.5587544440467
 30
0.0
 11
51.54673154623865
 21
202.2247695940467
 31
0.0
  0
LINE
  5
8DE3
  8
0
 10
42.53436654623866
 20
201.8911295940467
 30
0.0
 11
44.87114804623869
 21
201.8911295940467
 31
0.0
  0
LINE
  5
8DE4
  8
0
 10
44.87114804623869
 20
201.8911295940467
 30
0.0
 11
44.87114804623869
 21
202.2251144440467
 31
0.0
  0
LINE
  5
8DE5
  8
0
 10
44.87114804623869
 20
202.2251144440467
 30
0.0
 11
42.53436654623866
 21
202.2251144440467
 31
0.0
  0
LINE
  5
8DE6
  8
0
 10
42.53436654623866
 20
202.2251144440467
 30
0.0
 11
42.53436654623866
 21
201.8911295940467
 31
0.0
  0
LINE
  5
8DE7
  8
0
 10
45.20510154623867
 20
201.8911295940467
 30
0.0
 11
45.53908639623867
 21
201.8911295940467
 31
0.0
  0
LINE
  5
8DE8
  8
0
 10
45.53908639623867
 20
201.8911295940467
 30
0.0
 11
45.53908639623867
 21
202.2251144440467
 31
0.0
  0
LINE
  5
8DE9
  8
0
 10
45.53908639623867
 20
202.2251144440467
 30
0.0
 11
45.20510154623867
 21
202.2251144440467
 31
0.0
  0
LINE
  5
8DEA
  8
0
 10
45.20510154623867
 20
202.2251144440467
 30
0.0
 11
45.20510154623867
 21
201.8911295940467
 31
0.0
  0
LINE
  5
8DEB
  8
0
 10
46.20592654623866
 20
201.8911295940467
 30
0.0
 11
46.53991044623868
 21
201.8911295940467
 31
0.0
  0
LINE
  5
8DEC
  8
0
 10
46.53991044623868
 20
201.8911295940467
 30
0.0
 11
46.53991044623868
 21
202.2251144440467
 31
0.0
  0
LINE
  5
8DED
  8
0
 10
46.53991044623868
 20
202.2251144440467
 30
0.0
 11
46.20592654623866
 21
202.2251144440467
 31
0.0
  0
LINE
  5
8DEE
  8
0
 10
46.20592654623866
 20
202.2251144440467
 30
0.0
 11
46.20592654623866
 21
201.8911295940467
 31
0.0
  0
LINE
  5
8DEF
  8
0
 10
47.20751154623866
 20
201.8911295940467
 30
0.0
 11
47.54149544623868
 21
201.8911295940467
 31
0.0
  0
LINE
  5
8DF0
  8
0
 10
47.54149544623868
 20
201.8911295940467
 30
0.0
 11
47.54149544623868
 21
202.2251144440467
 31
0.0
  0
LINE
  5
8DF1
  8
0
 10
47.54149544623868
 20
202.2251144440467
 30
0.0
 11
47.20751154623866
 21
202.2251144440467
 31
0.0
  0
LINE
  5
8DF2
  8
0
 10
47.20751154623866
 20
202.2251144440467
 30
0.0
 11
47.20751154623866
 21
201.8911295940467
 31
0.0
  0
LINE
  5
8DF3
  8
0
 10
48.20909654623867
 20
201.8911295940467
 30
0.0
 11
48.54308044623866
 21
201.8911295940467
 31
0.0
  0
LINE
  5
8DF4
  8
0
 10
48.54308044623866
 20
201.8911295940467
 30
0.0
 11
48.54308044623866
 21
202.2251144440467
 31
0.0
  0
LINE
  5
8DF5
  8
0
 10
48.54308044623866
 20
202.2251144440467
 30
0.0
 11
48.20909654623867
 21
202.2251144440467
 31
0.0
  0
LINE
  5
8DF6
  8
0
 10
48.20909654623867
 20
202.2251144440467
 30
0.0
 11
48.20909654623867
 21
201.8911295940467
 31
0.0
  0
LINE
  5
8DF7
  8
0
 10
48.87666154623867
 20
201.8911295940467
 30
0.0
 11
49.21064544623866
 21
201.8911295940467
 31
0.0
  0
LINE
  5
8DF8
  8
0
 10
49.21064544623866
 20
201.8911295940467
 30
0.0
 11
49.21064544623866
 21
202.2251144440467
 31
0.0
  0
LINE
  5
8DF9
  8
0
 10
49.21064544623866
 20
202.2251144440467
 30
0.0
 11
48.87666154623867
 21
202.2251144440467
 31
0.0
  0
LINE
  5
8DFA
  8
0
 10
48.87666154623867
 20
202.2251144440467
 30
0.0
 11
48.87666154623867
 21
201.8911295940467
 31
0.0
  0
LINE
  5
8DFB
  8
0
 10
49.87748654623866
 20
201.8911295940467
 30
0.0
 11
51.21231254623865
 21
201.8911295940467
 31
0.0
  0
LINE
  5
8DFC
  8
0
 10
51.21231254623865
 20
201.8911295940467
 30
0.0
 11
51.21231254623865
 21
202.2251144440467
 31
0.0
  0
LINE
  5
8DFD
  8
0
 10
51.21231254623865
 20
202.2251144440467
 30
0.0
 11
49.87748654623866
 21
202.2251144440467
 31
0.0
  0
LINE
  5
8DFE
  8
0
 10
49.87748654623866
 20
202.2251144440467
 30
0.0
 11
49.87748654623866
 21
201.8911295940467
 31
0.0
  0
LINE
  5
8DFF
  8
0
 10
51.54673154623865
 20
201.8911295940467
 30
0.0
 11
51.88071544623867
 21
201.8911295940467
 31
0.0
  0
LINE
  5
8E00
  8
0
 10
51.88071544623867
 20
201.8911295940467
 30
0.0
 11
51.88071544623867
 21
202.2251144440467
 31
0.0
  0
LINE
  5
8E01
  8
0
 10
51.88071544623867
 20
202.2251144440467
 30
0.0
 11
51.54673154623865
 21
202.2251144440467
 31
0.0
  0
LINE
  5
8E02
  8
0
 10
51.54673154623865
 20
202.2251144440467
 30
0.0
 11
51.54673154623865
 21
201.8911295940467
 31
0.0
  0
LINE
  5
8E03
  8
0
 10
52.21391654623866
 20
201.8911295940467
 30
0.0
 11
52.54827189623867
 21
201.8911295940467
 31
0.0
  0
LINE
  5
8E04
  8
0
 10
52.54827189623867
 20
201.8911295940467
 30
0.0
 11
52.54827189623867
 21
202.2251144440467
 31
0.0
  0
LINE
  5
8E05
  8
0
 10
52.54827189623867
 20
202.2251144440467
 30
0.0
 11
52.21391654623866
 21
202.2251144440467
 31
0.0
  0
LINE
  5
8E06
  8
0
 10
52.21391654623866
 20
202.2251144440467
 30
0.0
 11
52.21391654623866
 21
201.8911295940467
 31
0.0
  0
LINE
  5
8E07
  8
0
 10
52.88157654623868
 20
201.8911295940467
 30
0.0
 11
53.21556044623867
 21
201.8911295940467
 31
0.0
  0
LINE
  5
8E08
  8
0
 10
53.21556044623867
 20
201.8911295940467
 30
0.0
 11
53.21556044623867
 21
202.2251144440467
 31
0.0
  0
LINE
  5
8E09
  8
0
 10
53.21556044623867
 20
202.2251144440467
 30
0.0
 11
52.88157654623868
 21
202.2251144440467
 31
0.0
  0
LINE
  5
8E0A
  8
0
 10
52.88157654623868
 20
202.2251144440467
 30
0.0
 11
52.88157654623868
 21
201.8911295940467
 31
0.0
  0
CIRCLE
  5
8FE0
  8
0
 10
63.52185615177351
 20
209.8911295940469
 30
0.0
 40
1.5
  0
TEXT
  5
8FE1
  8
0
 10
44.47302297808374
 20
198.5567123804032
 30
0.0
 40
1.3
  1
冬期以外(凍結の心配がない期間)や長期間使用しないときは電源をOFFにしてください
  0
POLYLINE
  5
8FE2
  8
0
 66
     1
 10
0.0
 20
0.0
 30
0.0
 70
     1
  0
VERTEX
  5
A4A0
  8
0
 10
42.75218928780001
 20
200.4403639218437
 30
0.0
  0
VERTEX
  5
A4A1
  8
0
 10
41.53975372250184
 20
198.3403639218433
 30
0.0
 42
0.5773502691896262
  0
VERTEX
  5
A4A2
  8
0
 10
41.62635626288025
 20
198.1903639218437
 30
0.0
  0
VERTEX
  5
A4A3
  8
0
 10
44.05122739347658
 20
198.1903639218437
 30
0.0
 42
0.577350269189628
  0
VERTEX
  5
A4A4
  8
0
 10
44.13782993385499
 20
198.3403639218433
 30
0.0
  0
VERTEX
  5
A4A5
  8
0
 10
42.92539436855682
 20
200.4403639218437
 30
0.0
 42
0.577350269189626
  0
SEQEND
  5
A4D7
  8
0
  0
POLYLINE
  5
8FE3
  8
0
 66
     1
 10
0.0
 20
0.0
 30
0.0
 70
     1
  0
VERTEX
  5
A4A6
  8
0
 10
42.79549055868452
 20
200.3153639218437
 30
0.0
  0
VERTEX
  5
A4A7
  8
0
 10
41.66965753310174
 20
198.3653639218548
 30
0.0
 42
0.577350269275458
  0
VERTEX
  5
A4A8
  8
0
 10
41.71295880328458
 20
198.2903639218431
 30
0.0
  0
VERTEX
  5
A4A9
  8
0
 10
43.96462485312409
 20
198.2903639218431
 30
0.0
 42
0.5773502691037941
  0
VERTEX
  5
A4AA
  8
0
 10
44.00792612331966
 20
198.365363921832
 30
0.0
  0
VERTEX
  5
A4AB
  8
0
 10
42.88209309906293
 20
200.3153639218437
 30
0.0
 42
0.5773502691896244
  0
SEQEND
  5
A4D8
  8
0
  0
CIRCLE
  5
8FE4
  8
0
 10
42.83879182817842
 20
198.5903639218433
 30
0.0
 40
0.1
  0
LINE
  5
8FE5
  8
0
 10
42.73879182817851
 20
199.5903639218433
 30
0.0
 11
42.78923430605451
 21
198.8337267537028
 31
0.0
  0
LINE
  5
8FE6
  8
0
 10
42.93879182817878
 20
199.5903639218433
 30
0.0
 11
42.88834935030232
 21
198.833726753701
 31
0.0
  0
ARC
  5
8FE7
  8
0
 10
42.83879182817842
 20
199.5903639218433
 30
0.0
 40
0.1
 50
0.0
 51
180.0
  0
ARC
  5
8FE8
  8
0
 10
42.83879182817842
 20
198.8403639218433
 30
0.0
 40
0.05
 50
187.6281496673324
 51
352.3718503305627
  0
CIRCLE
  5
8FEC
  8
0
 10
82.52185615177356
 20
213.8911295940469
 30
0.0
 40
1.5
  0
CIRCLE
  5
8FED
  8
0
 10
82.52185615177356
 20
205.8911295940469
 30
0.0
 40
1.5
  0
POLYLINE
  5
8FEE
  8
0
 66
     1
 10
0.0
 20
0.0
 30
0.0
 70
     1
  0
VERTEX
  5
A4AC
  8
0
 10
77.47346969118823
 20
206.2009960428474
 30
0.0
  0
VERTEX
  5
A4AD
  8
0
 10
77.20511747474663
 20
206.0460628184473
 30
0.0
  0
VERTEX
  5
A4AE
  8
0
 10
77.20511747474663
 20
205.7361963696469
 30
0.0
  0
VERTEX
  5
A4AF
  8
0
 10
77.47346969118823
 20
205.5812631452468
 30
0.0
  0
VERTEX
  5
A4B0
  8
0
 10
77.74182190762983
 20
205.7361963696469
 30
0.0
  0
VERTEX
  5
A4B1
  8
0
 10
77.74182190762983
 20
206.0460628184473
 30
0.0
  0
SEQEND
  5
A4D9
  8
0
  0
POLYLINE
  5
8FEF
  8
0
 66
     1
 10
0.0
 20
0.0
 30
0.0
  0
VERTEX
  5
A4B2
  8
0
 10
77.32346969118814
 20
206.4986464294364
 30
0.0
  0
VERTEX
  5
A4B3
  8
0
 10
77.0223446785146
 20
206.3247918223094
 30
0.0
  0
SEQEND
  5
A4DA
  8
0
  0
LINE
  5
8FF0
  8
0
 10
77.32346969118814
 20
202.791129594047
 30
0.0
 11
77.32346969118814
 21
203.3375762034538
 31
0.0
1001
GENIUS_GENODEF_13
1002
{
1000
HIER
1070
     0
1002
}
1002
{
1000
MANEDIT
1070
     0
1002
}
1002
{
1000
NOSEL
1070
     0
1002
}
1002
{
1000
BEHIND
1070
     0
1002
}
1002
{
1000
OTHER
1070
     0
1002
}
1002
{
1000
REACTOR
1002
}
1001
GENIUS_GENOBJ-N-CEN_13
1002
{
1000
OWNER
1000
GEN
1002
}
1001
GENIUS_GENCEN_19
1002
{
1040
3.0
1002
}
  0
LINE
  5
8FF1
  8
0
 10
77.62346969118832
 20
202.791129594047
 30
0.0
 11
77.62346969118832
 21
203.3375762034538
 31
0.0
1001
GENIUS_GENODEF_13
1002
{
1000
HIER
1070
     0
1002
}
1002
{
1000
MANEDIT
1070
     0
1002
}
1002
{
1000
NOSEL
1070
     0
1002
}
1002
{
1000
BEHIND
1070
     0
1002
}
1002
{
1000
OTHER
1070
     0
1002
}
1002
{
1000
REACTOR
1002
}
1001
GENIUS_GENOBJ-N-CEN_13
1002
{
1000
OWNER
1000
GEN
1002
}
1001
GENIUS_GENCEN_19
1002
{
1040
3.0
1002
}
  0
LINE
  5
8FF2
  8
0
 10
77.62346969118832
 20
206.8911295940472
 30
0.0
 11
78.26929649613518
 21
207.5369563989941
 31
0.0
  0
LINE
  5
8FF3
  8
0
 10
77.62346969118832
 20
207.3911295940472
 30
0.0
 11
78.01929649613518
 21
207.7869563989941
 31
0.0
  0
ARC
  5
8FF4
  8
0
 10
77.47346969118823
 20
208.9911295940471
 30
0.0
 40
0.1499999999999773
 50
0.0
 51
180.0
  0
ARC
  5
8FF5
  8
0
 10
78.14429649613518
 20
207.6619563989941
 30
0.0
 40
0.1767766952966168
 50
315.0000000000326
 51
135.0000000000065
  0
LINE
  5
8FF6
  8
0
 10
77.32346969118814
 20
206.8911295940472
 30
0.0
 11
76.67764288624127
 21
207.5369563989941
 31
0.0
  0
LINE
  5
8FF7
  8
0
 10
77.32346969118814
 20
207.3911295940472
 30
0.0
 11
76.92764288624127
 21
207.7869563989941
 31
0.0
  0
ARC
  5
8FF8
  8
0
 10
76.80264288624127
 20
207.6619563989941
 30
0.0
 40
0.1767766952966168
 50
44.99999999999348
 51
224.9999999999674
  0
LINE
  5
8FF9
  8
0
 10
77.62346969118832
 20
208.0911295940471
 30
0.0
 11
78.0222555884097
 21
208.4899154912685
 31
0.0
  0
LINE
  5
8FFA
  8
0
 10
77.62346969118832
 20
208.4446829846403
 30
0.0
 11
77.84547889311304
 21
208.666692186565
 31
0.0
  0
ARC
  5
8FFB
  8
0
 10
77.93386724076115
 20
208.5783038389169
 30
0.0
 40
0.1249999999999206
 50
314.9999999998987
 51
134.9999999999355
  0
LINE
  5
8FFC
  8
0
 10
79.30372557951407
 20
204.6612257834795
 30
0.0
 11
79.44969134856794
 21
204.1164741172041
 31
0.0
  0
LINE
  5
8FFD
  8
0
 10
79.60991179736195
 20
204.4844490881829
 30
0.0
 11
79.69117280514021
 21
204.1811788784799
 31
0.0
  0
ARC
  5
8FFE
  8
0
 10
80.03082962642722
 20
204.9462584453826
 30
0.0
 40
0.1249999999999206
 50
285.0000000000046
 51
105.0000000000046
  0
LINE
  5
8FFF
  8
0
 10
77.62346969118832
 20
204.8911295940472
 30
0.0
 11
77.62346969118832
 21
205.2836127586578
 31
0.0
1001
GENIUS_GENODEF_13
1002
{
1000
HIER
1070
     0
1002
}
1002
{
1000
MANEDIT
1070
     0
1002
}
1002
{
1000
NOSEL
1070
     0
1002
}
1002
{
1000
BEHIND
1070
     0
1002
}
1002
{
1000
OTHER
1070
     0
1002
}
1002
{
1000
REACTOR
1002
}
1001
GENIUS_GENOBJ-N-CEN_13
1002
{
1000
OWNER
1000
GEN
1002
}
1001
GENIUS_GENCEN_19
1002
{
1040
3.0
1002
}
  0
LINE
  5
9000
  8
0
 10
79.75991179736181
 20
204.7442567093182
 30
0.0
 11
80.06318200706502
 21
204.8255177170966
 31
0.0
  0
ARC
  5
9001
  8
0
 10
79.5704320768543
 20
204.148826497842
 30
0.0
 40
0.1249999999999206
 50
194.9999999999509
 51
14.99999999999198
  0
LINE
  5
9002
  8
0
 10
79.45372557951393
 20
204.9210334046149
 30
0.0
 11
79.99847724578942
 21
205.0669991736688
 31
0.0
  0
LINE
  5
9003
  8
0
 10
77.62346969118832
 20
203.6911295940471
 30
0.0
 11
77.62346969118832
 21
204.3911295940472
 31
0.0
1001
GENIUS_GENODEF_13
1002
{
1000
HIER
1070
     0
1002
}
1002
{
1000
MANEDIT
1070
     0
1002
}
1002
{
1000
NOSEL
1070
     0
1002
}
1002
{
1000
BEHIND
1070
     0
1002
}
1002
{
1000
OTHER
1070
     0
1002
}
1002
{
1000
REACTOR
1002
}
1001
GENIUS_GENOBJ-N-CEN_13
1002
{
1000
OWNER
1000
GEN
1002
}
1001
GENIUS_GENCEN_19
1002
{
1040
3.0
1002
}
  0
LINE
  5
9004
  8
0
 10
77.32346969118814
 20
203.6911295940471
 30
0.0
 11
77.32346969118814
 21
204.3911295940472
 31
0.0
1001
GENIUS_GENODEF_13
1002
{
1000
HIER
1070
     0
1002
}
1002
{
1000
MANEDIT
1070
     0
1002
}
1002
{
1000
NOSEL
1070
     0
1002
}
1002
{
1000
BEHIND
1070
     0
1002
}
1002
{
1000
OTHER
1070
     0
1002
}
1002
{
1000
REACTOR
1002
}
1001
GENIUS_GENOBJ-N-CEN_13
1002
{
1000
OWNER
1000
GEN
1002
}
1001
GENIUS_GENCEN_19
1002
{
1040
3.0
1002
}
  0
LINE
  5
9005
  8
0
 10
77.32346969118814
 20
208.4446829846403
 30
0.0
 11
77.32346969118814
 21
208.9911295940471
 31
0.0
1001
GENIUS_GENODEF_13
1002
{
1000
HIER
1070
     0
1002
}
1002
{
1000
MANEDIT
1070
     0
1002
}
1002
{
1000
NOSEL
1070
     0
1002
}
1002
{
1000
BEHIND
1070
     0
1002
}
1002
{
1000
OTHER
1070
     0
1002
}
1002
{
1000
REACTOR
1002
}
1001
GENIUS_GENOBJ-N-CEN_13
1002
{
1000
OWNER
1000
GEN
1002
}
1001
GENIUS_GENCEN_19
1002
{
1040
3.0
1002
}
  0
LINE
  5
9006
  8
0
 10
77.62346969118832
 20
208.4446829846403
 30
0.0
 11
77.62346969118832
 21
208.9911295940471
 31
0.0
1001
GENIUS_GENODEF_13
1002
{
1000
HIER
1070
     0
1002
}
1002
{
1000
MANEDIT
1070
     0
1002
}
1002
{
1000
NOSEL
1070
     0
1002
}
1002
{
1000
BEHIND
1070
     0
1002
}
1002
{
1000
OTHER
1070
     0
1002
}
1002
{
1000
REACTOR
1002
}
1001
GENIUS_GENOBJ-N-CEN_13
1002
{
1000
OWNER
1000
GEN
1002
}
1001
GENIUS_GENCEN_19
1002
{
1040
3.0
1002
}
  0
ARC
  5
9007
  8
0
 10
77.01307214161531
 20
208.5783038389169
 30
0.0
 40
0.1249999999999206
 50
45.00000000006448
 51
224.999999999954
  0
LINE
  5
9008
  8
0
 10
77.32346969118814
 20
208.4446829846403
 30
0.0
 11
77.10146048926342
 21
208.666692186565
 31
0.0
  0
LINE
  5
9009
  8
0
 10
77.32346969118814
 20
208.0911295940471
 30
0.0
 11
76.92468379396675
 21
208.4899154912685
 31
0.0
  0
LINE
  5
900A
  8
0
 10
77.62346969118832
 20
207.3911295940472
 30
0.0
 11
77.62346969118832
 21
208.0911295940471
 31
0.0
1001
GENIUS_GENODEF_13
1002
{
1000
HIER
1070
     0
1002
}
1002
{
1000
MANEDIT
1070
     0
1002
}
1002
{
1000
NOSEL
1070
     0
1002
}
1002
{
1000
BEHIND
1070
     0
1002
}
1002
{
1000
OTHER
1070
     0
1002
}
1002
{
1000
REACTOR
1002
}
1001
GENIUS_GENOBJ-N-CEN_13
1002
{
1000
OWNER
1000
GEN
1002
}
1001
GENIUS_GENCEN_19
1002
{
1040
3.0
1002
}
  0
LINE
  5
900B
  8
0
 10
77.32346969118814
 20
207.3911295940472
 30
0.0
 11
77.32346969118814
 21
208.0911295940471
 31
0.0
1001
GENIUS_GENODEF_13
1002
{
1000
HIER
1070
     0
1002
}
1002
{
1000
MANEDIT
1070
     0
1002
}
1002
{
1000
NOSEL
1070
     0
1002
}
1002
{
1000
BEHIND
1070
     0
1002
}
1002
{
1000
OTHER
1070
     0
1002
}
1002
{
1000
REACTOR
1002
}
1001
GENIUS_GENOBJ-N-CEN_13
1002
{
1000
OWNER
1000
GEN
1002
}
1001
GENIUS_GENCEN_19
1002
{
1040
3.0
1002
}
  0
LINE
  5
900C
  8
0
 10
77.62346969118832
 20
203.3375762034538
 30
0.0
 11
77.84547889311304
 21
203.1155670015291
 31
0.0
  0
LINE
  5
900D
  8
0
 10
77.32346969118814
 20
204.3911295940472
 30
0.0
 11
76.92764288624127
 21
203.9953027891001
 31
0.0
  0
ARC
  5
900E
  8
0
 10
77.47346969118823
 20
202.791129594047
 30
0.0
 40
0.1499999999999773
 50
180.0
 51
0.0
  0
ARC
  5
900F
  8
0
 10
78.14429649613518
 20
204.1203027891001
 30
0.0
 40
0.1767766952966168
 50
224.9999999999935
 51
44.99999999999348
  0
ARC
  5
9010
  8
0
 10
76.80264288624127
 20
204.1203027891001
 30
0.0
 40
0.1767766952966168
 50
135.0000000000065
 51
315.0000000000065
  0
LINE
  5
9011
  8
0
 10
77.62346969118832
 20
204.3911295940472
 30
0.0
 11
78.01929649613518
 21
203.9953027891001
 31
0.0
  0
LINE
  5
9012
  8
0
 10
77.32346969118814
 20
204.8911295940472
 30
0.0
 11
76.67764288624127
 21
204.2453027891001
 31
0.0
  0
ARC
  5
9013
  8
0
 10
77.93386724076115
 20
203.2039553491773
 30
0.0
 40
0.1249999999999206
 50
225.0000000000645
 51
44.99999999995394
  0
LINE
  5
9014
  8
0
 10
77.32346969118814
 20
203.6911295940471
 30
0.0
 11
76.92468379396675
 21
203.2923436968257
 31
0.0
  0
LINE
  5
9015
  8
0
 10
77.62346969118832
 20
203.6911295940471
 30
0.0
 11
78.0222555884097
 21
203.2923436968257
 31
0.0
  0
LINE
  5
9016
  8
0
 10
77.62346969118832
 20
204.8911295940472
 30
0.0
 11
78.26929649613518
 21
204.2453027891001
 31
0.0
  0
ARC
  5
9017
  8
0
 10
77.01307214161531
 20
203.2039553491773
 30
0.0
 40
0.1249999999999206
 50
134.9999999998987
 51
314.9999999998987
  0
LINE
  5
9018
  8
0
 10
77.32346969118814
 20
203.3375762034538
 30
0.0
 11
77.10146048926342
 21
203.1155670015291
 31
0.0
  0
LINE
  5
9019
  8
0
 10
78.69750779686498
 20
206.7710334046148
 30
0.0
 11
78.84239046297441
 21
207.3117428756712
 31
0.0
  0
ARC
  5
901A
  8
0
 10
78.6716372875014
 20
207.3574960511443
 30
0.0
 40
0.1767766952966168
 50
344.9999999999747
 51
164.9999999999747
  0
LINE
  5
901B
  8
0
 10
75.33702758501451
 20
204.4844490881829
 30
0.0
 11
74.86379093945649
 21
204.2112257834795
 31
0.0
1001
GENIUS_GENODEF_13
1002
{
1000
HIER
1070
     0
1002
}
1002
{
1000
MANEDIT
1070
     0
1002
}
1002
{
1000
NOSEL
1070
     0
1002
}
1002
{
1000
BEHIND
1070
     0
1002
}
1002
{
1000
OTHER
1070
     0
1002
}
1002
{
1000
REACTOR
1002
}
1001
GENIUS_GENOBJ-N-CEN_13
1002
{
1000
OWNER
1000
GEN
1002
}
1001
GENIUS_GENCEN_19
1002
{
1040
3.0
1002
}
  0
LINE
  5
901C
  8
0
 10
78.41449509497258
 20
206.2612257834794
 30
0.0
 11
79.29671091697534
 21
206.0248367664239
 31
0.0
  0
LINE
  5
901D
  8
0
 10
79.45372557951393
 20
206.8612257834795
 30
0.0
 11
79.99847724578942
 21
206.7152600144255
 31
0.0
  0
LINE
  5
901E
  8
0
 10
79.75991179736181
 20
207.0380024787761
 30
0.0
 11
80.06318200706502
 21
206.9567414709977
 31
0.0
  0
ARC
  5
901F
  8
0
 10
80.03082962642722
 20
206.8360007427117
 30
0.0
 40
0.1249999999999206
 50
254.9999999999954
 51
74.99999999999544
  0
LINE
  5
9020
  8
0
 10
79.30372557951407
 20
207.1210334046148
 30
0.0
 11
79.44969134856794
 21
207.6657850708902
 31
0.0
  0
LINE
  5
9021
  8
0
 10
76.09943158551161
 20
205.2710334046148
 30
0.0
 11
75.49321380286253
 21
204.9210334046147
 31
0.0
1001
GENIUS_GENODEF_13
1002
{
1000
HIER
1070
     0
1002
}
1002
{
1000
MANEDIT
1070
     0
1002
}
1002
{
1000
NOSEL
1070
     0
1002
}
1002
{
1000
BEHIND
1070
     0
1002
}
1002
{
1000
OTHER
1070
     0
1002
}
1002
{
1000
REACTOR
1002
}
1001
GENIUS_GENOBJ-N-CEN_13
1002
{
1000
OWNER
1000
GEN
1002
}
1001
GENIUS_GENCEN_19
1002
{
1040
3.0
1002
}
  0
ARC
  5
9022
  8
0
 10
76.27530209487506
 20
204.4247631369499
 30
0.0
 40
0.1767766952966168
 50
164.9999999999747
 51
345.0000000000127
  0
LINE
  5
9023
  8
0
 10
76.09943158551161
 20
205.2710334046148
 30
0.0
 11
75.5587221144551
 21
205.4159160707242
 31
0.0
  0
ARC
  5
9024
  8
0
 10
80.15814844292001
 20
207.4411295940471
 30
0.0
 40
0.1499999999999773
 50
300.0000000000254
 51
120.0000000000254
  0
LINE
  5
9025
  8
0
 10
78.41449509497258
 20
206.2612257834794
 30
0.0
 11
78.07459470386195
 21
206.064984201174
 31
0.0
1001
GENIUS_GENODEF_13
1002
{
1000
HIER
1070
     0
1002
}
1002
{
1000
MANEDIT
1070
     0
1002
}
1002
{
1000
NOSEL
1070
     0
1002
}
1002
{
1000
BEHIND
1070
     0
1002
}
1002
{
1000
OTHER
1070
     0
1002
}
1002
{
1000
REACTOR
1002
}
1001
GENIUS_GENOBJ-N-CEN_13
1002
{
1000
OWNER
1000
GEN
1002
}
1001
GENIUS_GENCEN_19
1002
{
1040
3.0
1002
}
  0
LINE
  5
9026
  8
0
 10
78.26449509497272
 20
206.5210334046148
 30
0.0
 11
77.92459470386208
 21
206.3247918223093
 31
0.0
1001
GENIUS_GENODEF_13
1002
{
1000
HIER
1070
     0
1002
}
1002
{
1000
MANEDIT
1070
     0
1002
}
1002
{
1000
NOSEL
1070
     0
1002
}
1002
{
1000
BEHIND
1070
     0
1002
}
1002
{
1000
OTHER
1070
     0
1002
}
1002
{
1000
REACTOR
1002
}
1001
GENIUS_GENOBJ-N-CEN_13
1002
{
1000
OWNER
1000
GEN
1002
}
1001
GENIUS_GENCEN_19
1002
{
1040
3.0
1002
}
  0
LINE
  5
9027
  8
0
 10
76.24943158551147
 20
205.0112257834794
 30
0.0
 11
76.10454891940205
 21
204.470516312423
 31
0.0
  0
LINE
  5
9028
  8
0
 10
76.68244428740374
 20
205.2612257834794
 30
0.0
 11
76.4460552703483
 21
204.3790099614769
 31
0.0
  0
LINE
  5
9029
  8
0
 10
80.23314844292005
 20
207.3112257834795
 30
0.0
 11
79.75991179736181
 21
207.0380024787761
 31
0.0
1001
GENIUS_GENODEF_13
1002
{
1000
HIER
1070
     0
1002
}
1002
{
1000
MANEDIT
1070
     0
1002
}
1002
{
1000
NOSEL
1070
     0
1002
}
1002
{
1000
BEHIND
1070
     0
1002
}
1002
{
1000
OTHER
1070
     0
1002
}
1002
{
1000
REACTOR
1002
}
1001
GENIUS_GENOBJ-N-CEN_13
1002
{
1000
OWNER
1000
GEN
1002
}
1001
GENIUS_GENCEN_19
1002
{
1040
3.0
1002
}
  0
ARC
  5
902A
  8
0
 10
74.78879093945645
 20
204.3411295940471
 30
0.0
 40
0.1499999999999773
 50
120.0000000000254
 51
300.0000000000254
  0
ARC
  5
902B
  8
0
 10
75.6044752899281
 20
205.5866692461972
 30
0.0
 40
0.1767766952966168
 50
75.0000000000127
 51
255.0000000000127
  0
LINE
  5
902C
  8
0
 10
80.08314844291996
 20
207.5710334046148
 30
0.0
 11
79.60991179736195
 21
207.2978100999115
 31
0.0
1001
GENIUS_GENODEF_13
1002
{
1000
HIER
1070
     0
1002
}
1002
{
1000
MANEDIT
1070
     0
1002
}
1002
{
1000
NOSEL
1070
     0
1002
}
1002
{
1000
BEHIND
1070
     0
1002
}
1002
{
1000
OTHER
1070
     0
1002
}
1002
{
1000
REACTOR
1002
}
1001
GENIUS_GENOBJ-N-CEN_13
1002
{
1000
OWNER
1000
GEN
1002
}
1001
GENIUS_GENCEN_19
1002
{
1040
3.0
1002
}
  0
LINE
  5
902D
  8
0
 10
79.30372557951407
 20
207.1210334046148
 30
0.0
 11
78.69750779686498
 21
206.7710334046148
 31
0.0
1001
GENIUS_GENODEF_13
1002
{
1000
HIER
1070
     0
1002
}
1002
{
1000
MANEDIT
1070
     0
1002
}
1002
{
1000
NOSEL
1070
     0
1002
}
1002
{
1000
BEHIND
1070
     0
1002
}
1002
{
1000
OTHER
1070
     0
1002
}
1002
{
1000
REACTOR
1002
}
1001
GENIUS_GENOBJ-N-CEN_13
1002
{
1000
OWNER
1000
GEN
1002
}
1001
GENIUS_GENCEN_19
1002
{
1040
3.0
1002
}
  0
LINE
  5
902E
  8
0
 10
75.18702758501465
 20
204.7442567093182
 30
0.0
 11
74.7137909394564
 21
204.4710334046148
 31
0.0
1001
GENIUS_GENODEF_13
1002
{
1000
HIER
1070
     0
1002
}
1002
{
1000
MANEDIT
1070
     0
1002
}
1002
{
1000
NOSEL
1070
     0
1002
}
1002
{
1000
BEHIND
1070
     0
1002
}
1002
{
1000
OTHER
1070
     0
1002
}
1002
{
1000
REACTOR
1002
}
1001
GENIUS_GENOBJ-N-CEN_13
1002
{
1000
OWNER
1000
GEN
1002
}
1001
GENIUS_GENCEN_19
1002
{
1040
3.0
1002
}
  0
LINE
  5
902F
  8
0
 10
79.45372557951393
 20
206.8612257834795
 30
0.0
 11
78.84750779686485
 21
206.5112257834794
 31
0.0
1001
GENIUS_GENODEF_13
1002
{
1000
HIER
1070
     0
1002
}
1002
{
1000
MANEDIT
1070
     0
1002
}
1002
{
1000
NOSEL
1070
     0
1002
}
1002
{
1000
BEHIND
1070
     0
1002
}
1002
{
1000
OTHER
1070
     0
1002
}
1002
{
1000
REACTOR
1002
}
1001
GENIUS_GENOBJ-N-CEN_13
1002
{
1000
OWNER
1000
GEN
1002
}
1001
GENIUS_GENCEN_19
1002
{
1040
3.0
1002
}
  0
LINE
  5
9030
  8
0
 10
75.64321380286239
 20
204.6612257834794
 30
0.0
 11
75.49724803380852
 21
204.116474117204
 31
0.0
  0
LINE
  5
9031
  8
0
 10
75.33702758501451
 20
204.4844490881829
 30
0.0
 11
75.25576657723624
 21
204.1811788784798
 31
0.0
  0
ARC
  5
9032
  8
0
 10
75.37650730552215
 20
204.1488264978418
 30
0.0
 40
0.1249999999999206
 50
165.000000000008
 51
345.0000000001028
  0
LINE
  5
9033
  8
0
 10
75.49321380286253
 20
204.9210334046147
 30
0.0
 11
74.94846213658704
 21
205.0669991736687
 31
0.0
  0
LINE
  5
9034
  8
0
 10
75.18702758501465
 20
204.7442567093182
 30
0.0
 11
74.88375737531143
 21
204.8255177170965
 31
0.0
  0
LINE
  5
9035
  8
0
 10
76.24943158551147
 20
205.0112257834794
 30
0.0
 11
75.64321380286239
 21
204.6612257834794
 31
0.0
1001
GENIUS_GENODEF_13
1002
{
1000
HIER
1070
     0
1002
}
1002
{
1000
MANEDIT
1070
     0
1002
}
1002
{
1000
NOSEL
1070
     0
1002
}
1002
{
1000
BEHIND
1070
     0
1002
}
1002
{
1000
OTHER
1070
     0
1002
}
1002
{
1000
REACTOR
1002
}
1001
GENIUS_GENOBJ-N-CEN_13
1002
{
1000
OWNER
1000
GEN
1002
}
1001
GENIUS_GENCEN_19
1002
{
1040
3.0
1002
}
  0
LINE
  5
9036
  8
0
 10
76.53244428740388
 20
205.5210334046148
 30
0.0
 11
75.65022846540111
 21
205.7574224216703
 31
0.0
  0
ARC
  5
9037
  8
0
 10
74.91610975594924
 20
204.9462584453825
 30
0.0
 40
0.1249999999999206
 50
74.99999999999544
 51
254.9999999999954
  0
LINE
  5
9038
  8
0
 10
78.84750779686485
 20
206.5112257834794
 30
0.0
 11
79.38821726792136
 21
206.36634311737
 31
0.0
  0
ARC
  5
9039
  8
0
 10
79.34246409244835
 20
206.195589941897
 30
0.0
 40
0.1767766952966168
 50
255.0000000000127
 51
75.0000000000127
  0
LINE
  5
903A
  8
0
 10
78.26449509497272
 20
206.5210334046148
 30
0.0
 11
78.50088411202839
 21
207.4032492266173
 31
0.0
  0
LINE
  5
903B
  8
0
 10
77.32346969118814
 20
204.8911295940472
 30
0.0
 11
77.32346969118814
 21
205.2836127586578
 31
0.0
1001
GENIUS_GENODEF_13
1002
{
1000
HIER
1070
     0
1002
}
1002
{
1000
MANEDIT
1070
     0
1002
}
1002
{
1000
NOSEL
1070
     0
1002
}
1002
{
1000
BEHIND
1070
     0
1002
}
1002
{
1000
OTHER
1070
     0
1002
}
1002
{
1000
REACTOR
1002
}
1001
GENIUS_GENOBJ-N-CEN_13
1002
{
1000
OWNER
1000
GEN
1002
}
1001
GENIUS_GENCEN_19
1002
{
1040
3.0
1002
}
  0
LINE
  5
903C
  8
0
 10
79.60991179736195
 20
207.2978100999115
 30
0.0
 11
79.69117280514021
 21
207.6010803096144
 31
0.0
  0
ARC
  5
903D
  8
0
 10
79.5704320768543
 20
207.6334326902524
 30
0.0
 40
0.1249999999999206
 50
345.000000000008
 51
165.0000000001028
  0
LINE
  5
903E
  8
0
 10
75.33702758501451
 20
207.2978100999115
 30
0.0
 11
75.25576657723624
 21
207.6010803096146
 31
0.0
  0
LINE
  5
903F
  8
0
 10
75.49321380286253
 20
206.8612257834795
 30
0.0
 11
74.94846213658704
 21
206.7152600144255
 31
0.0
  0
LINE
  5
9040
  8
0
 10
75.18702758501465
 20
207.0380024787761
 30
0.0
 11
74.88375737531143
 21
206.9567414709979
 31
0.0
  0
LINE
  5
9041
  8
0
 10
79.30372557951407
 20
204.6612257834795
 30
0.0
 11
78.69750779686498
 21
205.0112257834795
 31
0.0
1001
GENIUS_GENODEF_13
1002
{
1000
HIER
1070
     0
1002
}
1002
{
1000
MANEDIT
1070
     0
1002
}
1002
{
1000
NOSEL
1070
     0
1002
}
1002
{
1000
BEHIND
1070
     0
1002
}
1002
{
1000
OTHER
1070
     0
1002
}
1002
{
1000
REACTOR
1002
}
1001
GENIUS_GENOBJ-N-CEN_13
1002
{
1000
OWNER
1000
GEN
1002
}
1001
GENIUS_GENCEN_19
1002
{
1040
3.0
1002
}
  0
LINE
  5
9042
  8
0
 10
79.45372557951393
 20
204.9210334046149
 30
0.0
 11
78.84750779686485
 21
205.2710334046149
 31
0.0
1001
GENIUS_GENODEF_13
1002
{
1000
HIER
1070
     0
1002
}
1002
{
1000
MANEDIT
1070
     0
1002
}
1002
{
1000
NOSEL
1070
     0
1002
}
1002
{
1000
BEHIND
1070
     0
1002
}
1002
{
1000
OTHER
1070
     0
1002
}
1002
{
1000
REACTOR
1002
}
1001
GENIUS_GENOBJ-N-CEN_13
1002
{
1000
OWNER
1000
GEN
1002
}
1001
GENIUS_GENCEN_19
1002
{
1040
3.0
1002
}
  0
ARC
  5
9043
  8
0
 10
75.37650730552215
 20
207.6334326902524
 30
0.0
 40
0.1249999999999206
 50
14.99999999995087
 51
194.9999999999509
  0
ARC
  5
9044
  8
0
 10
74.91610975594924
 20
206.8360007427117
 30
0.0
 40
0.1249999999999206
 50
105.0000000000046
 51
285.0000000000046
  0
LINE
  5
9045
  8
0
 10
78.26449509497272
 20
205.2612257834795
 30
0.0
 11
77.92459470386208
 21
205.4574673657849
 31
0.0
1001
GENIUS_GENODEF_13
1002
{
1000
HIER
1070
     0
1002
}
1002
{
1000
MANEDIT
1070
     0
1002
}
1002
{
1000
NOSEL
1070
     0
1002
}
1002
{
1000
BEHIND
1070
     0
1002
}
1002
{
1000
OTHER
1070
     0
1002
}
1002
{
1000
REACTOR
1002
}
1001
GENIUS_GENOBJ-N-CEN_13
1002
{
1000
OWNER
1000
GEN
1002
}
1001
GENIUS_GENCEN_19
1002
{
1040
3.0
1002
}
  0
LINE
  5
9046
  8
0
 10
75.33702758501451
 20
207.2978100999115
 30
0.0
 11
74.86379093945649
 21
207.5710334046148
 31
0.0
1001
GENIUS_GENODEF_13
1002
{
1000
HIER
1070
     0
1002
}
1002
{
1000
MANEDIT
1070
     0
1002
}
1002
{
1000
NOSEL
1070
     0
1002
}
1002
{
1000
BEHIND
1070
     0
1002
}
1002
{
1000
OTHER
1070
     0
1002
}
1002
{
1000
REACTOR
1002
}
1001
GENIUS_GENOBJ-N-CEN_13
1002
{
1000
OWNER
1000
GEN
1002
}
1001
GENIUS_GENCEN_19
1002
{
1040
3.0
1002
}
  0
LINE
  5
9047
  8
0
 10
76.24943158551147
 20
206.7710334046149
 30
0.0
 11
76.10454891940205
 21
207.3117428756713
 31
0.0
  0
LINE
  5
9048
  8
0
 10
78.41449509497258
 20
205.5210334046149
 30
0.0
 11
79.29671091697534
 21
205.7574224216703
 31
0.0
  0
ARC
  5
9049
  8
0
 10
76.27530209487506
 20
207.3574960511443
 30
0.0
 40
0.1767766952966168
 50
15.00000000002528
 51
194.9999999999873
  0
LINE
  5
904A
  8
0
 10
80.08314844291996
 20
204.2112257834795
 30
0.0
 11
79.60991179736195
 21
204.4844490881829
 31
0.0
1001
GENIUS_GENODEF_13
1002
{
1000
HIER
1070
     0
1002
}
1002
{
1000
MANEDIT
1070
     0
1002
}
1002
{
1000
NOSEL
1070
     0
1002
}
1002
{
1000
BEHIND
1070
     0
1002
}
1002
{
1000
OTHER
1070
     0
1002
}
1002
{
1000
REACTOR
1002
}
1001
GENIUS_GENOBJ-N-CEN_13
1002
{
1000
OWNER
1000
GEN
1002
}
1001
GENIUS_GENCEN_19
1002
{
1040
3.0
1002
}
  0
LINE
  5
904B
  8
0
 10
76.53244428740388
 20
206.2612257834795
 30
0.0
 11
75.65022846540111
 21
206.024836766424
 31
0.0
  0
LINE
  5
904C
  8
0
 10
78.41449509497258
 20
205.5210334046149
 30
0.0
 11
78.07459470386195
 21
205.7172749869202
 31
0.0
1001
GENIUS_GENODEF_13
1002
{
1000
HIER
1070
     0
1002
}
1002
{
1000
MANEDIT
1070
     0
1002
}
1002
{
1000
NOSEL
1070
     0
1002
}
1002
{
1000
BEHIND
1070
     0
1002
}
1002
{
1000
OTHER
1070
     0
1002
}
1002
{
1000
REACTOR
1002
}
1001
GENIUS_GENOBJ-N-CEN_13
1002
{
1000
OWNER
1000
GEN
1002
}
1001
GENIUS_GENCEN_19
1002
{
1040
3.0
1002
}
  0
LINE
  5
904D
  8
0
 10
80.23314844292005
 20
204.4710334046148
 30
0.0
 11
79.75991179736181
 21
204.7442567093182
 31
0.0
1001
GENIUS_GENODEF_13
1002
{
1000
HIER
1070
     0
1002
}
1002
{
1000
MANEDIT
1070
     0
1002
}
1002
{
1000
NOSEL
1070
     0
1002
}
1002
{
1000
BEHIND
1070
     0
1002
}
1002
{
1000
OTHER
1070
     0
1002
}
1002
{
1000
REACTOR
1002
}
1001
GENIUS_GENOBJ-N-CEN_13
1002
{
1000
OWNER
1000
GEN
1002
}
1001
GENIUS_GENCEN_19
1002
{
1040
3.0
1002
}
  0
LINE
  5
904E
  8
0
 10
75.64321380286239
 20
207.1210334046148
 30
0.0
 11
75.49724803380852
 21
207.6657850708902
 31
0.0
  0
ARC
  5
904F
  8
0
 10
75.6044752899281
 20
206.195589941897
 30
0.0
 40
0.1767766952966168
 50
104.9999999999873
 51
284.9999999999873
  0
ARC
  5
9050
  8
0
 10
74.78879093945645
 20
207.4411295940472
 30
0.0
 40
0.1499999999999773
 50
59.99999999997465
 51
239.9999999999746
  0
LINE
  5
9051
  8
0
 10
78.84750779686485
 20
205.2710334046149
 30
0.0
 11
79.38821726792136
 21
205.4159160707242
 31
0.0
  0
LINE
  5
9052
  8
0
 10
76.24943158551147
 20
206.7710334046149
 30
0.0
 11
75.64321380286239
 21
207.1210334046148
 31
0.0
1001
GENIUS_GENODEF_13
1002
{
1000
HIER
1070
     0
1002
}
1002
{
1000
MANEDIT
1070
     0
1002
}
1002
{
1000
NOSEL
1070
     0
1002
}
1002
{
1000
BEHIND
1070
     0
1002
}
1002
{
1000
OTHER
1070
     0
1002
}
1002
{
1000
REACTOR
1002
}
1001
GENIUS_GENOBJ-N-CEN_13
1002
{
1000
OWNER
1000
GEN
1002
}
1001
GENIUS_GENCEN_19
1002
{
1040
3.0
1002
}
  0
ARC
  5
9053
  8
0
 10
80.15814844292001
 20
204.3411295940472
 30
0.0
 40
0.1499999999999773
 50
239.9999999999746
 51
59.99999999997465
  0
ARC
  5
9054
  8
0
 10
79.34246409244835
 20
205.5866692461973
 30
0.0
 40
0.1767766952966168
 50
284.9999999999873
 51
104.9999999999873
  0
LINE
  5
9055
  8
0
 10
78.26449509497272
 20
205.2612257834795
 30
0.0
 11
78.50088411202839
 21
204.3790099614769
 31
0.0
  0
LINE
  5
9056
  8
0
 10
75.18702758501465
 20
207.0380024787761
 30
0.0
 11
74.7137909394564
 21
207.3112257834795
 31
0.0
1001
GENIUS_GENODEF_13
1002
{
1000
HIER
1070
     0
1002
}
1002
{
1000
MANEDIT
1070
     0
1002
}
1002
{
1000
NOSEL
1070
     0
1002
}
1002
{
1000
BEHIND
1070
     0
1002
}
1002
{
1000
OTHER
1070
     0
1002
}
1002
{
1000
REACTOR
1002
}
1001
GENIUS_GENOBJ-N-CEN_13
1002
{
1000
OWNER
1000
GEN
1002
}
1001
GENIUS_GENCEN_19
1002
{
1040
3.0
1002
}
  0
LINE
  5
9057
  8
0
 10
78.69750779686498
 20
205.0112257834795
 30
0.0
 11
78.84239046297441
 21
204.470516312423
 31
0.0
  0
LINE
  5
9058
  8
0
 10
76.09943158551161
 20
206.5112257834795
 30
0.0
 11
75.5587221144551
 21
206.3663431173701
 31
0.0
  0
LINE
  5
9059
  8
0
 10
76.68244428740374
 20
206.5210334046149
 30
0.0
 11
76.4460552703483
 21
207.4032492266174
 31
0.0
  0
ARC
  5
905A
  8
0
 10
78.6716372875014
 20
204.42476313695
 30
0.0
 40
0.1767766952966168
 50
195.0000000000253
 51
14.99999999998731
  0
LINE
  5
905B
  8
0
 10
76.09943158551161
 20
206.5112257834795
 30
0.0
 11
75.49321380286253
 21
206.8612257834795
 31
0.0
1001
GENIUS_GENODEF_13
1002
{
1000
HIER
1070
     0
1002
}
1002
{
1000
MANEDIT
1070
     0
1002
}
1002
{
1000
NOSEL
1070
     0
1002
}
1002
{
1000
BEHIND
1070
     0
1002
}
1002
{
1000
OTHER
1070
     0
1002
}
1002
{
1000
REACTOR
1002
}
1001
GENIUS_GENOBJ-N-CEN_13
1002
{
1000
OWNER
1000
GEN
1002
}
1001
GENIUS_GENCEN_19
1002
{
1040
3.0
1002
}
  0
POLYLINE
  5
905C
  8
0
 66
     1
 10
0.0
 20
0.0
 30
0.0
  0
VERTEX
  5
A4B4
  8
0
 10
77.92459470386208
 20
206.3247918223093
 30
0.0
  0
VERTEX
  5
A4B5
  8
0
 10
77.62346969118832
 20
206.4986464294364
 30
0.0
  0
SEQEND
  5
A4DB
  8
0
  0
POLYLINE
  5
905D
  8
0
 66
     1
 10
0.0
 20
0.0
 30
0.0
  0
VERTEX
  5
A4B6
  8
0
 10
77.02234467851437
 20
205.4574673657848
 30
0.0
  0
VERTEX
  5
A4B7
  8
0
 10
77.32346969118814
 20
205.2836127586578
 30
0.0
  0
SEQEND
  5
A4DC
  8
0
  0
POLYLINE
  5
905E
  8
0
 66
     1
 10
0.0
 20
0.0
 30
0.0
  0
VERTEX
  5
A4B8
  8
0
 10
77.62346969118832
 20
205.2836127586578
 30
0.0
  0
VERTEX
  5
A4B9
  8
0
 10
77.92459470386208
 20
205.4574673657849
 30
0.0
  0
SEQEND
  5
A4DD
  8
0
  0
POLYLINE
  5
905F
  8
0
 66
     1
 10
0.0
 20
0.0
 30
0.0
  0
VERTEX
  5
A4BA
  8
0
 10
78.07459470386195
 20
205.7172749869202
 30
0.0
  0
VERTEX
  5
A4BB
  8
0
 10
78.07459470386195
 20
206.064984201174
 30
0.0
  0
SEQEND
  5
A4DE
  8
0
  0
POLYLINE
  5
9060
  8
0
 66
     1
 10
0.0
 20
0.0
 30
0.0
  0
VERTEX
  5
A4BC
  8
0
 10
76.87234467851451
 20
206.0649842011741
 30
0.0
  0
VERTEX
  5
A4BD
  8
0
 10
76.87234467851451
 20
205.7172749869201
 30
0.0
  0
SEQEND
  5
A4DF
  8
0
  0
LINE
  5
9061
  8
0
 10
76.87234467851451
 20
206.0649842011741
 30
0.0
 11
76.53244428740388
 21
206.2612257834795
 31
0.0
1001
GENIUS_GENODEF_13
1002
{
1000
HIER
1070
     0
1002
}
1002
{
1000
MANEDIT
1070
     0
1002
}
1002
{
1000
NOSEL
1070
     0
1002
}
1002
{
1000
BEHIND
1070
     0
1002
}
1002
{
1000
OTHER
1070
     0
1002
}
1002
{
1000
REACTOR
1002
}
1001
GENIUS_GENOBJ-N-CEN_13
1002
{
1000
OWNER
1000
GEN
1002
}
1001
GENIUS_GENCEN_19
1002
{
1040
3.0
1002
}
  0
LINE
  5
9062
  8
0
 10
77.02234467851437
 20
205.4574673657848
 30
0.0
 11
76.68244428740374
 21
205.2612257834794
 31
0.0
1001
GENIUS_GENODEF_13
1002
{
1000
HIER
1070
     0
1002
}
1002
{
1000
MANEDIT
1070
     0
1002
}
1002
{
1000
NOSEL
1070
     0
1002
}
1002
{
1000
BEHIND
1070
     0
1002
}
1002
{
1000
OTHER
1070
     0
1002
}
1002
{
1000
REACTOR
1002
}
1001
GENIUS_GENOBJ-N-CEN_13
1002
{
1000
OWNER
1000
GEN
1002
}
1001
GENIUS_GENCEN_19
1002
{
1040
3.0
1002
}
  0
LINE
  5
9063
  8
0
 10
77.62346969118832
 20
206.4986464294364
 30
0.0
 11
77.62346969118832
 21
206.8911295940472
 31
0.0
1001
GENIUS_GENODEF_13
1002
{
1000
HIER
1070
     0
1002
}
1002
{
1000
MANEDIT
1070
     0
1002
}
1002
{
1000
NOSEL
1070
     0
1002
}
1002
{
1000
BEHIND
1070
     0
1002
}
1002
{
1000
OTHER
1070
     0
1002
}
1002
{
1000
REACTOR
1002
}
1001
GENIUS_GENOBJ-N-CEN_13
1002
{
1000
OWNER
1000
GEN
1002
}
1001
GENIUS_GENCEN_19
1002
{
1040
3.0
1002
}
  0
LINE
  5
9064
  8
0
 10
76.87234467851451
 20
205.7172749869201
 30
0.0
 11
76.53244428740388
 21
205.5210334046148
 31
0.0
1001
GENIUS_GENODEF_13
1002
{
1000
HIER
1070
     0
1002
}
1002
{
1000
MANEDIT
1070
     0
1002
}
1002
{
1000
NOSEL
1070
     0
1002
}
1002
{
1000
BEHIND
1070
     0
1002
}
1002
{
1000
OTHER
1070
     0
1002
}
1002
{
1000
REACTOR
1002
}
1001
GENIUS_GENOBJ-N-CEN_13
1002
{
1000
OWNER
1000
GEN
1002
}
1001
GENIUS_GENCEN_19
1002
{
1040
3.0
1002
}
  0
LINE
  5
9065
  8
0
 10
77.0223446785146
 20
206.3247918223094
 30
0.0
 11
76.68244428740374
 21
206.5210334046149
 31
0.0
1001
GENIUS_GENODEF_13
1002
{
1000
HIER
1070
     0
1002
}
1002
{
1000
MANEDIT
1070
     0
1002
}
1002
{
1000
NOSEL
1070
     0
1002
}
1002
{
1000
BEHIND
1070
     0
1002
}
1002
{
1000
OTHER
1070
     0
1002
}
1002
{
1000
REACTOR
1002
}
1001
GENIUS_GENOBJ-N-CEN_13
1002
{
1000
OWNER
1000
GEN
1002
}
1001
GENIUS_GENCEN_19
1002
{
1040
3.0
1002
}
  0
LINE
  5
9066
  8
0
 10
77.32346969118814
 20
206.4986464294364
 30
0.0
 11
77.32346969118814
 21
206.8911295940472
 31
0.0
1001
GENIUS_GENODEF_13
1002
{
1000
HIER
1070
     0
1002
}
1002
{
1000
MANEDIT
1070
     0
1002
}
1002
{
1000
NOSEL
1070
     0
1002
}
1002
{
1000
BEHIND
1070
     0
1002
}
1002
{
1000
OTHER
1070
     0
1002
}
1002
{
1000
REACTOR
1002
}
1001
GENIUS_GENOBJ-N-CEN_13
1002
{
1000
OWNER
1000
GEN
1002
}
1001
GENIUS_GENCEN_19
1002
{
1040
3.0
1002
}
  0
POINT
  5
9067
  8
0
 10
77.47346969118823
 20
205.8911295940472
 30
0.0
  0
INSERT
  5
9069
  8
0
 62
     7
  2
*X10
 10
0.0
 20
0.0
 30
0.0
  0
TEXT
  5
906A
  8
0
 62
     7
 10
69.34772694134764
 20
232.9769675655996
 30
0.0
 40
1.9
  1
給水
  0
TEXT
  5
906B
  8
0
 62
     7
 10
89.34300643006667
 20
227.9715253887288
 30
0.0
 40
4.0
  1
PUSH
 41
1.2
  0
CIRCLE
  5
906C
  8
0
 10
95.52185615177353
 20
229.8911295940473
 30
0.0
 40
8.25
  0
LINE
  5
906D
  8
0
 10
68.27185615177311
 20
223.8911295940467
 30
0.0
 11
68.27185615177311
 21
235.8911295940472
 31
0.0
  0
ARC
  5
906E
  8
0
 10
70.27185615177311
 20
223.8911295940467
 30
0.0
 40
2.0
 50
180.0
 51
270.0
1001
GENIUS_GENOBJ-N-FIL_13
1002
{
1000
OWNER
1000
GEN
1002
}
1001
GENIUS_GENODEF_13
1002
{
1000
HIER
1070
     0
1002
}
1002
{
1000
MANEDIT
1070
     0
1002
}
1002
{
1000
NOSEL
1070
     0
1002
}
1002
{
1000
BEHIND
1070
     0
1002
}
1002
{
1000
OTHER
1070
     0
1002
}
1002
{
1000
REACTOR
1002
}
  0
LINE
  5
906F
  8
0
 10
86.2718561517722
 20
223.8911295940467
 30
0.0
 11
86.2718561517722
 21
235.8911295940462
 31
0.0
  0
ARC
  5
9070
  8
0
 10
84.2718561517722
 20
235.8911295940462
 30
0.0
 40
2.0
 50
0.0
 51
90.0
1001
GENIUS_GENODEF_13
1002
{
1000
HIER
1070
     0
1002
}
1002
{
1000
MANEDIT
1070
     0
1002
}
1002
{
1000
NOSEL
1070
     0
1002
}
1002
{
1000
BEHIND
1070
     0
1002
}
1002
{
1000
OTHER
1070
     0
1002
}
1002
{
1000
REACTOR
1002
}
1001
GENIUS_GENOBJ-N-FIL_13
1002
{
1000
OWNER
1000
GEN
1002
}
  0
LINE
  5
9071
  8
0
 10
86.2718561517722
 20
229.3911295940467
 30
0.0
 11
86.24963589325918
 21
229.3911295940467
 31
0.0
  0
LINE
  5
9072
  8
0
 10
84.82185615177261
 20
229.5411295940466
 30
0.0
 11
69.7218561517727
 21
229.5411295940466
 31
0.0
  0
LINE
  5
9073
  8
0
 10
86.2718561517722
 20
230.3911295940467
 30
0.0
 11
86.24963589325918
 21
230.3911295940467
 31
0.0
  0
LINE
  5
9074
  8
0
 10
84.82185615177261
 20
230.2411295940466
 30
0.0
 11
69.7218561517727
 21
230.2411295940466
 31
0.0
  0
CIRCLE
  5
9075
  8
0
 10
77.47346969118823
 20
233.8911295940472
 30
0.0
 40
2.0
  0
LINE
  5
9076
  8
0
 10
84.2718561517722
 20
237.8911295940462
 30
0.0
 11
70.27185615177311
 21
237.8911295940472
 31
0.0
  0
ARC
  5
9077
  8
0
 10
70.27185615177311
 20
235.8911295940472
 30
0.0
 40
2.0
 50
90.0
 51
180.0
1001
GENIUS_GENOBJ-N-FIL_13
1002
{
1000
OWNER
1000
GEN
1002
}
1001
GENIUS_GENODEF_13
1002
{
1000
HIER
1070
     0
1002
}
1002
{
1000
MANEDIT
1070
     0
1002
}
1002
{
1000
NOSEL
1070
     0
1002
}
1002
{
1000
BEHIND
1070
     0
1002
}
1002
{
1000
OTHER
1070
     0
1002
}
1002
{
1000
REACTOR
1002
}
  0
LINE
  5
9078
  8
0
 10
84.2718561517722
 20
221.8911295940467
 30
0.0
 11
70.27185615177311
 21
221.8911295940467
 31
0.0
  0
ARC
  5
9079
  8
0
 10
84.2718561517722
 20
223.8911295940467
 30
0.0
 40
2.0
 50
270.0
 51
0.0
1001
GENIUS_GENODEF_13
1002
{
1000
HIER
1070
     0
1002
}
1002
{
1000
MANEDIT
1070
     0
1002
}
1002
{
1000
NOSEL
1070
     0
1002
}
1002
{
1000
BEHIND
1070
     0
1002
}
1002
{
1000
OTHER
1070
     0
1002
}
1002
{
1000
REACTOR
1002
}
1001
GENIUS_GENOBJ-N-FIL_13
1002
{
1000
OWNER
1000
GEN
1002
}
  0
ARC
  5
907A
  8
0
 10
69.7218561517727
 20
229.8911295940467
 30
0.0
 40
0.3500000000000227
 50
90.0
 51
270.0
  0
ARC
  5
907B
  8
0
 10
84.82185615177261
 20
229.8911295940467
 30
0.0
 40
0.3500000000000227
 50
270.0
 51
90.0
  0
CIRCLE
  5
907C
  8
0
 10
82.52185615177356
 20
233.891129594047
 30
0.0
 40
1.5
  0
CIRCLE
  5
907D
  8
0
 10
82.52185615177356
 20
225.891129594047
 30
0.0
 40
1.5
  0
POLYLINE
  5
907E
  8
0
 66
     1
 10
0.0
 20
0.0
 30
0.0
 70
     1
  0
VERTEX
  5
A4C1
  8
0
 10
77.47346969118823
 20
226.2009960428475
 30
0.0
  0
VERTEX
  5
A4C2
  8
0
 10
77.20511747474663
 20
226.0460628184474
 30
0.0
  0
VERTEX
  5
A4C3
  8
0
 10
77.20511747474663
 20
225.736196369647
 30
0.0
  0
VERTEX
  5
A4C4
  8
0
 10
77.47346969118823
 20
225.5812631452469
 30
0.0
  0
VERTEX
  5
A4C5
  8
0
 10
77.74182190762983
 20
225.736196369647
 30
0.0
  0
VERTEX
  5
A4C6
  8
0
 10
77.74182190762983
 20
226.0460628184474
 30
0.0
  0
SEQEND
  5
A4E0
  8
0
  0
POLYLINE
  5
907F
  8
0
 66
     1
 10
0.0
 20
0.0
 30
0.0
  0
VERTEX
  5
A4C7
  8
0
 10
77.32346969118814
 20
226.4986464294365
 30
0.0
  0
VERTEX
  5
A4C8
  8
0
 10
77.0223446785146
 20
226.3247918223095
 30
0.0
  0
SEQEND
  5
A4E1
  8
0
  0
LINE
  5
9080
  8
0
 10
77.32346969118814
 20
222.7911295940471
 30
0.0
 11
77.32346969118814
 21
223.3375762034539
 31
0.0
1001
GENIUS_GENODEF_13
1002
{
1000
HIER
1070
     0
1002
}
1002
{
1000
MANEDIT
1070
     0
1002
}
1002
{
1000
NOSEL
1070
     0
1002
}
1002
{
1000
BEHIND
1070
     0
1002
}
1002
{
1000
OTHER
1070
     0
1002
}
1002
{
1000
REACTOR
1002
}
1001
GENIUS_GENOBJ-N-CEN_13
1002
{
1000
OWNER
1000
GEN
1002
}
1001
GENIUS_GENCEN_19
1002
{
1040
3.0
1002
}
  0
LINE
  5
9081
  8
0
 10
77.62346969118832
 20
222.7911295940471
 30
0.0
 11
77.62346969118832
 21
223.3375762034539
 31
0.0
1001
GENIUS_GENODEF_13
1002
{
1000
HIER
1070
     0
1002
}
1002
{
1000
MANEDIT
1070
     0
1002
}
1002
{
1000
NOSEL
1070
     0
1002
}
1002
{
1000
BEHIND
1070
     0
1002
}
1002
{
1000
OTHER
1070
     0
1002
}
1002
{
1000
REACTOR
1002
}
1001
GENIUS_GENOBJ-N-CEN_13
1002
{
1000
OWNER
1000
GEN
1002
}
1001
GENIUS_GENCEN_19
1002
{
1040
3.0
1002
}
  0
LINE
  5
9082
  8
0
 10
77.62346969118832
 20
226.8911295940473
 30
0.0
 11
78.26929649613518
 21
227.5369563989942
 31
0.0
  0
LINE
  5
9083
  8
0
 10
77.62346969118832
 20
227.3911295940473
 30
0.0
 11
78.01929649613518
 21
227.7869563989942
 31
0.0
  0
ARC
  5
9084
  8
0
 10
77.47346969118823
 20
228.9911295940472
 30
0.0
 40
0.1499999999999773
 50
0.0
 51
180.0
  0
ARC
  5
9085
  8
0
 10
78.14429649613518
 20
227.6619563989942
 30
0.0
 40
0.1767766952966168
 50
315.0000000000196
 51
135.0000000000065
  0
LINE
  5
9086
  8
0
 10
77.32346969118814
 20
226.8911295940473
 30
0.0
 11
76.67764288624127
 21
227.5369563989942
 31
0.0
  0
LINE
  5
9087
  8
0
 10
77.32346969118814
 20
227.3911295940473
 30
0.0
 11
76.92764288624127
 21
227.7869563989942
 31
0.0
  0
ARC
  5
9088
  8
0
 10
76.80264288624127
 20
227.6619563989942
 30
0.0
 40
0.1767766952966168
 50
44.99999999999348
 51
224.9999999999544
  0
LINE
  5
9089
  8
0
 10
77.62346969118832
 20
228.0911295940472
 30
0.0
 11
78.0222555884097
 21
228.4899154912686
 31
0.0
  0
LINE
  5
908A
  8
0
 10
77.62346969118832
 20
228.4446829846404
 30
0.0
 11
77.84547889311304
 21
228.6666921865651
 31
0.0
  0
ARC
  5
908B
  8
0
 10
77.93386724076115
 20
228.578303838917
 30
0.0
 40
0.1249999999999206
 50
314.9999999999079
 51
134.9999999999355
  0
LINE
  5
908C
  8
0
 10
79.30372557951407
 20
224.6612257834796
 30
0.0
 11
79.44969134856794
 21
224.1164741172043
 31
0.0
  0
LINE
  5
908D
  8
0
 10
79.60991179736195
 20
224.484449088183
 30
0.0
 11
79.69117280514021
 21
224.18117887848
 31
0.0
  0
ARC
  5
908E
  8
0
 10
80.03082962642722
 20
224.9462584453827
 30
0.0
 40
0.1249999999999206
 50
285.0000000000046
 51
105.0000000000172
  0
LINE
  5
908F
  8
0
 10
77.62346969118832
 20
224.8911295940473
 30
0.0
 11
77.62346969118832
 21
225.2836127586579
 31
0.0
1001
GENIUS_GENODEF_13
1002
{
1000
HIER
1070
     0
1002
}
1002
{
1000
MANEDIT
1070
     0
1002
}
1002
{
1000
NOSEL
1070
     0
1002
}
1002
{
1000
BEHIND
1070
     0
1002
}
1002
{
1000
OTHER
1070
     0
1002
}
1002
{
1000
REACTOR
1002
}
1001
GENIUS_GENOBJ-N-CEN_13
1002
{
1000
OWNER
1000
GEN
1002
}
1001
GENIUS_GENCEN_19
1002
{
1040
3.0
1002
}
  0
LINE
  5
9090
  8
0
 10
79.75991179736181
 20
224.7442567093183
 30
0.0
 11
80.06318200706502
 21
224.8255177170967
 31
0.0
  0
ARC
  5
9091
  8
0
 10
79.5704320768543
 20
224.1488264978421
 30
0.0
 40
0.1249999999999206
 50
194.9999999999509
 51
14.99999999999198
  0
LINE
  5
9092
  8
0
 10
79.45372557951393
 20
224.921033404615
 30
0.0
 11
79.99847724578942
 21
225.066999173669
 31
0.0
  0
LINE
  5
9093
  8
0
 10
77.62346969118832
 20
223.6911295940472
 30
0.0
 11
77.62346969118832
 21
224.3911295940473
 31
0.0
1001
GENIUS_GENODEF_13
1002
{
1000
HIER
1070
     0
1002
}
1002
{
1000
MANEDIT
1070
     0
1002
}
1002
{
1000
NOSEL
1070
     0
1002
}
1002
{
1000
BEHIND
1070
     0
1002
}
1002
{
1000
OTHER
1070
     0
1002
}
1002
{
1000
REACTOR
1002
}
1001
GENIUS_GENOBJ-N-CEN_13
1002
{
1000
OWNER
1000
GEN
1002
}
1001
GENIUS_GENCEN_19
1002
{
1040
3.0
1002
}
  0
LINE
  5
9094
  8
0
 10
77.32346969118814
 20
223.6911295940472
 30
0.0
 11
77.32346969118814
 21
224.3911295940473
 31
0.0
1001
GENIUS_GENODEF_13
1002
{
1000
HIER
1070
     0
1002
}
1002
{
1000
MANEDIT
1070
     0
1002
}
1002
{
1000
NOSEL
1070
     0
1002
}
1002
{
1000
BEHIND
1070
     0
1002
}
1002
{
1000
OTHER
1070
     0
1002
}
1002
{
1000
REACTOR
1002
}
1001
GENIUS_GENOBJ-N-CEN_13
1002
{
1000
OWNER
1000
GEN
1002
}
1001
GENIUS_GENCEN_19
1002
{
1040
3.0
1002
}
  0
LINE
  5
9095
  8
0
 10
77.32346969118814
 20
228.4446829846404
 30
0.0
 11
77.32346969118814
 21
228.9911295940472
 31
0.0
1001
GENIUS_GENODEF_13
1002
{
1000
HIER
1070
     0
1002
}
1002
{
1000
MANEDIT
1070
     0
1002
}
1002
{
1000
NOSEL
1070
     0
1002
}
1002
{
1000
BEHIND
1070
     0
1002
}
1002
{
1000
OTHER
1070
     0
1002
}
1002
{
1000
REACTOR
1002
}
1001
GENIUS_GENOBJ-N-CEN_13
1002
{
1000
OWNER
1000
GEN
1002
}
1001
GENIUS_GENCEN_19
1002
{
1040
3.0
1002
}
  0
LINE
  5
9096
  8
0
 10
77.62346969118832
 20
228.4446829846404
 30
0.0
 11
77.62346969118832
 21
228.9911295940472
 31
0.0
1001
GENIUS_GENODEF_13
1002
{
1000
HIER
1070
     0
1002
}
1002
{
1000
MANEDIT
1070
     0
1002
}
1002
{
1000
NOSEL
1070
     0
1002
}
1002
{
1000
BEHIND
1070
     0
1002
}
1002
{
1000
OTHER
1070
     0
1002
}
1002
{
1000
REACTOR
1002
}
1001
GENIUS_GENOBJ-N-CEN_13
1002
{
1000
OWNER
1000
GEN
1002
}
1001
GENIUS_GENCEN_19
1002
{
1040
3.0
1002
}
  0
ARC
  5
9097
  8
0
 10
77.01307214161531
 20
228.578303838917
 30
0.0
 40
0.1249999999999206
 50
45.00000000006448
 51
224.9999999999355
  0
LINE
  5
9098
  8
0
 10
77.32346969118814
 20
228.4446829846404
 30
0.0
 11
77.10146048926342
 21
228.6666921865651
 31
0.0
  0
LINE
  5
9099
  8
0
 10
77.32346969118814
 20
228.0911295940472
 30
0.0
 11
76.92468379396675
 21
228.4899154912686
 31
0.0
  0
LINE
  5
909A
  8
0
 10
77.62346969118832
 20
227.3911295940473
 30
0.0
 11
77.62346969118832
 21
228.0911295940472
 31
0.0
1001
GENIUS_GENODEF_13
1002
{
1000
HIER
1070
     0
1002
}
1002
{
1000
MANEDIT
1070
     0
1002
}
1002
{
1000
NOSEL
1070
     0
1002
}
1002
{
1000
BEHIND
1070
     0
1002
}
1002
{
1000
OTHER
1070
     0
1002
}
1002
{
1000
REACTOR
1002
}
1001
GENIUS_GENOBJ-N-CEN_13
1002
{
1000
OWNER
1000
GEN
1002
}
1001
GENIUS_GENCEN_19
1002
{
1040
3.0
1002
}
  0
LINE
  5
909B
  8
0
 10
77.32346969118814
 20
227.3911295940473
 30
0.0
 11
77.32346969118814
 21
228.0911295940472
 31
0.0
1001
GENIUS_GENODEF_13
1002
{
1000
HIER
1070
     0
1002
}
1002
{
1000
MANEDIT
1070
     0
1002
}
1002
{
1000
NOSEL
1070
     0
1002
}
1002
{
1000
BEHIND
1070
     0
1002
}
1002
{
1000
OTHER
1070
     0
1002
}
1002
{
1000
REACTOR
1002
}
1001
GENIUS_GENOBJ-N-CEN_13
1002
{
1000
OWNER
1000
GEN
1002
}
1001
GENIUS_GENCEN_19
1002
{
1040
3.0
1002
}
  0
LINE
  5
909C
  8
0
 10
77.62346969118832
 20
223.3375762034539
 30
0.0
 11
77.84547889311304
 21
223.1155670015292
 31
0.0
  0
LINE
  5
909D
  8
0
 10
77.32346969118814
 20
224.3911295940473
 30
0.0
 11
76.92764288624127
 21
223.9953027891002
 31
0.0
  0
ARC
  5
909E
  8
0
 10
77.47346969118823
 20
222.7911295940471
 30
0.0
 40
0.1499999999999773
 50
180.0
 51
0.0
  0
ARC
  5
909F
  8
0
 10
78.14429649613518
 20
224.1203027891002
 30
0.0
 40
0.1767766952966168
 50
224.9999999999935
 51
44.99999999999348
  0
ARC
  5
90A0
  8
0
 10
76.80264288624127
 20
224.1203027891002
 30
0.0
 40
0.1767766952966168
 50
135.0000000000065
 51
315.0000000000065
  0
LINE
  5
90A1
  8
0
 10
77.62346969118832
 20
224.3911295940473
 30
0.0
 11
78.01929649613518
 21
223.9953027891002
 31
0.0
  0
LINE
  5
90A2
  8
0
 10
77.32346969118814
 20
224.8911295940473
 30
0.0
 11
76.67764288624127
 21
224.2453027891002
 31
0.0
  0
ARC
  5
90A3
  8
0
 10
77.93386724076115
 20
223.2039553491774
 30
0.0
 40
0.1249999999999206
 50
225.0000000000645
 51
44.99999999995394
  0
LINE
  5
90A4
  8
0
 10
77.32346969118814
 20
223.6911295940472
 30
0.0
 11
76.92468379396675
 21
223.2923436968258
 31
0.0
  0
LINE
  5
90A5
  8
0
 10
77.62346969118832
 20
223.6911295940472
 30
0.0
 11
78.0222555884097
 21
223.2923436968258
 31
0.0
  0
LINE
  5
90A6
  8
0
 10
77.62346969118832
 20
224.8911295940473
 30
0.0
 11
78.26929649613518
 21
224.2453027891002
 31
0.0
  0
ARC
  5
90A7
  8
0
 10
77.01307214161531
 20
223.2039553491774
 30
0.0
 40
0.1249999999999206
 50
134.9999999998987
 51
314.9999999998987
  0
LINE
  5
90A8
  8
0
 10
77.32346969118814
 20
223.3375762034539
 30
0.0
 11
77.10146048926342
 21
223.1155670015292
 31
0.0
  0
LINE
  5
90A9
  8
0
 10
78.69750779686498
 20
226.7710334046149
 30
0.0
 11
78.84239046297441
 21
227.3117428756713
 31
0.0
  0
ARC
  5
90AA
  8
0
 10
78.6716372875014
 20
227.3574960511444
 30
0.0
 40
0.1767766952966168
 50
344.9999999999747
 51
164.9999999999747
  0
LINE
  5
90AB
  8
0
 10
75.33702758501451
 20
224.484449088183
 30
0.0
 11
74.86379093945649
 21
224.2112257834796
 31
0.0
1001
GENIUS_GENODEF_13
1002
{
1000
HIER
1070
     0
1002
}
1002
{
1000
MANEDIT
1070
     0
1002
}
1002
{
1000
NOSEL
1070
     0
1002
}
1002
{
1000
BEHIND
1070
     0
1002
}
1002
{
1000
OTHER
1070
     0
1002
}
1002
{
1000
REACTOR
1002
}
1001
GENIUS_GENOBJ-N-CEN_13
1002
{
1000
OWNER
1000
GEN
1002
}
1001
GENIUS_GENCEN_19
1002
{
1040
3.0
1002
}
  0
LINE
  5
90AC
  8
0
 10
78.41449509497258
 20
226.2612257834795
 30
0.0
 11
79.29671091697534
 21
226.024836766424
 31
0.0
  0
LINE
  5
90AD
  8
0
 10
79.45372557951393
 20
226.8612257834796
 30
0.0
 11
79.99847724578942
 21
226.7152600144256
 31
0.0
  0
LINE
  5
90AE
  8
0
 10
79.75991179736181
 20
227.0380024787762
 30
0.0
 11
80.06318200706502
 21
226.9567414709979
 31
0.0
  0
ARC
  5
90AF
  8
0
 10
80.03082962642722
 20
226.8360007427118
 30
0.0
 40
0.1249999999999206
 50
254.9999999999828
 51
74.99999999999544
  0
LINE
  5
90B0
  8
0
 10
79.30372557951407
 20
227.1210334046149
 30
0.0
 11
79.44969134856794
 21
227.6657850708903
 31
0.0
  0
LINE
  5
90B1
  8
0
 10
76.09943158551161
 20
225.2710334046149
 30
0.0
 11
75.49321380286253
 21
224.9210334046149
 31
0.0
1001
GENIUS_GENODEF_13
1002
{
1000
HIER
1070
     0
1002
}
1002
{
1000
MANEDIT
1070
     0
1002
}
1002
{
1000
NOSEL
1070
     0
1002
}
1002
{
1000
BEHIND
1070
     0
1002
}
1002
{
1000
OTHER
1070
     0
1002
}
1002
{
1000
REACTOR
1002
}
1001
GENIUS_GENOBJ-N-CEN_13
1002
{
1000
OWNER
1000
GEN
1002
}
1001
GENIUS_GENCEN_19
1002
{
1040
3.0
1002
}
  0
ARC
  5
90B2
  8
0
 10
76.27530209487506
 20
224.42476313695
 30
0.0
 40
0.1767766952966168
 50
164.9999999999747
 51
345.0000000000127
  0
LINE
  5
90B3
  8
0
 10
76.09943158551161
 20
225.2710334046149
 30
0.0
 11
75.5587221144551
 21
225.4159160707243
 31
0.0
  0
ARC
  5
90B4
  8
0
 10
80.15814844292001
 20
227.4411295940472
 30
0.0
 40
0.1499999999999773
 50
300.0000000000254
 51
120.0000000000348
  0
LINE
  5
90B5
  8
0
 10
78.41449509497258
 20
226.2612257834795
 30
0.0
 11
78.07459470386195
 21
226.0649842011741
 31
0.0
1001
GENIUS_GENODEF_13
1002
{
1000
HIER
1070
     0
1002
}
1002
{
1000
MANEDIT
1070
     0
1002
}
1002
{
1000
NOSEL
1070
     0
1002
}
1002
{
1000
BEHIND
1070
     0
1002
}
1002
{
1000
OTHER
1070
     0
1002
}
1002
{
1000
REACTOR
1002
}
1001
GENIUS_GENOBJ-N-CEN_13
1002
{
1000
OWNER
1000
GEN
1002
}
1001
GENIUS_GENCEN_19
1002
{
1040
3.0
1002
}
  0
LINE
  5
90B6
  8
0
 10
78.26449509497272
 20
226.5210334046149
 30
0.0
 11
77.92459470386208
 21
226.3247918223094
 31
0.0
1001
GENIUS_GENODEF_13
1002
{
1000
HIER
1070
     0
1002
}
1002
{
1000
MANEDIT
1070
     0
1002
}
1002
{
1000
NOSEL
1070
     0
1002
}
1002
{
1000
BEHIND
1070
     0
1002
}
1002
{
1000
OTHER
1070
     0
1002
}
1002
{
1000
REACTOR
1002
}
1001
GENIUS_GENOBJ-N-CEN_13
1002
{
1000
OWNER
1000
GEN
1002
}
1001
GENIUS_GENCEN_19
1002
{
1040
3.0
1002
}
  0
LINE
  5
90B7
  8
0
 10
76.24943158551147
 20
225.0112257834795
 30
0.0
 11
76.10454891940205
 21
224.4705163124231
 31
0.0
  0
LINE
  5
90B8
  8
0
 10
76.68244428740374
 20
225.2612257834795
 30
0.0
 11
76.4460552703483
 21
224.379009961477
 31
0.0
  0
LINE
  5
90B9
  8
0
 10
80.23314844292005
 20
227.3112257834796
 30
0.0
 11
79.75991179736181
 21
227.0380024787762
 31
0.0
1001
GENIUS_GENODEF_13
1002
{
1000
HIER
1070
     0
1002
}
1002
{
1000
MANEDIT
1070
     0
1002
}
1002
{
1000
NOSEL
1070
     0
1002
}
1002
{
1000
BEHIND
1070
     0
1002
}
1002
{
1000
OTHER
1070
     0
1002
}
1002
{
1000
REACTOR
1002
}
1001
GENIUS_GENOBJ-N-CEN_13
1002
{
1000
OWNER
1000
GEN
1002
}
1001
GENIUS_GENCEN_19
1002
{
1040
3.0
1002
}
  0
ARC
  5
90BA
  8
0
 10
74.78879093945645
 20
224.3411295940472
 30
0.0
 40
0.1499999999999773
 50
120.0000000000348
 51
300.0000000000254
  0
ARC
  5
90BB
  8
0
 10
75.6044752899281
 20
225.5866692461973
 30
0.0
 40
0.1767766952966168
 50
75.0000000000127
 51
255.0000000000038
  0
LINE
  5
90BC
  8
0
 10
80.08314844291996
 20
227.571033404615
 30
0.0
 11
79.60991179736195
 21
227.2978100999116
 31
0.0
1001
GENIUS_GENODEF_13
1002
{
1000
HIER
1070
     0
1002
}
1002
{
1000
MANEDIT
1070
     0
1002
}
1002
{
1000
NOSEL
1070
     0
1002
}
1002
{
1000
BEHIND
1070
     0
1002
}
1002
{
1000
OTHER
1070
     0
1002
}
1002
{
1000
REACTOR
1002
}
1001
GENIUS_GENOBJ-N-CEN_13
1002
{
1000
OWNER
1000
GEN
1002
}
1001
GENIUS_GENCEN_19
1002
{
1040
3.0
1002
}
  0
LINE
  5
90BD
  8
0
 10
79.30372557951407
 20
227.1210334046149
 30
0.0
 11
78.69750779686498
 21
226.7710334046149
 31
0.0
1001
GENIUS_GENODEF_13
1002
{
1000
HIER
1070
     0
1002
}
1002
{
1000
MANEDIT
1070
     0
1002
}
1002
{
1000
NOSEL
1070
     0
1002
}
1002
{
1000
BEHIND
1070
     0
1002
}
1002
{
1000
OTHER
1070
     0
1002
}
1002
{
1000
REACTOR
1002
}
1001
GENIUS_GENOBJ-N-CEN_13
1002
{
1000
OWNER
1000
GEN
1002
}
1001
GENIUS_GENCEN_19
1002
{
1040
3.0
1002
}
  0
LINE
  5
90BE
  8
0
 10
75.18702758501465
 20
224.7442567093183
 30
0.0
 11
74.7137909394564
 21
224.4710334046149
 31
0.0
1001
GENIUS_GENODEF_13
1002
{
1000
HIER
1070
     0
1002
}
1002
{
1000
MANEDIT
1070
     0
1002
}
1002
{
1000
NOSEL
1070
     0
1002
}
1002
{
1000
BEHIND
1070
     0
1002
}
1002
{
1000
OTHER
1070
     0
1002
}
1002
{
1000
REACTOR
1002
}
1001
GENIUS_GENOBJ-N-CEN_13
1002
{
1000
OWNER
1000
GEN
1002
}
1001
GENIUS_GENCEN_19
1002
{
1040
3.0
1002
}
  0
LINE
  5
90BF
  8
0
 10
79.45372557951393
 20
226.8612257834796
 30
0.0
 11
78.84750779686485
 21
226.5112257834795
 31
0.0
1001
GENIUS_GENODEF_13
1002
{
1000
HIER
1070
     0
1002
}
1002
{
1000
MANEDIT
1070
     0
1002
}
1002
{
1000
NOSEL
1070
     0
1002
}
1002
{
1000
BEHIND
1070
     0
1002
}
1002
{
1000
OTHER
1070
     0
1002
}
1002
{
1000
REACTOR
1002
}
1001
GENIUS_GENOBJ-N-CEN_13
1002
{
1000
OWNER
1000
GEN
1002
}
1001
GENIUS_GENCEN_19
1002
{
1040
3.0
1002
}
  0
LINE
  5
90C0
  8
0
 10
75.64321380286239
 20
224.6612257834795
 30
0.0
 11
75.49724803380852
 21
224.1164741172041
 31
0.0
  0
LINE
  5
90C1
  8
0
 10
75.33702758501451
 20
224.484449088183
 30
0.0
 11
75.25576657723624
 21
224.1811788784799
 31
0.0
  0
ARC
  5
90C2
  8
0
 10
75.37650730552215
 20
224.148826497842
 30
0.0
 40
0.1249999999999206
 50
165.000000000008
 51
345.0000000001028
  0
LINE
  5
90C3
  8
0
 10
75.49321380286253
 20
224.9210334046149
 30
0.0
 11
74.94846213658704
 21
225.0669991736688
 31
0.0
  0
LINE
  5
90C4
  8
0
 10
75.18702758501465
 20
224.7442567093183
 30
0.0
 11
74.88375737531143
 21
224.8255177170966
 31
0.0
  0
LINE
  5
90C5
  8
0
 10
76.24943158551147
 20
225.0112257834795
 30
0.0
 11
75.64321380286239
 21
224.6612257834795
 31
0.0
1001
GENIUS_GENODEF_13
1002
{
1000
HIER
1070
     0
1002
}
1002
{
1000
MANEDIT
1070
     0
1002
}
1002
{
1000
NOSEL
1070
     0
1002
}
1002
{
1000
BEHIND
1070
     0
1002
}
1002
{
1000
OTHER
1070
     0
1002
}
1002
{
1000
REACTOR
1002
}
1001
GENIUS_GENOBJ-N-CEN_13
1002
{
1000
OWNER
1000
GEN
1002
}
1001
GENIUS_GENCEN_19
1002
{
1040
3.0
1002
}
  0
LINE
  5
90C6
  8
0
 10
76.53244428740388
 20
225.5210334046149
 30
0.0
 11
75.65022846540111
 21
225.7574224216704
 31
0.0
  0
ARC
  5
90C7
  8
0
 10
74.91610975594924
 20
224.9462584453826
 30
0.0
 40
0.1249999999999206
 50
74.99999999999544
 51
254.9999999999828
  0
LINE
  5
90C8
  8
0
 10
78.84750779686485
 20
226.5112257834795
 30
0.0
 11
79.38821726792136
 21
226.3663431173701
 31
0.0
  0
ARC
  5
90C9
  8
0
 10
79.34246409244835
 20
226.1955899418971
 30
0.0
 40
0.1767766952966168
 50
255.0000000000038
 51
75.0000000000127
  0
LINE
  5
90CA
  8
0
 10
78.26449509497272
 20
226.5210334046149
 30
0.0
 11
78.50088411202839
 21
227.4032492266174
 31
0.0
  0
LINE
  5
90CB
  8
0
 10
77.32346969118814
 20
224.8911295940473
 30
0.0
 11
77.32346969118814
 21
225.2836127586579
 31
0.0
1001
GENIUS_GENODEF_13
1002
{
1000
HIER
1070
     0
1002
}
1002
{
1000
MANEDIT
1070
     0
1002
}
1002
{
1000
NOSEL
1070
     0
1002
}
1002
{
1000
BEHIND
1070
     0
1002
}
1002
{
1000
OTHER
1070
     0
1002
}
1002
{
1000
REACTOR
1002
}
1001
GENIUS_GENOBJ-N-CEN_13
1002
{
1000
OWNER
1000
GEN
1002
}
1001
GENIUS_GENCEN_19
1002
{
1040
3.0
1002
}
  0
LINE
  5
90CC
  8
0
 10
79.60991179736195
 20
227.2978100999116
 30
0.0
 11
79.69117280514021
 21
227.6010803096146
 31
0.0
  0
ARC
  5
90CD
  8
0
 10
79.5704320768543
 20
227.6334326902525
 30
0.0
 40
0.1249999999999206
 50
344.9999999999954
 51
165.0000000001028
  0
LINE
  5
90CE
  8
0
 10
75.33702758501451
 20
227.2978100999116
 30
0.0
 11
75.25576657723624
 21
227.6010803096147
 31
0.0
  0
LINE
  5
90CF
  8
0
 10
75.49321380286253
 20
226.8612257834796
 30
0.0
 11
74.94846213658704
 21
226.7152600144256
 31
0.0
  0
LINE
  5
90D0
  8
0
 10
75.18702758501465
 20
227.0380024787762
 30
0.0
 11
74.88375737531143
 21
226.956741470998
 31
0.0
  0
LINE
  5
90D1
  8
0
 10
79.30372557951407
 20
224.6612257834796
 30
0.0
 11
78.69750779686498
 21
225.0112257834797
 31
0.0
1001
GENIUS_GENODEF_13
1002
{
1000
HIER
1070
     0
1002
}
1002
{
1000
MANEDIT
1070
     0
1002
}
1002
{
1000
NOSEL
1070
     0
1002
}
1002
{
1000
BEHIND
1070
     0
1002
}
1002
{
1000
OTHER
1070
     0
1002
}
1002
{
1000
REACTOR
1002
}
1001
GENIUS_GENOBJ-N-CEN_13
1002
{
1000
OWNER
1000
GEN
1002
}
1001
GENIUS_GENCEN_19
1002
{
1040
3.0
1002
}
  0
LINE
  5
90D2
  8
0
 10
79.45372557951393
 20
224.921033404615
 30
0.0
 11
78.84750779686485
 21
225.271033404615
 31
0.0
1001
GENIUS_GENODEF_13
1002
{
1000
HIER
1070
     0
1002
}
1002
{
1000
MANEDIT
1070
     0
1002
}
1002
{
1000
NOSEL
1070
     0
1002
}
1002
{
1000
BEHIND
1070
     0
1002
}
1002
{
1000
OTHER
1070
     0
1002
}
1002
{
1000
REACTOR
1002
}
1001
GENIUS_GENOBJ-N-CEN_13
1002
{
1000
OWNER
1000
GEN
1002
}
1001
GENIUS_GENCEN_19
1002
{
1040
3.0
1002
}
  0
ARC
  5
90D3
  8
0
 10
75.37650730552215
 20
227.6334326902525
 30
0.0
 40
0.1249999999999206
 50
14.99999999995087
 51
194.9999999999509
  0
ARC
  5
90D4
  8
0
 10
74.91610975594924
 20
226.8360007427118
 30
0.0
 40
0.1249999999999206
 50
105.0000000000172
 51
285.0000000000046
  0
LINE
  5
90D5
  8
0
 10
78.26449509497272
 20
225.2612257834797
 30
0.0
 11
77.92459470386208
 21
225.457467365785
 31
0.0
1001
GENIUS_GENODEF_13
1002
{
1000
HIER
1070
     0
1002
}
1002
{
1000
MANEDIT
1070
     0
1002
}
1002
{
1000
NOSEL
1070
     0
1002
}
1002
{
1000
BEHIND
1070
     0
1002
}
1002
{
1000
OTHER
1070
     0
1002
}
1002
{
1000
REACTOR
1002
}
1001
GENIUS_GENOBJ-N-CEN_13
1002
{
1000
OWNER
1000
GEN
1002
}
1001
GENIUS_GENCEN_19
1002
{
1040
3.0
1002
}
  0
LINE
  5
90D6
  8
0
 10
75.33702758501451
 20
227.2978100999116
 30
0.0
 11
74.86379093945649
 21
227.571033404615
 31
0.0
1001
GENIUS_GENODEF_13
1002
{
1000
HIER
1070
     0
1002
}
1002
{
1000
MANEDIT
1070
     0
1002
}
1002
{
1000
NOSEL
1070
     0
1002
}
1002
{
1000
BEHIND
1070
     0
1002
}
1002
{
1000
OTHER
1070
     0
1002
}
1002
{
1000
REACTOR
1002
}
1001
GENIUS_GENOBJ-N-CEN_13
1002
{
1000
OWNER
1000
GEN
1002
}
1001
GENIUS_GENCEN_19
1002
{
1040
3.0
1002
}
  0
LINE
  5
90D7
  8
0
 10
76.24943158551147
 20
226.771033404615
 30
0.0
 11
76.10454891940205
 21
227.3117428756714
 31
0.0
  0
LINE
  5
90D8
  8
0
 10
78.41449509497258
 20
225.521033404615
 30
0.0
 11
79.29671091697534
 21
225.7574224216704
 31
0.0
  0
ARC
  5
90D9
  8
0
 10
76.27530209487506
 20
227.3574960511444
 30
0.0
 40
0.1767766952966168
 50
15.00000000002528
 51
194.9999999999873
  0
LINE
  5
90DA
  8
0
 10
80.08314844291996
 20
224.2112257834796
 30
0.0
 11
79.60991179736195
 21
224.484449088183
 31
0.0
1001
GENIUS_GENODEF_13
1002
{
1000
HIER
1070
     0
1002
}
1002
{
1000
MANEDIT
1070
     0
1002
}
1002
{
1000
NOSEL
1070
     0
1002
}
1002
{
1000
BEHIND
1070
     0
1002
}
1002
{
1000
OTHER
1070
     0
1002
}
1002
{
1000
REACTOR
1002
}
1001
GENIUS_GENOBJ-N-CEN_13
1002
{
1000
OWNER
1000
GEN
1002
}
1001
GENIUS_GENCEN_19
1002
{
1040
3.0
1002
}
  0
LINE
  5
90DB
  8
0
 10
76.53244428740388
 20
226.2612257834797
 30
0.0
 11
75.65022846540111
 21
226.0248367664241
 31
0.0
  0
LINE
  5
90DC
  8
0
 10
78.41449509497258
 20
225.521033404615
 30
0.0
 11
78.07459470386195
 21
225.7172749869203
 31
0.0
1001
GENIUS_GENODEF_13
1002
{
1000
HIER
1070
     0
1002
}
1002
{
1000
MANEDIT
1070
     0
1002
}
1002
{
1000
NOSEL
1070
     0
1002
}
1002
{
1000
BEHIND
1070
     0
1002
}
1002
{
1000
OTHER
1070
     0
1002
}
1002
{
1000
REACTOR
1002
}
1001
GENIUS_GENOBJ-N-CEN_13
1002
{
1000
OWNER
1000
GEN
1002
}
1001
GENIUS_GENCEN_19
1002
{
1040
3.0
1002
}
  0
LINE
  5
90DD
  8
0
 10
80.23314844292005
 20
224.4710334046149
 30
0.0
 11
79.75991179736181
 21
224.7442567093183
 31
0.0
1001
GENIUS_GENODEF_13
1002
{
1000
HIER
1070
     0
1002
}
1002
{
1000
MANEDIT
1070
     0
1002
}
1002
{
1000
NOSEL
1070
     0
1002
}
1002
{
1000
BEHIND
1070
     0
1002
}
1002
{
1000
OTHER
1070
     0
1002
}
1002
{
1000
REACTOR
1002
}
1001
GENIUS_GENOBJ-N-CEN_13
1002
{
1000
OWNER
1000
GEN
1002
}
1001
GENIUS_GENCEN_19
1002
{
1040
3.0
1002
}
  0
LINE
  5
90DE
  8
0
 10
75.64321380286239
 20
227.1210334046149
 30
0.0
 11
75.49724803380852
 21
227.6657850708903
 31
0.0
  0
ARC
  5
90DF
  8
0
 10
75.6044752899281
 20
226.1955899418971
 30
0.0
 40
0.1767766952966168
 50
104.9999999999962
 51
284.9999999999873
  0
ARC
  5
90E0
  8
0
 10
74.78879093945645
 20
227.4411295940473
 30
0.0
 40
0.1499999999999773
 50
59.99999999997465
 51
239.9999999999598
  0
LINE
  5
90E1
  8
0
 10
78.84750779686485
 20
225.271033404615
 30
0.0
 11
79.38821726792136
 21
225.4159160707243
 31
0.0
  0
LINE
  5
90E2
  8
0
 10
76.24943158551147
 20
226.771033404615
 30
0.0
 11
75.64321380286239
 21
227.1210334046149
 31
0.0
1001
GENIUS_GENODEF_13
1002
{
1000
HIER
1070
     0
1002
}
1002
{
1000
MANEDIT
1070
     0
1002
}
1002
{
1000
NOSEL
1070
     0
1002
}
1002
{
1000
BEHIND
1070
     0
1002
}
1002
{
1000
OTHER
1070
     0
1002
}
1002
{
1000
REACTOR
1002
}
1001
GENIUS_GENOBJ-N-CEN_13
1002
{
1000
OWNER
1000
GEN
1002
}
1001
GENIUS_GENCEN_19
1002
{
1040
3.0
1002
}
  0
ARC
  5
90E3
  8
0
 10
80.15814844292001
 20
224.3411295940473
 30
0.0
 40
0.1499999999999773
 50
239.9999999999652
 51
59.99999999997465
  0
ARC
  5
90E4
  8
0
 10
79.34246409244835
 20
225.5866692461974
 30
0.0
 40
0.1767766952966168
 50
284.9999999999873
 51
104.9999999999962
  0
LINE
  5
90E5
  8
0
 10
78.26449509497272
 20
225.2612257834797
 30
0.0
 11
78.50088411202839
 21
224.379009961477
 31
0.0
  0
LINE
  5
90E6
  8
0
 10
75.18702758501465
 20
227.0380024787762
 30
0.0
 11
74.7137909394564
 21
227.3112257834796
 31
0.0
1001
GENIUS_GENODEF_13
1002
{
1000
HIER
1070
     0
1002
}
1002
{
1000
MANEDIT
1070
     0
1002
}
1002
{
1000
NOSEL
1070
     0
1002
}
1002
{
1000
BEHIND
1070
     0
1002
}
1002
{
1000
OTHER
1070
     0
1002
}
1002
{
1000
REACTOR
1002
}
1001
GENIUS_GENOBJ-N-CEN_13
1002
{
1000
OWNER
1000
GEN
1002
}
1001
GENIUS_GENCEN_19
1002
{
1040
3.0
1002
}
  0
LINE
  5
90E7
  8
0
 10
78.69750779686498
 20
225.0112257834797
 30
0.0
 11
78.84239046297441
 21
224.4705163124231
 31
0.0
  0
LINE
  5
90E8
  8
0
 10
76.09943158551161
 20
226.5112257834797
 30
0.0
 11
75.5587221144551
 21
226.3663431173702
 31
0.0
  0
LINE
  5
90E9
  8
0
 10
76.68244428740374
 20
226.521033404615
 30
0.0
 11
76.4460552703483
 21
227.4032492266175
 31
0.0
  0
ARC
  5
90EA
  8
0
 10
78.6716372875014
 20
224.4247631369501
 30
0.0
 40
0.1767766952966168
 50
195.0000000000253
 51
14.99999999998731
  0
LINE
  5
90EB
  8
0
 10
76.09943158551161
 20
226.5112257834797
 30
0.0
 11
75.49321380286253
 21
226.8612257834796
 31
0.0
1001
GENIUS_GENODEF_13
1002
{
1000
HIER
1070
     0
1002
}
1002
{
1000
MANEDIT
1070
     0
1002
}
1002
{
1000
NOSEL
1070
     0
1002
}
1002
{
1000
BEHIND
1070
     0
1002
}
1002
{
1000
OTHER
1070
     0
1002
}
1002
{
1000
REACTOR
1002
}
1001
GENIUS_GENOBJ-N-CEN_13
1002
{
1000
OWNER
1000
GEN
1002
}
1001
GENIUS_GENCEN_19
1002
{
1040
3.0
1002
}
  0
POLYLINE
  5
90EC
  8
0
 66
     1
 10
0.0
 20
0.0
 30
0.0
  0
VERTEX
  5
A4C9
  8
0
 10
77.92459470386208
 20
226.3247918223094
 30
0.0
  0
VERTEX
  5
A4CA
  8
0
 10
77.62346969118832
 20
226.4986464294365
 30
0.0
  0
SEQEND
  5
A4E2
  8
0
  0
POLYLINE
  5
90ED
  8
0
 66
     1
 10
0.0
 20
0.0
 30
0.0
  0
VERTEX
  5
A4CB
  8
0
 10
77.02234467851437
 20
225.4574673657849
 30
0.0
  0
VERTEX
  5
A4CC
  8
0
 10
77.32346969118814
 20
225.2836127586579
 30
0.0
  0
SEQEND
  5
A4E3
  8
0
  0
POLYLINE
  5
90EE
  8
0
 66
     1
 10
0.0
 20
0.0
 30
0.0
  0
VERTEX
  5
A4CD
  8
0
 10
77.62346969118832
 20
225.2836127586579
 30
0.0
  0
VERTEX
  5
A4CE
  8
0
 10
77.92459470386208
 20
225.457467365785
 30
0.0
  0
SEQEND
  5
A4E4
  8
0
  0
POLYLINE
  5
90EF
  8
0
 66
     1
 10
0.0
 20
0.0
 30
0.0
  0
VERTEX
  5
A4CF
  8
0
 10
78.07459470386195
 20
225.7172749869203
 30
0.0
  0
VERTEX
  5
A4D0
  8
0
 10
78.07459470386195
 20
226.0649842011741
 30
0.0
  0
SEQEND
  5
A4E5
  8
0
  0
POLYLINE
  5
90F0
  8
0
 66
     1
 10
0.0
 20
0.0
 30
0.0
  0
VERTEX
  5
A4D1
  8
0
 10
76.87234467851451
 20
226.0649842011742
 30
0.0
  0
VERTEX
  5
A4D2
  8
0
 10
76.87234467851451
 20
225.7172749869202
 30
0.0
  0
SEQEND
  5
A4E6
  8
0
  0
LINE
  5
90F1
  8
0
 10
76.87234467851451
 20
226.0649842011742
 30
0.0
 11
76.53244428740388
 21
226.2612257834797
 31
0.0
1001
GENIUS_GENODEF_13
1002
{
1000
HIER
1070
     0
1002
}
1002
{
1000
MANEDIT
1070
     0
1002
}
1002
{
1000
NOSEL
1070
     0
1002
}
1002
{
1000
BEHIND
1070
     0
1002
}
1002
{
1000
OTHER
1070
     0
1002
}
1002
{
1000
REACTOR
1002
}
1001
GENIUS_GENOBJ-N-CEN_13
1002
{
1000
OWNER
1000
GEN
1002
}
1001
GENIUS_GENCEN_19
1002
{
1040
3.0
1002
}
  0
LINE
  5
90F2
  8
0
 10
77.02234467851437
 20
225.4574673657849
 30
0.0
 11
76.68244428740374
 21
225.2612257834795
 31
0.0
1001
GENIUS_GENODEF_13
1002
{
1000
HIER
1070
     0
1002
}
1002
{
1000
MANEDIT
1070
     0
1002
}
1002
{
1000
NOSEL
1070
     0
1002
}
1002
{
1000
BEHIND
1070
     0
1002
}
1002
{
1000
OTHER
1070
     0
1002
}
1002
{
1000
REACTOR
1002
}
1001
GENIUS_GENOBJ-N-CEN_13
1002
{
1000
OWNER
1000
GEN
1002
}
1001
GENIUS_GENCEN_19
1002
{
1040
3.0
1002
}
  0
LINE
  5
90F3
  8
0
 10
77.62346969118832
 20
226.4986464294365
 30
0.0
 11
77.62346969118832
 21
226.8911295940473
 31
0.0
1001
GENIUS_GENODEF_13
1002
{
1000
HIER
1070
     0
1002
}
1002
{
1000
MANEDIT
1070
     0
1002
}
1002
{
1000
NOSEL
1070
     0
1002
}
1002
{
1000
BEHIND
1070
     0
1002
}
1002
{
1000
OTHER
1070
     0
1002
}
1002
{
1000
REACTOR
1002
}
1001
GENIUS_GENOBJ-N-CEN_13
1002
{
1000
OWNER
1000
GEN
1002
}
1001
GENIUS_GENCEN_19
1002
{
1040
3.0
1002
}
  0
LINE
  5
90F4
  8
0
 10
76.87234467851451
 20
225.7172749869202
 30
0.0
 11
76.53244428740388
 21
225.5210334046149
 31
0.0
1001
GENIUS_GENODEF_13
1002
{
1000
HIER
1070
     0
1002
}
1002
{
1000
MANEDIT
1070
     0
1002
}
1002
{
1000
NOSEL
1070
     0
1002
}
1002
{
1000
BEHIND
1070
     0
1002
}
1002
{
1000
OTHER
1070
     0
1002
}
1002
{
1000
REACTOR
1002
}
1001
GENIUS_GENOBJ-N-CEN_13
1002
{
1000
OWNER
1000
GEN
1002
}
1001
GENIUS_GENCEN_19
1002
{
1040
3.0
1002
}
  0
LINE
  5
90F5
  8
0
 10
77.0223446785146
 20
226.3247918223095
 30
0.0
 11
76.68244428740374
 21
226.521033404615
 31
0.0
1001
GENIUS_GENODEF_13
1002
{
1000
HIER
1070
     0
1002
}
1002
{
1000
MANEDIT
1070
     0
1002
}
1002
{
1000
NOSEL
1070
     0
1002
}
1002
{
1000
BEHIND
1070
     0
1002
}
1002
{
1000
OTHER
1070
     0
1002
}
1002
{
1000
REACTOR
1002
}
1001
GENIUS_GENOBJ-N-CEN_13
1002
{
1000
OWNER
1000
GEN
1002
}
1001
GENIUS_GENCEN_19
1002
{
1040
3.0
1002
}
  0
LINE
  5
90F6
  8
0
 10
77.32346969118814
 20
226.4986464294365
 30
0.0
 11
77.32346969118814
 21
226.8911295940473
 31
0.0
1001
GENIUS_GENODEF_13
1002
{
1000
HIER
1070
     0
1002
}
1002
{
1000
MANEDIT
1070
     0
1002
}
1002
{
1000
NOSEL
1070
     0
1002
}
1002
{
1000
BEHIND
1070
     0
1002
}
1002
{
1000
OTHER
1070
     0
1002
}
1002
{
1000
REACTOR
1002
}
1001
GENIUS_GENOBJ-N-CEN_13
1002
{
1000
OWNER
1000
GEN
1002
}
1001
GENIUS_GENCEN_19
1002
{
1040
3.0
1002
}
  0
POINT
  5
90F7
  8
0
 10
77.47346969118823
 20
225.8911295940473
 30
0.0
  0
ARC
  5
A2A9
  8
0
 10
57.65747357530596
 20
237.90208481969
 30
0.0
 40
2.818784487207035
 50
42.10643774613582
 51
72.54963860556856
  0
ARC
  5
A2AA
  8
0
 10
57.66204042009603
 20
237.8940117890812
 30
0.0
 40
2.825124600724308
 50
72.68709389380213
 51
114.8350808121767
  0
ARC
  5
A2AB
  8
0
 10
57.66886519955997
 20
237.8951168753163
 30
0.0
 40
2.82699601279636
 50
114.9700164788607
 51
159.7658782060661
  0
ARC
  5
A2AC
  8
0
 10
57.67023802492429
 20
237.9019335609145
 30
0.0
 40
2.825934871198894
 50
159.905183900427
 51
208.1033156220139
  0
ARC
  5
A2AD
  8
0
 10
57.66700786976529
 20
237.9059692341986
 30
0.0
 40
2.824991178843034
 50
208.2063768521136
 51
252.9917058831041
  0
ARC
  5
A2AE
  8
0
 10
57.6611374182206
 20
237.8985008049623
 30
0.0
 40
2.816134321775382
 50
253.0614728184792
 51
303.6104044070932
  0
ARC
  5
A2AF
  8
0
 10
57.65197731125307
 20
237.9078046826745
 30
0.0
 40
2.828954381084524
 50
303.6606050060742
 51
336.6888212394869
  0
ARC
  5
A2B0
  8
0
 10
57.6730220420623
 20
237.8961934182874
 30
0.0
 40
2.805033656979198
 50
336.7365264644543
 51
352.0115546408769
  0
ARC
  5
A2B1
  8
0
 10
60.88196512445772
 20
237.4395056438452
 30
0.0
 40
0.4362831274249897
 50
124.9417661980038
 51
171.1843733476157
  0
ARC
  5
A2B2
  8
0
 10
60.95858726098081
 20
237.3812843274875
 30
0.0
 40
0.5287156028486799
 50
68.4989425064667
 51
128.1363643025119
  0
ARC
  5
A2B3
  8
0
 10
60.95744437000715
 20
237.3781459280656
 30
0.0
 40
0.5320545012467646
 50
21.1786845759318
 51
68.50830305575624
  0
ARC
  5
A2B4
  8
0
 10
60.90062769955978
 20
237.3654591052095
 30
0.0
 40
0.589681274627146
 50
351.3677592453784
 51
20.3336515506318
  0
ARC
  5
A2B5
  8
0
 10
57.68343705213375
 20
237.8923645651553
 30
0.0
 40
3.849700154783129
 50
329.2955579547443
 51
350.8012500119645
  0
ARC
  5
A2B6
  8
0
 10
57.66066851953234
 20
237.9020072049184
 30
0.0
 40
3.874201887614873
 50
272.110292872708
 51
329.3448789643533
  0
ARC
  5
A2B7
  8
0
 10
57.65755494499676
 20
237.8871137370966
 30
0.0
 40
3.859434907830362
 50
228.1538869054162
 51
272.1646262877288
  0
ARC
  5
A2B8
  8
0
 10
57.65900386452154
 20
237.9001766128346
 30
0.0
 40
3.870140110233152
 50
191.6688789272142
 51
228.2669244735644
  0
ARC
  5
A2B9
  8
0
 10
54.43289767128074
 20
239.2068327097406
 30
0.0
 40
2.164208178393929
 50
198.723963475941
 51
254.8927875963115
  0
ARC
  5
A2BA
  8
0
 10
52.35567876398017
 20
239.7875994906359
 30
0.0
 40
1.275794832121307
 50
159.5889286416676
 51
271.2373210171075
  0
ARC
  5
A2BB
  8
0
 10
52.35551363530631
 20
239.787454470096
 30
0.0
 40
1.27569066216106
 50
56.35876753652801
 51
159.5802376694569
  0
ARC
  5
A2BC
  8
0
 10
52.3550884812209
 20
239.7872797336041
 30
0.0
 40
1.27607169163755
 50
300.8474340774569
 51
56.3472215566183
  0
ARC
  5
A2BD
  8
0
 10
54.43269053159614
 20
239.2057583670204
 30
0.0
 40
1.513270340059136
 50
199.8575424768347
 51
244.8702054099216
  0
ARC
  5
A2BE
  8
0
 10
57.65322924019218
 20
237.9057670026568
 30
0.0
 40
3.863814594731709
 50
128.8924189419203
 51
181.0387416655363
  0
ARC
  5
A2BF
  8
0
 10
57.65982246991529
 20
237.9092425940993
 30
0.0
 40
3.865255996170545
 50
64.08752047055657
 51
129.0008345454499
  0
ARC
  5
A2C0
  8
0
 10
57.63603020600057
 20
237.8813285574677
 30
0.0
 40
3.900771647075106
 50
41.93148962721691
 51
63.95236016528539
  0
ARC
  5
A2C1
  8
0
 10
60.13292493824081
 20
240.1416041449843
 30
0.0
 40
0.5329691384397407
 50
326.9391245431075
 51
40.53482220835337
  0
ARC
  5
A2C2
  8
0
 10
60.13437214279038
 20
240.1420721198753
 30
0.0
 40
0.532012855346209
 50
288.8262582044613
 51
326.8118599153543
  0
ARC
  5
A2C3
  8
0
 10
60.13890334140628
 20
240.1199570227362
 30
0.0
 40
0.5096266244015553
 50
220.0392534532336
 51
289.1464231932406
  0
ARC
  5
A2C4
  8
0
 10
52.35555897674907
 20
239.7874884214692
 30
0.0
 40
0.5333610920542913
 50
358.2903179254369
 51
182.8871640299775
  0
ARC
  5
A2C5
  8
0
 10
52.35556125442235
 20
239.7872667680123
 30
0.0
 40
0.533352248318835
 50
182.8633706346291
 51
358.3141113207849
  0
ARC
  5
A2C6
  8
0
 10
56.41442408629543
 20
238.367770156981
 30
0.0
 40
0.6197235851139764
 50
269.9860909562865
 51
92.215844524471
  0
ARC
  5
A2C7
  8
0
 10
56.41454741015212
 20
238.3677725270031
 30
0.0
 40
0.619725997344469
 50
92.2272460800959
 51
269.9746892990934
  0
ARC
  5
A2C8
  8
0
 10
58.91025527816747
 20
238.3677632134788
 30
0.0
 40
0.6197167624590886
 50
269.9616101028838
 51
89.98977670141691
  0
ARC
  5
A2C9
  8
0
 10
58.90992044989125
 20
238.3677633555231
 30
0.0
 40
0.6197167706109338
 50
89.95882022245952
 51
269.9925665818412
  0
ARC
  5
A2CA
  8
0
 10
57.66213579924922
 20
238.3884256290411
 30
0.0
 40
1.621966970399848
 50
233.6417470358276
 51
306.8838773871507
  0
ARC
  5
A2CB
  8
0
 10
58.78581951004258
 20
236.8818247063622
 30
0.0
 40
0.2575808481740123
 50
48.75225273409504
 51
125.6665677964157
  0
ARC
  5
A2CC
  8
0
 10
58.78543677085509
 20
236.8815628499568
 30
0.0
 40
0.2580301008803177
 50
350.2089239138174
 51
48.72668974044582
  0
ARC
  5
A2CD
  8
0
 10
58.78228387416633
 20
236.8818062395031
 30
0.0
 40
0.2611786316846578
 50
302.7722891929776
 51
350.273929821677
  0
ARC
  5
A2CE
  8
0
 10
57.65846606407185
 20
238.3944589271221
 30
0.0
 40
2.145096291517153
 50
279.580629416799
 51
306.1433603622944
  0
ARC
  5
A2CF
  8
0
 10
57.66204946286871
 20
238.3875963219162
 30
0.0
 40
2.137734336466047
 50
255.4417152635177
 51
279.5165392426289
  0
ARC
  5
A2D0
  8
0
 10
57.66299912160252
 20
238.3853966638658
 30
0.0
 40
2.135844522087935
 50
232.8702473643658
 51
255.4022254017396
  0
ARC
  5
A2D1
  8
0
 10
56.53944883532784
 20
236.8814550543539
 30
0.0
 40
0.25887643170293
 50
155.1529278431441
 51
230.2048092005848
  0
ARC
  5
A2D2
  8
0
 10
56.53824733876169
 20
236.8818946282361
 30
0.0
 40
0.2576014684421306
 50
103.7622011258897
 51
155.1293551933427
  0
ARC
  5
A2D3
  8
0
 10
56.53857260243923
 20
236.8821348160651
 30
0.0
 40
0.2574458242313935
 50
51.00202248787202
 51
103.845228473221
  0
ARC
  5
A2D4
  8
0
 10
49.67809520652032
 20
234.8563933413623
 30
0.0
 40
0.9091768622367206
 50
133.222959671733
 51
270.1894734199499
  0
ARC
  5
A2D5
  8
0
 10
49.67852055412749
 20
234.8560096523673
 30
0.0
 40
0.9087918676904274
 50
270.1627370543721
 51
50.19893912908906
  0
ARC
  5
A2D6
  8
0
 10
49.65784207733929
 20
241.252479807988
 30
0.0
 40
0.6024320394943272
 50
2.835526177202197
 51
174.3732816204337
  0
ARC
  5
A2D7
  8
0
 10
49.65787804371765
 20
241.2524017190227
 30
0.0
 40
0.2295028634559424
 50
358.9188453068101
 51
179.9730971000994
  0
ARC
  5
A2D8
  8
0
 10
46.78493243185751
 20
235.9457449619012
 30
0.0
 40
0.0873768611613766
 50
87.47256260673397
 51
234.0891406317526
  0
ARC
  5
A2D9
  8
0
 10
48.19601220484149
 20
235.9466584426052
 30
0.0
 40
0.0863646317370953
 50
317.9031549580241
 51
87.18148688827209
  0
ARC
  5
A2DA
  8
0
 10
47.4901688107625
 20
235.2405600734534
 30
0.0
 40
0.086253216996548
 50
226.0322552542306
 51
315.2107938570516
  0
LINE
  5
A2DB
  8
0
 10
49.42837520556115
 20
241.252509480753
 30
0.0
 11
49.42837520556115
 21
237.7287985432527
 31
0.0
  0
LINE
  5
A2DC
  8
0
 10
49.42837520556115
 20
237.7287985432527
 30
0.0
 11
49.88734004931159
 21
237.7287985432527
 31
0.0
  0
LINE
  5
A2DD
  8
0
 10
49.88734004931159
 20
237.7287985432527
 30
0.0
 11
49.88734004931159
 21
241.2480713237422
 31
0.0
  0
LINE
  5
A2DE
  8
0
 10
50.25953653284289
 20
241.2822815600425
 30
0.0
 11
50.26025997118624
 21
235.5542086995025
 31
0.0
  0
LINE
  5
A2DF
  8
0
 10
49.0554552836865
 20
235.5189052984771
 30
0.0
 11
49.0554552836865
 21
237.4994040120023
 31
0.0
  0
LINE
  5
A2E0
  8
0
 10
49.0554552836865
 20
237.4994040120023
 30
0.0
 11
46.59223262743619
 21
237.4994040120023
 31
0.0
  0
LINE
  5
A2E1
  8
0
 10
46.59223262743619
 20
237.4994040120023
 30
0.0
 11
46.59223262743619
 21
237.7287145996462
 31
0.0
  0
LINE
  5
A2E2
  8
0
 10
46.59223262743619
 20
237.7287145996462
 30
0.0
 11
49.0554552836865
 21
237.7287985432527
 31
0.0
  0
LINE
  5
A2E3
  8
0
 10
49.0554552836865
 20
237.7287985432527
 30
0.0
 11
49.05831268399724
 21
241.3115464544833
 31
0.0
  0
LINE
  5
A2E4
  8
0
 10
46.73368364192781
 20
235.8749757779498
 30
0.0
 11
47.43028723017609
 21
235.1784809807673
 31
0.0
  0
LINE
  5
A2E5
  8
0
 10
47.55138301806157
 20
235.179794637003
 30
0.0
 11
48.2600958633003
 21
235.8887608231928
 31
0.0
  0
LINE
  5
A2E6
  8
0
 10
48.20025896937083
 20
236.0329185991441
 30
0.0
 11
47.81909786181124
 21
236.0330368245027
 31
0.0
  0
LINE
  5
A2E7
  8
0
 10
47.81909786181124
 20
236.0330368245027
 30
0.0
 11
47.81909786181124
 21
237.0471668937673
 31
0.0
  0
LINE
  5
A2E8
  8
0
 10
47.81909786181124
 20
237.0471668937673
 30
0.0
 11
47.16114864306148
 21
237.0472946370024
 31
0.0
  0
LINE
  5
A2E9
  8
0
 10
47.16114864306148
 20
237.0472946370024
 30
0.0
 11
47.16114864306148
 21
236.0330368245027
 31
0.0
  0
LINE
  5
A2EA
  8
0
 10
47.16114864306148
 20
236.0330368245027
 30
0.0
 11
46.78878555915455
 21
236.0330368245027
 31
0.0
  0
LINE
  5
A2EB
  8
0
 10
48.38810176806139
 20
239.6238961995028
 30
0.0
 11
48.18735958056133
 21
239.7397360432529
 31
0.0
  0
LINE
  5
A2EC
  8
0
 10
48.18735958056133
 20
239.7397360432529
 30
0.0
 11
47.69104122118635
 21
239.4532126057525
 31
0.0
  0
LINE
  5
A2ED
  8
0
 10
47.69104122118635
 20
239.4532126057525
 30
0.0
 11
47.6909533305615
 21
240.026435262003
 31
0.0
  0
LINE
  5
A2EE
  8
0
 10
47.6909533305615
 20
240.026435262003
 30
0.0
 11
47.49021114306144
 21
240.1422751057526
 31
0.0
  0
LINE
  5
A2EF
  8
0
 10
47.49021114306144
 20
240.1422751057526
 30
0.0
 11
47.28938106493653
 21
240.026435262003
 31
0.0
  0
LINE
  5
A2F0
  8
0
 10
47.28938106493653
 20
240.026435262003
 30
0.0
 11
47.28938106493653
 21
239.4532126057525
 31
0.0
  0
LINE
  5
A2F1
  8
0
 10
47.28938106493653
 20
239.4532126057525
 30
0.0
 11
46.79297481493624
 21
239.7397360432529
 31
0.0
  0
LINE
  5
A2F2
  8
0
 10
46.79297481493624
 20
239.7397360432529
 30
0.0
 11
46.59223262743619
 21
239.6238961995028
 31
0.0
  0
LINE
  5
A2F3
  8
0
 10
46.59223262743619
 20
239.6238961995028
 30
0.0
 11
46.59223262743619
 21
239.3920407307529
 31
0.0
  0
LINE
  5
A2F4
  8
0
 10
46.59223262743619
 20
239.3920407307529
 30
0.0
 11
47.08863887743648
 21
239.1055172932525
 31
0.0
  0
LINE
  5
A2F5
  8
0
 10
47.08863887743648
 20
239.1055172932525
 30
0.0
 11
46.59223262743619
 21
238.8188180745024
 31
0.0
  0
LINE
  5
A2F6
  8
0
 10
46.59223262743619
 20
238.8188180745024
 30
0.0
 11
46.59223262743619
 21
238.5869626057525
 31
0.0
  0
LINE
  5
A2F7
  8
0
 10
46.59223262743619
 20
238.5869626057525
 30
0.0
 11
46.79297481493624
 21
238.4711227620024
 31
0.0
  0
LINE
  5
A2F8
  8
0
 10
46.79297481493624
 20
238.4711227620024
 30
0.0
 11
47.28938106493653
 21
238.7576461995027
 31
0.0
  0
LINE
  5
A2F9
  8
0
 10
47.28938106493653
 20
238.7576461995027
 30
0.0
 11
47.28946895556139
 21
238.1844235432528
 31
0.0
  0
LINE
  5
A2FA
  8
0
 10
47.28946895556139
 20
238.1844235432528
 30
0.0
 11
47.49021114306144
 21
238.0685836995027
 31
0.0
  0
LINE
  5
A2FB
  8
0
 10
47.49021114306144
 20
238.0685836995027
 30
0.0
 11
47.69104122118635
 21
238.1844235432528
 31
0.0
  0
LINE
  5
A2FC
  8
0
 10
47.69104122118635
 20
238.1844235432528
 30
0.0
 11
47.6909533305615
 21
238.7576461995027
 31
0.0
  0
LINE
  5
A2FD
  8
0
 10
47.6909533305615
 20
238.7576461995027
 30
0.0
 11
48.18735958056133
 21
238.4711227620024
 31
0.0
  0
LINE
  5
A2FE
  8
0
 10
48.18735958056133
 20
238.4711227620024
 30
0.0
 11
48.38810176806139
 21
238.5869626057525
 31
0.0
  0
LINE
  5
A2FF
  8
0
 10
48.38810176806139
 20
238.5869626057525
 30
0.0
 11
48.38810176806139
 21
238.8188180745024
 31
0.0
  0
LINE
  5
A300
  8
0
 10
48.38810176806139
 20
238.8188180745024
 30
0.0
 11
47.89178340868641
 21
239.1055172932525
 31
0.0
  0
LINE
  5
A301
  8
0
 10
47.89178340868641
 20
239.1055172932525
 30
0.0
 11
48.38810176806139
 21
239.3920407307529
 31
0.0
  0
LINE
  5
A302
  8
0
 10
48.38810176806139
 20
239.3920407307529
 30
0.0
 11
48.38810176806139
 21
239.6238961995028
 31
0.0
  0
ARC
  5
A303
  8
0
 10
43.12195934609586
 20
230.2040378168044
 30
0.0
 40
0.3670849884844836
 50
88.43595018400146
 51
181.5907611346543
  0
ARC
  5
A304
  8
0
 10
43.11635833128771
 20
230.1781427422143
 30
0.0
 40
0.3616836161732613
 50
177.5113831094955
 51
272.4752596742406
  0
ARC
  5
A305
  8
0
 10
47.84987986345508
 20
228.8144568241602
 30
0.0
 40
1.757421872517575
 50
58.63205765538193
 51
91.82624667791212
  0
ARC
  5
A306
  8
0
 10
48.03110437421923
 20
229.1539824979839
 30
0.0
 40
1.373363550070809
 50
357.3646905701011
 51
57.71432541069638
  0
ARC
  5
A307
  8
0
 10
47.3722260600024
 20
229.1492339599679
 30
0.0
 40
2.031628876196131
 50
312.3580077297276
 51
358.3528725601312
  0
ARC
  5
A308
  8
0
 10
46.53428715551005
 20
230.2833936355614
 30
0.0
 40
3.437343882281632
 50
279.6428930056555
 51
309.9410387066555
  0
ARC
  5
A309
  8
0
 10
45.82933059788138
 20
233.063797891287
 30
0.0
 40
6.30072093565917
 50
275.4117803201625
 51
281.7281302859267
  0
ARC
  5
A30A
  8
0
 10
46.41897769867534
 20
226.6870023077296
 30
0.0
 40
0.104260725704256
 50
87.4752300347481
 51
163.7199139015231
  0
ARC
  5
A30B
  8
0
 10
46.61712834302529
 20
226.6564005102898
 30
0.0
 40
0.3041729537229
 50
168.6561978748385
 51
200.0889648778359
  0
ARC
  5
A30C
  8
0
 10
46.25955381345892
 20
225.9016374470191
 30
0.0
 40
0.2537512839947012
 50
261.3372320245579
 51
20.62119432797275
  0
ARC
  5
A30D
  8
0
 10
45.89216037940247
 20
227.3439394854551
 30
0.0
 40
1.693196324176135
 50
200.7119394462078
 51
269.6171287198742
  0
ARC
  5
A30E
  8
0
 10
44.01207273051691
 20
228.5589369956679
 30
0.0
 40
0.2418104089398966
 50
78.56434552526832
 51
205.2442294015707
  0
ARC
  5
A30F
  8
0
 10
45.20963082066827
 20
228.2511699446797
 30
0.0
 40
0.5454708950328662
 50
22.03436718337224
 51
87.10976279916946
  0
ARC
  5
A310
  8
0
 10
46.42807187546418
 20
228.0722131655107
 30
0.0
 40
0.5575982287956304
 50
198.5615711856641
 51
231.4697421334256
  0
ARC
  5
A311
  8
0
 10
46.27522808336143
 20
227.9079653762384
 30
0.0
 40
0.3343453227859988
 50
234.4274826077689
 51
282.9237961332864
  0
ARC
  5
A312
  8
0
 10
45.96412109231591
 20
228.9255329772793
 30
0.0
 40
1.397765155718417
 50
286.0259576150772
 51
322.7723331413743
  0
ARC
  5
A313
  8
0
 10
45.45650265127784
 20
229.3733361567255
 30
0.0
 40
2.073453716718684
 50
321.405557856657
 51
357.0055140470168
  0
ARC
  5
A314
  8
0
 10
46.98166557240863
 20
229.3036478891196
 30
0.0
 40
0.5468257340680802
 50
355.949160792519
 51
43.9861427071242
  0
ARC
  5
A315
  8
0
 10
46.9897057134591
 20
229.203098524745
 30
0.0
 40
0.6158215084356161
 50
51.25619189844242
 51
94.75943482914414
  0
ARC
  5
A316
  8
0
 10
50.95033516609458
 20
228.1107910284998
 30
0.0
 40
0.9170993127764647
 50
90.00286747961208
 51
268.2497146487426
  0
ARC
  5
A317
  8
0
 10
50.95025858474772
 20
228.1107921963867
 30
0.0
 40
0.9170981442542538
 50
268.2544990708273
 51
89.99808305752734
  0
ARC
  5
A318
  8
0
 10
53.00544743993535
 20
230.1893316788048
 30
0.0
 40
0.3770840596473977
 50
89.9884213680942
 51
178.6192995487076
  0
ARC
  5
A319
  8
0
 10
54.17349042306669
 20
230.1893316581845
 30
0.0
 40
0.3770841082509337
 50
1.380703407340469
 51
90.02492579868495
  0
ARC
  5
A31A
  8
0
 10
54.17356772625742
 20
227.623156757792
 30
0.0
 40
0.3768973543141036
 50
269.9633102497762
 51
0.0233356470828619
  0
ARC
  5
A31B
  8
0
 10
53.00537010634585
 20
227.6231567252873
 30
0.0
 40
0.3768972758079303
 50
179.9766594067293
 51
270.0233405932998
  0
ARC
  5
A31C
  8
0
 10
56.67348593965091
 20
230.189963496739
 30
0.0
 40
0.3765533069000618
 50
91.32755171042443
 51
178.7135156246359
  0
ARC
  5
A31D
  8
0
 10
57.84184585275487
 20
230.1892462716914
 30
0.0
 40
0.3772853742403397
 50
1.39293758417252
 51
88.57968746194234
  0
ARC
  5
A31E
  8
0
 10
55.35470066232909
 20
227.3334084149888
 30
0.0
 40
0.9424222807007966
 50
270.2596160298706
 51
359.1847732707243
  0
ARC
  5
A31F
  8
0
 10
55.08760860399882
 20
226.0185592854401
 30
0.0
 40
0.3724651062386549
 50
89.29017710179693
 51
270.7098228982031
  0
ARC
  5
A320
  8
0
 10
56.0287811363823
 20
227.7815087247193
 30
0.0
 40
2.135678174171317
 50
269.0521856153052
 51
304.9431031995392
  0
ARC
  5
A321
  8
0
 10
55.98388093546889
 20
227.8864377626542
 30
0.0
 40
2.247528607778139
 50
304.3492687691318
 51
342.0336073987834
  0
ARC
  5
A322
  8
0
 10
55.96985022703149
 20
227.8474139513333
 30
0.0
 40
2.249219839620582
 50
343.0895187182542
 51
0.3832968636579526
  0
ARC
  5
A323
  8
0
 10
59.44663312707412
 20
230.2030319416904
 30
0.0
 40
0.3724661917305334
 50
89.27682506750826
 51
270.7231749324918
  0
ARC
  5
A324
  8
0
 10
59.216921308872
 20
228.52607881669
 30
0.0
 40
0.3541906372867973
 50
86.29944766479187
 51
273.7005523352082
  0
ARC
  5
A325
  8
0
 10
60.42079770475274
 20
229.2378717540618
 30
0.0
 40
0.358803858625055
 50
267.0887535299613
 51
356.4733133196503
  0
ARC
  5
A326
  8
0
 10
60.4414053390705
 20
229.4931532065211
 30
0.0
 40
0.3396690833730922
 50
354.8685998202262
 51
96.56439594170052
  0
ARC
  5
A327
  8
0
 10
64.74309688524858
 20
230.2030319416904
 30
0.0
 40
0.3724651062386495
 50
269.2901771018636
 51
90.7098228981364
  0
ARC
  5
A328
  8
0
 10
63.07886620009531
 20
229.4536981737189
 30
0.0
 40
0.3768972758071489
 50
89.97665940658239
 51
180.0233405934893
  0
ARC
  5
A329
  8
0
 10
63.03671043351198
 20
229.2116142447688
 30
0.0
 40
0.3347676534002981
 50
179.2835006658344
 51
277.2606919210987
  0
ARC
  5
A32A
  8
0
 10
63.06765651134675
 20
227.8065041985913
 30
0.0
 40
0.3662987656052747
 50
88.22229995736356
 51
176.6896381244135
  0
ARC
  5
A32B
  8
0
 10
63.6135897247112
 20
227.2567607062011
 30
0.0
 40
0.9125541393853733
 50
182.5916258786893
 51
271.6600393676819
  0
ARC
  5
A32C
  8
0
 10
64.76530104827286
 20
225.9953561604403
 30
0.0
 40
0.3502616083451314
 50
265.608746066266
 51
94.39125393373403
  0
ARC
  5
A32D
  8
0
 10
62.96167971981927
 20
227.8729552984001
 30
0.0
 40
2.227259321723195
 50
225.0349285396396
 51
271.1216669202527
  0
ARC
  5
A32E
  8
0
 10
62.7074616697024
 20
227.7024311834337
 30
0.0
 40
1.927871578424823
 50
179.3527648258316
 51
226.7994771726991
  0
ARC
  5
A32F
  8
0
 10
60.60008253863428
 20
227.957341906146
 30
0.0
 40
0.1798521029892861
 50
357.1558279388276
 51
48.65700890603938
  0
ARC
  5
A330
  8
0
 10
60.52984032741126
 20
227.861298958217
 30
0.0
 40
0.2985497565163959
 50
50.7122642471553
 51
78.58034235835271
  0
ARC
  5
A331
  8
0
 10
60.41503395109232
 20
227.3581778812413
 30
0.0
 40
0.8145440850389851
 50
77.67158325142975
 51
90.87644874463575
  0
ARC
  5
A332
  8
0
 10
64.94827264105756
 20
228.5523423923568
 30
0.0
 40
0.3797198155434018
 50
270.2659772238895
 51
356.0405792706824
  0
ARC
  5
A333
  8
0
 10
64.96166616666889
 20
228.5140982455737
 30
0.0
 40
0.365617762344841
 50
1.884695911894787
 51
91.822965253088
  0
LINE
  5
A334
  8
0
 10
43.13197872118637
 20
230.5709860432526
 30
0.0
 11
47.79387325243663
 21
230.5709860432526
 31
0.0
  0
LINE
  5
A335
  8
0
 10
46.93860958056159
 20
229.816796590128
 30
0.0
 11
43.13197872118637
 21
229.816796590128
 31
0.0
  0
LINE
  5
A336
  8
0
 10
44.06001583056143
 20
228.7959469807525
 30
0.0
 11
45.23713497118608
 21
228.7959469807525
 31
0.0
  0
LINE
  5
A337
  8
0
 10
45.71525997118663
 20
228.4558102620027
 30
0.0
 11
45.8994787211863
 21
227.8947165120026
 31
0.0
  0
LINE
  5
A338
  8
0
 10
43.79335567431136
 20
228.4558102620027
 30
0.0
 11
44.30839473681174
 21
226.7451071370029
 31
0.0
  0
LINE
  5
A339
  8
0
 10
45.88084590868623
 20
225.650780965128
 30
0.0
 11
46.22133418993637
 21
225.650780965128
 31
0.0
  0
LINE
  5
A33A
  8
0
 10
46.49704708056144
 20
225.9910055745027
 30
0.0
 11
46.3314611430614
 21
226.5519235432526
 31
0.0
  0
LINE
  5
A33B
  8
0
 10
52.62847286181106
 20
230.1984176838774
 30
0.0
 11
52.62847286181106
 21
227.6233102620027
 31
0.0
  0
LINE
  5
A33C
  8
0
 10
53.00552364306115
 20
227.2462594807526
 30
0.0
 11
54.17332637743623
 21
227.2462594807526
 31
0.0
  0
LINE
  5
A33D
  8
0
 10
54.55046504931163
 20
227.6233102620027
 30
0.0
 11
54.55046504931163
 21
230.1984176838774
 31
0.0
  0
LINE
  5
A33E
  8
0
 10
54.17332637743623
 20
230.5664157307525
 30
0.0
 11
53.00552364306115
 21
230.5664157307525
 31
0.0
  0
LINE
  5
A33F
  8
0
 10
56.29702754931115
 20
230.1984176838774
 30
0.0
 11
56.29702754931115
 21
227.3199997151274
 31
0.0
  0
LINE
  5
A340
  8
0
 10
55.35897090868632
 20
226.3909958088776
 30
0.0
 11
55.09222286181141
 21
226.3909958088776
 31
0.0
  0
LINE
  5
A341
  8
0
 10
55.09222286181141
 20
225.6461227620026
 30
0.0
 11
55.99345333056174
 21
225.6461227620026
 31
0.0
  0
LINE
  5
A342
  8
0
 10
58.21901973681126
 20
227.8624606526278
 30
0.0
 11
58.21901973681126
 21
230.1984176838774
 31
0.0
  0
LINE
  5
A343
  8
0
 10
57.85119747118635
 20
230.5664157307525
 30
0.0
 11
56.66476192431166
 21
230.5664157307525
 31
0.0
  0
LINE
  5
A344
  8
0
 10
59.45133418993639
 20
230.5754684651279
 30
0.0
 11
64.73848262743643
 21
230.5754684651279
 31
0.0
  0
LINE
  5
A345
  8
0
 10
64.73848262743643
 20
229.8305954182529
 30
0.0
 11
63.07901973681139
 21
229.8305954182529
 31
0.0
  0
LINE
  5
A346
  8
0
 10
62.70196895556131
 20
229.4535446370024
 30
0.0
 11
62.7019689555613
 21
229.2158004963777
 31
0.0
  0
LINE
  5
A347
  8
0
 10
63.07901973681139
 20
228.8795309651273
 30
0.0
 11
64.95003536181132
 21
228.8795309651273
 31
0.0
  0
LINE
  5
A348
  8
0
 10
64.95003536181132
 20
228.1726266682527
 30
0.0
 11
63.07901973681139
 21
228.1726266682527
 31
0.0
  0
LINE
  5
A349
  8
0
 10
62.7019689555613
 20
227.8276559651277
 30
0.0
 11
62.7019689555613
 21
227.2154977620026
 31
0.0
  0
LINE
  5
A34A
  8
0
 10
63.64002559618659
 20
226.344589558878
 30
0.0
 11
64.73848262743643
 21
226.344589558878
 31
0.0
  0
LINE
  5
A34B
  8
0
 10
64.73848262743643
 20
225.6461227620026
 30
0.0
 11
63.00527950243615
 21
225.6461227620026
 31
0.0
  0
LINE
  5
A34C
  8
0
 10
60.77971309618663
 20
227.7242086995025
 30
0.0
 11
60.77971309618663
 21
227.9484176838774
 31
0.0
  0
LINE
  5
A34D
  8
0
 10
60.40257442431123
 20
228.1726266682527
 30
0.0
 11
59.2397814555615
 21
228.1726266682527
 31
0.0
  0
LINE
  5
A34E
  8
0
 10
59.2397814555615
 20
228.8795309651273
 30
0.0
 11
60.40257442431123
 21
228.8795309651273
 31
0.0
  0
LINE
  5
A34F
  8
0
 10
60.77892208056158
 20
229.2158004963777
 30
0.0
 11
60.77971309618663
 21
229.4627731526276
 31
0.0
  0
LINE
  5
A350
  8
0
 10
60.40257442431123
 20
229.8305954182529
 30
0.0
 11
59.45133418993639
 21
229.8305954182529
 31
0.0
  0
LINE
  5
A354
  8
0
 10
44.90033809618619
 20
232.4509665120027
 30
0.0
 11
44.01844356493659
 21
232.4509665120027
 31
0.0
  0
LINE
  5
A355
  8
0
 10
44.01844356493659
 20
232.4509665120027
 30
0.0
 11
44.01844356493659
 21
232.6163766682526
 31
0.0
  0
LINE
  5
A356
  8
0
 10
44.01844356493659
 20
232.6163766682526
 30
0.0
 11
45.09387325243635
 21
232.6163766682526
 31
0.0
  0
LINE
  5
A357
  8
0
 10
45.09387325243635
 20
232.6163766682526
 30
0.0
 11
45.09387325243635
 21
232.4509665120027
 31
0.0
  0
LINE
  5
A358
  8
0
 10
44.47477168993639
 20
232.030585652628
 30
0.0
 11
44.3240392680613
 21
232.2360739338779
 31
0.0
  0
LINE
  5
A359
  8
0
 10
44.3240392680613
 20
232.2360739338779
 30
0.0
 11
44.17058223681163
 21
232.1334176838778
 31
0.0
  0
LINE
  5
A35A
  8
0
 10
44.5708361430615
 20
231.563622762003
 30
0.0
 11
44.72824825243644
 21
231.6623239338774
 31
0.0
  0
LINE
  5
A35B
  8
0
 10
44.72824825243644
 20
231.6623239338774
 30
0.0
 11
44.58015254931108
 21
231.881171590128
 31
0.0
  0
ARC
  5
A35C
  8
0
 10
34.35775638356547
 20
224.8148958082849
 30
0.0
 40
12.24141795992888
 50
33.45643062216249
 51
36.71601240395405
  0
ARC
  5
A35D
  8
0
 10
44.07174330386139
 20
232.8641839256995
 30
0.0
 40
0.9259146617534648
 50
295.8028544447355
 51
333.4947229782731
  0
ARC
  5
A35E
  8
0
 10
44.14461749811925
 20
232.7903249710258
 30
0.0
 40
1.008092580477948
 50
295.5970136290768
 51
340.3280553328837
  0
LINE
  5
A35F
  8
0
 10
45.86775020556108
 20
232.1560055745027
 30
0.0
 11
45.86775020556108
 21
231.5796188557529
 31
0.0
  0
LINE
  5
A360
  8
0
 10
45.86775020556108
 20
231.5796188557529
 30
0.0
 11
46.0598791118113
 21
231.5796188557529
 31
0.0
  0
LINE
  5
A361
  8
0
 10
46.0598791118113
 20
231.5796188557529
 30
0.0
 11
46.0598791118113
 21
232.248114949503
 31
0.0
  0
LINE
  5
A362
  8
0
 10
46.44545528368637
 20
232.5283102620029
 30
0.0
 11
46.33603145556155
 21
232.6537301838776
 31
0.0
  0
LINE
  5
A363
  8
0
 10
45.33803340868637
 20
232.1800876057528
 30
0.0
 11
45.36607051806133
 21
232.0159958088776
 31
0.0
  0
ARC
  5
A364
  8
0
 10
45.0947499563062
 20
233.9809499994737
 30
0.0
 40
1.817221010036674
 50
277.6936667564446
 51
313.0836814663463
  0
ARC
  5
A365
  8
0
 10
45.27396661180968
 20
233.7350003944755
 30
0.0
 40
1.681810567258462
 50
297.8592692614841
 51
314.1519780416271
  0
ARC
  5
A366
  8
0
 10
45.08145891948318
 20
234.0046176614348
 30
0.0
 40
2.008885420952019
 50
278.1448623061169
 51
293.0420589932965
  0
LINE
  5
A367
  8
0
 10
47.17529903368624
 20
232.2467965901274
 30
0.0
 11
47.17529903368624
 21
232.2774704182526
 31
0.0
  0
LINE
  5
A368
  8
0
 10
47.17529903368624
 20
232.2774704182526
 30
0.0
 11
46.66025997118633
 21
232.2774704182526
 31
0.0
  0
LINE
  5
A369
  8
0
 10
46.66025997118633
 20
232.2774704182526
 30
0.0
 11
46.66025997118633
 21
232.446923543253
 31
0.0
  0
LINE
  5
A36A
  8
0
 10
46.66025997118633
 20
232.446923543253
 30
0.0
 11
47.17529903368624
 21
232.446923543253
 31
0.0
  0
LINE
  5
A36B
  8
0
 10
47.17529903368624
 20
232.446923543253
 30
0.0
 11
47.17529903368624
 21
232.696357137003
 31
0.0
  0
LINE
  5
A36C
  8
0
 10
47.17529903368624
 20
232.696357137003
 30
0.0
 11
47.36206661181124
 21
232.696357137003
 31
0.0
  0
LINE
  5
A36D
  8
0
 10
47.36206661181124
 20
232.696357137003
 30
0.0
 11
47.36206661181124
 21
232.446923543253
 31
0.0
  0
LINE
  5
A36E
  8
0
 10
47.36206661181124
 20
232.446923543253
 30
0.0
 11
47.78903926806144
 21
232.446923543253
 31
0.0
  0
LINE
  5
A36F
  8
0
 10
47.78903926806144
 20
232.446923543253
 30
0.0
 11
47.78903926806144
 21
232.2774704182526
 31
0.0
  0
LINE
  5
A370
  8
0
 10
47.78903926806144
 20
232.2774704182526
 30
0.0
 11
47.36206661181124
 21
232.2774704182526
 31
0.0
  0
LINE
  5
A371
  8
0
 10
47.36206661181124
 20
232.2774704182526
 30
0.0
 11
47.36206661181124
 21
232.2467965901274
 31
0.0
  0
LINE
  5
A372
  8
0
 10
46.82971309618635
 20
231.5835739338777
 30
0.0
 11
46.77363887743643
 21
231.7490719807525
 31
0.0
  0
ARC
  5
A373
  8
0
 10
46.40237051412197
 20
232.2322910584192
 30
0.0
 40
0.7730646200712835
 50
342.2910204567376
 51
1.075142363622295
  0
ARC
  5
A374
  8
0
 10
46.84883908709895
 20
232.0961060955352
 30
0.0
 40
0.3063876798952075
 50
304.2370088981581
 51
341.1546735930816
  0
ARC
  5
A375
  8
0
 10
46.67687034067098
 20
232.3784750246227
 30
0.0
 40
0.6367985092080606
 50
278.7405863986843
 51
302.7346045229082
  0
ARC
  5
A376
  8
0
 10
46.70441931145866
 20
232.359430601064
 30
0.0
 40
0.7859084555523594
 50
279.173547062458
 51
305.3414915022681
  0
ARC
  5
A377
  8
0
 10
46.85359934896988
 20
232.1064474574696
 30
0.0
 40
0.4938678410143298
 50
308.2022886499759
 51
350.7296062183676
  0
ARC
  5
A378
  8
0
 10
46.30947755310297
 20
232.2365896781631
 30
0.0
 40
1.05263854554364
 50
348.508946732466
 51
0.5555773579723515
  0
LINE
  5
A379
  8
0
 10
48.78712520556148
 20
232.4602829182527
 30
0.0
 11
48.13198848681115
 21
232.4602829182527
 31
0.0
  0
LINE
  5
A37A
  8
0
 10
48.13198848681115
 20
232.4602829182527
 30
0.0
 11
48.13198848681115
 21
232.624374715128
 31
0.0
  0
LINE
  5
A37B
  8
0
 10
48.13198848681115
 20
232.624374715128
 30
0.0
 11
48.98584590868624
 21
232.624374715128
 31
0.0
  0
LINE
  5
A37C
  8
0
 10
48.98584590868624
 20
232.624374715128
 30
0.0
 11
48.98584590868624
 21
232.4602829182527
 31
0.0
  0
LINE
  5
A37D
  8
0
 10
49.10063106493674
 20
231.7156735432528
 30
0.0
 11
48.9778478618113
 21
231.5942965901277
 31
0.0
  0
LINE
  5
A37E
  8
0
 10
48.0945470805613
 20
231.6022946370027
 30
0.0
 11
48.01447872118608
 21
231.7490719807525
 31
0.0
  0
ARC
  5
A37F
  8
0
 10
47.31555533298859
 20
233.283669432681
 30
0.0
 40
1.686263099876902
 50
294.4866134087317
 51
330.7717068869524
  0
ARC
  5
A380
  8
0
 10
47.24978877546848
 20
233.4126667126084
 30
0.0
 40
1.997764662355422
 50
295.0147624386637
 51
312.8436054073329
  0
ARC
  5
A381
  8
0
 10
41.37531573621809
 20
224.0177688025851
 30
0.0
 40
10.73323194737177
 50
44.90184257982877
 51
47.63246263973681
  0
ARC
  5
A382
  8
0
 10
42.14617892478304
 20
224.7138521986278
 30
0.0
 40
9.868632464113261
 50
45.19446774917355
 51
48.17612407225278
  0
ARC
  5
A383
  8
0
 10
47.61264821767273
 20
233.0846595213194
 30
0.0
 40
1.508482032064661
 50
317.6232793949262
 51
335.5492736743415
  0
LINE
  5
A384
  8
0
 10
49.64766231493643
 20
232.6590915120028
 30
0.0
 11
49.47284786181119
 21
232.6790426838775
 31
0.0
  0
LINE
  5
A385
  8
0
 10
49.47284786181119
 20
231.5742575276277
 30
0.0
 11
49.64766231493643
 21
231.5942965901277
 31
0.0
  0
ARC
  5
A386
  8
0
 10
51.82399673873388
 20
232.1266940510653
 30
0.0
 40
2.24050855401593
 50
166.2536808747335
 51
193.7463191252665
  0
ARC
  5
A387
  8
0
 10
51.72627309725122
 20
232.1266501057526
 30
0.0
 40
2.320142851654927
 50
166.2264222050919
 51
193.7735777949081
  0
LINE
  5
A388
  8
0
 10
49.85578731493653
 20
232.4202047932527
 30
0.0
 11
49.85578731493653
 21
232.5762985432526
 31
0.0
  0
LINE
  5
A389
  8
0
 10
49.85578731493653
 20
232.5762985432526
 30
0.0
 11
50.42953731493655
 21
232.5762985432526
 31
0.0
  0
LINE
  5
A38A
  8
0
 10
50.42953731493655
 20
232.5762985432526
 30
0.0
 11
50.42953731493655
 21
232.4202047932527
 31
0.0
  0
LINE
  5
A38B
  8
0
 10
50.42953731493655
 20
232.4202047932527
 30
0.0
 11
49.85578731493653
 21
232.4202047932527
 31
0.0
  0
LINE
  5
A38C
  8
0
 10
50.03596309618608
 20
232.0827047932526
 30
0.0
 11
49.91045528368606
 21
232.1828122151279
 31
0.0
  0
LINE
  5
A38D
  8
0
 10
50.44149043993632
 20
231.8238669026273
 30
0.0
 11
50.46557247118646
 21
231.669091512003
 31
0.0
  0
ARC
  5
A38E
  8
0
 10
50.27006351224563
 20
231.7648503880424
 30
0.0
 40
0.5513711698559726
 50
130.708220238404
 51
157.703625479385
  0
ARC
  5
A38F
  8
0
 10
49.96061856925129
 20
231.8917120611958
 30
0.0
 40
0.2169312572480087
 50
157.6967650917142
 51
205.3984993646999
  0
ARC
  5
A390
  8
0
 10
50.0269886395852
 20
231.946009397076
 30
0.0
 40
0.3008800009813904
 50
209.3210192654115
 51
257.5935048122165
  0
ARC
  5
A391
  8
0
 10
50.15961532795585
 20
232.4579926102533
 30
0.0
 40
0.8296316180790294
 50
256.2444659394042
 51
275.2215523672216
  0
ARC
  5
A392
  8
0
 10
50.15724436771681
 20
232.8438954457378
 30
0.0
 40
1.214590672657983
 50
273.6760364924776
 51
284.7056607611161
  0
ARC
  5
A393
  8
0
 10
50.14568430461708
 20
233.0665310122449
 30
0.0
 40
1.277386143272562
 50
270.1640623199838
 51
283.3896060448867
  0
ARC
  5
A394
  8
0
 10
50.12692642604705
 20
232.1591995390768
 30
0.0
 40
0.3707277183708511
 50
242.6706422703897
 51
273.4664302047655
  0
ARC
  5
A395
  8
0
 10
50.00640184778196
 20
231.9008860956084
 30
0.0
 40
0.0866823147437489
 50
154.8854560630789
 51
235.0327799996414
  0
ARC
  5
A396
  8
0
 10
50.3454501541353
 20
231.7393678956498
 30
0.0
 40
0.4622363727478137
 50
132.0317914832259
 51
154.5946083240115
  0
LINE
  5
A397
  8
0
 10
50.90186153368624
 20
232.3976169026278
 30
0.0
 11
50.71641231493633
 21
232.3976169026278
 31
0.0
  0
LINE
  5
A398
  8
0
 10
50.71641231493633
 20
232.3976169026278
 30
0.0
 11
50.71641231493633
 21
232.549667683878
 31
0.0
  0
LINE
  5
A399
  8
0
 10
50.71641231493633
 20
232.549667683878
 30
0.0
 11
50.94457637743646
 21
232.549667683878
 31
0.0
  0
LINE
  5
A39A
  8
0
 10
50.9912462993115
 20
232.7378415120025
 30
0.0
 11
51.15138301806148
 21
232.7164840901274
 31
0.0
  0
LINE
  5
A39B
  8
0
 10
51.11130489306144
 20
232.549667683878
 30
0.0
 11
51.33419551806166
 21
232.549667683878
 31
0.0
  0
LINE
  5
A39C
  8
0
 10
51.33419551806166
 20
232.549667683878
 30
0.0
 11
51.33419551806166
 21
232.3976169026278
 31
0.0
  0
LINE
  5
A39D
  8
0
 10
51.33419551806166
 20
232.3976169026278
 30
0.0
 11
51.07131465868626
 21
232.3976169026278
 31
0.0
  0
LINE
  5
A39E
  8
0
 10
50.84042598681155
 20
231.7291208088778
 30
0.0
 11
50.68573848681119
 21
231.781152058878
 31
0.0
  0
LINE
  5
A39F
  8
0
 10
51.46893184618641
 20
232.549667683878
 30
0.0
 11
51.46893184618641
 21
232.0479879963773
 31
0.0
  0
LINE
  5
A3A0
  8
0
 10
51.63838497118643
 20
232.3934860432524
 30
0.0
 11
51.63838497118643
 21
231.965195027628
 31
0.0
  0
LINE
  5
A3A1
  8
0
 10
51.88790645556166
 20
232.5229489338777
 30
0.0
 11
51.86786739306119
 21
232.3708102620026
 31
0.0
  0
LINE
  5
A3A2
  8
0
 10
51.89449825243666
 20
231.7650680745024
 30
0.0
 11
51.78911739306106
 21
231.6477340901279
 31
0.0
  0
LINE
  5
A3A3
  8
0
 10
51.78911739306106
 20
231.6477340901279
 30
0.0
 11
51.63038692431148
 21
231.7798336995025
 31
0.0
  0
ARC
  5
A3A4
  8
0
 10
42.92107959564639
 20
234.6394891403994
 30
0.0
 40
8.291191369612257
 50
345.4009556896889
 51
346.740746954867
  0
ARC
  5
A3A5
  8
0
 10
44.37678254768474
 20
234.3390916293779
 30
0.0
 40
6.807788178855744
 50
337.9301136346513
 51
343.4301309136037
  0
ARC
  5
A3A6
  8
0
 10
45.15534858739827
 20
234.0667833441495
 30
0.0
 40
6.146931849803847
 50
337.647891114247
 51
344.2437969395151
  0
ARC
  5
A3A7
  8
0
 10
48.22945414164455
 20
233.330263323861
 30
0.0
 40
2.985698127172701
 50
344.84418349645
 51
348.136949894858
  0
ARC
  5
A3A8
  8
0
 10
51.49143897058518
 20
229.6042868633957
 30
0.0
 40
2.945466813310544
 50
82.26435931630408
 51
90.43781711643568
  0
ARC
  5
A3A9
  8
0
 10
51.58570134588818
 20
230.6877828525526
 30
0.0
 40
1.706516609687102
 50
80.48265313058977
 51
88.23088210500025
  0
ARC
  5
A3AA
  8
0
 10
50.6711145410726
 20
230.4633822826742
 30
0.0
 40
1.786352038619028
 50
46.77616557053221
 51
57.2156866531281
  0
ARC
  5
A3AB
  8
0
 10
51.40025390213537
 20
231.8102597792656
 30
0.0
 40
0.2321356375605922
 50
300.4982959066377
 51
352.4685567394949
  0
ARC
  5
A3AC
  8
0
 10
51.32984951683881
 20
232.0140009869191
 30
0.0
 40
0.4454740180557357
 50
260.8493170262734
 51
294.9930070723727
  0
ARC
  5
A3AD
  8
0
 10
51.273294051896
 20
231.8483486844439
 30
0.0
 40
0.274524516799522
 50
210.6191600754503
 51
267.0164240300838
  0
ARC
  5
A3AE
  8
0
 10
51.27264975303346
 20
231.8216931009017
 30
0.0
 40
0.2613734309622749
 50
147.2334581988806
 51
205.6564160796825
  0
ARC
  5
A3AF
  8
0
 10
51.27761829581457
 20
231.7829294669967
 30
0.0
 40
0.2880874616600608
 50
91.03111037243933
 51
141.2747978514547
  0
ARC
  5
A3B0
  8
0
 10
51.32024310807709
 20
231.6282200345235
 30
0.0
 40
0.4453240198322287
 50
70.49501453936077
 51
96.16302987731919
  0
ARC
  5
A3B1
  8
0
 10
51.32306317960315
 20
231.6381868082502
 30
0.0
 40
0.2902930385304879
 50
59.83528150936421
 51
103.2201440558064
  0
ARC
  5
A3B2
  8
0
 10
51.27816164637228
 20
231.8243201498834
 30
0.0
 40
0.0988304488869036
 50
102.5568170755454
 51
180.262765637224
  0
ARC
  5
A3B3
  8
0
 10
51.28045616725617
 20
231.8211004254281
 30
0.0
 40
0.1011617650333014
 50
178.4329333203594
 51
256.0701828760615
  0
ARC
  5
A3B4
  8
0
 10
51.32722201670417
 20
231.9739693570653
 30
0.0
 40
0.2609345439815814
 50
254.1836782918791
 51
287.6043484841652
  0
ARC
  5
A3B5
  8
0
 10
51.37699042447224
 20
231.8044003953032
 30
0.0
 40
0.0843426031298885
 50
290.2187264652961
 51
350.7581622463694
  0
ARC
  5
A3B6
  8
0
 10
51.10227097165179
 20
231.8720504306281
 30
0.0
 40
0.3670603004158596
 50
347.2201738930314
 51
2.67316898487712
  0
LINE
  5
A3B7
  8
0
 10
52.20941036181141
 20
232.1573239338778
 30
0.0
 11
52.17741817431163
 21
232.3095504963777
 31
0.0
  0
LINE
  5
A3B8
  8
0
 10
52.36550411181126
 20
231.7638376057526
 30
0.0
 11
52.37754512743633
 21
231.6116110432527
 31
0.0
  0
ARC
  5
A3B9
  8
0
 10
52.79608475219847
 20
229.9765873955785
 30
0.0
 40
2.413600042319521
 50
93.0330778001963
 51
104.852125248309
  0
ARC
  5
A3BA
  8
0
 10
52.69343224161609
 20
231.8599885676035
 30
0.0
 40
0.5274133454568837
 50
60.91960556758053
 51
92.72310713201327
  0
ARC
  5
A3BB
  8
0
 10
52.79619597207144
 20
232.0883587237044
 30
0.0
 40
0.2786914630822537
 50
9.671194361801408
 51
56.55959162043377
  0
ARC
  5
A3BC
  8
0
 10
52.63619650665357
 20
232.04787165414
 30
0.0
 40
0.4434101722744036
 50
333.9597813248128
 51
11.35547973600755
  0
ARC
  5
A3BD
  8
0
 10
52.70757506049436
 20
232.0389180992496
 30
0.0
 40
0.3760688166287614
 50
291.9740011095546
 51
330.4090690351002
  0
ARC
  5
A3BE
  8
0
 10
52.52203315210052
 20
232.4326000744583
 30
0.0
 40
0.8109562744615367
 50
277.5911083880274
 51
293.7231081887235
  0
ARC
  5
A3BF
  8
0
 10
52.38885013573393
 20
233.3011167029487
 30
0.0
 40
1.689543481937406
 50
269.6166218252729
 51
278.1772037059889
  0
ARC
  5
A3C0
  8
0
 10
52.40409914763714
 20
232.9172474222003
 30
0.0
 40
1.154055363259622
 50
268.0835017580472
 51
287.3544714703422
  0
ARC
  5
A3C1
  8
0
 10
52.68169839822269
 20
232.0315243549719
 30
0.0
 40
0.2258508101221847
 50
287.1599817388461
 51
352.3121354184231
  0
ARC
  5
A3C2
  8
0
 10
52.70757749126122
 20
232.0373147221392
 30
0.0
 40
0.2011894179017752
 50
349.6911030936221
 51
46.3182034235858
  0
ARC
  5
A3C3
  8
0
 10
52.67569695710564
 20
231.9157873444697
 30
0.0
 40
0.3169953313446048
 50
57.39040451094466
 51
96.72424011120249
  0
ARC
  5
A3C4
  8
0
 10
52.85523187775924
 20
229.668332727062
 30
0.0
 40
2.571412580288827
 50
94.83313718967965
 51
104.5458325788219
  0
LINE
  5
A3C5
  8
0
 10
53.6103869243115
 20
232.4202047932527
 30
0.0
 11
53.42889278368641
 21
232.4202047932527
 31
0.0
  0
LINE
  5
A3C6
  8
0
 10
53.42889278368641
 20
232.4202047932527
 30
0.0
 11
53.42889278368641
 21
232.5710251057527
 31
0.0
  0
LINE
  5
A3C7
  8
0
 10
53.42889278368641
 20
232.5710251057527
 30
0.0
 11
53.64106075243619
 21
232.5710251057527
 31
0.0
  0
LINE
  5
A3C8
  8
0
 10
53.64106075243619
 20
232.5710251057527
 30
0.0
 11
53.66909786181115
 21
232.7324801838777
 31
0.0
  0
LINE
  5
A3C9
  8
0
 10
53.66909786181115
 20
232.7324801838777
 30
0.0
 11
53.83863887743648
 21
232.7177145588776
 31
0.0
  0
LINE
  5
A3CA
  8
0
 10
53.83863887743648
 20
232.7177145588776
 30
0.0
 11
53.81323848681124
 21
232.5710251057527
 31
0.0
  0
LINE
  5
A3CB
  8
0
 10
53.81323848681124
 20
232.5710251057527
 30
0.0
 11
54.27897090868639
 21
232.5710251057527
 31
0.0
  0
LINE
  5
A3CC
  8
0
 10
54.27897090868639
 20
232.5710251057527
 30
0.0
 11
54.27897090868639
 21
232.4202047932527
 31
0.0
  0
LINE
  5
A3CD
  8
0
 10
54.27897090868639
 20
232.4202047932527
 30
0.0
 11
53.7839709086865
 21
232.4202047932527
 31
0.0
  0
LINE
  5
A3CE
  8
0
 10
53.55703731493615
 20
231.5689840901273
 30
0.0
 11
53.38890254931123
 21
231.6076559651279
 31
0.0
  0
LINE
  5
A3CF
  8
0
 10
53.94129512743659
 20
232.1334176838778
 30
0.0
 11
53.93066036181146
 21
232.2827438557529
 31
0.0
  0
LINE
  5
A3D0
  8
0
 10
54.48032833056133
 20
232.3135055745029
 30
0.0
 11
54.48032833056133
 21
232.1640915120029
 31
0.0
  0
LINE
  5
A3D1
  8
0
 10
54.08007442431146
 20
231.9626461995027
 30
0.0
 11
53.95869747118643
 21
232.039902058878
 31
0.0
  0
LINE
  5
A3D2
  8
0
 10
54.49105098681132
 20
231.7704294026276
 30
0.0
 11
54.51109004931133
 21
231.619696980753
 31
0.0
  0
ARC
  5
A3D3
  8
0
 10
47.01143885224876
 20
233.7824840654122
 30
0.0
 40
6.738094721294446
 50
341.1697144444025
 51
348.3357808241415
  0
ARC
  5
A3D4
  8
0
 10
47.03051474647847
 20
233.7648012089903
 30
0.0
 40
6.886008252687487
 50
341.4047346856015
 51
348.7397953124075
  0
ARC
  5
A3D5
  8
0
 10
54.46814351763309
 20
227.6049592344783
 30
0.0
 40
4.708562105975219
 50
89.85172986605279
 51
96.5546104840503
  0
ARC
  5
A3D6
  8
0
 10
54.46915602137177
 20
227.6088533224862
 30
0.0
 40
4.555251890260736
 50
89.85947499256585
 51
96.65436322543621
  0
ARC
  5
A3D7
  8
0
 10
54.18685431908082
 20
231.7252686038423
 30
0.0
 40
0.3886512038689388
 50
125.9477923082765
 51
153.9456213275426
  0
ARC
  5
A3D8
  8
0
 10
53.99978889060151
 20
231.8312903970664
 30
0.0
 40
0.1745196541164178
 50
158.2451995748845
 51
211.937738790848
  0
ARC
  5
A3D9
  8
0
 10
54.10853904793863
 20
231.9253974169241
 30
0.0
 40
0.3173766808952333
 50
215.9728103304899
 51
258.577083270988
  0
ARC
  5
A3DA
  8
0
 10
54.22196071284154
 20
232.3136818609212
 30
0.0
 40
0.7212479843673572
 50
255.8532185042195
 51
272.6578213791558
  0
ARC
  5
A3DB
  8
0
 10
54.22575990582899
 20
233.12670233095
 30
0.0
 40
1.533779128917274
 50
271.1075186277241
 51
280.7212356446171
  0
ARC
  5
A3DC
  8
0
 10
54.21305002584157
 20
233.21090782147
 30
0.0
 40
1.467059170398629
 50
270.0695624886666
 51
280.923337658684
  0
ARC
  5
A3DD
  8
0
 10
54.20865017539024
 20
232.111147651214
 30
0.0
 40
0.3680274217404644
 50
240.6869572496387
 51
273.2459162436446
  0
ARC
  5
A3DE
  8
0
 10
54.06797053583696
 20
231.8536587527097
 30
0.0
 40
0.074711058388821
 50
182.4248820533392
 51
238.082482720991
  0
ARC
  5
A3DF
  8
0
 10
54.07651269374469
 20
231.8455325569494
 30
0.0
 40
0.0833343655532817
 50
131.1757227927974
 51
176.5841957139149
  0
ARC
  5
A3E0
  8
0
 10
54.53985796740207
 20
231.410147871647
 30
0.0
 40
0.7187873877436253
 50
129.7668863169349
 51
136.1330162188036
  0
LINE
  5
A3E1
  8
0
 10
54.99941036181137
 20
232.6604098713775
 30
0.0
 11
54.9807775493113
 21
232.509589558878
 31
0.0
  0
LINE
  5
A3E2
  8
0
 10
55.63450801806123
 20
232.6203317463774
 30
0.0
 11
55.63450801806123
 21
232.4695114338779
 31
0.0
  0
LINE
  5
A3E3
  8
0
 10
55.05267208056141
 20
232.3934860432524
 30
0.0
 11
54.87935176806143
 21
232.4069333088779
 31
0.0
  0
LINE
  5
A3E4
  8
0
 10
54.87935176806143
 20
232.4069333088779
 30
0.0
 11
54.81255489306106
 21
231.9892770588777
 31
0.0
  0
LINE
  5
A3E5
  8
0
 10
54.81255489306106
 20
231.9892770588777
 30
0.0
 11
54.97146114306126
 21
231.9545602620024
 31
0.0
  0
LINE
  5
A3E6
  8
0
 10
55.0181310649363
 20
232.1373727620026
 30
0.0
 11
55.05267208056141
 21
232.3934860432524
 31
0.0
  0
LINE
  5
A3E7
  8
0
 10
54.92602168993646
 20
231.750390340128
 30
0.0
 11
54.91406856493624
 21
231.5970211995028
 31
0.0
  0
ARC
  5
A3E8
  8
0
 10
55.43399971825417
 20
231.54311402855
 30
0.0
 40
0.725320742221686
 50
82.7383955307303
 51
124.9847424284259
  0
ARC
  5
A3E9
  8
0
 10
55.51424843690588
 20
231.9691512454587
 30
0.0
 40
0.2936885684487056
 50
25.47750666320868
 51
87.76921556057754
  0
ARC
  5
A3EA
  8
0
 10
55.44638886227661
 20
231.962577819304
 30
0.0
 40
0.3585317338785675
 50
321.3543299701645
 51
21.75842031571825
  0
ARC
  5
A3EB
  8
0
 10
55.37076651704876
 20
232.0944439261059
 30
0.0
 40
0.5030455772132802
 50
274.9636499740987
 51
314.989839151749
  0
ARC
  5
A3EC
  8
0
 10
55.1787874762694
 20
233.550787888458
 30
0.0
 40
1.971618719957279
 50
262.2838934043664
 51
276.8602022226234
  0
ARC
  5
A3ED
  8
0
 10
55.23959338752309
 20
234.4587339108566
 30
0.0
 40
2.726435788097946
 50
263.3957068302936
 51
271.0732963894559
  0
ARC
  5
A3EE
  8
0
 10
55.29777609091038
 20
232.1218361143069
 30
0.0
 40
0.3891246493399197
 50
268.9526659567916
 51
311.9026700510424
  0
ARC
  5
A3EF
  8
0
 10
55.42184816720459
 20
231.9532907520369
 30
0.0
 40
0.1819431806139916
 50
318.2838146029565
 51
32.76134975180928
  0
ARC
  5
A3F0
  8
0
 10
55.4204316478395
 20
231.9029087404148
 30
0.0
 40
0.2144715613892272
 50
43.94597849543317
 51
93.25534829104993
  0
ARC
  5
A3F1
  8
0
 10
55.39829567840494
 20
231.5990191721043
 30
0.0
 40
0.518110737832
 50
88.89882867160388
 51
112.7433476052045
  0
ARC
  5
A3F2
  8
0
 10
55.6419050142874
 20
230.9835336918509
 30
0.0
 40
1.179994739142887
 50
112.0984440204114
 51
124.6230820154886
  0
ARC
  5
A3F3
  8
0
 10
55.63247403871691
 20
237.6401740924036
 30
0.0
 40
5.019842758098118
 50
262.7550085222148
 51
270.023215555127
  0
ARC
  5
A3F4
  8
0
 10
55.63385476779274
 20
237.8105257985339
 30
0.0
 40
5.341014404604963
 50
262.9765318468749
 51
270.0070077480808
  0
LINE
  5
A3F5
  8
0
 10
56.2002599711863
 20
232.0559860432527
 30
0.0
 11
56.2002599711863
 21
232.6563669026278
 31
0.0
  0
LINE
  5
A3F6
  8
0
 10
56.2002599711863
 20
232.6563669026278
 30
0.0
 11
56.3870275493113
 21
232.6563669026278
 31
0.0
  0
LINE
  5
A3F7
  8
0
 10
56.3870275493113
 20
232.6563669026278
 30
0.0
 11
56.3870275493113
 21
232.0559860432527
 31
0.0
  0
LINE
  5
A3F8
  8
0
 10
56.3870275493113
 20
232.0559860432527
 30
0.0
 11
56.2002599711863
 21
232.0559860432527
 31
0.0
  0
LINE
  5
A3F9
  8
0
 10
56.87130489306166
 20
232.2868747151275
 30
0.0
 11
56.87130489306166
 21
232.6563669026278
 31
0.0
  0
LINE
  5
A3FA
  8
0
 10
56.87130489306166
 20
232.6563669026278
 30
0.0
 11
57.06220333056119
 21
232.6563669026278
 31
0.0
  0
LINE
  5
A3FB
  8
0
 10
57.06220333056119
 20
232.6563669026278
 30
0.0
 11
57.06220333056119
 21
232.2908297932527
 31
0.0
  0
LINE
  5
A3FC
  8
0
 10
56.36567012743619
 20
231.5663473713776
 30
0.0
 11
56.32831661181119
 21
231.7304391682524
 31
0.0
  0
LINE
  5
A3FD
  8
0
 10
57.76128536181106
 20
231.9304782307527
 30
0.0
 11
57.76128536181106
 21
232.0733004963777
 31
0.0
  0
LINE
  5
A3FE
  8
0
 10
57.76128536181106
 20
232.0733004963777
 30
0.0
 11
57.39179317431119
 21
232.0733004963777
 31
0.0
  0
LINE
  5
A3FF
  8
0
 10
57.39179317431119
 20
232.0733004963777
 30
0.0
 11
57.39179317431119
 21
232.2334372151277
 31
0.0
  0
LINE
  5
A400
  8
0
 10
57.39179317431119
 20
232.2334372151277
 30
0.0
 11
57.76128536181106
 21
232.2334372151277
 31
0.0
  0
LINE
  5
A401
  8
0
 10
57.76128536181106
 20
232.2334372151277
 30
0.0
 11
57.76128536181106
 21
232.4695114338779
 31
0.0
  0
LINE
  5
A402
  8
0
 10
57.76128536181106
 20
232.4695114338779
 30
0.0
 11
57.50772090868615
 21
232.4695114338779
 31
0.0
  0
LINE
  5
A403
  8
0
 10
57.50772090868615
 20
232.4695114338779
 30
0.0
 11
57.50772090868615
 21
232.6337790120029
 31
0.0
  0
LINE
  5
A404
  8
0
 10
57.50772090868615
 20
232.6337790120029
 30
0.0
 11
58.42310176806124
 21
232.6337790120029
 31
0.0
  0
LINE
  5
A405
  8
0
 10
58.42310176806124
 20
232.6337790120029
 30
0.0
 11
58.42310176806124
 21
232.4695114338779
 31
0.0
  0
LINE
  5
A406
  8
0
 10
58.42310176806124
 20
232.4695114338779
 30
0.0
 11
57.95613887743632
 21
232.4695114338779
 31
0.0
  0
LINE
  5
A407
  8
0
 10
57.95613887743632
 20
232.4695114338779
 30
0.0
 11
57.95613887743632
 21
232.2334372151277
 31
0.0
  0
LINE
  5
A408
  8
0
 10
57.95613887743632
 20
232.2334372151277
 30
0.0
 11
58.53920528368637
 21
232.2334372151277
 31
0.0
  0
LINE
  5
A409
  8
0
 10
58.53920528368637
 20
232.2334372151277
 30
0.0
 11
58.53920528368637
 21
232.0733004963777
 31
0.0
  0
LINE
  5
A40A
  8
0
 10
58.53920528368637
 20
232.0733004963777
 30
0.0
 11
57.95613887743632
 21
232.0733004963777
 31
0.0
  0
LINE
  5
A40B
  8
0
 10
57.95613887743632
 20
232.0733004963777
 30
0.0
 11
57.95613887743632
 21
231.9358395588775
 31
0.0
  0
LINE
  5
A40C
  8
0
 10
58.43646114306141
 20
231.775702840128
 30
0.0
 11
58.44173458056132
 21
231.6103805745029
 31
0.0
  0
ARC
  5
A40D
  8
0
 10
56.06603300268421
 20
232.2696526472141
 30
0.0
 40
0.8054560304915982
 50
340.9437882329723
 51
1.225178000018496
  0
ARC
  5
A40E
  8
0
 10
56.50331369974411
 20
232.1275756218827
 30
0.0
 40
0.345855307889423
 50
291.670576553406
 51
339.5389467977661
  0
ARC
  5
A40F
  8
0
 10
56.22617633258459
 20
232.7816466271936
 30
0.0
 40
1.056158017710445
 50
275.5497072742328
 51
292.5397602820191
  0
ARC
  5
A410
  8
0
 10
56.29352495102281
 20
232.6144481285905
 30
0.0
 40
1.050580850648829
 50
273.9376978144313
 51
296.3652409231708
  0
ARC
  5
A411
  8
0
 10
56.5069132568183
 20
232.1494172974996
 30
0.0
 40
0.5393756653461665
 50
297.9933108679145
 51
349.2973959047169
  0
ARC
  5
A412
  8
0
 10
56.01234402685567
 20
232.2786513298012
 30
0.0
 40
1.049929936971548
 50
347.3794742886816
 51
0.6646064465848662
  0
ARC
  5
A413
  8
0
 10
58.25061254406238
 20
231.9008885146785
 30
0.0
 40
0.4902210140205808
 50
176.5395261482863
 51
206.0121964930288
  0
ARC
  5
A414
  8
0
 10
57.99301301416072
 20
231.8380107513588
 30
0.0
 40
0.2379373016522034
 50
219.7400975832281
 51
273.8636407009164
  0
ARC
  5
A415
  8
0
 10
58.14657881403449
 20
235.0971589910441
 30
0.0
 40
3.499248583992225
 50
267.747489334722
 51
274.8385522250587
  0
ARC
  5
A416
  8
0
 10
58.13313627712584
 20
235.2947623765857
 30
0.0
 40
3.532107868600457
 50
269.5594493554569
 51
274.926425743971
  0
ARC
  5
A417
  8
0
 10
58.1068529508933
 20
232.0980255156289
 30
0.0
 40
0.3352677379612373
 50
252.6101303751348
 51
269.8504673977251
  0
ARC
  5
A418
  8
0
 10
58.03117260889034
 20
231.8388719385304
 30
0.0
 40
0.0655496828836007
 50
188.1794661638701
 51
248.0315991587105
  0
ARC
  5
A419
  8
0
 10
58.41283809890544
 20
231.9258220556524
 30
0.0
 40
0.4568090730928223
 50
178.7434429434794
 51
192.1667740459287
  0
LINE
  5
A41A
  8
0
 10
58.74864864306157
 20
232.0372653401278
 30
0.0
 11
58.74864864306157
 21
232.2160348713774
 31
0.0
  0
LINE
  5
A41B
  8
0
 10
58.74864864306157
 20
232.2160348713774
 30
0.0
 11
59.85070918993635
 21
232.2160348713774
 31
0.0
  0
LINE
  5
A41C
  8
0
 10
59.85070918993635
 20
232.2160348713774
 30
0.0
 11
59.85070918993635
 21
232.0372653401278
 31
0.0
  0
LINE
  5
A41D
  8
0
 10
59.85070918993635
 20
232.0372653401278
 30
0.0
 11
58.74864864306157
 21
232.0372653401278
 31
0.0
  0
LINE
  5
A41E
  8
0
 10
60.45645137743615
 20
232.1213766682527
 30
0.0
 11
60.45645137743615
 21
231.5756637776277
 31
0.0
  0
LINE
  5
A41F
  8
0
 10
60.45645137743615
 20
231.5756637776277
 30
0.0
 11
60.26968379931115
 21
231.5756637776277
 31
0.0
  0
LINE
  5
A420
  8
0
 10
60.26968379931115
 20
231.5756637776277
 30
0.0
 11
60.26968379931115
 21
232.6778122151277
 31
0.0
  0
LINE
  5
A421
  8
0
 10
60.26968379931115
 20
232.6778122151277
 30
0.0
 11
60.45645137743615
 21
232.6778122151277
 31
0.0
  0
LINE
  5
A422
  8
0
 10
60.45645137743615
 20
232.6778122151277
 30
0.0
 11
60.45645137743615
 21
232.304101277628
 31
0.0
  0
LINE
  5
A423
  8
0
 10
61.18225215868635
 20
232.0812985432527
 30
0.0
 11
61.12626583056174
 21
231.9132516682526
 31
0.0
  0
ARC
  5
A424
  8
0
 10
58.86105535365099
 20
225.8133658709222
 30
0.0
 40
6.683931073296139
 50
69.67895110286432
 51
76.19068882595862
  0
ARC
  5
A425
  8
0
 10
58.91330410086642
 20
225.9731193336441
 30
0.0
 40
6.338956678330691
 50
69.56741481783094
 51
75.9104163881585
  0
LINE
  5
A426
  8
0
 10
61.52379512743657
 20
231.7304391682524
 30
0.0
 11
61.52379512743657
 21
231.9065719807527
 31
0.0
  0
LINE
  5
A427
  8
0
 10
61.52379512743657
 20
231.9065719807527
 30
0.0
 11
61.41850215868674
 21
231.883896199503
 31
0.0
  0
LINE
  5
A428
  8
0
 10
61.41850215868674
 20
231.883896199503
 30
0.0
 11
61.40646114306166
 21
232.039902058878
 31
0.0
  0
LINE
  5
A429
  8
0
 10
61.40646114306166
 20
232.039902058878
 30
0.0
 11
61.52379512743657
 21
232.0639840901277
 31
0.0
  0
LINE
  5
A42A
  8
0
 10
61.52379512743657
 20
232.0639840901277
 30
0.0
 11
61.52379512743657
 21
232.353583699503
 31
0.0
  0
LINE
  5
A42B
  8
0
 10
61.52379512743657
 20
232.353583699503
 30
0.0
 11
61.40786739306115
 21
232.353583699503
 31
0.0
  0
LINE
  5
A42C
  8
0
 10
61.40786739306115
 20
232.353583699503
 30
0.0
 11
61.40786739306115
 21
232.5002731526279
 31
0.0
  0
LINE
  5
A42D
  8
0
 10
61.40786739306115
 20
232.5002731526279
 30
0.0
 11
61.52379512743657
 21
232.5002731526279
 31
0.0
  0
LINE
  5
A42E
  8
0
 10
61.52379512743657
 20
232.5002731526279
 30
0.0
 11
61.52379512743657
 21
232.7310739338778
 31
0.0
  0
LINE
  5
A42F
  8
0
 10
61.52379512743657
 20
232.7310739338778
 30
0.0
 11
61.69201778368635
 21
232.7310739338778
 31
0.0
  0
LINE
  5
A430
  8
0
 10
61.69201778368635
 20
232.7310739338778
 30
0.0
 11
61.69201778368635
 21
232.5002731526279
 31
0.0
  0
LINE
  5
A431
  8
0
 10
61.69201778368635
 20
232.5002731526279
 30
0.0
 11
61.80407833056135
 21
232.5002731526279
 31
0.0
  0
LINE
  5
A432
  8
0
 10
61.80407833056135
 20
232.5002731526279
 30
0.0
 11
61.80407833056135
 21
232.3695797932529
 31
0.0
  0
LINE
  5
A433
  8
0
 10
61.80407833056135
 20
232.3695797932529
 30
0.0
 11
62.19237911181146
 21
232.3695797932529
 31
0.0
  0
LINE
  5
A434
  8
0
 10
62.19237911181146
 20
232.3695797932529
 30
0.0
 11
62.19237911181146
 21
232.0866598713779
 31
0.0
  0
LINE
  5
A435
  8
0
 10
62.19237911181146
 20
232.0866598713779
 30
0.0
 11
62.23236934618619
 21
232.0866598713779
 31
0.0
  0
LINE
  5
A436
  8
0
 10
62.23236934618619
 20
232.0866598713779
 30
0.0
 11
62.23236934618619
 21
232.3695797932529
 31
0.0
  0
LINE
  5
A437
  8
0
 10
62.23236934618619
 20
232.3695797932529
 30
0.0
 11
62.63525997118624
 21
232.3695797932529
 31
0.0
  0
LINE
  5
A438
  8
0
 10
62.63525997118624
 20
232.3695797932529
 30
0.0
 11
62.63525997118624
 21
232.0532614338777
 31
0.0
  0
LINE
  5
A439
  8
0
 10
62.63525997118624
 20
232.0532614338777
 30
0.0
 11
62.29644161181106
 21
232.0532614338777
 31
0.0
  0
LINE
  5
A43A
  8
0
 10
62.29644161181106
 20
232.0532614338777
 30
0.0
 11
62.29644161181106
 21
232.0039547932525
 31
0.0
  0
LINE
  5
A43B
  8
0
 10
62.29644161181106
 20
232.0039547932525
 30
0.0
 11
62.65793575243644
 21
232.0039547932525
 31
0.0
  0
LINE
  5
A43C
  8
0
 10
62.65793575243644
 20
232.0039547932525
 30
0.0
 11
62.65793575243644
 21
231.8664938557527
 31
0.0
  0
LINE
  5
A43D
  8
0
 10
62.65793575243644
 20
231.8664938557527
 30
0.0
 11
62.38986934618644
 21
231.8664938557527
 31
0.0
  0
LINE
  5
A43E
  8
0
 10
62.03224239306148
 20
231.8664938557527
 30
0.0
 11
61.75872676806141
 21
231.8664938557527
 31
0.0
  0
LINE
  5
A43F
  8
0
 10
61.75872676806141
 20
231.8664938557527
 30
0.0
 11
61.75872676806141
 21
231.974511433878
 31
0.0
  0
LINE
  5
A440
  8
0
 10
61.75872676806141
 20
231.974511433878
 30
0.0
 11
61.69201778368635
 21
231.9532419026278
 31
0.0
  0
LINE
  5
A441
  8
0
 10
61.69201778368635
 20
231.9532419026278
 30
0.0
 11
61.69201778368635
 21
231.7437106526277
 31
0.0
  0
LINE
  5
A442
  8
0
 10
61.72005489306132
 20
231.6797262776277
 30
0.0
 11
61.79608028368641
 21
231.5449020588777
 31
0.0
  0
LINE
  5
A443
  8
0
 10
62.12303340868623
 20
231.778427449503
 30
0.0
 11
62.12303340868623
 21
231.5289059651278
 31
0.0
  0
LINE
  5
A444
  8
0
 10
62.12303340868623
 20
231.5289059651278
 30
0.0
 11
62.29644161181106
 21
231.5289059651278
 31
0.0
  0
LINE
  5
A445
  8
0
 10
62.29644161181106
 20
231.5289059651278
 30
0.0
 11
62.29644161181106
 21
231.781152058878
 31
0.0
  0
LINE
  5
A446
  8
0
 10
62.67929317431155
 20
231.6797262776277
 30
0.0
 11
62.59931270556119
 21
231.5449020588777
 31
0.0
  0
LINE
  5
A447
  8
0
 10
61.86815059618623
 20
232.7177145588776
 30
0.0
 11
62.57531856493635
 21
232.7177145588776
 31
0.0
  0
LINE
  5
A448
  8
0
 10
62.57531856493635
 20
232.7177145588776
 30
0.0
 11
62.57531856493635
 21
232.4055270588775
 31
0.0
  0
LINE
  5
A449
  8
0
 10
62.57531856493635
 20
232.4055270588775
 30
0.0
 11
61.86815059618623
 21
232.4055270588775
 31
0.0
  0
LINE
  5
A44A
  8
0
 10
61.86815059618623
 20
232.4055270588775
 30
0.0
 11
61.86815059618623
 21
232.7177145588776
 31
0.0
  0
LINE
  5
A44B
  8
0
 10
62.03083614306153
 20
232.5829782307524
 30
0.0
 11
62.03083614306153
 21
232.5242672932528
 31
0.0
  0
LINE
  5
A44C
  8
0
 10
62.03083614306153
 20
232.5242672932528
 30
0.0
 11
62.40577754931148
 21
232.5242672932528
 31
0.0
  0
LINE
  5
A44D
  8
0
 10
62.40577754931148
 20
232.5242672932528
 30
0.0
 11
62.40577754931148
 21
232.5829782307524
 31
0.0
  0
LINE
  5
A44E
  8
0
 10
62.40577754931148
 20
232.5829782307524
 30
0.0
 11
62.03083614306153
 21
232.5829782307524
 31
0.0
  0
LINE
  5
A44F
  8
0
 10
61.69201778368635
 20
232.108017293253
 30
0.0
 11
61.69201778368635
 21
232.353583699503
 31
0.0
  0
LINE
  5
A450
  8
0
 10
61.69201778368635
 20
232.353583699503
 30
0.0
 11
61.79071895556119
 21
232.353583699503
 31
0.0
  0
LINE
  5
A451
  8
0
 10
61.79071895556119
 20
232.353583699503
 30
0.0
 11
61.79071895556119
 21
232.1400094807528
 31
0.0
  0
LINE
  5
A452
  8
0
 10
61.79071895556119
 20
232.1400094807528
 30
0.0
 11
61.69201778370245
 21
232.1080172932581
 31
0.0
  0
LINE
  5
A453
  8
0
 10
62.12303340868623
 20
232.0039547932525
 30
0.0
 11
61.8054845805613
 21
232.0039547932525
 31
0.0
  0
LINE
  5
A454
  8
0
 10
61.8054845805613
 20
232.0039547932525
 30
0.0
 11
61.80275997118626
 21
232.0532614338777
 31
0.0
  0
LINE
  5
A455
  8
0
 10
61.80275997118626
 20
232.0532614338777
 30
0.0
 11
62.12303340868623
 21
232.0532614338777
 31
0.0
  0
LINE
  5
A456
  8
0
 10
62.12303340868623
 20
232.0532614338777
 30
0.0
 11
62.12303340868623
 21
232.0039547932525
 31
0.0
  0
LINE
  5
A457
  8
0
 10
62.05351192431128
 20
232.173407918253
 30
0.0
 11
61.93617793993637
 21
232.173407918253
 31
0.0
  0
LINE
  5
A458
  8
0
 10
61.93617793993637
 20
232.173407918253
 30
0.0
 11
61.93617793993637
 21
232.2453903401279
 31
0.0
  0
LINE
  5
A459
  8
0
 10
61.93617793993637
 20
232.2453903401279
 30
0.0
 11
62.05351192431128
 21
232.2453903401279
 31
0.0
  0
LINE
  5
A45A
  8
0
 10
62.05351192431128
 20
232.2453903401279
 30
0.0
 11
62.05351192431128
 21
232.173407918253
 31
0.0
  0
LINE
  5
A45B
  8
0
 10
62.36842403368648
 20
232.173407918253
 30
0.0
 11
62.36842403368648
 21
232.2453903401279
 31
0.0
  0
LINE
  5
A45C
  8
0
 10
62.36842403368648
 20
232.2453903401279
 30
0.0
 11
62.48452754931115
 21
232.2453903401279
 31
0.0
  0
LINE
  5
A45D
  8
0
 10
62.48452754931115
 20
232.2453903401279
 30
0.0
 11
62.48452754931115
 21
232.173407918253
 31
0.0
  0
LINE
  5
A45E
  8
0
 10
62.48452754931115
 20
232.173407918253
 30
0.0
 11
62.36842403368648
 21
232.173407918253
 31
0.0
  0
LINE
  5
A45F
  8
0
 10
61.41314083056106
 20
231.6757711995029
 30
0.0
 11
61.42122676806132
 21
231.5329489338779
 31
0.0
  0
ARC
  5
A460
  8
0
 10
61.6253526172145
 20
233.9382175574731
 30
0.0
 40
2.272377029695415
 50
264.6414777738622
 51
266.9348152461827
  0
ARC
  5
A461
  8
0
 10
61.50617972700457
 20
231.6914462913617
 30
0.0
 40
0.022476476334337
 50
264.03501221812
 51
306.5640674473047
  0
ARC
  5
A462
  8
0
 10
61.50749320566487
 20
231.6820167588825
 30
0.0
 40
0.014839073681366
 50
324.4701988857918
 51
4.421974038738584
  0
ARC
  5
A463
  8
0
 10
61.01692946217351
 20
231.7229326079619
 30
0.0
 40
0.5069212474043316
 50
355.5000960438273
 51
0.8484748777902161
  0
ARC
  5
A464
  8
0
 10
61.63483598799694
 20
234.0666493718724
 30
0.0
 40
2.542688893344043
 50
265.1809484774698
 51
267.5208014624529
  0
ARC
  5
A465
  8
0
 10
61.53231194556466
 20
232.2737606063289
 30
0.0
 40
0.7474574208886295
 50
269.4278258300276
 51
274.7828769779775
  0
ARC
  5
A466
  8
0
 10
61.58194420662661
 20
231.6700872661416
 30
0.0
 40
0.1417505388387061
 50
275.1365035074422
 51
297.894765149848
  0
ARC
  5
A467
  8
0
 10
61.61222055856099
 20
231.6041980661466
 30
0.0
 40
0.0694715375261978
 50
301.2514755256504
 51
351.3397225057918
  0
ARC
  5
A468
  8
0
 10
61.37097983889947
 20
231.6740079284913
 30
0.0
 40
0.3201466567477245
 50
345.4792488797654
 51
359.0668339659391
  0
ARC
  5
A469
  8
0
 10
59.49868979905696
 20
231.7335837585319
 30
0.0
 40
2.193351363129598
 50
358.3072842196231
 51
0.2645405394391241
  0
ARC
  5
A46A
  8
0
 10
61.25338018083357
 20
232.8140858680434
 30
0.0
 40
1.226603834737866
 50
292.3622304129851
 51
309.4180965652807
  0
ARC
  5
A46B
  8
0
 10
61.1797021656205
 20
232.753520008866
 30
0.0
 40
1.356716379153855
 50
297.0209406626466
 51
314.0515009572343
  0
ARC
  5
A46C
  8
0
 10
63.25416393633054
 20
232.6966819085028
 30
0.0
 40
1.324925264474462
 50
223.7097081622024
 51
240.3793491799922
  0
ARC
  5
A46D
  8
0
 10
63.27546236360375
 20
232.9212142894423
 30
0.0
 40
1.377211017143197
 50
229.981595629291
 51
244.349432299083
  0
LINE
  5
A46E
  8
0
 10
63.23968379931141
 20
232.7044430745028
 30
0.0
 11
63.07559200243615
 21
232.736435262003
 31
0.0
  0
LINE
  5
A46F
  8
0
 10
62.80075801806144
 20
232.1520504963779
 30
0.0
 11
62.87019161181108
 21
231.9732809651273
 31
0.0
  0
LINE
  5
A470
  8
0
 10
62.96616817431133
 20
232.1026559651278
 30
0.0
 11
62.96616817431133
 21
231.5223141682528
 31
0.0
  0
LINE
  5
A471
  8
0
 10
62.96616817431133
 20
231.5223141682528
 30
0.0
 11
63.14502559618624
 21
231.5223141682528
 31
0.0
  0
LINE
  5
A472
  8
0
 10
63.14502559618624
 20
231.5223141682528
 30
0.0
 11
63.14502559618624
 21
232.3882126057529
 31
0.0
  0
LINE
  5
A473
  8
0
 10
63.15829708056155
 20
232.2187594807525
 30
0.0
 11
63.29980098681146
 21
232.110741902628
 31
0.0
  0
LINE
  5
A474
  8
0
 10
63.50651973681163
 20
232.4736422932525
 30
0.0
 11
63.50651973681163
 21
231.5223141682528
 31
0.0
  0
LINE
  5
A475
  8
0
 10
63.50651973681163
 20
231.5223141682528
 30
0.0
 11
63.68933223681135
 21
231.5223141682528
 31
0.0
  0
LINE
  5
A476
  8
0
 10
63.68933223681135
 20
231.5223141682528
 30
0.0
 11
63.68933223681135
 21
231.7837887776278
 31
0.0
  0
LINE
  5
A477
  8
0
 10
63.68933223681135
 20
231.7837887776278
 30
0.0
 11
64.02287715868663
 21
231.7837887776278
 31
0.0
  0
LINE
  5
A478
  8
0
 10
64.02287715868663
 20
231.7837887776278
 30
0.0
 11
64.02287715868663
 21
231.9358395588775
 31
0.0
  0
LINE
  5
A479
  8
0
 10
64.02287715868663
 20
231.9358395588775
 30
0.0
 11
63.68933223681135
 21
231.9358395588775
 31
0.0
  0
LINE
  5
A47A
  8
0
 10
63.68933223681135
 20
231.9358395588775
 30
0.0
 11
63.68933223681135
 21
232.1334176838778
 31
0.0
  0
LINE
  5
A47B
  8
0
 10
63.68933223681135
 20
232.1334176838778
 30
0.0
 11
64.02287715868663
 21
232.1334176838778
 31
0.0
  0
LINE
  5
A47C
  8
0
 10
64.02287715868663
 20
232.1334176838778
 30
0.0
 11
64.02287715868663
 21
232.2801071370027
 31
0.0
  0
LINE
  5
A47D
  8
0
 10
64.02287715868663
 20
232.2801071370027
 30
0.0
 11
63.68933223681135
 21
232.2801071370027
 31
0.0
  0
LINE
  5
A47E
  8
0
 10
63.68933223681135
 20
232.2801071370027
 30
0.0
 11
63.68933223681135
 21
232.4736422932525
 31
0.0
  0
LINE
  5
A47F
  8
0
 10
63.68933223681135
 20
232.4736422932525
 30
0.0
 11
64.06295528368666
 21
232.4736422932525
 31
0.0
  0
LINE
  5
A480
  8
0
 10
64.06295528368666
 20
232.4736422932525
 30
0.0
 11
64.06295528368666
 21
232.6203317463774
 31
0.0
  0
LINE
  5
A481
  8
0
 10
64.06295528368666
 20
232.6203317463774
 30
0.0
 11
63.54527950243657
 21
232.6203317463774
 31
0.0
  0
LINE
  5
A482
  8
0
 10
63.57604122118657
 20
232.7164840901274
 30
0.0
 11
63.40650020556124
 21
232.7511129963773
 31
0.0
  0
ARC
  5
A483
  8
0
 10
61.5977225278677
 20
233.0423248374694
 30
0.0
 40
1.509194028694409
 50
335.5457096686311
 51
348.3060403035889
  0
ARC
  5
A484
  8
0
 10
61.88909118811154
 20
232.9260781194907
 30
0.0
 40
1.195932761560066
 50
319.6679218269052
 51
334.8367065032426
  0
ARC
  5
A485
  8
0
 10
62.10095993385127
 20
232.6442213152116
 30
0.0
 40
1.020724413232922
 50
318.9043658670693
 51
327.9560510819899
  0
ARC
  5
A486
  8
0
 10
61.96384773900743
 20
232.9140604678564
 30
0.0
 40
1.292941260989209
 50
336.0018785125658
 51
350.6697714262836
  0
ARC
  5
A487
  8
0
 10
61.43628519640497
 20
233.3456633928248
 30
0.0
 40
2.057969231116068
 50
326.7988139724891
 51
343.207798180194
  0
ARC
  5
A488
  8
0
 10
61.22811460479014
 20
233.4228695702433
 30
0.0
 40
2.452256813952018
 50
327.6513795623706
 51
337.2268745923164
  0
LINE
  5
A489
  8
0
 10
63.48920528368619
 20
232.4736422932525
 30
0.0
 11
63.50651973681163
 21
232.4736422932525
 31
0.0
  0
LINE
  5
A48A
  8
0
 10
63.57604122118657
 20
232.7164840901274
 30
0.0
 11
63.56090449122618
 21
232.6679055935402
 31
0.0
  0
LINE
  5
A48B
  8
0
 10
63.56090449122618
 20
232.6679055935402
 30
0.0
 11
63.54527950243657
 21
232.6203317463774
 31
0.0
  0
VIEWPORT
  5
22
 67
     1
  8
0
 10
5.269134197284911
 20
5.545311567251436
 30
0.0
 40
11.13808705479925
 41
12.32365374410561
 68
     1
 69
     1
1001
GENIUS_GENSCREG_15
1000
PF
1040
1.0
1000
DF
1040
1.0
1000
MIN
1011
-0.2999093301147138
1021
-0.6165153048013714
1031
0.0
1021
-0.6165153048013714
1031
0.0
1000
MAX
1011
10.83817772468454
1021
11.70713843930424
1031
0.0
1021
11.70713843930424
1031
0.0
1000
FLAGS
1070
     4
1001
GENIUS_GENODEF_13
1002
{
1000
HIER
1070
     0
1002
}
1002
{
1000
MANEDIT
1070
     0
1002
}
1002
{
1000
NOSEL
1070
     0
1002
}
1002
{
1000
BEHIND
1070
     0
1002
}
1002
{
1000
OTHER
1070
     0
1002
}
1002
{
1000
REACTOR
1002
}
1001
GENIUS_GENOBJ-N-SDF_13
1002
{
1000
OWNER
1000
GEN
1002
}
1001
ACAD
1000
MVIEW
1002
{
1070
    16
1010
0.0
1020
0.0
1030
0.0
1020
0.0
1030
0.0
1010
0.0
1020
0.0
1030
1.0
1020
0.0
1030
1.0
1040
0.0
1040
12.32365374410561
1040
5.269134197284911
1040
5.545311567251436
1040
50.0
1040
0.0
1040
0.0
1070
     0
1070
   100
1070
     0
1070
     1
1070
     0
1070
     0
1070
     0
1070
     0
1040
0.0
1040
0.0
1040
0.0
1040
1.0
1040
1.0
1040
10.0
1040
10.0
1070
     0
1002
{
1002
}
1002
}
  0
ENDSEC
  0
EOF
