  0
SECTION
  2
HEADER
  9
$ACADVER
  1
AC1009
  9
$DWGCODEPAGE
  3
ansi_932
  9
$INSBASE
 10
0.0
 20
0.0
 30
0.0
  9
$EXTMIN
 10
0.0000019319777493
 20
-0.0000006430686881
 30
0.0
  9
$EXTMAX
 10
229.3158562747082
 20
294.6851305534326
 30
0.0
  9
$LIMMIN
 10
0.0
 20
0.0
  9
$LIMMAX
 10
420.0
 20
420.0
  9
$ORTHOMODE
 70
     0
  9
$REGENMODE
 70
     1
  9
$FILLMODE
 70
     1
  9
$QTEXTMODE
 70
     0
  9
$MIRRTEXT
 70
     0
  9
$DRAGMODE
 70
     2
  9
$LTSCALE
 40
10.0
  9
$OSMODE
 70
   549
  9
$ATTMODE
 70
     1
  9
$TEXTSIZE
 40
1.0
  9
$TRACEWID
 40
1.0
  9
$TEXTSTYLE
  7
STANDARD
  9
$CLAYER
  8
0
  9
$CELTYPE
  6
BYLAYER
  9
$CECOLOR
 62
   256
  9
$DIMSCALE
 40
1.0
  9
$DIMASZ
 40
2.5
  9
$DIMEXO
 40
1.0
  9
$DIMDLI
 40
7.0
  9
$DIMRND
 40
0.0
  9
$DIMDLE
 40
0.0
  9
$DIMEXE
 40
1.0
  9
$DIMTP
 40
0.1
  9
$DIMTM
 40
0.1
  9
$DIMTXT
 40
3.0
  9
$DIMCEN
 40
0.0
  9
$DIMTSZ
 40
0.0
  9
$DIMTOL
 70
     0
  9
$DIMLIM
 70
     0
  9
$DIMTIH
 70
     0
  9
$DIMTOH
 70
     0
  9
$DIMSE1
 70
     0
  9
$DIMSE2
 70
     0
  9
$DIMTAD
 70
     3
  9
$DIMZIN
 70
     8
  9
$DIMBLK
  1
OPEN
  9
$DIMASO
 70
     1
  9
$DIMSHO
 70
     1
  9
$DIMPOST
  1

  9
$DIMAPOST
  1
"
  9
$DIMALT
 70
     0
  9
$DIMALTD
 70
     2
  9
$DIMALTF
 40
0.0393701
  9
$DIMLFAC
 40
1.0
  9
$DIMTOFL
 70
     1
  9
$DIMTVP
 40
0.0
  9
$DIMTIX
 70
     0
  9
$DIMSOXD
 70
     0
  9
$DIMSAH
 70
     0
  9
$DIMBLK1
  1

  9
$DIMBLK2
  1

  9
$DIMSTYLE
  2
AM_JIS
  9
$DIMCLRD
 70
   256
  9
$DIMCLRE
 70
   256
  9
$DIMCLRT
 70
     2
  9
$DIMTFAC
 40
0.71
  9
$DIMGAP
 40
1.0
  9
$LUNITS
 70
     2
  9
$LUPREC
 70
     2
  9
$SKETCHINC
 40
1.0
  9
$FILLETRAD
 40
2.5
  9
$AUNITS
 70
     0
  9
$AUPREC
 70
     0
  9
$MENU
  1
.
  9
$ELEVATION
 40
0.0
  9
$PELEVATION
 40
0.0
  9
$THICKNESS
 40
0.0
  9
$LIMCHECK
 70
     0
  9
$CHAMFERA
 40
2.5
  9
$CHAMFERB
 40
2.5
  9
$SKPOLY
 70
     1
  9
$TDCREATE
 40
2457177.656267685
  9
$TDUPDATE
 40
2460346.658585648
  9
$TDINDWG
 40
0.0073487384
  9
$TDUSRTIMER
 40
0.0073485764
  9
$USRTIMER
 70
     1
  9
$ANGBASE
 50
0.0
  9
$ANGDIR
 70
     0
  9
$PDMODE
 70
     0
  9
$PDSIZE
 40
0.0
  9
$PLINEWID
 40
0.0
  9
$COORDS
 70
     0
  9
$SPLFRAME
 70
     0
  9
$SPLINETYPE
 70
     6
  9
$SPLINESEGS
 70
     8
  9
$ATTDIA
 70
     1
  9
$ATTREQ
 70
     1
  9
$HANDLING
 70
     1
  9
$HANDSEED
  5
9EE7
  9
$SURFTAB1
 70
     6
  9
$SURFTAB2
 70
     6
  9
$SURFTYPE
 70
     6
  9
$SURFU
 70
     6
  9
$SURFV
 70
     6
  9
$UCSNAME
  2

  9
$UCSORG
 10
0.0
 20
0.0
 30
0.0
  9
$UCSXDIR
 10
1.0
 20
0.0
 30
0.0
  9
$UCSYDIR
 10
0.0
 20
1.0
 30
0.0
  9
$PUCSNAME
  2

  9
$PUCSORG
 10
0.0
 20
0.0
 30
0.0
  9
$PUCSXDIR
 10
1.0
 20
0.0
 30
0.0
  9
$PUCSYDIR
 10
0.0
 20
1.0
 30
0.0
  9
$USERI1
 70
     0
  9
$USERI2
 70
     0
  9
$USERI3
 70
     0
  9
$USERI4
 70
     0
  9
$USERI5
 70
     0
  9
$USERR1
 40
0.0
  9
$USERR2
 40
0.0
  9
$USERR3
 40
0.0
  9
$USERR4
 40
0.0
  9
$USERR5
 40
0.0
  9
$WORLDVIEW
 70
     1
  9
$SHADEDGE
 70
     3
  9
$SHADEDIF
 70
    70
  9
$TILEMODE
 70
     1
  9
$MAXACTVP
 70
    48
  9
$PLIMCHECK
 70
     0
  9
$PEXTMIN
 10
1.000000000000000E+20
 20
1.000000000000000E+20
 30
1.000000000000000E+20
  9
$PEXTMAX
 10
-1.000000000000000E+20
 20
-1.000000000000000E+20
 30
-1.000000000000000E+20
  9
$PLIMMIN
 10
-0.2500002402958907
 20
-0.2499999962453767
  9
$PLIMMAX
 10
10.74999951940822
 20
8.249999763458732
  9
$UNITMODE
 70
     0
  9
$VISRETAIN
 70
     1
  9
$PLINEGEN
 70
     0
  9
$PSLTSCALE
 70
     1
  0
ENDSEC
  0
SECTION
  2
TABLES
  0
TABLE
  2
VPORT
 70
     1
  0
VPORT
  2
*ACTIVE
 70
     0
 10
0.0
 20
0.0
 11
1.0
 21
1.0
 12
210.0
 22
209.9999996784657
 13
0.0
 23
0.0
 14
2.5
 24
2.5
 15
10.0
 25
10.0
 16
0.0
 26
0.0
 36
1.0
 17
0.0
 27
0.0
 37
0.0
 40
423.2589725200276
 41
2.05293551491819
 42
50.0
 43
0.0
 44
0.0
 50
0.0
 51
0.0
 71
     0
 72
   100
 73
     1
 74
     3
 75
     0
 76
     0
 77
     0
 78
     0
  0
ENDTAB
  0
TABLE
  2
LTYPE
 70
    22
  0
LTYPE
  2
CONTINUOUS
 70
     0
  3
Solid line
 72
    65
 73
     0
 40
0.0
  0
LTYPE
  2
HIDDEN
 70
     0
  3
__ __ __ __ __ __ __ __ __ __ __ __ __ __ __ __
 72
    65
 73
     2
 40
0.375
 49
0.25
 49
-0.125
  0
LTYPE
  2
PHANTOM2
 70
     0
  3
___ _ _ ___ _ _ ___ _ _ ___ _ _ ___ _ _ ___ _ _
 72
    65
 73
     6
 40
1.25
 49
0.625
 49
-0.125
 49
0.125
 49
-0.125
 49
0.125
 49
-0.125
  0
LTYPE
  2
CENTER
 70
     0
  3
____ _ ____ _ ____ _ ____ _ ____ _ ____ _ ____ 
 72
    65
 73
     4
 40
2.0
 49
1.25
 49
-0.25
 49
0.25
 49
-0.25
  0
LTYPE
  2
ACJISTGB
 70
     0
  3
__ . . __ . .
 72
    65
 73
     6
 40
9.0
 49
4.0
 49
-1.0
 49
1.0
 49
-1.0
 49
1.0
 49
-1.0
  0
LTYPE
  2
ACJISTGL
 70
     0
  3
_ _ _ _ _
 72
    65
 73
     2
 40
3.0
 49
2.0
 49
-1.0
  0
LTYPE
  2
ACISOWELD
 70
     0
  3
_ _ _ _ _
 72
    65
 73
     2
 40
2.0
 49
2.0
 49
-1.0
  0
LTYPE
  2
ACISOTGB
 70
     0
  3
__ . . __ . .
 72
    65
 73
     6
 40
9.0
 49
4.0
 49
-1.0
 49
1.0
 49
-1.0
 49
1.0
 49
-1.0
  0
LTYPE
  2
ACISOTGL
 70
     0
  3
_ _ _ _ _
 72
    65
 73
     2
 40
3.0
 49
2.0
 49
-1.0
  0
LTYPE
  2
AM_ISO02W050
 70
     0
  3
__ __ __ __ __ __ __ __ __ __ __ __ __ __ __
 72
    65
 73
     2
 40
7.5
 49
6.0
 49
-1.5
  0
LTYPE
  2
AM_ISO08W050
 70
     0
  3
____ . ____ . ____ . ____ . ____ . ____ . ____
 72
    65
 73
     4
 40
18.0
 49
12.0
 49
-1.5
 49
3.0
 49
-1.5
  0
LTYPE
  2
AM_ISO09W050
 70
     0
  3
_____ . . _____ . . _____ . . ____ .. ____
 72
    65
 73
     6
 40
22.5
 49
12.0
 49
-1.5
 49
3.0
 49
-1.5
 49
3.0
 49
-1.5
  0
LTYPE
  2
AM_ISO02W050X2
 70
     0
  3
 _ _ _ _ _ _ _ _ _ _ _ _
 72
    65
 73
     2
 40
3.75
 49
3.0
 49
-0.75
  0
LTYPE
  2
AM_ISO08W050X2
 70
     0
  3
__ . __ . __ . __ . __ . __
 72
    65
 73
     4
 40
9.0
 49
6.0
 49
-0.75
 49
1.5
 49
-0.75
  0
LTYPE
  2
AMZIGZAG
 70
     0
  3
/\/-/\/-/\/-/\/-/\/-/\/
 72
    65
 73
     2
 40
11.0001
 49
0.0001
 49
-11.0
  0
LTYPE
  2
AMCONSTR
 70
     0
  3
_______________________
 72
    65
 73
     2
 40
9999.0
 49
9999.0
 49
0.0
  0
LTYPE
  2
CENTER2
 70
     0
  3
Center (.5x) ___ _ ___ _ ___ _ ___ _ ___ _ ___
 72
    65
 73
     4
 40
1.125
 49
0.75
 49
-0.125
 49
0.125
 49
-0.125
  0
LTYPE
  2
HIDDEN2
 70
     0
  3
Hidden (.5x) _ _ _ _ _ _ _ _ _ _ _ _ _ _ _ _ _
 72
    65
 73
     2
 40
0.1875
 49
0.125
 49
-0.0625
  0
LTYPE
  2
ACJISWELD
 70
     0
  3
_ _ _ _ _
 72
    65
 73
     2
 40
2.0
 49
2.0
 49
-1.0
  0
LTYPE
  2
AMZIGZAG2
 70
     0
  3
/\/-/\/-/\/-/\/-/\/-/\/
 72
    65
 73
     2
 40
0.4401
 49
0.0001
 49
-0.44
  0
LTYPE
  2
ACANSTGB
 70
     0
  3
__ . . __ . .
 72
    65
 73
     6
 40
0.35433070866
 49
0.15748031496
 49
-0.03937007874
 49
0.03937007874
 49
-0.03937007874
 49
0.03937007874
 49
-0.03937007874
  0
LTYPE
  2
ACANSTGL
 70
     0
  3
_ _ _ _ _
 72
    65
 73
     2
 40
0.11811023622
 49
0.07874015748
 49
-0.03937007874
  0
ENDTAB
  0
TABLE
  2
LAYER
 70
     5
  0
LAYER
  2
0
 70
     0
 62
     7
  6
CONTINUOUS
  0
LAYER
  2
7
 70
     0
 62
     4
  6
CENTER2
  0
LAYER
  2
10
 70
     0
 62
     2
  6
CONTINUOUS
  0
LAYER
  2
DEFPOINTS
 70
     0
 62
     7
  6
CONTINUOUS
  0
LAYER
  2
AM_0
 70
     0
 62
     7
  6
CONTINUOUS
  0
ENDTAB
  0
TABLE
  2
STYLE
 70
     8
  0
STYLE
  2
STANDARD
 70
     0
 40
0.0
 41
1.0
 50
0.0
 71
     0
 42
1.0
  3
ISOCP.SHX
  4
EXTFONT.SHX
  0
STYLE
  2
ACJISTS
 70
     0
 40
1.0
 41
1.0
 50
0.0
 71
     0
 42
3.5
  3
isocp.shx
  4
extfont.shx
  0
STYLE
  2
ACJISGDT
 70
     0
 40
0.0
 41
1.0
 50
0.0
 71
     0
 42
3.5
  3
amgdt.shx
  4
extfont.shx
  0
STYLE
  2
ACISOTS
 70
     0
 40
1.0
 41
1.0
 50
0.0
 71
     0
 42
1.0
  3
isocp.shx
  4
extfont.shx
  0
STYLE
  2
ACISOGDT
 70
     0
 40
0.0
 41
1.0
 50
0.0
 71
     0
 42
3.5
  3
amgdt.shx
  4
extfont.shx
  0
STYLE
  2

 70
     1
 40
0.0
 41
1.0
 50
0.0
 71
     0
 42
3.5
  3
ltypeshp.shx
  4

  0
STYLE
  2

 70
     1
 40
0.0
 41
1.0
 50
0.0
 71
     0
 42
4.0
  3
genltshp.shx
  4

  0
STYLE
  2
ACANSGDT
 70
     0
 40
0.0
 41
1.0
 50
0.0
 71
     0
 42
4.0
  3
amgdt.shx
  4

  0
ENDTAB
  0
TABLE
  2
VIEW
 70
     3
  0
VIEW
  2
AMDTVIEW1
 70
     0
 40
329.0721649484536
 10
210.0
 20
164.5360824742268
 41
420.0
 11
0.0
 21
0.0
 31
1.0
 12
0.0
 22
0.0
 32
0.0
 42
50.0
 43
0.0
 44
0.0
 50
0.0
 71
     0
  0
VIEW
  2
AMDTVIEW2
 70
     0
 40
329.0721649484536
 10
210.0
 20
164.5360824742268
 41
420.0
 11
0.0
 21
0.0
 31
1.0
 12
0.0
 22
0.0
 32
0.0
 42
50.0
 43
0.0
 44
0.0
 50
0.0
 71
     0
  0
VIEW
  2
AMDTVIEW3
 70
     0
 40
329.0721649484536
 10
210.0
 20
164.5360824742268
 41
420.0
 11
0.0
 21
0.0
 31
1.0
 12
0.0
 22
0.0
 32
0.0
 42
50.0
 43
0.0
 44
0.0
 50
0.0
 71
     0
  0
ENDTAB
  0
TABLE
  2
UCS
 70
     0
  0
ENDTAB
  0
TABLE
  2
APPID
 70
    67
  0
APPID
  2
ACAD
 70
     0
  0
APPID
  2
AD_DRAW
 70
     0
  0
APPID
  2
DESIGNERASSEMBLIES
 70
     0
  0
APPID
  2
MCAD_NO_VIS
 70
     0
  0
APPID
  2
ASURF_PCURVE_APPNAME
 70
     0
  0
APPID
  2
ACAD_TEMP_GRAPHIC
 70
     0
  0
APPID
  2
ACATTRIBSERVICES
 70
     0
  0
APPID
  2
ACADM_DIM_EDIT
 70
     0
  0
APPID
  2
GENIUS_GENDIM_13
 70
     0
  0
APPID
  2
GENIUS_GENDTOL_13
 70
     0
  0
APPID
  2
GENIUS_GE3DTOL_13
 70
     0
  0
APPID
  2
AMG_3D2D_5_0
 70
     0
  0
APPID
  2
AMDT_DM_ADJ
 70
     0
  0
APPID
  2
ACAD_PSEXT
 70
     0
  0
APPID
  2
ACAD_DSTYLE_DIMTEXT_FILL
 70
     0
  0
APPID
  2
ACAECLAYERSTANDARD
 70
     0
  0
APPID
  2
GENIUS_GENREC_14
 70
     0
  0
APPID
  2
GENIUS_GENODEF_13
 70
     0
  0
APPID
  2
GENIUS_GENOBJ-N-REC_13
 70
     0
  0
APPID
  2
DCO15
 70
     0
  0
APPID
  2
ACAD_DSTYLE_DIMJAG
 70
     0
  0
APPID
  2
ACAD_DSTYLE_DIMTALN
 70
     0
  0
APPID
  2
ACAD_MLEADERVER
 70
     0
  0
APPID
  2
GENIUS_GENSCREG_15
 70
     0
  0
APPID
  2
GENIUS_GENOBJ-N-SDF_13
 70
     0
  0
APPID
  2
ACAD_NAV_VCDISPLAY
 70
     0
  0
APPID
  2
ACAD_EXEMPT_FROM_CAD_STAND
 70
     0
  0
APPID
  2
ACCMTRANSPARENCY
 70
     0
  0
APPID
  2
GENIUS_GENOBJ-N-CEN_13
 70
     0
  0
APPID
  2
GENIUS_GENOBJ-N-FIL_13
 70
     0
  0
APPID
  2
GENIUS_GENCEN_19
 70
     0
  0
APPID
  2
ACAD_DSTYLE_DIMBREAK
 70
     0
  0
APPID
  2
PLOTTRANSPARENCY
 70
     0
  0
APPID
  2
ACAD_SPLINE_DATA
 70
     0
  0
APPID
  2
ACAD_SPLINE_DATA2
 70
     0
  0
APPID
  2
HC_SUPERPART
 70
     0
  0
APPID
  2
HC_SP4BLOCK
 70
     0
  0
APPID
  2
HC_XDATA_SPRING
 70
     0
  0
APPID
  2
HCCAD_FRAME
 70
     0
  0
APPID
  2
GENIUS_GENOLIS_13
 70
     0
  0
APPID
  2
GENIUS_GENOENT_13
 70
     0
  0
APPID
  2
GENIUS_GENOREF_13
 70
     0
  0
APPID
  2
GENIUS_GENOBJ-N-TIT_13
 70
     0
  0
APPID
  2
GENIUS_GENOBJ-N-ZOO_13
 70
     0
  0
APPID
  2
GENIUS_GENTITLE_13
 70
     0
  0
APPID
  2
GENIUS_GENSYMENT_13
 70
     0
  0
APPID
  2
GENIUS_GENSCSYM_13
 70
     0
  0
APPID
  2
GENIUS_GENOBJ-N-REV_13
 70
     0
  0
APPID
  2
GENIUS_GENOBJ-N-RSSYM_13
 70
     0
  0
APPID
  2
GENIUS_GENREV_15
 70
     0
  0
APPID
  2
HRA
 70
     0
  0
APPID
  2
HTIT
 70
     0
  0
APPID
  2
GENIUS_GENZOO_17
 70
     0
  0
APPID
  2
GENIUS_GENOBJ-N-CRS_13
 70
     0
  0
APPID
  2
GENIUS_GENCRS_20
 70
     0
  0
APPID
  2
GENIUS_GENOBJ-N-CRC_13
 70
     0
  0
APPID
  2
GENIUS_GENCRC_14
 70
     0
  0
APPID
  2
GENIUS_GENFIL_13
 70
     0
  0
APPID
  2
GENIUS_GENOBJ-N-CHA_13
 70
     0
  0
APPID
  2
GENIUS_GENHATCH_13
 70
     0
  0
APPID
  2
GENIUS_GENOBJ-N-HTC_13
 70
     0
  0
APPID
  2
GENIUS_GENOBJ-N-DIM_13
 70
     0
  0
APPID
  2
GENIUS_GENOBJ-N-DIMLI_13
 70
     0
  0
APPID
  2
GENIUS_GENOBJ-N-FITL_13
 70
     0
  0
APPID
  2
GENIUS_GENFITL_13
 70
     0
  0
APPID
  2
GENLAYCOLOR
 70
     0
  0
APPID
  2
ACADANNOTATIVE
 70
     0
  0
ENDTAB
  0
TABLE
  2
DIMSTYLE
 70
    23
  0
DIMSTYLE
  2
STANDARD
 70
     0
  3

  4

  5

  6

  7

 40
1.0
 41
2.5
 42
0.625
 43
3.75
 44
1.25
 45
0.0
 46
0.0
 47
0.0
 48
0.0
140
2.5
141
2.5
142
0.0
143
0.0394
144
1.0
145
0.0
146
1.0
147
0.625
 71
     0
 72
     0
 73
     0
 74
     0
 75
     0
 76
     0
 77
     1
 78
     8
170
     0
171
     4
172
     1
173
     0
174
     0
175
     0
176
     0
177
     0
178
     0
  0
DIMSTYLE
  2
AM_JIS
 70
     0
  3

  4
"
  5
OPEN
  6

  7

 40
1.0
 41
2.5
 42
1.0
 43
7.0
 44
1.0
 45
0.0
 46
0.0
 47
0.1
 48
0.1
140
3.0
141
0.0
142
0.0
143
0.0393701
144
1.0
145
0.0
146
0.71
147
1.0
 71
     0
 72
     0
 73
     0
 74
     0
 75
     0
 76
     0
 77
     3
 78
     8
170
     0
171
     2
172
     1
173
     0
174
     0
175
     0
176
   256
177
   256
178
     2
  0
DIMSTYLE
  2
AM_JIS$3
 70
     0
  3

  4
"
  5
OPEN
  6

  7

 40
1.0
 41
2.5
 42
1.0
 43
10.0
 44
1.0
 45
0.0
 46
0.0
 47
0.1
 48
0.1
140
3.0
141
0.0
142
0.0
143
0.0393701
144
1.0
145
0.0
146
0.71
147
1.0
 71
     0
 72
     0
 73
     0
 74
     0
 75
     0
 76
     0
 77
     3
 78
     8
170
     0
171
     2
172
     1
173
     0
174
     0
175
     0
176
   256
177
   256
178
     2
  0
DIMSTYLE
  2
AM_JIS$4
 70
     0
  3

  4
"
  5

  6
OPEN30
  7
OPEN
 40
1.0
 41
2.5
 42
1.0
 43
10.0
 44
1.0
 45
0.0
 46
0.0
 47
0.1
 48
0.1
140
3.0
141
0.0
142
0.0
143
0.0393701
144
1.0
145
0.0
146
0.71
147
1.0
 71
     0
 72
     0
 73
     0
 74
     0
 75
     0
 76
     0
 77
     3
 78
     8
170
     0
171
     2
172
     1
173
     1
174
     0
175
     0
176
   256
177
   256
178
     2
  0
DIMSTYLE
  2
AM_JIS$6
 70
     0
  3

  4
"
  5
OPEN30
  6
OPEN30
  7
OPEN30
 40
1.0
 41
2.5
 42
1.0
 43
10.0
 44
1.0
 45
0.0
 46
0.0
 47
0.1
 48
0.1
140
3.5
141
0.0
142
0.0
143
0.0393701
144
1.0
145
0.0
146
0.71
147
1.5
 71
     0
 72
     0
 73
     0
 74
     0
 75
     0
 76
     0
 77
     0
 78
     8
170
     0
171
     2
172
     1
173
     0
174
     0
175
     0
176
   256
177
   256
178
     2
  0
DIMSTYLE
  2
AM_JIS$7
 70
     0
  3

  4
"
  5
OPEN30
  6

  7

 40
1.0
 41
2.5
 42
1.0
 43
10.0
 44
1.0
 45
0.0
 46
0.0
 47
0.1
 48
0.1
140
3.0
141
0.0
142
0.0
143
0.0393701
144
1.0
145
0.0
146
0.71
147
1.0
 71
     0
 72
     0
 73
     0
 74
     0
 75
     0
 76
     0
 77
     3
 78
     8
170
     0
171
     2
172
     1
173
     0
174
     0
175
     0
176
   256
177
   256
178
     2
  0
DIMSTYLE
  2
AM_JIS$SF
 70
     0
  3

  4
"
  5
OPEN
  6

  7

 40
1.0
 41
2.5
 42
1.0
 43
7.0
 44
1.0
 45
0.0
 46
0.0
 47
0.1
 48
0.1
140
3.5
141
0.0
142
0.0
143
0.0393701
144
1.0
145
0.0
146
0.71
147
1.5
 71
     0
 72
     0
 73
     0
 74
     0
 75
     1
 76
     1
 77
     3
 78
     8
170
     0
171
     2
172
     1
173
     0
174
     0
175
     0
176
   256
177
   256
178
     2
  0
DIMSTYLE
  2
AM_JIS$SH
 70
     0
  3

  4
"
  5

  6
GENAXEH
  7
OPEN
 40
1.0
 41
2.5
 42
1.0
 43
7.0
 44
1.0
 45
0.0
 46
0.0
 47
0.1
 48
0.1
140
3.5
141
0.0
142
0.0
143
0.0393701
144
2.0
145
0.0
146
0.71
147
1.5
 71
     0
 72
     0
 73
     0
 74
     0
 75
     1
 76
     1
 77
     3
 78
     8
170
     0
171
     2
172
     1
173
     1
174
     0
175
     0
176
   256
177
   256
178
     2
  0
DIMSTYLE
  2
AM_ISO
 70
     0
  3

  4
"
  5

  6

  7

 40
1.0
 41
2.5
 42
1.0
 43
10.0
 44
1.0
 45
0.0
 46
0.0
 47
0.1
 48
0.1
140
3.5
141
0.0
142
0.0
143
0.0393701
144
1.0
145
0.0
146
0.71
147
1.5
 71
     0
 72
     0
 73
     0
 74
     0
 75
     0
 76
     0
 77
     1
 78
     8
170
     0
171
     2
172
     1
173
     0
174
     0
175
     0
176
   256
177
   256
178
     2
  0
DIMSTYLE
  2
AM_ISO$3
 70
     0
  3

  4
"
  5

  6

  7

 40
1.0
 41
2.5
 42
1.0
 43
10.0
 44
1.0
 45
0.0
 46
0.0
 47
0.1
 48
0.1
140
3.5
141
0.0
142
0.0
143
0.0393701
144
1.0
145
0.0
146
0.71
147
1.5
 71
     0
 72
     0
 73
     0
 74
     1
 75
     0
 76
     0
 77
     1
 78
     8
170
     0
171
     2
172
     0
173
     0
174
     0
175
     0
176
   256
177
   256
178
     2
  0
DIMSTYLE
  2
AM_ISO$4
 70
     0
  3

  4
"
  5

  6

  7

 40
1.0
 41
2.5
 42
1.0
 43
10.0
 44
1.0
 45
0.0
 46
0.0
 47
0.1
 48
0.1
140
3.5
141
0.0
142
0.0
143
0.0393701
144
1.0
145
0.0
146
0.71
147
1.5
 71
     0
 72
     0
 73
     0
 74
     1
 75
     0
 76
     0
 77
     1
 78
     8
170
     0
171
     2
172
     0
173
     0
174
     0
175
     0
176
   256
177
   256
178
     2
  0
DIMSTYLE
  2
AM_ISO$6
 70
     0
  3

  4
"
  5

  6

  7

 40
1.0
 41
2.5
 42
1.0
 43
10.0
 44
1.0
 45
0.0
 46
0.0
 47
0.1
 48
0.1
140
3.5
141
0.0
142
0.0
143
0.0393701
144
1.0
145
0.0
146
0.71
147
1.5
 71
     0
 72
     0
 73
     0
 74
     0
 75
     0
 76
     0
 77
     0
 78
     8
170
     0
171
     2
172
     1
173
     0
174
     0
175
     0
176
   256
177
   256
178
     2
  0
DIMSTYLE
  2
AM_ISO$7
 70
     0
  3

  4
"
  5

  6

  7

 40
1.0
 41
2.5
 42
1.0
 43
10.0
 44
1.0
 45
0.0
 46
0.0
 47
0.1
 48
0.1
140
5.0
141
0.0
142
0.0
143
0.0393701
144
1.0
145
0.0
146
0.71
147
1.5
 71
     0
 72
     0
 73
     0
 74
     0
 75
     0
 76
     0
 77
     1
 78
     8
170
     0
171
     2
172
     1
173
     0
174
     0
175
     0
176
   256
177
   256
178
     2
  0
DIMSTYLE
  2
AM_ISO$SF
 70
     0
  3

  4
"
  5

  6

  7

 40
1.0
 41
2.5
 42
1.0
 43
10.0
 44
1.0
 45
0.0
 46
0.0
 47
0.1
 48
0.1
140
3.5
141
0.0
142
0.0
143
0.0393701
144
1.0
145
0.0
146
0.71
147
1.5
 71
     0
 72
     0
 73
     0
 74
     0
 75
     1
 76
     1
 77
     1
 78
     8
170
     0
171
     2
172
     1
173
     0
174
     0
175
     0
176
   256
177
   256
178
     2
  0
DIMSTYLE
  2
AM_ISO$SH
 70
     0
  3

  4
"
  5

  6
GENAXEH
  7

 40
1.0
 41
2.5
 42
1.0
 43
10.0
 44
1.0
 45
0.0
 46
0.0
 47
0.1
 48
0.1
140
3.5
141
0.0
142
0.0
143
0.0393701
144
2.0
145
0.0
146
0.71
147
1.5
 71
     0
 72
     0
 73
     0
 74
     0
 75
     1
 76
     1
 77
     1
 78
     8
170
     0
171
     2
172
     1
173
     1
174
     0
175
     0
176
   256
177
   256
178
     2
  0
DIMSTYLE
  2
AM_JIS$2
 70
     0
  3

  4
"
  5
OPEN
  6

  7

 40
1.0
 41
2.5
 42
1.0
 43
7.0
 44
1.0
 45
0.0
 46
0.0
 47
0.1
 48
0.1
140
3.0
141
0.0
142
0.0
143
0.0393701
144
1.0
145
0.0
146
0.71
147
1.0
 71
     0
 72
     0
 73
     0
 74
     0
 75
     0
 76
     0
 77
     3
 78
     8
170
     0
171
     2
172
     1
173
     0
174
     0
175
     0
176
   256
177
   256
178
     2
  0
DIMSTYLE
  2
AM_JIS$0
 70
     0
  3

  4
"
  5
OPEN
  6

  7

 40
1.0
 41
2.5
 42
1.0
 43
7.0
 44
1.0
 45
0.0
 46
0.0
 47
0.1
 48
0.1
140
3.0
141
0.0
142
0.0
143
0.0393701
144
1.0
145
0.0
146
0.71
147
1.0
 71
     0
 72
     0
 73
     0
 74
     0
 75
     0
 76
     0
 77
     3
 78
     8
170
     0
171
     2
172
     1
173
     0
174
     0
175
     0
176
   256
177
   256
178
     2
  0
DIMSTYLE
  2
AM_ANSI
 70
     0
  3

  4
mm
  5

  6

  7

 40
1.0
 41
0.12
 42
0.05
 43
0.5
 44
0.1
 45
0.0
 46
0.0
 47
0.1
 48
0.1
140
0.12
141
0.0
142
0.0
143
25.4
144
1.0
145
0.0
146
0.71
147
0.06
 71
     0
 72
     0
 73
     1
 74
     1
 75
     0
 76
     0
 77
     0
 78
     7
170
     0
171
     2
172
     0
173
     0
174
     0
175
     0
176
   256
177
   256
178
     2
  0
DIMSTYLE
  2
AM_ANSI$3
 70
     0
  3

  4
mm
  5

  6

  7

 40
1.0
 41
0.12
 42
0.05
 43
0.5
 44
0.1
 45
0.0
 46
0.0
 47
0.1
 48
0.1
140
0.12
141
0.0
142
0.0
143
25.4
144
1.0
145
0.0
146
0.71
147
0.06
 71
     0
 72
     0
 73
     1
 74
     1
 75
     0
 76
     0
 77
     0
 78
     7
170
     0
171
     2
172
     0
173
     0
174
     0
175
     0
176
   256
177
   256
178
     2
  0
DIMSTYLE
  2
AM_ANSI$4
 70
     0
  3

  4
mm
  5

  6

  7

 40
1.0
 41
0.12
 42
0.05
 43
0.5
 44
0.1
 45
0.0
 46
0.0
 47
0.1
 48
0.1
140
0.12
141
0.0
142
0.0
143
25.4
144
1.0
145
0.0
146
0.71
147
0.06
 71
     0
 72
     0
 73
     1
 74
     1
 75
     0
 76
     0
 77
     0
 78
     7
170
     0
171
     2
172
     0
173
     0
174
     0
175
     0
176
   256
177
   256
178
     2
  0
DIMSTYLE
  2
AM_ANSI$7
 70
     0
  3

  4
mm
  5

  6

  7

 40
1.0
 41
0.12
 42
0.05
 43
0.5
 44
0.1
 45
0.0
 46
0.0
 47
0.1
 48
0.1
140
0.12
141
0.0
142
0.0
143
25.4
144
1.0
145
0.0
146
0.71
147
0.06
 71
     0
 72
     0
 73
     1
 74
     1
 75
     0
 76
     0
 77
     0
 78
     7
170
     0
171
     2
172
     0
173
     0
174
     0
175
     0
176
   256
177
   256
178
     2
  0
DIMSTYLE
  2
AM_ANSI$SF
 70
     0
  3

  4
mm
  5

  6

  7

 40
1.0
 41
0.12
 42
0.05
 43
0.5
 44
0.1
 45
0.0
 46
0.0
 47
0.1
 48
0.1
140
0.12
141
0.0
142
0.0
143
25.4
144
1.0
145
0.0
146
0.71
147
0.06
 71
     0
 72
     0
 73
     1
 74
     1
 75
     1
 76
     1
 77
     0
 78
     7
170
     0
171
     2
172
     0
173
     0
174
     0
175
     0
176
   256
177
   256
178
     2
  0
DIMSTYLE
  2
AM_ANSI$SH
 70
     0
  3

  4
mm
  5

  6
GENAXEH
  7

 40
1.0
 41
0.12
 42
0.05
 43
0.5
 44
0.1
 45
0.0
 46
0.0
 47
0.1
 48
0.1
140
0.12
141
0.0
142
0.0
143
25.4
144
1.0
145
0.0
146
0.71
147
0.06
 71
     0
 72
     0
 73
     1
 74
     1
 75
     1
 76
     1
 77
     0
 78
     7
170
     0
171
     2
172
     0
173
     1
174
     0
175
     0
176
   256
177
   256
178
     2
  0
ENDTAB
  0
ENDSEC
  0
SECTION
  2
BLOCKS
  0
BLOCK
  8
0
  2
$MODEL_SPACE
 70
     0
 10
0.0
 20
0.0
 30
0.0
  3
$MODEL_SPACE
  1

  0
ENDBLK
  5
1C
  8
0
  0
BLOCK
 67
     1
  8
0
  2
$PAPER_SPACE
 70
     0
 10
0.0
 20
0.0
 30
0.0
  3
$PAPER_SPACE
  1

  0
ENDBLK
  5
19
 67
     1
  8
0
  0
BLOCK
  8
0
  2
_OPEN30
 70
     0
 10
0.0
 20
0.0
 30
0.0
  3
_OPEN30
  1

  0
LINE
  5
2EF
  8
0
  6
BYBLOCK
 62
     0
 10
-1.0
 20
0.26794919
 30
0.0
 11
0.0
 21
0.0
 31
0.0
  0
LINE
  5
2F0
  8
0
  6
BYBLOCK
 62
     0
 10
0.0
 20
0.0
 30
0.0
 11
-1.0
 21
-0.26794919
 31
0.0
  0
LINE
  5
2F1
  8
0
  6
BYBLOCK
 62
     0
 10
0.0
 20
0.0
 30
0.0
 11
-1.0
 21
0.0
 31
0.0
  0
ENDBLK
  5
2F3
  8
0
  0
BLOCK
  8
0
  2
GENAXEH
 70
     0
 10
0.0
 20
0.0
 30
0.0
  3
GENAXEH
  1

  0
LINE
  5
2F5
  8
0
 10
-1.0
 20
0.0
 30
0.0
 11
1.0
 21
0.0
 31
0.0
  0
ENDBLK
  5
2F7
  8
0
  0
BLOCK
  8
0
  2
_OPEN
 70
     0
 10
0.0
 20
0.0
 30
0.0
  3
_OPEN
  1

  0
LINE
  5
597
  8
0
  6
BYBLOCK
 62
     0
 10
-1.0
 20
0.1666666666666667
 30
0.0
 11
0.0
 21
0.0
 31
0.0
  0
LINE
  5
598
  8
0
  6
BYBLOCK
 62
     0
 10
-1.0
 20
-0.1666666666666667
 30
0.0
 11
0.0
 21
0.0
 31
0.0
  0
LINE
  5
599
  8
0
  6
BYBLOCK
 62
     0
 10
0.0
 20
0.0
 30
0.0
 11
-1.0
 21
0.0
 31
0.0
  0
ENDBLK
  5
59B
  8
0
  0
BLOCK
  8
0
  2
_TAGCIRCLE
 70
     2
 10
0.0
 20
0.0
 30
0.0
  3
_TAGCIRCLE
  1

  0
CIRCLE
  5
1151
  8
0
  6
BYBLOCK
 62
     0
 10
0.0
 20
0.0
 30
0.0
 40
4.0
  0
ATTDEF
  5
1152
  8
0
 62
     0
 10
-7.1
 20
-1.5
 30
0.0
 40
3.0
  1
タグ番号
 72
     1
 11
0.0
 21
-1.5
 31
0.0
  3
タグ番号を入力
  2
タグ番号
 70
     0
  0
ENDBLK
  5
1154
  8
0
  0
BLOCK
  8
0
  2
_ACMFILLED15
 70
     0
 10
0.0
 20
0.0
 30
0.0
  3
_ACMFILLED15
  1
Acad:XRef
  0
TRACE
  5
78D0
  8
AM_0
 62
     0
 10
-1.0
 20
0.1316524975873958
 30
0.0
 11
-1.0
 21
-0.1316524975873958
 31
0.0
 12
0.0
 22
0.0
 32
0.0
 13
0.0
 23
0.0
 33
0.0
  0
ENDBLK
  5
78CE
  8
0
  0
BLOCK
  8
0
  2
_ACMOPEN30
 70
     0
 10
0.0
 20
0.0
 30
0.0
  3
_ACMOPEN30
  1
Acad:XRef
  0
LINE
  5
78DA
  8
AM_0
 62
     0
 10
-1.0
 20
0.0
 30
0.0
 11
0.0
 21
0.0
 31
0.0
  0
LINE
  5
78DB
  8
AM_0
 62
     0
 10
-1.0
 20
-0.2679491924311227
 30
0.0
 11
0.0
 21
0.0
 31
0.0
  0
LINE
  5
78DC
  8
AM_0
 62
     0
 10
-1.0
 20
0.2679491924311227
 30
0.0
 11
0.0
 21
0.0
 31
0.0
  0
ENDBLK
  5
78D9
  8
0
  0
BLOCK
  8
0
  2
_ACMFILLEDHALF
 70
     0
 10
0.0
 20
0.0
 30
0.0
  3
_ACMFILLEDHALF
  1

  0
TRACE
  5
78E5
  8
0
 62
     0
 10
-0.8
 20
0.0
 30
0.0
 11
-1.0
 21
0.166666666
 31
0.0
 12
0.0
 22
0.0
 32
0.0
 13
0.0
 23
0.0
 33
0.0
  0
LINE
  5
78E6
  8
0
 62
     0
 10
-1.0
 20
0.0
 30
0.0
 11
-0.8
 21
0.0
 31
0.0
  0
ENDBLK
  5
78E7
  8
0
  0
BLOCK
  8
0
  2
_ACMOPEN15
 70
     0
 10
0.0
 20
0.0
 30
0.0
  3
_ACMOPEN15
  1
Acad:XRef
  0
LINE
  5
78F4
  8
AM_0
 62
     0
 10
-1.0
 20
0.0
 30
0.0
 11
0.0
 21
0.0
 31
0.0
  0
LINE
  5
78F5
  8
AM_0
 62
     0
 10
-1.0
 20
-0.1316524975873958
 30
0.0
 11
0.0
 21
0.0
 31
0.0
  0
LINE
  5
78F6
  8
AM_0
 62
     0
 10
-1.0
 20
0.1316524975873958
 30
0.0
 11
0.0
 21
0.0
 31
0.0
  0
ENDBLK
  5
78F3
  8
0
  0
BLOCK
  8
0
  2
*X9
 70
     1
 10
0.0
 20
0.0
 30
0.0
  3
*X9
  1
Acad:XRef
  0
TEXT
  5
9EB7
  8
0
 62
     7
 10
69.35712706503345
 20
206.6384403864568
 30
0.0
 40
1.9
  1
凍結
  0
TEXT
  5
9EB8
  8
0
 62
     7
 10
69.3430268795047
 20
203.3143216480523
 30
0.0
 40
1.9
  1
予防
  0
ENDBLK
  5
9EDB
  8
0
  0
BLOCK
  8
0
  2
*X10
 70
     1
 10
0.0
 20
0.0
 30
0.0
  3
*X10
  1
Acad:XRef
  0
TEXT
  5
9ED8
  8
0
 62
     7
 10
69.34772694134762
 20
214.6390278941871
 30
0.0
 40
1.9
  1
給水
  0
TEXT
  5
9ED9
  8
0
 62
     7
 10
69.35830208049418
 20
211.3149091557827
 30
0.0
 40
1.9
  1
給湯
  0
ENDBLK
  5
9EDD
  8
0
  0
ENDSEC
  0
SECTION
  2
ENTITIES
  0
TEXT
  5
17FA
  8
10
 10
-1.499998068022251
 20
-0.0000006430686881
 30
0.0
 40
10.0
  1
2024.02.01 EV2R 2台連動 露出型
 11
-1.499998068022251
 21
-0.0000006430686881
 31
0.0
 73
     1
  0
LINE
  5
45C2
  8
0
 10
25.52185615177359
 20
289.8911305534326
 30
0.0
 11
125.5218561517736
 21
289.8911305534324
 31
0.0
  0
LINE
  5
45C3
  8
0
 10
25.52185615177359
 20
169.8911305534325
 30
0.0
 11
125.5218561517736
 21
169.8911305534325
 31
0.0
  0
ARC
  5
45C4
  8
0
 10
25.52185615177359
 20
281.8911305534326
 30
0.0
 40
8.0
 50
90.0
 51
180.0
  0
LINE
  5
45C5
  8
0
 10
21.27921546465427
 20
286.1337712405517
 30
0.0
 11
29.52185615177359
 21
277.8911305534326
 31
0.0
  0
LINE
  5
45C6
  8
0
 10
31.52185615177359
 20
181.8911305534324
 30
0.0
 11
119.5218561517736
 21
181.8911305534327
 31
0.0
  0
LINE
  5
45C7
  8
0
 10
31.52185615177359
 20
277.8911305534326
 30
0.0
 11
119.5218561517736
 21
277.8911305534325
 31
0.0
  0
LINE
  5
45CA
  8
0
 10
29.52185615177359
 20
275.8911305534326
 30
0.0
 11
29.52185615177359
 21
183.8911305534325
 31
0.0
  0
LINE
  5
45CC
  8
0
 10
17.52185615177359
 20
281.8911305534326
 30
0.0
 11
17.52185615177359
 21
177.8911305534325
 31
0.0
  0
LINE
  5
45CD
  8
0
 10
21.2792154646545
 20
173.6484898663132
 30
0.0
 11
29.52185615177359
 21
181.8911305534325
 31
0.0
  0
ARC
  5
45CE
  8
0
 10
25.52185615177359
 20
177.8911305534325
 30
0.0
 40
8.0
 50
180.0
 51
270.0
  0
ARC
  5
45D2
  8
0
 10
125.5218561517736
 20
281.8911305534324
 30
0.0
 40
8.0
 50
0.0
 51
90.0
  0
LINE
  5
45D3
  8
0
 10
129.7644968388929
 20
286.1337712405517
 30
0.0
 11
121.5218561517736
 21
277.8911305534324
 31
0.0
  0
LINE
  5
45D5
  8
0
 10
121.5218561517736
 20
275.8911305534325
 30
0.0
 11
121.5218561517736
 21
183.8911305534327
 31
0.0
  0
LINE
  5
45D6
  8
0
 10
133.5218561517736
 20
281.8911305534324
 30
0.0
 11
133.5218561517736
 21
177.8911305534325
 31
0.0
  0
LINE
  5
45D7
  8
0
 10
121.5218561517736
 20
181.8911305534326
 30
0.0
 11
129.7644968388929
 21
173.6484898663131
 31
0.0
  0
ARC
  5
45D8
  8
0
 10
125.5218561517736
 20
177.8911305534325
 30
0.0
 40
8.0
 50
270.0
 51
0.0
  0
LINE
  5
6DDE
  8
0
 10
25.52185615177359
 20
290.5544305534326
 30
0.0
 11
125.5218561517736
 21
290.5544305534323
 31
0.0
  0
ARC
  5
6DDF
  8
0
 10
25.52185615177359
 20
281.8911305534326
 30
0.0
 40
8.6633
 50
90.0
 51
180.0
  0
LINE
  5
6DE0
  8
0
 10
16.85855615177366
 20
281.8911305534326
 30
0.0
 11
16.85855615177366
 21
177.8911305534325
 31
0.0
  0
ARC
  5
6DE1
  8
0
 10
25.52185615177359
 20
177.8911305534325
 30
0.0
 40
8.6633
 50
180.0
 51
270.0
  0
LINE
  5
6DE2
  8
0
 10
25.52185615177359
 20
169.2278305534325
 30
0.0
 11
125.5218561517736
 21
169.2278305534325
 31
0.0
  0
ARC
  5
6DE3
  8
0
 10
125.5218561517736
 20
177.8911305534325
 30
0.0
 40
8.6633
 50
270.0
 51
0.0
  0
LINE
  5
6DE4
  8
0
 10
134.1851561517735
 20
281.8911305534323
 30
0.0
 11
134.1851561517735
 21
177.8911305534325
 31
0.0
  0
ARC
  5
6DE5
  8
0
 10
125.5218561517736
 20
281.8911305534323
 30
0.0
 40
8.6633
 50
0.0
 51
90.0
  0
LINE
  5
7804
  8
0
 10
178.9776239078598
 20
280.4759159776625
 30
0.0
 11
180.2735099621404
 21
287.8252509975998
 31
0.0
  0
LINE
  5
7805
  8
0
 10
184.021856498226
 20
169.8911305534327
 30
0.0
 11
184.021856498226
 21
289.8911305534327
 31
0.0
  0
LINE
  5
7806
  8
0
 10
178.521856498226
 20
184.5157904592103
 30
0.0
 11
178.521856498226
 21
275.2664706476546
 31
0.0
  0
LINE
  5
7807
  8
0
 10
178.9776239078598
 20
179.3063451292024
 30
0.0
 11
180.2735099621403
 21
171.9570101092655
 31
0.0
  0
ARC
  5
7808
  8
0
 10
182.7355293446709
 20
172.3911305534328
 30
0.0
 40
2.5
 50
189.9999999999986
 51
270.0
  0
LINE
  5
7809
  8
0
 10
184.021856498226
 20
169.8911305534328
 30
0.0
 11
182.7355293446707
 21
169.8911305534328
 31
0.0
  0
ARC
  5
780A
  8
0
 10
208.521856498226
 20
184.5157904592103
 30
0.0
 40
30.0
 50
180.0
 51
189.9999999999986
  0
ARC
  5
780B
  8
0
 10
208.521856498226
 20
275.2664706476546
 30
0.0
 40
30.0
 50
169.9999999999982
 51
180.0
  0
ARC
  5
780C
  8
0
 10
182.735529344671
 20
287.3911305534325
 30
0.0
 40
2.5
 50
90.0
 51
169.9999999999982
  0
LINE
  5
780D
  8
0
 10
184.0218564982194
 20
289.8911305534327
 30
0.0
 11
182.7355293446641
 21
289.8911305534327
 31
0.0
  0
ARC
  5
780E
  8
0
 10
175.8218564982255
 20
259.6911305534327
 30
0.0
 40
1.0
 50
90.0
 51
180.0
  0
LINE
  5
780F
  8
0
 10
175.8218564982255
 20
260.6911305534327
 30
0.0
 11
178.5218564982255
 21
260.6911305534327
 31
0.0
  0
LINE
  5
7810
  8
0
 10
175.8218564982255
 20
253.6911305534327
 30
0.0
 11
178.5218564982255
 21
253.6911305534327
 31
0.0
  0
LINE
  5
7811
  8
0
 10
174.8218564982255
 20
259.6911305534327
 30
0.0
 11
174.8218564982255
 21
254.6911305534327
 31
0.0
  0
ARC
  5
7812
  8
0
 10
175.8218564982255
 20
254.6911305534327
 30
0.0
 40
1.0
 50
180.0
 51
270.0
  0
LINE
  5
7813
  8
0
 10
125.5218568968316
 20
144.5474997174232
 30
0.0
 11
25.52185540671553
 21
144.5474997174232
 31
0.0
  0
LINE
  5
7814
  8
0
 10
125.5218568968316
 20
140.5474998766794
 30
0.0
 11
25.52185540671553
 21
140.5474998766794
 31
0.0
  0
LINE
  5
7815
  8
0
 10
17.52185782070364
 20
140.5474998766794
 30
0.0
 11
17.52185782070364
 21
144.5474997174232
 31
0.0
  0
LINE
  5
7816
  8
0
 10
25.52185540671553
 20
144.5474997174232
 30
0.0
 11
17.52185782070364
 21
144.5474997174232
 31
0.0
  0
LINE
  5
7817
  8
0
 10
25.52185540671553
 20
140.5474998766794
 30
0.0
 11
17.52185782070364
 21
140.5474998766794
 31
0.0
  0
LINE
  5
7818
  8
0
 10
133.5218544828435
 20
140.5474998766794
 30
0.0
 11
133.5218544828435
 21
144.5474997174232
 31
0.0
  0
LINE
  5
7819
  8
0
 10
133.5218544828435
 20
144.5474997174232
 30
0.0
 11
125.5218568968316
 21
144.5474997174232
 31
0.0
  0
LINE
  5
781A
  8
0
 10
133.5218544828435
 20
140.5474998766794
 30
0.0
 11
125.5218568968316
 21
140.5474998766794
 31
0.0
  0
LINE
  5
781B
  8
0
 10
18.62185781474318
 20
144.5474997174232
 30
0.0
 11
18.62185781474318
 21
145.0474997174204
 31
0.0
  0
LINE
  5
781C
  8
0
 10
132.4218544888039
 20
144.5474997174232
 30
0.0
 11
132.4218544888039
 21
145.0474997174204
 31
0.0
  0
LINE
  5
781D
  8
0
 10
39.02185668821539
 20
150.5474996531619
 30
0.0
 11
112.0218556153317
 21
150.5474996531619
 31
0.0
  0
LINE
  5
781E
  8
0
 10
52.96668634991806
 20
153.7471323885261
 30
0.0
 11
51.96668634991829
 21
153.7471323885261
 31
0.0
  0
LINE
  5
781F
  8
0
 10
53.96668634991829
 20
154.2471323885261
 30
0.0
 11
52.96668634991829
 21
154.2471323885261
 31
0.0
  0
LINE
  5
7820
  8
0
 10
51.96668634991829
 20
154.2471323885261
 30
0.0
 11
50.96668634991829
 21
154.2471323885261
 31
0.0
  0
LINE
  5
7821
  8
0
 10
51.96668634991829
 20
154.2471323885261
 30
0.0
 11
51.96668634991829
 21
153.7471323885261
 31
0.0
  0
LINE
  5
7822
  8
0
 10
54.96668634991829
 20
154.2471323885261
 30
0.0
 11
54.96668634991829
 21
153.7471323885261
 31
0.0
  0
LINE
  5
7823
  8
0
 10
52.96668634991829
 20
154.2471323885261
 30
0.0
 11
52.96668634991806
 21
153.7471323885261
 31
0.0
  0
LINE
  5
7824
  8
0
 10
53.96668634991829
 20
154.2471323885261
 30
0.0
 11
53.96668634991829
 21
153.7471323885261
 31
0.0
  0
LINE
  5
7825
  8
0
 10
54.96668634991829
 20
153.7471323885261
 30
0.0
 11
53.96668634991829
 21
153.7471323885261
 31
0.0
  0
LINE
  5
7826
  8
0
 10
56.96668634991823
 20
150.5474996531619
 30
0.0
 11
56.96668634991801
 21
153.2471323885261
 31
0.0
  0
ARC
  5
7827
  8
0
 10
55.96668634991806
 20
153.2471323885261
 30
0.0
 40
1.0
 50
0.0
 51
90.0
  0
LINE
  5
7828
  8
0
 10
55.96668634991806
 20
154.2471323885261
 30
0.0
 11
54.96668634991829
 21
154.2471323885261
 31
0.0
  0
LINE
  5
7829
  8
0
 10
49.96668634991829
 20
150.5474996531619
 30
0.0
 11
49.96668634991829
 21
153.2471323885261
 31
0.0
  0
ARC
  5
782A
  8
0
 10
50.96668634991829
 20
153.2471323885261
 30
0.0
 40
1.0
 50
90.0
 51
180.0
  0
LINE
  5
782B
  8
0
 10
133.5218561517733
 20
145.0474997174204
 30
0.0
 11
17.52185615177314
 21
145.0474997174204
 31
0.0
  0
ARC
  5
782C
  8
0
 10
118.8971962459959
 20
120.5474997174204
 30
0.0
 40
30.0
 50
80.00000000000139
 51
90.0
  0
LINE
  5
782D
  8
0
 10
118.8971962459959
 20
150.5474997174204
 30
0.0
 11
32.14651605755125
 21
150.5474997174204
 31
0.0
  0
ARC
  5
782E
  8
0
 10
131.0218561517733
 20
146.3338268709755
 30
0.0
 40
2.5
 50
0.0
 51
80.00000000000139
  0
LINE
  5
782F
  8
0
 10
133.5218561517733
 20
145.0474997174204
 30
0.0
 11
133.5218561517733
 21
146.3338268709755
 31
0.0
  0
LINE
  5
7830
  8
0
 10
124.1066415760037
 20
150.0917323077865
 30
0.0
 11
131.4559765959406
 21
148.7958462535061
 31
0.0
  0
ARC
  5
7831
  8
0
 10
32.14651605755125
 20
120.5474997174204
 30
0.0
 40
30.0
 50
90.0
 51
99.99999999999861
  0
ARC
  5
7832
  8
0
 10
20.02185615177336
 20
146.3338268709755
 30
0.0
 40
2.5
 50
99.99999999999861
 51
180.0
  0
LINE
  5
7833
  8
0
 10
26.93707072754341
 20
150.0917323077865
 30
0.0
 11
19.58773570760604
 21
148.7958462535059
 31
0.0
  0
LINE
  5
7834
  8
0
 10
17.52185615177314
 20
145.0474997174269
 30
0.0
 11
17.52185615177314
 21
146.3338268709821
 31
0.0
  0
LINE
  5
7835
  8
0
 10
188.5218562747081
 20
290.0161285343262
 30
0.0
 11
184.5218564339643
 21
290.0161285343262
 31
0.0
  0
LINE
  5
7836
  8
0
 10
184.5218564339643
 20
290.0161285343262
 30
0.0
 11
184.5218564339643
 21
282.0161309483143
 31
0.0
  0
LINE
  5
7837
  8
0
 10
188.5218562747081
 20
290.0161285343262
 30
0.0
 11
188.5218562747081
 21
282.0161309483143
 31
0.0
  0
LINE
  5
7838
  8
0
 10
184.5218564339643
 20
282.0161309483143
 30
0.0
 11
184.5218564339643
 21
178.0161288025471
 31
0.0
  0
LINE
  5
7839
  8
0
 10
188.5218562747081
 20
282.0161309483143
 30
0.0
 11
188.5218562747081
 21
178.0161288025471
 31
0.0
  0
LINE
  5
783A
  8
0
 10
188.5218562747081
 20
170.0161312165352
 30
0.0
 11
184.5218564339643
 21
170.0161312165352
 31
0.0
  0
LINE
  5
783B
  8
0
 10
184.5218564339643
 20
178.0161288025471
 30
0.0
 11
184.5218564339643
 21
170.0161312165352
 31
0.0
  0
LINE
  5
783C
  8
0
 10
188.5218562747081
 20
178.0161288025471
 30
0.0
 11
188.5218562747081
 21
170.0161312165352
 31
0.0
  0
LINE
  5
783D
  8
0
 10
184.5218564339643
 20
171.1161312105747
 30
0.0
 11
184.021856498226
 21
171.1161312105748
 31
0.0
  0
LINE
  5
783E
  8
0
 10
184.5218564339643
 20
288.9161285402866
 30
0.0
 11
184.021856498226
 21
288.9161285402866
 31
0.0
  0
LINE
  5
783F
  8
0
 10
188.5218562747081
 20
290.0161298754306
 30
0.0
 11
188.5218562747081
 21
170.0161298754308
 31
0.0
  0
LINE
  5
7840
  8
0
 10
226.5218562747083
 20
290.679422342703
 30
0.0
 11
226.521856274708
 21
169.3528374081585
 31
0.0
  0
LINE
  5
7841
  8
0
 10
188.5218562747081
 20
170.0161298754308
 30
0.0
 11
226.521856274708
 21
169.3528374081585
 31
0.0
  0
LINE
  5
7842
  8
0
 10
188.5218562747081
 20
290.0161298754306
 30
0.0
 11
226.5218562747083
 21
290.679422342703
 31
0.0
  0
LINE
  5
7843
  8
0
 10
133.5218561517738
 20
140.5474998766794
 30
0.0
 11
134.1851486190457
 21
102.5474998766794
 31
0.0
  0
LINE
  5
7844
  8
0
 10
17.52185615177348
 20
140.5474998766794
 30
0.0
 11
16.85856368450106
 21
102.5474998766795
 31
0.0
  0
ARC
  5
7845
  8
0
 10
70.0218561517733
 20
106.5474998766794
 30
0.0
 40
4.0
 50
0.0
 51
90.0
  0
ARC
  5
7846
  8
0
 10
70.0218561517733
 20
106.5474998766794
 30
0.0
 40
3.0
 50
0.0
 51
180.0
  0
LINE
  5
7847
  8
0
 10
16.85856368450106
 20
102.5474998766795
 30
0.0
 11
134.1851486190457
 21
102.5474998766794
 31
0.0
  0
LINE
  5
7848
  8
0
 10
66.0218561517733
 20
102.5474998766794
 30
0.0
 11
66.0218561517733
 21
106.5474998766794
 31
0.0
  0
LINE
  5
7849
  8
0
 10
67.0218561517733
 20
102.5474998766794
 30
0.0
 11
67.0218561517733
 21
106.5474998766794
 31
0.0
  0
LINE
  5
784A
  8
0
 10
55.52185615177336
 20
102.5474998766794
 30
0.0
 11
55.52185615177336
 21
106.5474998766794
 31
0.0
  0
LINE
  5
784B
  8
0
 10
56.52185615177331
 20
102.5474998766794
 30
0.0
 11
56.52185615177331
 21
106.5474998766794
 31
0.0
  0
LINE
  5
784C
  8
0
 10
63.52185615177331
 20
106.5474998766794
 30
0.0
 11
63.52185615177331
 21
102.5474998766794
 31
0.0
  0
LINE
  5
784D
  8
0
 10
62.52185615177331
 20
106.5474998766794
 30
0.0
 11
62.52185615177331
 21
102.5474998766794
 31
0.0
  0
ARC
  5
784E
  8
0
 10
59.52185615177331
 20
106.5474998766794
 30
0.0
 40
4.0
 50
0.0
 51
48.59037789073025
  0
ARC
  5
784F
  8
0
 10
59.52185615177331
 20
106.5474998766794
 30
0.0
 40
3.0
 50
0.0
 51
180.0
  0
LINE
  5
7850
  8
0
 10
62.16760746283802
 20
109.5474998766794
 30
0.0
 11
67.37610484070882
 21
109.5474998766794
 31
0.0
  0
ARC
  5
7851
  8
0
 10
70.0218561517733
 20
106.5474998766794
 30
0.0
 40
4.0
 50
131.4096221092697
 51
180.0
  0
ARC
  5
7852
  8
0
 10
59.52185615177331
 20
106.5474998766794
 30
0.0
 40
4.0
 50
90.0
 51
180.0
  0
LINE
  5
7853
  8
0
 10
59.52185615177331
 20
110.5474998766794
 30
0.0
 11
70.0218561517733
 21
110.5474998766794
 31
0.0
  0
LINE
  5
7854
  8
0
 10
94.5218561517733
 20
106.5474998766794
 30
0.0
 11
94.5218561517733
 21
102.5474998766794
 31
0.0
  0
LINE
  5
7855
  8
0
 10
95.5218561517733
 20
106.5474998766794
 30
0.0
 11
95.5218561517733
 21
102.5474998766794
 31
0.0
  0
LINE
  5
7856
  8
0
 10
88.5218561517733
 20
102.5474998766794
 30
0.0
 11
88.5218561517733
 21
106.5474998766794
 31
0.0
  0
LINE
  5
7857
  8
0
 10
87.5218561517733
 20
102.5474998766794
 30
0.0
 11
87.5218561517733
 21
106.5474998766794
 31
0.0
  0
LINE
  5
7858
  8
0
 10
74.0218561517733
 20
106.5474998766794
 30
0.0
 11
74.0218561517733
 21
102.5474998766794
 31
0.0
  0
LINE
  5
7859
  8
0
 10
73.0218561517733
 20
106.5474998766794
 30
0.0
 11
73.0218561517733
 21
102.5474998766794
 31
0.0
  0
LINE
  5
785A
  8
0
 10
77.0218561517733
 20
102.5474998766794
 30
0.0
 11
77.0218561517733
 21
106.5474998766794
 31
0.0
  0
LINE
  5
785B
  8
0
 10
78.0218561517733
 20
102.5474998766794
 30
0.0
 11
78.0218561517733
 21
106.5474998766794
 31
0.0
  0
LINE
  5
785C
  8
0
 10
85.0218561517733
 20
106.5474998766794
 30
0.0
 11
85.0218561517733
 21
102.5474998766794
 31
0.0
  0
LINE
  5
785D
  8
0
 10
84.0218561517733
 20
106.5474998766794
 30
0.0
 11
84.0218561517733
 21
102.5474998766794
 31
0.0
  0
LINE
  5
785E
  8
0
 10
81.0218561517733
 20
110.5474998766794
 30
0.0
 11
91.5218561517733
 21
110.5474998766794
 31
0.0
  0
ARC
  5
785F
  8
0
 10
91.5218561517733
 20
106.5474998766794
 30
0.0
 40
4.0
 50
131.4096221092697
 51
180.0
  0
LINE
  5
7860
  8
0
 10
83.6676074628378
 20
109.5474998766794
 30
0.0
 11
88.87610484070882
 21
109.5474998766794
 31
0.0
  0
ARC
  5
7861
  8
0
 10
81.0218561517733
 20
106.5474998766794
 30
0.0
 40
4.0
 50
0.0
 51
48.59037789073025
  0
ARC
  5
7862
  8
0
 10
81.0218561517733
 20
106.5474998766794
 30
0.0
 40
3.0
 50
0.0
 51
180.0
  0
ARC
  5
7863
  8
0
 10
81.0218561517733
 20
106.5474998766794
 30
0.0
 40
4.0
 50
90.0
 51
180.0
  0
ARC
  5
7864
  8
0
 10
91.5218561517733
 20
106.5474998766794
 30
0.0
 40
3.0
 50
0.0
 51
180.0
  0
ARC
  5
7865
  8
0
 10
91.5218561517733
 20
106.5474998766794
 30
0.0
 40
4.0
 50
0.0
 51
90.0
  0
LINE
  5
7866
  8
0
 10
17.52185615177348
 20
140.5474998766794
 30
0.0
 11
133.5218561517738
 21
140.5474998766794
 31
0.0
  0
LINE
  5
7867
  8
7
 10
12.72785615177344
 20
229.8911305534325
 30
0.0
 11
138.3158561517734
 21
229.8911305534323
 31
0.0
1001
GENIUS_GENOBJ-N-CEN_13
1002
{
1000
OWNER
1000
GEN
1002
}
1001
GENIUS_GENODEF_13
1002
{
1000
HIER
1070
     0
1002
}
1002
{
1000
MANEDIT
1070
     0
1002
}
1002
{
1000
NOSEL
1070
     0
1002
}
1002
{
1000
BEHIND
1070
     0
1002
}
1002
{
1000
OTHER
1070
     0
1002
}
1002
{
1000
REACTOR
1002
}
1001
GENIUS_GENCEN_19
1002
{
1040
2.794
1002
}
  0
LINE
  5
7868
  8
7
 10
75.52185615177353
 20
294.6851305534326
 30
0.0
 11
75.52185615177353
 21
165.0971305534324
 31
0.0
1001
GENIUS_GENOBJ-N-CEN_13
1002
{
1000
OWNER
1000
GEN
1002
}
1001
GENIUS_GENODEF_13
1002
{
1000
HIER
1070
     0
1002
}
1002
{
1000
MANEDIT
1070
     0
1002
}
1002
{
1000
NOSEL
1070
     0
1002
}
1002
{
1000
BEHIND
1070
     0
1002
}
1002
{
1000
OTHER
1070
     0
1002
}
1002
{
1000
REACTOR
1002
}
1001
GENIUS_GENCEN_19
1002
{
1040
2.794
1002
}
  0
LINE
  5
7869
  8
7
 10
75.52185615177353
 20
153.3414997174203
 30
0.0
 11
75.52185615177353
 21
99.75349987667943
 31
0.0
1001
GENIUS_GENOBJ-N-CEN_13
1002
{
1000
OWNER
1000
GEN
1002
}
1001
GENIUS_GENODEF_13
1002
{
1000
HIER
1070
     0
1002
}
1002
{
1000
MANEDIT
1070
     0
1002
}
1002
{
1000
NOSEL
1070
     0
1002
}
1002
{
1000
BEHIND
1070
     0
1002
}
1002
{
1000
OTHER
1070
     0
1002
}
1002
{
1000
REACTOR
1002
}
1001
GENIUS_GENCEN_19
1002
{
1040
2.794
1002
}
  0
LINE
  5
786A
  8
7
 10
175.727856498226
 20
229.891130553432
 30
0.0
 11
229.3158562747082
 21
229.8911305534319
 31
0.0
1001
GENIUS_GENODEF_13
1002
{
1000
HIER
1070
     0
1002
}
1002
{
1000
MANEDIT
1070
     0
1002
}
1002
{
1000
NOSEL
1070
     0
1002
}
1002
{
1000
BEHIND
1070
     0
1002
}
1002
{
1000
OTHER
1070
     0
1002
}
1002
{
1000
REACTOR
1002
}
1001
GENIUS_GENOBJ-N-CEN_13
1002
{
1000
OWNER
1000
GEN
1002
}
1001
GENIUS_GENCEN_19
1002
{
1040
2.794
1002
}
  0
LINE
  5
8169
  8
0
 10
38.27185615177348
 20
264.9911305534324
 30
0.0
 11
112.7718561517735
 21
264.9911305534324
 31
0.0
  0
LINE
  5
816A
  8
0
 10
38.27185615177348
 20
194.7911305534324
 30
0.0
 11
112.7718561517735
 21
194.7911305534324
 31
0.0
  0
LINE
  5
816B
  8
0
 10
38.27185615177348
 20
264.9911305534324
 30
0.0
 11
38.27185615177348
 21
194.7911305534324
 31
0.0
  0
LINE
  5
816C
  8
0
 10
112.7718561517735
 20
264.9911305534324
 30
0.0
 11
112.7718561517735
 21
194.7911305534324
 31
0.0
  0
LINE
  5
816D
  8
0
 10
112.0218556153317
 20
195.3911314176998
 30
0.0
 11
112.0218556153317
 21
264.391129689165
 31
0.0
  0
LINE
  5
816E
  8
0
 10
39.02185668821528
 20
195.3911314176998
 30
0.0
 11
112.0218556153317
 21
195.3911314176998
 31
0.0
  0
LINE
  5
816F
  8
0
 10
39.02185668821528
 20
264.391129689165
 30
0.0
 11
39.02185668821528
 21
195.3911314176998
 31
0.0
  0
LINE
  5
8170
  8
0
 10
112.0218556153317
 20
264.391129689165
 30
0.0
 11
39.02185668821528
 21
264.391129689165
 31
0.0
  0
LINE
  5
8171
  8
0
 10
40.52185600276187
 20
196.8911307322464
 30
0.0
 11
110.5218563007851
 21
196.8911307322464
 31
0.0
  0
LINE
  5
8172
  8
0
 10
110.5218563007851
 20
196.8911307322464
 30
0.0
 11
110.5218563007851
 21
262.8911303746185
 31
0.0
  0
LINE
  5
8173
  8
0
 10
110.5218563007851
 20
262.8911303746185
 30
0.0
 11
65.5218563752909
 21
262.8911303746185
 31
0.0
  0
LINE
  5
8174
  8
0
 10
40.52185600276187
 20
250.8911302703104
 30
0.0
 11
65.5218563752909
 21
250.8911302703104
 31
0.0
  0
LINE
  5
8175
  8
0
 10
40.52185600276187
 20
250.8911302703104
 30
0.0
 11
40.52185600276187
 21
196.8911307322464
 31
0.0
  0
LINE
  5
8176
  8
0
 10
47.3218556272526
 20
253.1911300885162
 30
0.0
 11
57.32185540373519
 21
253.1911300885162
 31
0.0
  0
LINE
  5
8177
  8
0
 10
57.32185540373519
 20
253.1911300885162
 30
0.0
 11
57.32185540373519
 21
261.1911313998183
 31
0.0
  0
LINE
  5
8178
  8
0
 10
57.32185540373519
 20
261.1911313998183
 30
0.0
 11
47.3218556272526
 21
261.1911313998183
 31
0.0
  0
LINE
  5
8179
  8
0
 10
47.3218556272526
 20
261.1911313998183
 30
0.0
 11
47.3218556272526
 21
253.1911300885162
 31
0.0
  0
LINE
  5
817A
  8
0
 10
65.5218563752909
 20
250.8911302703104
 30
0.0
 11
65.5218563752909
 21
262.8911303746185
 31
0.0
  0
LINE
  5
817B
  8
0
 10
112.5218566286106
 20
194.8911304044208
 30
0.0
 11
112.5218566286106
 21
264.891130702444
 31
0.0
  0
LINE
  5
817C
  8
0
 10
38.52185567493632
 20
194.8911304044208
 30
0.0
 11
112.5218566286106
 21
194.8911304044208
 31
0.0
  0
LINE
  5
817D
  8
0
 10
38.52185567493632
 20
264.891130702444
 30
0.0
 11
38.52185567493632
 21
194.8911304044208
 31
0.0
  0
LINE
  5
817E
  8
0
 10
112.5218566286106
 20
264.891130702444
 30
0.0
 11
38.52185567493632
 21
264.891130702444
 31
0.0
  0
ARC
  5
817F
  8
0
 10
48.72185551549387
 20
259.6911300885162
 30
0.0
 40
1.0
 50
90.0
 51
180.0
  0
ARC
  5
8180
  8
0
 10
53.72185551549387
 20
259.6911300885162
 30
0.0
 40
1.0
 50
0.0
 51
90.0
  0
LINE
  5
8181
  8
0
 10
48.72185551549387
 20
260.6911300885162
 30
0.0
 11
53.72185551549387
 21
260.6911300885162
 31
0.0
  0
LINE
  5
8182
  8
0
 10
53.72185551549387
 20
253.6911300885163
 30
0.0
 11
48.72185551549387
 21
253.6911300885162
 31
0.0
  0
ARC
  5
8183
  8
0
 10
48.72185551549387
 20
254.6911300885162
 30
0.0
 40
1.0
 50
180.0
 51
270.0000000000016
  0
ARC
  5
8184
  8
0
 10
53.72185551549387
 20
254.6911300885163
 30
0.0
 40
1.0
 50
270.0
 51
0.0
  0
LINE
  5
8185
  8
0
 10
52.72185551549387
 20
253.6911300885163
 30
0.0
 11
52.72185551549387
 21
260.6911300885162
 31
0.0
  0
LINE
  5
8186
  8
0
 10
51.72185551549387
 20
253.6911300885162
 30
0.0
 11
51.72185551549387
 21
260.6911300885162
 31
0.0
  0
LINE
  5
8187
  8
0
 10
50.72185551549387
 20
253.6911300885161
 30
0.0
 11
50.72185551549387
 21
260.6911300885162
 31
0.0
  0
LINE
  5
8188
  8
0
 10
49.72185551549387
 20
253.6911300885161
 30
0.0
 11
49.72185551549387
 21
260.6911300885162
 31
0.0
  0
LINE
  5
8189
  8
0
 10
47.72185551549387
 20
254.6911300885162
 30
0.0
 11
47.72185551549387
 21
259.6911300885162
 31
0.0
  0
LINE
  5
818A
  8
0
 10
54.72185551549387
 20
259.6911300885162
 30
0.0
 11
54.72185551549387
 21
254.6911300885163
 31
0.0
  0
LINE
  5
818B
  8
0
 10
65.7718563752909
 20
262.6411305534325
 30
0.0
 11
110.2718561517735
 21
262.6411305534324
 31
0.0
  0
LINE
  5
818C
  8
0
 10
110.2718561517735
 20
262.6411305534324
 30
0.0
 11
110.2718561517735
 21
197.1411305534324
 31
0.0
  0
LINE
  5
818D
  8
0
 10
40.77185615177348
 20
197.1411305534325
 30
0.0
 11
40.77185615177348
 21
250.6411302703104
 31
0.0
  0
LINE
  5
818E
  8
0
 10
110.2718561517735
 20
197.1411305534324
 30
0.0
 11
40.77185615177348
 21
197.1411305534325
 31
0.0
  0
LINE
  5
818F
  8
0
  6
CONTINUOUS
 10
65.7718563752909
 20
250.6411302703104
 30
0.0
 11
65.7718563752909
 21
262.6411305534325
 31
0.0
  0
LINE
  5
8190
  8
0
  6
CONTINUOUS
 10
40.77185615177348
 20
250.6411302703104
 30
0.0
 11
65.7718563752909
 21
250.6411302703104
 31
0.0
  0
INSERT
  5
8191
  8
0
 62
     7
  2
*X9
 10
0.0
 20
0.0
 30
0.0
  0
TEXT
  5
8192
  8
0
 62
     7
 10
89.34300643006664
 20
207.9715263481141
 30
0.0
 40
4.0
  1
PUSH
 41
1.2
  0
TEXT
  5
8193
  8
0
 62
     7
 10
49.75042694406532
 20
246.2980260388996
 30
0.0
 40
2.0
  1
電源
  0
LINE
  5
8195
  8
0
 10
41.77185615177348
 20
217.1012386607377
 30
0.0
 11
41.77185615177348
 21
219.6387386607383
 31
0.0
  0
LINE
  5
8196
  8
0
 10
43.87435615177344
 20
217.1012386607377
 30
0.0
 11
43.87435615177344
 21
219.6387386607383
 31
0.0
  0
LINE
  5
8197
  8
0
 10
44.09185615177364
 20
217.1012386607377
 30
0.0
 11
44.09185615177364
 21
219.6387386607383
 31
0.0
  0
LINE
  5
8198
  8
0
 10
41.77185615177348
 20
217.1012386607377
 30
0.0
 11
42.5693561517736
 21
217.1012386607377
 31
0.0
  0
LINE
  5
8199
  8
0
 10
41.77185615177348
 20
219.6387386607383
 30
0.0
 11
42.5693561517736
 21
219.6387386607383
 31
0.0
  0
LINE
  5
819A
  8
0
 10
42.5693561517736
 20
219.6387386607383
 30
0.0
 11
42.5693561517736
 21
218.7687386607381
 31
0.0
  0
LINE
  5
819B
  8
0
 10
43.07685615177331
 20
219.6387386607383
 30
0.0
 11
43.07685615177331
 21
218.7687386607381
 31
0.0
  0
LINE
  5
819C
  8
0
 10
42.5693561517736
 20
217.1012386607377
 30
0.0
 11
42.5693561517736
 21
217.9712386607376
 31
0.0
  0
LINE
  5
819D
  8
0
 10
43.07685615177331
 20
217.1012386607377
 30
0.0
 11
43.07685615177331
 21
217.9712386607376
 31
0.0
  0
LINE
  5
819E
  8
0
 10
43.07685615177331
 20
219.6387386607383
 30
0.0
 11
43.87435615177344
 21
219.6387386607383
 31
0.0
  0
LINE
  5
819F
  8
0
 10
43.07685615177331
 20
217.1012386607377
 30
0.0
 11
43.87435615177344
 21
217.1012386607377
 31
0.0
  0
LINE
  5
81A0
  8
0
 10
42.5693561517736
 20
218.7687386607381
 30
0.0
 11
43.07685615177331
 21
218.7687386607381
 31
0.0
  0
LINE
  5
81A1
  8
0
 10
42.5693561517736
 20
217.9712386607376
 30
0.0
 11
43.07685615177331
 21
217.9712386607376
 31
0.0
  0
LINE
  5
81A2
  8
0
 10
44.88935615177331
 20
217.1012386607377
 30
0.0
 11
44.88935615177331
 21
219.6387386607383
 31
0.0
  0
LINE
  5
81A3
  8
0
 10
45.10685615177351
 20
217.1012386607377
 30
0.0
 11
45.10685615177351
 21
219.6387386607383
 31
0.0
  0
LINE
  5
81A4
  8
0
 10
44.09185615177364
 20
219.6387386607383
 30
0.0
 11
44.88935615177331
 21
219.6387386607383
 31
0.0
  0
LINE
  5
81A5
  8
0
 10
44.09185615177364
 20
217.1012386607377
 30
0.0
 11
44.88935615177331
 21
217.1012386607377
 31
0.0
  0
LINE
  5
81A6
  8
0
 10
47.20935615177348
 20
217.1012386607377
 30
0.0
 11
47.20935615177348
 21
217.6812386607376
 31
0.0
  0
LINE
  5
81A7
  8
0
 10
47.20935615177348
 20
219.0587386607383
 30
0.0
 11
47.20935615177348
 21
219.6387386607383
 31
0.0
  0
LINE
  5
81A8
  8
0
 10
45.10685615177351
 20
217.1012386607377
 30
0.0
 11
45.90435615177364
 21
217.1012386607377
 31
0.0
  0
LINE
  5
81A9
  8
0
 10
45.10685615177351
 20
219.6387386607383
 30
0.0
 11
45.90435615177364
 21
219.6387386607383
 31
0.0
  0
LINE
  5
81AA
  8
0
 10
45.90435615177364
 20
219.6387386607383
 30
0.0
 11
45.90435615177364
 21
218.7687386607381
 31
0.0
  0
LINE
  5
81AB
  8
0
 10
46.41185615177335
 20
219.6387386607383
 30
0.0
 11
46.41185615177335
 21
219.0587386607383
 31
0.0
  0
LINE
  5
81AC
  8
0
 10
45.90435615177364
 20
217.1012386607377
 30
0.0
 11
45.90435615177364
 21
217.9712386607376
 31
0.0
  0
LINE
  5
81AD
  8
0
 10
46.41185615177335
 20
217.1012386607377
 30
0.0
 11
46.41185615177335
 21
217.6812386607376
 31
0.0
  0
ARC
  5
81AE
  8
0
 10
46.12185615177339
 20
217.6812386607376
 30
0.0
 40
0.29
 50
0.0
 51
90.0
  0
ARC
  5
81AF
  8
0
 10
46.12185615177339
 20
217.6812386607376
 30
0.0
 40
1.0875
 50
0.0
 51
39.29648023918966
  0
LINE
  5
81B0
  8
0
 10
46.41185615177335
 20
219.6387386607383
 30
0.0
 11
47.20935615177348
 21
219.6387386607383
 31
0.0
  0
LINE
  5
81B1
  8
0
 10
46.41185615177335
 20
217.1012386607377
 30
0.0
 11
47.20935615177348
 21
217.1012386607377
 31
0.0
  0
LINE
  5
81B2
  8
0
 10
45.90435615177364
 20
218.7687386607381
 30
0.0
 11
46.12185615177339
 21
218.7687386607381
 31
0.0
  0
ARC
  5
81B3
  8
0
 10
46.12185615177339
 20
219.0587386607383
 30
0.0
 40
0.29
 50
270.0
 51
0.0
  0
ARC
  5
81B4
  8
0
 10
46.12185615177339
 20
219.0587386607383
 30
0.0
 40
1.0875
 50
320.7035197608199
 51
0.0
  0
LINE
  5
81B5
  8
0
 10
45.90435615177364
 20
217.9712386607376
 30
0.0
 11
46.12185615177339
 21
217.9712386607376
 31
0.0
  0
LINE
  5
81B6
  8
0
 10
47.42685615177368
 20
217.1012386607377
 30
0.0
 11
47.42685615177368
 21
218.5874886607376
 31
0.0
  0
LINE
  5
81B7
  8
0
 10
49.52935615177364
 20
217.1012386607377
 30
0.0
 11
49.52935615177364
 21
218.5874886607376
 31
0.0
  0
LINE
  5
81B8
  8
0
 10
47.42685615177368
 20
217.1012386607377
 30
0.0
 11
48.22435615177335
 21
217.1012386607377
 31
0.0
  0
LINE
  5
81B9
  8
0
 10
48.22435615177335
 20
217.1012386607377
 30
0.0
 11
48.22435615177335
 21
217.6087386607374
 31
0.0
  0
LINE
  5
81BA
  8
0
 10
48.73185615177351
 20
217.1012386607377
 30
0.0
 11
48.73185615177351
 21
217.6087386607374
 31
0.0
  0
LINE
  5
81BB
  8
0
 10
48.73185615177351
 20
217.1012386607377
 30
0.0
 11
49.52935615177364
 21
217.1012386607377
 31
0.0
  0
LINE
  5
81BC
  8
0
 10
48.22435615177335
 20
217.6087386607374
 30
0.0
 11
48.73185615177351
 21
217.6087386607374
 31
0.0
  0
LINE
  5
81BD
  8
0
 10
48.22435615177335
 20
218.3337386607377
 30
0.0
 11
48.73185615177351
 21
218.3337386607377
 31
0.0
  0
ARC
  5
81BE
  8
0
 10
48.47810615177366
 20
218.5874886607376
 30
0.0
 40
1.05125
 50
0.0
 51
180.0
  0
ARC
  5
81BF
  8
0
 10
48.47810615177366
 20
218.5874886607376
 30
0.0
 40
0.25375
 50
0.0
 51
180.0
  0
LINE
  5
81C0
  8
0
 10
48.22435615177335
 20
218.3337386607377
 30
0.0
 11
48.22435615177335
 21
218.5874886607376
 31
0.0
  0
LINE
  5
81C1
  8
0
 10
48.73185615177351
 20
218.5874886607376
 30
0.0
 11
48.73185615177351
 21
218.3337386607377
 31
0.0
  0
LINE
  5
81C2
  8
0
 10
49.74685615177339
 20
217.1012386607377
 30
0.0
 11
49.74685615177339
 21
219.6387386607383
 31
0.0
  0
LINE
  5
81C3
  8
0
 10
51.84935615177335
 20
217.1012386607377
 30
0.0
 11
51.84935615177335
 21
217.6812386607376
 31
0.0
  0
LINE
  5
81C4
  8
0
 10
49.74685615177339
 20
217.1012386607377
 30
0.0
 11
50.54435615177351
 21
217.1012386607377
 31
0.0
  0
LINE
  5
81C5
  8
0
 10
50.6893561517735
 20
217.8987386607378
 30
0.0
 11
50.83435615177348
 21
217.8987386607378
 31
0.0
  0
LINE
  5
81C6
  8
0
 10
50.6893561517735
 20
218.4787386607382
 30
0.0
 11
50.83435615177348
 21
218.4787386607382
 31
0.0
  0
LINE
  5
81C7
  8
0
 10
50.54435615177351
 20
217.1012386607377
 30
0.0
 11
50.54435615177351
 21
218.9137386607379
 31
0.0
  0
LINE
  5
81C8
  8
0
 10
51.05185615177368
 20
217.1012386607377
 30
0.0
 11
51.05185615177368
 21
217.6812386607376
 31
0.0
  0
ARC
  5
81C9
  8
0
 10
50.83435615177348
 20
217.6812386607376
 30
0.0
 40
0.2175
 50
0.0
 51
90.0
  0
ARC
  5
81CA
  8
0
 10
50.83435615177348
 20
217.6812386607376
 30
0.0
 40
1.015
 50
0.0
 51
30.66296328368307
  0
LINE
  5
81CB
  8
0
 10
49.74685615177339
 20
219.6387386607383
 30
0.0
 11
50.90685615177324
 21
219.6387386607383
 31
0.0
  0
LINE
  5
81CC
  8
0
 10
50.54435615177351
 20
218.9137386607379
 30
0.0
 11
50.83435615177348
 21
218.9137386607379
 31
0.0
  0
LINE
  5
81CD
  8
0
 10
51.05185615177368
 20
217.1012386607377
 30
0.0
 11
51.84935615177335
 21
217.1012386607377
 31
0.0
  0
ARC
  5
81CE
  8
0
 10
50.83435615177348
 20
218.6962386607379
 30
0.0
 40
0.2175
 50
270.0
 51
90.0
  0
ARC
  5
81CF
  8
0
 10
50.90685615177324
 20
218.6962386607379
 30
0.0
 40
0.9425
 50
328.1493895340805
 51
90.0
  0
LINE
  5
81D0
  8
0
 10
50.6893561517735
 20
218.4787386607382
 30
0.0
 11
50.6893561517735
 21
217.8987386607378
 31
0.0
  0
LINE
  5
81D1
  8
0
 10
52.06685615177355
 20
217.1012386607377
 30
0.0
 11
52.06685615177355
 21
219.6387386607383
 31
0.0
  0
LINE
  5
81D2
  8
0
 10
52.86435615177368
 20
217.1012386607377
 30
0.0
 11
52.86435615177368
 21
219.6387386607383
 31
0.0
  0
LINE
  5
81D3
  8
0
 10
55.76435615177331
 20
217.1374886607378
 30
0.0
 11
55.76435615177331
 21
218.5874886607376
 31
0.0
  0
LINE
  5
81D4
  8
0
 10
52.06685615177355
 20
219.6387386607383
 30
0.0
 11
52.86435615177368
 21
219.6387386607383
 31
0.0
  0
LINE
  5
81D5
  8
0
 10
52.06685615177355
 20
217.1012386607377
 30
0.0
 11
52.86435615177368
 21
217.1012386607377
 31
0.0
  0
ARC
  5
81D6
  8
0
 10
55.0393561517734
 20
218.3699886607378
 30
0.0
 40
1.305
 50
84.27518954777628
 51
281.4211862750073
  0
ARC
  5
81D7
  8
0
 10
55.0393561517734
 20
218.3699886607378
 30
0.0
 40
0.5075000000000001
 50
84.27518954777645
 51
270.0
  0
CIRCLE
  5
81D8
  8
0
 10
57.28685615177335
 20
218.3699886607378
 30
0.0
 40
1.305
  0
CIRCLE
  5
81D9
  8
0
 10
57.28685615177335
 20
218.3699886607378
 30
0.0
 40
0.5075000000000001
  0
LINE
  5
81DA
  8
0
 10
55.0393561517734
 20
217.8624886607381
 30
0.0
 11
55.0393561517734
 21
218.5874886607376
 31
0.0
  0
LINE
  5
81DB
  8
0
 10
55.0393561517734
 20
218.5874886607376
 30
0.0
 11
55.76435615177331
 21
218.5874886607376
 31
0.0
  0
LINE
  5
81DC
  8
0
 10
55.29777199335774
 20
217.0908302448966
 30
0.0
 11
55.76435615177331
 21
217.1374886607378
 31
0.0
  0
LINE
  5
81DD
  8
0
 10
55.16953071536443
 20
219.6684799325583
 30
0.0
 11
55.76435615177331
 21
219.6387386607383
 31
0.0
  0
LINE
  5
81DE
  8
0
 10
55.76435615177331
 20
219.6387386607383
 30
0.0
 11
55.76435615177331
 21
218.8412386607377
 31
0.0
  0
LINE
  5
81DF
  8
0
 10
55.76435615177331
 20
218.8412386607377
 30
0.0
 11
55.08997959316991
 21
218.8749574886686
 31
0.0
  0
LINE
  5
81E0
  8
0
 10
58.80935615177339
 20
217.1012386607377
 30
0.0
 11
58.80935615177339
 21
219.6387386607383
 31
0.0
  0
LINE
  5
81E1
  8
0
 10
60.91185615177335
 20
217.1012386607377
 30
0.0
 11
60.91185615177335
 21
217.6812386607376
 31
0.0
  0
LINE
  5
81E2
  8
0
 10
60.91185615177335
 20
219.0587386607383
 30
0.0
 11
60.91185615177335
 21
219.6387386607383
 31
0.0
  0
LINE
  5
81E3
  8
0
 10
58.80935615177339
 20
217.1012386607377
 30
0.0
 11
59.60685615177351
 21
217.1012386607377
 31
0.0
  0
LINE
  5
81E4
  8
0
 10
58.80935615177339
 20
219.6387386607383
 30
0.0
 11
59.60685615177351
 21
219.6387386607383
 31
0.0
  0
LINE
  5
81E5
  8
0
 10
59.60685615177351
 20
219.6387386607383
 30
0.0
 11
59.60685615177351
 21
218.7687386607381
 31
0.0
  0
LINE
  5
81E6
  8
0
 10
60.11435615177368
 20
219.6387386607383
 30
0.0
 11
60.11435615177368
 21
219.0587386607383
 31
0.0
  0
LINE
  5
81E7
  8
0
 10
59.60685615177351
 20
217.1012386607377
 30
0.0
 11
59.60685615177351
 21
217.9712386607376
 31
0.0
  0
LINE
  5
81E8
  8
0
 10
60.11435615177368
 20
217.1012386607377
 30
0.0
 11
60.11435615177368
 21
217.6812386607376
 31
0.0
  0
ARC
  5
81E9
  8
0
 10
59.82435615177326
 20
217.6812386607376
 30
0.0
 40
0.29
 50
0.0
 51
90.0
  0
ARC
  5
81EA
  8
0
 10
59.82435615177326
 20
217.6812386607376
 30
0.0
 40
1.0875
 50
0.0
 51
39.29648023918966
  0
LINE
  5
81EB
  8
0
 10
60.11435615177368
 20
219.6387386607383
 30
0.0
 11
60.91185615177335
 21
219.6387386607383
 31
0.0
  0
LINE
  5
81EC
  8
0
 10
60.11435615177368
 20
217.1012386607377
 30
0.0
 11
60.91185615177335
 21
217.1012386607377
 31
0.0
  0
LINE
  5
81ED
  8
0
 10
59.60685615177351
 20
218.7687386607381
 30
0.0
 11
59.82435615177326
 21
218.7687386607381
 31
0.0
  0
ARC
  5
81EE
  8
0
 10
59.82435615177326
 20
219.0587386607383
 30
0.0
 40
0.29
 50
270.0
 51
0.0
  0
ARC
  5
81EF
  8
0
 10
59.82435615177326
 20
219.0587386607383
 30
0.0
 40
1.0875
 50
320.7035197608199
 51
0.0
  0
LINE
  5
81F0
  8
0
 10
59.60685615177351
 20
217.9712386607376
 30
0.0
 11
59.82435615177326
 21
217.9712386607376
 31
0.0
  0
LINE
  5
81F1
  8
0
 10
61.12935615177355
 20
217.1012386607377
 30
0.0
 11
61.12935615177355
 21
219.6387386607383
 31
0.0
  0
LINE
  5
81F2
  8
0
 10
61.92685615177368
 20
217.1012386607377
 30
0.0
 11
61.92685615177368
 21
219.6387386607383
 31
0.0
  0
LINE
  5
81F3
  8
0
 10
61.12935615177355
 20
219.6387386607383
 30
0.0
 11
61.92685615177368
 21
219.6387386607383
 31
0.0
  0
LINE
  5
81F4
  8
0
 10
61.12935615177355
 20
217.1012386607377
 30
0.0
 11
61.92685615177368
 21
217.1012386607377
 31
0.0
  0
LINE
  5
81F5
  8
0
 10
62.14435615177342
 20
217.1012386607377
 30
0.0
 11
62.14435615177342
 21
218.5874886607376
 31
0.0
  0
LINE
  5
81F6
  8
0
 10
64.24685615177339
 20
217.1012386607377
 30
0.0
 11
64.24685615177339
 21
218.5874886607376
 31
0.0
  0
LINE
  5
81F7
  8
0
 10
62.14435615177342
 20
217.1012386607377
 30
0.0
 11
62.94185615177355
 21
217.1012386607377
 31
0.0
  0
LINE
  5
81F8
  8
0
 10
62.94185615177355
 20
217.1012386607377
 30
0.0
 11
62.94185615177355
 21
218.5874886607376
 31
0.0
  0
LINE
  5
81F9
  8
0
 10
63.44935615177326
 20
217.1012386607377
 30
0.0
 11
63.44935615177326
 21
218.5874886607376
 31
0.0
  0
LINE
  5
81FA
  8
0
 10
63.44935615177326
 20
217.1012386607377
 30
0.0
 11
64.24685615177339
 21
217.1012386607377
 31
0.0
  0
ARC
  5
81FB
  8
0
 10
63.1956061517734
 20
218.5874886607376
 30
0.0
 40
1.05125
 50
0.0
 51
180.0
  0
ARC
  5
81FC
  8
0
 10
63.1956061517734
 20
218.5874886607376
 30
0.0
 40
0.25375
 50
0.0
 51
180.0
  0
CIRCLE
  5
81FD
  8
0
 10
95.5218561517735
 20
209.8911305534325
 30
0.0
 40
8.25
  0
LINE
  5
81FE
  8
0
 10
68.27185615177308
 20
203.891130553432
 30
0.0
 11
68.27185615177308
 21
215.8911305534324
 31
0.0
  0
ARC
  5
81FF
  8
0
 10
70.27185615177308
 20
203.891130553432
 30
0.0
 40
2.0
 50
180.0
 51
270.0
1001
GENIUS_GENOBJ-N-FIL_13
1002
{
1000
OWNER
1000
GEN
1002
}
1001
GENIUS_GENODEF_13
1002
{
1000
HIER
1070
     0
1002
}
1002
{
1000
MANEDIT
1070
     0
1002
}
1002
{
1000
NOSEL
1070
     0
1002
}
1002
{
1000
BEHIND
1070
     0
1002
}
1002
{
1000
OTHER
1070
     0
1002
}
1002
{
1000
REACTOR
1002
}
  0
LINE
  5
8200
  8
0
 10
86.27185615177217
 20
203.891130553432
 30
0.0
 11
86.27185615177217
 21
215.8911305534315
 31
0.0
  0
ARC
  5
8201
  8
0
 10
84.27185615177217
 20
215.8911305534315
 30
0.0
 40
2.0
 50
0.0
 51
90.0
1001
GENIUS_GENODEF_13
1002
{
1000
HIER
1070
     0
1002
}
1002
{
1000
MANEDIT
1070
     0
1002
}
1002
{
1000
NOSEL
1070
     0
1002
}
1002
{
1000
BEHIND
1070
     0
1002
}
1002
{
1000
OTHER
1070
     0
1002
}
1002
{
1000
REACTOR
1002
}
1001
GENIUS_GENOBJ-N-FIL_13
1002
{
1000
OWNER
1000
GEN
1002
}
  0
LINE
  5
8202
  8
0
 10
86.27185615177217
 20
209.391130553432
 30
0.0
 11
86.24963589325915
 21
209.391130553432
 31
0.0
  0
LINE
  5
8203
  8
0
 10
84.82185615177258
 20
209.5411305534318
 30
0.0
 11
69.72185615177267
 21
209.5411305534318
 31
0.0
  0
LINE
  5
8204
  8
0
 10
86.27185615177217
 20
210.391130553432
 30
0.0
 11
86.24963589325915
 21
210.391130553432
 31
0.0
  0
LINE
  5
8205
  8
0
 10
84.82185615177258
 20
210.2411305534319
 30
0.0
 11
69.72185615177267
 21
210.2411305534319
 31
0.0
  0
CIRCLE
  5
8206
  8
0
 10
77.4734696911882
 20
213.8911305534324
 30
0.0
 40
2.0
  0
LINE
  5
8207
  8
0
 10
84.27185615177217
 20
217.8911305534315
 30
0.0
 11
70.27185615177308
 21
217.8911305534324
 31
0.0
  0
ARC
  5
8208
  8
0
 10
70.27185615177308
 20
215.8911305534324
 30
0.0
 40
2.0
 50
90.0
 51
180.0
1001
GENIUS_GENOBJ-N-FIL_13
1002
{
1000
OWNER
1000
GEN
1002
}
1001
GENIUS_GENODEF_13
1002
{
1000
HIER
1070
     0
1002
}
1002
{
1000
MANEDIT
1070
     0
1002
}
1002
{
1000
NOSEL
1070
     0
1002
}
1002
{
1000
BEHIND
1070
     0
1002
}
1002
{
1000
OTHER
1070
     0
1002
}
1002
{
1000
REACTOR
1002
}
  0
LINE
  5
8209
  8
0
 10
84.27185615177217
 20
201.891130553432
 30
0.0
 11
70.27185615177308
 21
201.891130553432
 31
0.0
  0
ARC
  5
820A
  8
0
 10
84.27185615177217
 20
203.891130553432
 30
0.0
 40
2.0
 50
270.0
 51
0.0
1001
GENIUS_GENODEF_13
1002
{
1000
HIER
1070
     0
1002
}
1002
{
1000
MANEDIT
1070
     0
1002
}
1002
{
1000
NOSEL
1070
     0
1002
}
1002
{
1000
BEHIND
1070
     0
1002
}
1002
{
1000
OTHER
1070
     0
1002
}
1002
{
1000
REACTOR
1002
}
1001
GENIUS_GENOBJ-N-FIL_13
1002
{
1000
OWNER
1000
GEN
1002
}
  0
TEXT
  5
820B
  8
0
 10
41.65052034472338
 20
220.3458330562006
 30
0.0
 40
1.8
  1
電動水抜操作盤 EV2R
  0
CIRCLE
  5
823C
  8
0
 10
65.82231811433542
 20
224.374295078713
 30
0.0
 40
1.125
  0
TEXT
  5
823D
  8
0
 10
65.10231811433542
 20
223.606295078713
 30
0.0
 40
1.44
  1
Ｒ
 72
     4
 11
65.82231811433542
 21
224.374295078713
 31
0.0
  0
LINE
  5
8246
  8
0
 10
55.82185551549389
 20
248.2411305534327
 30
0.0
 11
55.82185551549389
 21
246.2411305534327
 31
0.0
  0
LINE
  5
8247
  8
0
 10
48.82185551549389
 20
248.2411305534327
 30
0.0
 11
48.82185551549389
 21
246.2411305534327
 31
0.0
  0
ARC
  5
8248
  8
0
 10
49.82185551549389
 20
248.2411305534327
 30
0.0
 40
1.0
 50
90.0
 51
180.0
  0
ARC
  5
8249
  8
0
 10
49.82185551549389
 20
246.2411305534327
 30
0.0
 40
1.0
 50
180.0
 51
270.0
  0
ARC
  5
824A
  8
0
 10
54.82185551549389
 20
246.2411305534327
 30
0.0
 40
1.0
 50
270.0
 51
0.0
  0
ARC
  5
824B
  8
0
 10
54.82185551549389
 20
248.2411305534327
 30
0.0
 40
1.0
 50
0.0
 51
90.0
  0
LINE
  5
824C
  8
0
 10
49.82185551549389
 20
249.2411305534327
 30
0.0
 11
54.82185551549389
 21
249.2411305534327
 31
0.0
  0
LINE
  5
824D
  8
0
 10
49.82185551549389
 20
245.2411305534327
 30
0.0
 11
54.82185551549389
 21
245.2411305534327
 31
0.0
  0
TEXT
  5
824E
  8
0
 10
42.16044235838103
 20
246.278854734014
 30
0.0
 40
2.0
  1
OFF
 41
1.5
  0
TEXT
  5
824F
  8
0
 10
57.20729150807274
 20
246.278854734014
 30
0.0
 40
2.0
  1
ON
 41
1.5
  0
ARC
  5
8250
  8
0
 10
69.72185615177267
 20
209.891130553432
 30
0.0
 40
0.3500000000000227
 50
90.0
 51
270.0
  0
ARC
  5
8251
  8
0
 10
84.82185615177258
 20
209.891130553432
 30
0.0
 40
0.3500000000000227
 50
270.0
 51
90.0
  0
LINE
  5
8252
  8
0
 10
56.52185615177348
 20
212.8911305534325
 30
0.0
 11
64.52185615177348
 21
212.8911305534325
 31
0.0
  0
ARC
  5
8253
  8
0
 10
64.52185615177348
 20
210.8911305534325
 30
0.0
 40
2.0
 50
0.0
 51
90.0
  0
ARC
  5
8254
  8
0
 10
56.52185615177348
 20
210.8911305534325
 30
0.0
 40
2.0
 50
90.0
 51
180.0
  0
ARC
  5
8255
  8
0
 10
64.52185615177348
 20
203.8911305534321
 30
0.0
 40
2.0
 50
270.0
 51
0.0
  0
LINE
  5
8256
  8
0
 10
66.52185615177348
 20
203.8911305534321
 30
0.0
 11
66.52185615177348
 21
210.8911305534325
 31
0.0
  0
LINE
  5
8257
  8
0
 10
56.52185615177348
 20
201.8911305534321
 30
0.0
 11
64.52185615177348
 21
201.8911305534321
 31
0.0
  0
ARC
  5
8258
  8
0
 10
56.52185615177348
 20
203.8911305534321
 30
0.0
 40
2.0
 50
180.0
 51
270.0
  0
LINE
  5
8259
  8
0
 10
54.52185615177348
 20
203.8911305534321
 30
0.0
 11
54.52185615177348
 21
210.8911305534325
 31
0.0
  0
TEXT
  5
825A
  8
0
 10
55.65609042412053
 20
203.1068499471187
 30
0.0
 40
1.9
  1
点検
  0
ARC
  5
825B
  8
0
 10
64.27349234550161
 20
204.4584463188551
 30
0.0
 40
0.9999999999999992
 50
233.0491207032604
 51
57.3262839971238
  0
LINE
  5
825C
  8
0
 10
63.67236222803103
 20
203.6592951555139
 30
0.0
 11
58.96522801641646
 21
207.2000522379968
 31
0.0
  0
LINE
  5
825D
  8
0
 10
59.85524786706122
 20
208.4800366674656
 30
0.0
 11
64.81334657256377
 21
205.3002048433285
 31
0.0
  0
ARC
  5
825E
  8
0
 10
57.40559677286421
 20
209.2339445601395
 30
0.0
 40
1.99079584716086
 50
1.683229077249547
 51
160.7903378653517
  0
ARC
  5
825F
  8
0
 10
60.39510209412379
 20
209.3217951919388
 30
0.0
 40
0.9999999999999992
 50
181.6832290772424
 51
237.3262839971274
1001
GENIUS_GENODEF_13
1002
{
1000
HIER
1070
     0
1002
}
1002
{
1000
MANEDIT
1070
     0
1002
}
1002
{
1000
NOSEL
1070
     0
1002
}
1002
{
1000
BEHIND
1070
     0
1002
}
1002
{
1000
OTHER
1070
     0
1002
}
1002
{
1000
REACTOR
1002
}
1001
GENIUS_GENOBJ-N-FIL_13
1002
{
1000
OWNER
1000
GEN
1002
}
  0
ARC
  5
8260
  8
0
 10
57.40559677286421
 20
209.2339445601395
 30
0.0
 40
1.99079584716086
 50
219.5850668351115
 51
288.692175623141
  0
ARC
  5
8261
  8
0
 10
58.36409789894623
 20
206.4009010746554
 30
0.0
 40
0.9999999999999992
 50
53.0491207032568
 51
108.6921756231398
1001
GENIUS_GENOBJ-N-FIL_13
1002
{
1000
OWNER
1000
GEN
1002
}
1001
GENIUS_GENODEF_13
1002
{
1000
HIER
1070
     0
1002
}
1002
{
1000
MANEDIT
1070
     0
1002
}
1002
{
1000
NOSEL
1070
     0
1002
}
1002
{
1000
BEHIND
1070
     0
1002
}
1002
{
1000
OTHER
1070
     0
1002
}
1002
{
1000
REACTOR
1002
}
  0
LINE
  5
8262
  8
0
 10
57.96654129808883
 20
209.334750119616
 30
0.0
 11
57.58408692139579
 21
208.2731571995762
 31
0.0
  0
LINE
  5
8263
  8
0
 10
57.58408692139579
 20
208.2731571995762
 30
0.0
 11
55.87133152286594
 21
207.9653633653709
 31
0.0
  0
LINE
  5
8264
  8
0
 10
57.96654129808871
 20
209.3347501196167
 30
0.0
 11
57.23840204920202
 21
210.1967617856411
 31
0.0
  0
LINE
  5
8265
  8
0
 10
57.23840204920202
 20
210.1967617856411
 30
0.0
 11
55.52564665067189
 21
209.8889679514355
 31
0.0
  0
CIRCLE
  5
8266
  8
0
 10
64.27349234550161
 20
204.4584463188551
 30
0.0
 40
0.4999999999999996
  0
LINE
  5
8267
  8
0
 10
42.53436654623863
 20
212.5722655534321
 30
0.0
 11
44.87114804623866
 21
212.5722655534321
 31
0.0
  0
LINE
  5
8268
  8
0
 10
44.87114804623866
 20
212.5722655534321
 30
0.0
 11
44.87114804623866
 21
212.9062494534321
 31
0.0
  0
LINE
  5
8269
  8
0
 10
44.87114804623866
 20
212.9062494534321
 30
0.0
 11
42.53436654623863
 21
212.9062494534321
 31
0.0
  0
LINE
  5
826A
  8
0
 10
42.53436654623863
 20
212.9062494534321
 30
0.0
 11
42.53436654623863
 21
212.5722655534321
 31
0.0
  0
LINE
  5
826B
  8
0
 10
45.53874154623861
 20
212.5722655534321
 30
0.0
 11
46.53995604623861
 21
212.5722655534321
 31
0.0
  0
LINE
  5
826C
  8
0
 10
46.53995604623861
 20
212.5722655534321
 30
0.0
 11
46.53995604623861
 21
212.9062494534321
 31
0.0
  0
LINE
  5
826D
  8
0
 10
46.53995604623861
 20
212.9062494534321
 30
0.0
 11
45.53874154623861
 21
212.9062494534321
 31
0.0
  0
LINE
  5
826E
  8
0
 10
45.53874154623861
 20
212.9062494534321
 30
0.0
 11
45.53874154623861
 21
212.5722655534321
 31
0.0
  0
LINE
  5
826F
  8
0
 10
47.20751154623861
 20
212.5722655534321
 30
0.0
 11
47.54149544623863
 21
212.5722655534321
 31
0.0
  0
LINE
  5
8270
  8
0
 10
47.54149544623863
 20
212.5722655534321
 30
0.0
 11
47.54149544623863
 21
212.9062494534321
 31
0.0
  0
LINE
  5
8271
  8
0
 10
47.54149544623863
 20
212.9062494534321
 30
0.0
 11
47.20751154623861
 21
212.9062494534321
 31
0.0
  0
LINE
  5
8272
  8
0
 10
47.20751154623861
 20
212.9062494534321
 30
0.0
 11
47.20751154623861
 21
212.5722655534321
 31
0.0
  0
LINE
  5
8273
  8
0
 10
47.87507654623863
 20
212.5722655534321
 30
0.0
 11
48.20906139623861
 21
212.5722655534321
 31
0.0
  0
LINE
  5
8274
  8
0
 10
48.20906139623861
 20
212.5722655534321
 30
0.0
 11
48.20906139623861
 21
212.9062494534321
 31
0.0
  0
LINE
  5
8275
  8
0
 10
48.20906139623861
 20
212.9062494534321
 30
0.0
 11
47.87507654623863
 21
212.9062494534321
 31
0.0
  0
LINE
  5
8276
  8
0
 10
47.87507654623863
 20
212.9062494534321
 30
0.0
 11
47.87507654623863
 21
212.5722655534321
 31
0.0
  0
LINE
  5
8277
  8
0
 10
48.54273654623864
 20
212.5722655534321
 30
0.0
 11
48.87672139623862
 21
212.5722655534321
 31
0.0
  0
LINE
  5
8278
  8
0
 10
48.87672139623862
 20
212.5722655534321
 30
0.0
 11
48.87672139623862
 21
212.9062494534321
 31
0.0
  0
LINE
  5
8279
  8
0
 10
48.87672139623862
 20
212.9062494534321
 30
0.0
 11
48.54273654623864
 21
212.9062494534321
 31
0.0
  0
LINE
  5
827A
  8
0
 10
48.54273654623864
 20
212.9062494534321
 30
0.0
 11
48.54273654623864
 21
212.5722655534321
 31
0.0
  0
LINE
  5
827B
  8
0
 10
49.87748654623863
 20
212.5722655534321
 30
0.0
 11
50.21147044623865
 21
212.5722655534321
 31
0.0
  0
LINE
  5
827C
  8
0
 10
50.21147044623865
 20
212.5722655534321
 30
0.0
 11
50.21147044623865
 21
212.9062494534321
 31
0.0
  0
LINE
  5
827D
  8
0
 10
50.21147044623865
 20
212.9062494534321
 30
0.0
 11
49.87748654623863
 21
212.9062494534321
 31
0.0
  0
LINE
  5
827E
  8
0
 10
49.87748654623863
 20
212.9062494534321
 30
0.0
 11
49.87748654623863
 21
212.5722655534321
 31
0.0
  0
LINE
  5
8280
  8
0
 10
51.54707544623864
 20
212.5722655534321
 30
0.0
 11
53.21550154623861
 21
212.5722655534321
 31
0.0
  0
LINE
  5
8281
  8
0
 10
53.54987304623864
 20
210.5690955534321
 30
0.0
 11
53.54987304623864
 21
212.9062494534321
 31
0.0
  0
LINE
  5
8282
  8
0
 10
53.54987304623864
 20
212.9062494534321
 30
0.0
 11
51.21309154623862
 21
212.9062494534321
 31
0.0
  0
LINE
  5
8283
  8
0
 10
51.21309154623862
 20
212.9062494534321
 30
0.0
 11
51.21309154623862
 21
210.5690955534321
 31
0.0
  0
LINE
  5
8284
  8
0
 10
42.53436654623863
 20
212.2383405534321
 30
0.0
 11
42.86872189623864
 21
212.2383405534321
 31
0.0
  0
LINE
  5
8285
  8
0
 10
42.86872189623864
 20
212.2383405534321
 30
0.0
 11
42.86872189623864
 21
212.5723254034321
 31
0.0
  0
LINE
  5
8286
  8
0
 10
42.86872189623864
 20
212.5723254034321
 30
0.0
 11
42.53436654623863
 21
212.5723254034321
 31
0.0
  0
LINE
  5
8287
  8
0
 10
42.53436654623863
 20
212.5723254034321
 30
0.0
 11
42.53436654623863
 21
212.2383405534321
 31
0.0
  0
LINE
  5
8288
  8
0
 10
44.5374415462386
 20
212.2383405534321
 30
0.0
 11
44.87142544623862
 21
212.2383405534321
 31
0.0
  0
LINE
  5
8289
  8
0
 10
44.87142544623862
 20
212.2383405534321
 30
0.0
 11
44.87142544623862
 21
212.5723254034321
 31
0.0
  0
LINE
  5
828A
  8
0
 10
44.87142544623862
 20
212.5723254034321
 30
0.0
 11
44.5374415462386
 21
212.5723254034321
 31
0.0
  0
LINE
  5
828B
  8
0
 10
44.5374415462386
 20
212.5723254034321
 30
0.0
 11
44.5374415462386
 21
212.2383405534321
 31
0.0
  0
LINE
  5
828C
  8
0
 10
45.20510154623861
 20
212.2383405534321
 30
0.0
 11
46.20668654623864
 21
212.2383405534321
 31
0.0
  0
LINE
  5
828D
  8
0
 10
46.20668654623864
 20
212.2383405534321
 30
0.0
 11
46.20668654623864
 21
212.5723254034321
 31
0.0
  0
LINE
  5
828E
  8
0
 10
46.20668654623864
 20
212.5723254034321
 30
0.0
 11
45.20510154623861
 21
212.5723254034321
 31
0.0
  0
LINE
  5
828F
  8
0
 10
45.20510154623861
 20
212.5723254034321
 30
0.0
 11
45.20510154623861
 21
212.2383405534321
 31
0.0
  0
LINE
  5
8290
  8
0
 10
46.54032654623865
 20
212.2383405534321
 30
0.0
 11
47.54154104623865
 21
212.2383405534321
 31
0.0
  0
LINE
  5
8291
  8
0
 10
47.54154104623865
 20
212.2383405534321
 30
0.0
 11
47.54154104623865
 21
212.5723254034321
 31
0.0
  0
LINE
  5
8292
  8
0
 10
47.54154104623865
 20
212.5723254034321
 30
0.0
 11
46.54032654623865
 21
212.5723254034321
 31
0.0
  0
LINE
  5
8293
  8
0
 10
46.54032654623865
 20
212.5723254034321
 30
0.0
 11
46.54032654623865
 21
212.2383405534321
 31
0.0
  0
LINE
  5
8294
  8
0
 10
48.20909654623864
 20
212.2383405534321
 30
0.0
 11
48.5430804462386
 21
212.2383405534321
 31
0.0
  0
LINE
  5
8295
  8
0
 10
48.5430804462386
 20
212.2383405534321
 30
0.0
 11
48.5430804462386
 21
212.5723254034321
 31
0.0
  0
LINE
  5
8296
  8
0
 10
48.5430804462386
 20
212.5723254034321
 30
0.0
 11
48.20909654623864
 21
212.5723254034321
 31
0.0
  0
LINE
  5
8297
  8
0
 10
48.20909654623864
 20
212.5723254034321
 30
0.0
 11
48.20909654623864
 21
212.2383405534321
 31
0.0
  0
LINE
  5
8298
  8
0
 10
49.2099215462386
 20
212.2383405534321
 30
0.0
 11
49.54427689623861
 21
212.2383405534321
 31
0.0
  0
LINE
  5
8299
  8
0
 10
49.54427689623861
 20
212.2383405534321
 30
0.0
 11
49.54427689623861
 21
212.5723254034321
 31
0.0
  0
LINE
  5
829A
  8
0
 10
49.54427689623861
 20
212.5723254034321
 30
0.0
 11
49.2099215462386
 21
212.5723254034321
 31
0.0
  0
LINE
  5
829B
  8
0
 10
49.2099215462386
 20
212.5723254034321
 30
0.0
 11
49.2099215462386
 21
212.2383405534321
 31
0.0
  0
LINE
  5
829C
  8
0
 10
49.87748654623863
 20
212.2383405534321
 30
0.0
 11
50.21147044623865
 21
212.2383405534321
 31
0.0
  0
LINE
  5
829D
  8
0
 10
50.21147044623865
 20
212.2383405534321
 30
0.0
 11
50.21147044623865
 21
212.5723254034321
 31
0.0
  0
LINE
  5
829E
  8
0
 10
50.21147044623865
 20
212.5723254034321
 30
0.0
 11
49.87748654623863
 21
212.5723254034321
 31
0.0
  0
LINE
  5
829F
  8
0
 10
49.87748654623863
 20
212.5723254034321
 30
0.0
 11
49.87748654623863
 21
212.2383405534321
 31
0.0
  0
LINE
  5
82A0
  8
0
 10
50.5459065462386
 20
212.2383405534321
 30
0.0
 11
50.87989139623863
 21
212.2383405534321
 31
0.0
  0
LINE
  5
82A2
  8
0
 10
50.87989139623863
 20
212.2382959034321
 30
0.0
 11
50.87989139623863
 21
212.5723254034321
 31
0.0
  0
LINE
  5
82A3
  8
0
 10
50.87989139623863
 20
212.5723254034321
 30
0.0
 11
50.5459065462386
 21
212.5723254034321
 31
0.0
  0
LINE
  5
82A4
  8
0
 10
50.5459065462386
 20
212.5723254034321
 30
0.0
 11
50.5459065462386
 21
212.2382959034321
 31
0.0
  0
LINE
  5
82A5
  8
0
 10
42.53436654623863
 20
211.9039405534321
 30
0.0
 11
42.86872189623864
 21
211.9039405534321
 31
0.0
  0
LINE
  5
82A6
  8
0
 10
42.86872189623864
 20
211.9039405534321
 30
0.0
 11
42.86872189623864
 21
212.2382959034321
 31
0.0
  0
LINE
  5
82A7
  8
0
 10
42.86872189623864
 20
212.2382959034321
 30
0.0
 11
42.53436654623863
 21
212.2382959034321
 31
0.0
  0
LINE
  5
82A8
  8
0
 10
42.53436654623863
 20
212.2382959034321
 30
0.0
 11
42.53436654623863
 21
211.9039405534321
 31
0.0
  0
LINE
  5
82A9
  8
0
 10
43.2019315462386
 20
211.9039405534321
 30
0.0
 11
44.20351654623863
 21
211.9039405534321
 31
0.0
  0
LINE
  5
82AA
  8
0
 10
44.20351654623863
 20
211.9039405534321
 30
0.0
 11
44.20351654623863
 21
212.2382959034321
 31
0.0
  0
LINE
  5
82AB
  8
0
 10
44.20351654623863
 20
212.2382959034321
 30
0.0
 11
43.2019315462386
 21
212.2382959034321
 31
0.0
  0
LINE
  5
82AC
  8
0
 10
43.2019315462386
 20
212.2382959034321
 30
0.0
 11
43.2019315462386
 21
211.9039405534321
 31
0.0
  0
LINE
  5
82AD
  8
0
 10
44.5374415462386
 20
211.9039405534321
 30
0.0
 11
44.87142544623862
 21
211.9039405534321
 31
0.0
  0
LINE
  5
82AE
  8
0
 10
44.87142544623862
 20
211.9039405534321
 30
0.0
 11
44.87142544623862
 21
212.2382959034321
 31
0.0
  0
LINE
  5
82AF
  8
0
 10
44.87142544623862
 20
212.2382959034321
 30
0.0
 11
44.5374415462386
 21
212.2382959034321
 31
0.0
  0
LINE
  5
82B0
  8
0
 10
44.5374415462386
 20
212.2382959034321
 30
0.0
 11
44.5374415462386
 21
211.9039405534321
 31
0.0
  0
LINE
  5
82B1
  8
0
 10
45.20510154623861
 20
211.9039405534321
 30
0.0
 11
46.20668654623864
 21
211.9039405534321
 31
0.0
  0
LINE
  5
82B2
  8
0
 10
46.20668654623864
 20
211.9039405534321
 30
0.0
 11
46.20668654623864
 21
212.2382959034321
 31
0.0
  0
LINE
  5
82B3
  8
0
 10
46.20668654623864
 20
212.2382959034321
 30
0.0
 11
45.20510154623861
 21
212.2382959034321
 31
0.0
  0
LINE
  5
82B4
  8
0
 10
45.20510154623861
 20
212.2382959034321
 30
0.0
 11
45.20510154623861
 21
211.9039405534321
 31
0.0
  0
LINE
  5
82B5
  8
0
 10
46.54032654623865
 20
211.9039405534321
 30
0.0
 11
47.20755334623863
 21
211.9039405534321
 31
0.0
  0
LINE
  5
82B6
  8
0
 10
47.20755334623863
 20
211.9039405534321
 30
0.0
 11
47.20755334623863
 21
212.2382959034321
 31
0.0
  0
LINE
  5
82B7
  8
0
 10
47.20755334623863
 20
212.2382959034321
 30
0.0
 11
46.54032654623865
 21
212.2382959034321
 31
0.0
  0
LINE
  5
82B8
  8
0
 10
46.54032654623865
 20
212.2382959034321
 30
0.0
 11
46.54032654623865
 21
211.9039405534321
 31
0.0
  0
LINE
  5
82B9
  8
0
 10
47.54153154623862
 20
211.9039405534321
 30
0.0
 11
47.87588689623863
 21
211.9039405534321
 31
0.0
  0
LINE
  5
82BA
  8
0
 10
47.87588689623863
 20
211.9039405534321
 30
0.0
 11
47.87588689623863
 21
212.2382959034321
 31
0.0
  0
LINE
  5
82BB
  8
0
 10
47.87588689623863
 20
212.2382959034321
 30
0.0
 11
47.54153154623862
 21
212.2382959034321
 31
0.0
  0
LINE
  5
82BC
  8
0
 10
47.54153154623862
 20
212.2382959034321
 30
0.0
 11
47.54153154623862
 21
211.9039405534321
 31
0.0
  0
LINE
  5
82BD
  8
0
 10
48.20909654623864
 20
211.9039405534321
 30
0.0
 11
49.21068154623862
 21
211.9039405534321
 31
0.0
  0
LINE
  5
82BE
  8
0
 10
49.21068154623862
 20
211.9039405534321
 30
0.0
 11
49.21068154623862
 21
212.2382959034321
 31
0.0
  0
LINE
  5
82BF
  8
0
 10
49.21068154623862
 20
212.2382959034321
 30
0.0
 11
48.20909654623864
 21
212.2382959034321
 31
0.0
  0
LINE
  5
82C0
  8
0
 10
48.20909654623864
 20
212.2382959034321
 30
0.0
 11
48.20909654623864
 21
211.9039405534321
 31
0.0
  0
LINE
  5
82C1
  8
0
 10
49.54432154623862
 20
211.9039405534321
 30
0.0
 11
49.8783063962386
 21
211.9039405534321
 31
0.0
  0
LINE
  5
82C2
  8
0
 10
49.8783063962386
 20
211.9039405534321
 30
0.0
 11
49.8783063962386
 21
212.2382959034321
 31
0.0
  0
LINE
  5
82C3
  8
0
 10
49.8783063962386
 20
212.2382959034321
 30
0.0
 11
49.54432154623862
 21
212.2382959034321
 31
0.0
  0
LINE
  5
82C4
  8
0
 10
49.54432154623862
 20
212.2382959034321
 30
0.0
 11
49.54432154623862
 21
211.9039405534321
 31
0.0
  0
LINE
  5
82C5
  8
0
 10
50.5459065462386
 20
211.9039405534321
 30
0.0
 11
50.87989139623863
 21
211.9039405534321
 31
0.0
  0
LINE
  5
82C6
  8
0
 10
50.87989139623863
 20
211.9039405534321
 30
0.0
 11
50.87989139623863
 21
212.2382959034321
 31
0.0
  0
LINE
  5
82C7
  8
0
 10
50.87989139623863
 20
212.2382959034321
 30
0.0
 11
50.5459065462386
 21
212.2382959034321
 31
0.0
  0
LINE
  5
82C8
  8
0
 10
50.5459065462386
 20
212.2382959034321
 30
0.0
 11
50.5459065462386
 21
211.9039405534321
 31
0.0
  0
LINE
  5
82CA
  8
0
 10
52.88224154623862
 20
211.2367555534321
 30
0.0
 11
52.88224154623862
 21
212.2382959034321
 31
0.0
  0
LINE
  5
82CB
  8
0
 10
52.88224154623862
 20
212.2382959034321
 30
0.0
 11
51.88065654623864
 21
212.2382959034321
 31
0.0
  0
LINE
  5
82CC
  8
0
 10
51.88065654623864
 20
212.2382959034321
 30
0.0
 11
51.88065654623864
 21
211.2367555534321
 31
0.0
  0
LINE
  5
82CD
  8
0
 10
42.53436654623863
 20
211.5706805534321
 30
0.0
 11
42.86872189623864
 21
211.5706805534321
 31
0.0
  0
LINE
  5
82CE
  8
0
 10
42.86872189623864
 20
211.5706805534321
 30
0.0
 11
42.86872189623864
 21
211.9046644534321
 31
0.0
  0
LINE
  5
82CF
  8
0
 10
42.86872189623864
 20
211.9046644534321
 30
0.0
 11
42.53436654623863
 21
211.9046644534321
 31
0.0
  0
LINE
  5
82D0
  8
0
 10
42.53436654623863
 20
211.9046644534321
 30
0.0
 11
42.53436654623863
 21
211.5706805534321
 31
0.0
  0
LINE
  5
82D1
  8
0
 10
43.2019315462386
 20
211.5706805534321
 30
0.0
 11
44.20351654623863
 21
211.5706805534321
 31
0.0
  0
LINE
  5
82D2
  8
0
 10
44.20351654623863
 20
211.5706805534321
 30
0.0
 11
44.20351654623863
 21
211.9046644534321
 31
0.0
  0
LINE
  5
82D3
  8
0
 10
44.20351654623863
 20
211.9046644534321
 30
0.0
 11
43.2019315462386
 21
211.9046644534321
 31
0.0
  0
LINE
  5
82D4
  8
0
 10
43.2019315462386
 20
211.9046644534321
 30
0.0
 11
43.2019315462386
 21
211.5706805534321
 31
0.0
  0
LINE
  5
82D5
  8
0
 10
44.5374415462386
 20
211.5706805534321
 30
0.0
 11
44.87142544623862
 21
211.5706805534321
 31
0.0
  0
LINE
  5
82D6
  8
0
 10
44.87142544623862
 20
211.5706805534321
 30
0.0
 11
44.87142544623862
 21
211.9046644534321
 31
0.0
  0
LINE
  5
82D7
  8
0
 10
44.87142544623862
 20
211.9046644534321
 30
0.0
 11
44.5374415462386
 21
211.9046644534321
 31
0.0
  0
LINE
  5
82D8
  8
0
 10
44.5374415462386
 20
211.9046644534321
 30
0.0
 11
44.5374415462386
 21
211.5706805534321
 31
0.0
  0
LINE
  5
82D9
  8
0
 10
45.20510154623861
 20
211.5706805534321
 30
0.0
 11
45.53908639623864
 21
211.5706805534321
 31
0.0
  0
LINE
  5
82DA
  8
0
 10
45.53908639623864
 20
211.5706805534321
 30
0.0
 11
45.53908639623864
 21
211.9046644534321
 31
0.0
  0
LINE
  5
82DB
  8
0
 10
45.53908639623864
 20
211.9046644534321
 30
0.0
 11
45.20510154623861
 21
211.9046644534321
 31
0.0
  0
LINE
  5
82DC
  8
0
 10
45.20510154623861
 20
211.9046644534321
 30
0.0
 11
45.20510154623861
 21
211.5706805534321
 31
0.0
  0
LINE
  5
82DD
  8
0
 10
48.87666154623861
 20
211.5706805534321
 30
0.0
 11
49.21064544623863
 21
211.5706805534321
 31
0.0
  0
LINE
  5
82DE
  8
0
 10
49.21064544623863
 20
211.5706805534321
 30
0.0
 11
49.21064544623863
 21
211.9046644534321
 31
0.0
  0
LINE
  5
82DF
  8
0
 10
49.21064544623863
 20
211.9046644534321
 30
0.0
 11
48.87666154623861
 21
211.9046644534321
 31
0.0
  0
LINE
  5
82E0
  8
0
 10
48.87666154623861
 20
211.9046644534321
 30
0.0
 11
48.87666154623861
 21
211.5706805534321
 31
0.0
  0
LINE
  5
82E1
  8
0
 10
49.54432154623862
 20
211.5706805534321
 30
0.0
 11
50.87914754623864
 21
211.5706805534321
 31
0.0
  0
LINE
  5
82E2
  8
0
 10
50.87914754623864
 20
211.5706805534321
 30
0.0
 11
50.87914754623864
 21
211.9046644534321
 31
0.0
  0
LINE
  5
82E3
  8
0
 10
50.87914754623864
 20
211.9046644534321
 30
0.0
 11
49.54432154623862
 21
211.9046644534321
 31
0.0
  0
LINE
  5
82E4
  8
0
 10
49.54432154623862
 20
211.9046644534321
 30
0.0
 11
49.54432154623862
 21
211.5706805534321
 31
0.0
  0
LINE
  5
82E5
  8
0
 10
42.53436654623863
 20
211.2367555534321
 30
0.0
 11
42.86872189623864
 21
211.2367555534321
 31
0.0
  0
LINE
  5
82E6
  8
0
 10
42.86872189623864
 20
211.2367555534321
 30
0.0
 11
42.86872189623864
 21
211.5707404034321
 31
0.0
  0
LINE
  5
82E7
  8
0
 10
42.86872189623864
 20
211.5707404034321
 30
0.0
 11
42.53436654623863
 21
211.5707404034321
 31
0.0
  0
LINE
  5
82E8
  8
0
 10
42.53436654623863
 20
211.5707404034321
 30
0.0
 11
42.53436654623863
 21
211.2367555534321
 31
0.0
  0
LINE
  5
82E9
  8
0
 10
43.2019315462386
 20
211.2367555534321
 30
0.0
 11
44.20351654623863
 21
211.2367555534321
 31
0.0
  0
LINE
  5
82EA
  8
0
 10
44.20351654623863
 20
211.2367555534321
 30
0.0
 11
44.20351654623863
 21
211.5707404034321
 31
0.0
  0
LINE
  5
82EB
  8
0
 10
44.20351654623863
 20
211.5707404034321
 30
0.0
 11
43.2019315462386
 21
211.5707404034321
 31
0.0
  0
LINE
  5
82EC
  8
0
 10
43.2019315462386
 20
211.5707404034321
 30
0.0
 11
43.2019315462386
 21
211.2367555534321
 31
0.0
  0
LINE
  5
82ED
  8
0
 10
44.5374415462386
 20
211.2367555534321
 30
0.0
 11
44.87142544623862
 21
211.2367555534321
 31
0.0
  0
LINE
  5
82EE
  8
0
 10
44.87142544623862
 20
211.2367555534321
 30
0.0
 11
44.87142544623862
 21
211.5707404034321
 31
0.0
  0
LINE
  5
82EF
  8
0
 10
44.87142544623862
 20
211.5707404034321
 30
0.0
 11
44.5374415462386
 21
211.5707404034321
 31
0.0
  0
LINE
  5
82F0
  8
0
 10
44.5374415462386
 20
211.5707404034321
 30
0.0
 11
44.5374415462386
 21
211.2367555534321
 31
0.0
  0
LINE
  5
82F1
  8
0
 10
45.53874154623861
 20
211.2367555534321
 30
0.0
 11
45.87272639623859
 21
211.2367555534321
 31
0.0
  0
LINE
  5
82F2
  8
0
 10
45.87272639623859
 20
211.2367555534321
 30
0.0
 11
45.87272639623859
 21
211.5707404034321
 31
0.0
  0
LINE
  5
82F3
  8
0
 10
45.87272639623859
 20
211.5707404034321
 30
0.0
 11
45.53874154623861
 21
211.5707404034321
 31
0.0
  0
LINE
  5
82F4
  8
0
 10
45.53874154623861
 20
211.5707404034321
 30
0.0
 11
45.53874154623861
 21
211.2367555534321
 31
0.0
  0
LINE
  5
82F5
  8
0
 10
46.20592654623863
 20
211.2367555534321
 30
0.0
 11
47.20751154623861
 21
211.2367555534321
 31
0.0
  0
LINE
  5
82F6
  8
0
 10
47.20751154623861
 20
211.2367555534321
 30
0.0
 11
47.20751154623861
 21
211.5707404034321
 31
0.0
  0
LINE
  5
82F7
  8
0
 10
47.20751154623861
 20
211.5707404034321
 30
0.0
 11
46.20592654623863
 21
211.5707404034321
 31
0.0
  0
LINE
  5
82F8
  8
0
 10
46.20592654623863
 20
211.5707404034321
 30
0.0
 11
46.20592654623863
 21
211.2367555534321
 31
0.0
  0
LINE
  5
82F9
  8
0
 10
47.54153154623862
 20
211.2367555534321
 30
0.0
 11
47.87588689623863
 21
211.2367555534321
 31
0.0
  0
LINE
  5
82FA
  8
0
 10
47.87588689623863
 20
211.2367555534321
 30
0.0
 11
47.87588689623863
 21
211.5707404034321
 31
0.0
  0
LINE
  5
82FB
  8
0
 10
47.87588689623863
 20
211.5707404034321
 30
0.0
 11
47.54153154623862
 21
211.5707404034321
 31
0.0
  0
LINE
  5
82FC
  8
0
 10
47.54153154623862
 20
211.5707404034321
 30
0.0
 11
47.54153154623862
 21
211.2367555534321
 31
0.0
  0
LINE
  5
82FD
  8
0
 10
48.20909654623864
 20
211.2367555534321
 30
0.0
 11
48.8766938462386
 21
211.2367555534321
 31
0.0
  0
LINE
  5
82FE
  8
0
 10
48.8766938462386
 20
211.2367555534321
 30
0.0
 11
48.8766938462386
 21
211.5707404034321
 31
0.0
  0
LINE
  5
82FF
  8
0
 10
48.8766938462386
 20
211.5707404034321
 30
0.0
 11
48.20909654623864
 21
211.5707404034321
 31
0.0
  0
LINE
  5
8300
  8
0
 10
48.20909654623864
 20
211.5707404034321
 30
0.0
 11
48.20909654623864
 21
211.2367555534321
 31
0.0
  0
LINE
  5
8301
  8
0
 10
50.21150654623864
 20
211.2367555534321
 30
0.0
 11
50.54586189623865
 21
211.2367555534321
 31
0.0
  0
LINE
  5
8302
  8
0
 10
50.54586189623865
 20
211.2367555534321
 30
0.0
 11
50.54586189623865
 21
211.5707404034321
 31
0.0
  0
LINE
  5
8303
  8
0
 10
50.54586189623865
 20
211.5707404034321
 30
0.0
 11
50.21150654623864
 21
211.5707404034321
 31
0.0
  0
LINE
  5
8304
  8
0
 10
50.21150654623864
 20
211.5707404034321
 30
0.0
 11
50.21150654623864
 21
211.2367555534321
 31
0.0
  0
LINE
  5
8305
  8
0
 10
51.88065654623864
 20
211.2367555534321
 30
0.0
 11
52.88224154623862
 21
211.2367555534321
 31
0.0
  0
LINE
  5
8306
  8
0
 10
42.53436654623863
 20
210.9031155534321
 30
0.0
 11
42.86872189623864
 21
210.9031155534321
 31
0.0
  0
LINE
  5
8307
  8
0
 10
42.86872189623864
 20
210.9031155534321
 30
0.0
 11
42.86872189623864
 21
211.2371004034321
 31
0.0
  0
LINE
  5
8308
  8
0
 10
42.86872189623864
 20
211.2371004034321
 30
0.0
 11
42.53436654623863
 21
211.2371004034321
 31
0.0
  0
LINE
  5
8309
  8
0
 10
42.53436654623863
 20
211.2371004034321
 30
0.0
 11
42.53436654623863
 21
210.9031155534321
 31
0.0
  0
LINE
  5
830A
  8
0
 10
44.5374415462386
 20
210.9031155534321
 30
0.0
 11
44.87142544623862
 21
210.9031155534321
 31
0.0
  0
LINE
  5
830B
  8
0
 10
44.87142544623862
 20
210.9031155534321
 30
0.0
 11
44.87142544623862
 21
211.2371004034321
 31
0.0
  0
LINE
  5
830C
  8
0
 10
44.87142544623862
 20
211.2371004034321
 30
0.0
 11
44.5374415462386
 21
211.2371004034321
 31
0.0
  0
LINE
  5
830D
  8
0
 10
44.5374415462386
 20
211.2371004034321
 30
0.0
 11
44.5374415462386
 21
210.9031155534321
 31
0.0
  0
LINE
  5
830E
  8
0
 10
46.8734915462386
 20
210.9031155534321
 30
0.0
 11
47.54108979623862
 21
210.9031155534321
 31
0.0
  0
LINE
  5
830F
  8
0
 10
47.54108979623862
 20
210.9031155534321
 30
0.0
 11
47.54108979623862
 21
211.2371004034321
 31
0.0
  0
LINE
  5
8310
  8
0
 10
47.54108979623862
 20
211.2371004034321
 30
0.0
 11
46.8734915462386
 21
211.2371004034321
 31
0.0
  0
LINE
  5
8311
  8
0
 10
46.8734915462386
 20
211.2371004034321
 30
0.0
 11
46.8734915462386
 21
210.9031155534321
 31
0.0
  0
LINE
  5
8312
  8
0
 10
47.87507654623863
 20
210.9031155534321
 30
0.0
 11
48.20906139623861
 21
210.9031155534321
 31
0.0
  0
LINE
  5
8313
  8
0
 10
48.20906139623861
 20
210.9031155534321
 30
0.0
 11
48.20906139623861
 21
211.2371004034321
 31
0.0
  0
LINE
  5
8314
  8
0
 10
48.20906139623861
 20
211.2371004034321
 30
0.0
 11
47.87507654623863
 21
211.2371004034321
 31
0.0
  0
LINE
  5
8315
  8
0
 10
47.87507654623863
 20
211.2371004034321
 30
0.0
 11
47.87507654623863
 21
210.9031155534321
 31
0.0
  0
LINE
  5
8316
  8
0
 10
48.54273654623864
 20
210.9031155534321
 30
0.0
 11
48.87672139623862
 21
210.9031155534321
 31
0.0
  0
LINE
  5
8317
  8
0
 10
48.87672139623862
 20
210.9031155534321
 30
0.0
 11
48.87672139623862
 21
211.2371004034321
 31
0.0
  0
LINE
  5
8318
  8
0
 10
48.87672139623862
 20
211.2371004034321
 30
0.0
 11
48.54273654623864
 21
211.2371004034321
 31
0.0
  0
LINE
  5
8319
  8
0
 10
48.54273654623864
 20
211.2371004034321
 30
0.0
 11
48.54273654623864
 21
210.9031155534321
 31
0.0
  0
LINE
  5
831A
  8
0
 10
49.2099215462386
 20
210.9031155534321
 30
0.0
 11
49.54427689623861
 21
210.9031155534321
 31
0.0
  0
LINE
  5
831B
  8
0
 10
49.54427689623861
 20
210.9031155534321
 30
0.0
 11
49.54427689623861
 21
211.2371004034321
 31
0.0
  0
LINE
  5
831C
  8
0
 10
49.54427689623861
 20
211.2371004034321
 30
0.0
 11
49.2099215462386
 21
211.2371004034321
 31
0.0
  0
LINE
  5
831D
  8
0
 10
49.2099215462386
 20
211.2371004034321
 30
0.0
 11
49.2099215462386
 21
210.9031155534321
 31
0.0
  0
LINE
  5
831E
  8
0
 10
51.54707544623864
 20
210.9030794534321
 30
0.0
 11
51.54707544623864
 21
212.5722655534321
 31
0.0
  0
LINE
  5
831F
  8
0
 10
53.21550154623861
 20
212.5722655534321
 30
0.0
 11
53.21550154623861
 21
210.9030794534321
 31
0.0
  0
LINE
  5
8320
  8
0
 10
42.53436654623863
 20
210.5690955534321
 30
0.0
 11
44.87114804623866
 21
210.5690955534321
 31
0.0
  0
LINE
  5
8321
  8
0
 10
44.87114804623866
 20
210.5690955534321
 30
0.0
 11
44.87114804623866
 21
210.9030794534321
 31
0.0
  0
LINE
  5
8322
  8
0
 10
44.87114804623866
 20
210.9030794534321
 30
0.0
 11
42.53436654623863
 21
210.9030794534321
 31
0.0
  0
LINE
  5
8323
  8
0
 10
42.53436654623863
 20
210.9030794534321
 30
0.0
 11
42.53436654623863
 21
210.5690955534321
 31
0.0
  0
LINE
  5
8324
  8
0
 10
45.20510154623861
 20
210.5690955534321
 30
0.0
 11
45.53908639623864
 21
210.5690955534321
 31
0.0
  0
LINE
  5
8325
  8
0
 10
45.53908639623864
 20
210.5690955534321
 30
0.0
 11
45.53908639623864
 21
210.9030794534321
 31
0.0
  0
LINE
  5
8326
  8
0
 10
45.53908639623864
 20
210.9030794534321
 30
0.0
 11
45.20510154623861
 21
210.9030794534321
 31
0.0
  0
LINE
  5
8327
  8
0
 10
45.20510154623861
 20
210.9030794534321
 30
0.0
 11
45.20510154623861
 21
210.5690955534321
 31
0.0
  0
LINE
  5
8328
  8
0
 10
45.87266654623863
 20
210.5690955534321
 30
0.0
 11
46.20665044623865
 21
210.5690955534321
 31
0.0
  0
LINE
  5
8329
  8
0
 10
46.20665044623865
 20
210.5690955534321
 30
0.0
 11
46.20665044623865
 21
210.9030794534321
 31
0.0
  0
LINE
  5
832A
  8
0
 10
46.20665044623865
 20
210.9030794534321
 30
0.0
 11
45.87266654623863
 21
210.9030794534321
 31
0.0
  0
LINE
  5
832B
  8
0
 10
45.87266654623863
 20
210.9030794534321
 30
0.0
 11
45.87266654623863
 21
210.5690955534321
 31
0.0
  0
LINE
  5
832C
  8
0
 10
46.54032654623865
 20
210.5690955534321
 30
0.0
 11
46.87431044623861
 21
210.5690955534321
 31
0.0
  0
LINE
  5
832D
  8
0
 10
46.87431044623861
 20
210.5690955534321
 30
0.0
 11
46.87431044623861
 21
210.9030794534321
 31
0.0
  0
LINE
  5
832E
  8
0
 10
46.87431044623861
 20
210.9030794534321
 30
0.0
 11
46.54032654623865
 21
210.9030794534321
 31
0.0
  0
LINE
  5
832F
  8
0
 10
46.54032654623865
 20
210.9030794534321
 30
0.0
 11
46.54032654623865
 21
210.5690955534321
 31
0.0
  0
LINE
  5
8330
  8
0
 10
47.20751154623861
 20
210.5690955534321
 30
0.0
 11
47.54149544623863
 21
210.5690955534321
 31
0.0
  0
LINE
  5
8331
  8
0
 10
47.54149544623863
 20
210.5690955534321
 30
0.0
 11
47.54149544623863
 21
210.9030794534321
 31
0.0
  0
LINE
  5
8332
  8
0
 10
47.54149544623863
 20
210.9030794534321
 30
0.0
 11
47.20751154623861
 21
210.9030794534321
 31
0.0
  0
LINE
  5
8333
  8
0
 10
47.20751154623861
 20
210.9030794534321
 30
0.0
 11
47.20751154623861
 21
210.5690955534321
 31
0.0
  0
LINE
  5
8334
  8
0
 10
47.87507654623863
 20
210.5690955534321
 30
0.0
 11
48.20906139623861
 21
210.5690955534321
 31
0.0
  0
LINE
  5
8335
  8
0
 10
48.20906139623861
 20
210.5690955534321
 30
0.0
 11
48.20906139623861
 21
210.9030794534321
 31
0.0
  0
LINE
  5
8336
  8
0
 10
48.20906139623861
 20
210.9030794534321
 30
0.0
 11
47.87507654623863
 21
210.9030794534321
 31
0.0
  0
LINE
  5
8337
  8
0
 10
47.87507654623863
 20
210.9030794534321
 30
0.0
 11
47.87507654623863
 21
210.5690955534321
 31
0.0
  0
LINE
  5
8338
  8
0
 10
48.54273654623864
 20
210.5690955534321
 30
0.0
 11
48.87672139623862
 21
210.5690955534321
 31
0.0
  0
LINE
  5
8339
  8
0
 10
48.87672139623862
 20
210.5690955534321
 30
0.0
 11
48.87672139623862
 21
210.9030794534321
 31
0.0
  0
LINE
  5
833A
  8
0
 10
48.87672139623862
 20
210.9030794534321
 30
0.0
 11
48.54273654623864
 21
210.9030794534321
 31
0.0
  0
LINE
  5
833B
  8
0
 10
48.54273654623864
 20
210.9030794534321
 30
0.0
 11
48.54273654623864
 21
210.5690955534321
 31
0.0
  0
LINE
  5
833C
  8
0
 10
49.2099215462386
 20
210.5690955534321
 30
0.0
 11
49.54427689623861
 21
210.5690955534321
 31
0.0
  0
LINE
  5
833D
  8
0
 10
49.54427689623861
 20
210.5690955534321
 30
0.0
 11
49.54427689623861
 21
210.9030794534321
 31
0.0
  0
LINE
  5
833E
  8
0
 10
49.54427689623861
 20
210.9030794534321
 30
0.0
 11
49.2099215462386
 21
210.9030794534321
 31
0.0
  0
LINE
  5
833F
  8
0
 10
49.2099215462386
 20
210.9030794534321
 30
0.0
 11
49.2099215462386
 21
210.5690955534321
 31
0.0
  0
LINE
  5
8340
  8
0
 10
49.87748654623863
 20
210.5690955534321
 30
0.0
 11
50.21147044623865
 21
210.5690955534321
 31
0.0
  0
LINE
  5
8341
  8
0
 10
50.21147044623865
 20
210.5690955534321
 30
0.0
 11
50.21147044623865
 21
210.9030794534321
 31
0.0
  0
LINE
  5
8342
  8
0
 10
50.21147044623865
 20
210.9030794534321
 30
0.0
 11
49.87748654623863
 21
210.9030794534321
 31
0.0
  0
LINE
  5
8343
  8
0
 10
49.87748654623863
 20
210.9030794534321
 30
0.0
 11
49.87748654623863
 21
210.5690955534321
 31
0.0
  0
LINE
  5
8344
  8
0
 10
50.5459065462386
 20
210.5690955534321
 30
0.0
 11
50.87989139623863
 21
210.5690955534321
 31
0.0
  0
LINE
  5
8345
  8
0
 10
50.87989139623863
 20
210.5690955534321
 30
0.0
 11
50.87989139623863
 21
210.9030794534321
 31
0.0
  0
LINE
  5
8346
  8
0
 10
50.87989139623863
 20
210.9030794534321
 30
0.0
 11
50.5459065462386
 21
210.9030794534321
 31
0.0
  0
LINE
  5
8347
  8
0
 10
50.5459065462386
 20
210.9030794534321
 30
0.0
 11
50.5459065462386
 21
210.5690955534321
 31
0.0
  0
LINE
  5
8348
  8
0
 10
51.21309154623862
 20
210.5690955534321
 30
0.0
 11
53.54987304623864
 21
210.5690955534321
 31
0.0
  0
LINE
  5
8349
  8
0
 10
53.21550154623861
 20
210.9030794534321
 30
0.0
 11
51.54707544623864
 21
210.9030794534321
 31
0.0
  0
LINE
  5
834A
  8
0
 10
45.20510154623861
 20
210.2359305534321
 30
0.0
 11
45.53908639623864
 21
210.2359305534321
 31
0.0
  0
LINE
  5
834B
  8
0
 10
45.53908639623864
 20
210.2359305534321
 30
0.0
 11
45.53908639623864
 21
210.5699144534321
 31
0.0
  0
LINE
  5
834C
  8
0
 10
45.53908639623864
 20
210.5699144534321
 30
0.0
 11
45.20510154623861
 21
210.5699144534321
 31
0.0
  0
LINE
  5
834D
  8
0
 10
45.20510154623861
 20
210.5699144534321
 30
0.0
 11
45.20510154623861
 21
210.2359305534321
 31
0.0
  0
LINE
  5
834E
  8
0
 10
46.54032654623865
 20
210.2359305534321
 30
0.0
 11
46.87431044623861
 21
210.2359305534321
 31
0.0
  0
LINE
  5
834F
  8
0
 10
46.87431044623861
 20
210.2359305534321
 30
0.0
 11
46.87431044623861
 21
210.5699144534321
 31
0.0
  0
LINE
  5
8350
  8
0
 10
46.87431044623861
 20
210.5699144534321
 30
0.0
 11
46.54032654623865
 21
210.5699144534321
 31
0.0
  0
LINE
  5
8351
  8
0
 10
46.54032654623865
 20
210.5699144534321
 30
0.0
 11
46.54032654623865
 21
210.2359305534321
 31
0.0
  0
LINE
  5
8352
  8
0
 10
47.20751154623861
 20
210.2359305534321
 30
0.0
 11
47.54149544623863
 21
210.2359305534321
 31
0.0
  0
LINE
  5
8353
  8
0
 10
47.54149544623863
 20
210.2359305534321
 30
0.0
 11
47.54149544623863
 21
210.5699144534321
 31
0.0
  0
LINE
  5
8354
  8
0
 10
47.54149544623863
 20
210.5699144534321
 30
0.0
 11
47.20751154623861
 21
210.5699144534321
 31
0.0
  0
LINE
  5
8355
  8
0
 10
47.20751154623861
 20
210.5699144534321
 30
0.0
 11
47.20751154623861
 21
210.2359305534321
 31
0.0
  0
LINE
  5
8356
  8
0
 10
49.87748654623863
 20
210.2359305534321
 30
0.0
 11
50.21147044623865
 21
210.2359305534321
 31
0.0
  0
LINE
  5
8357
  8
0
 10
50.21147044623865
 20
210.2359305534321
 30
0.0
 11
50.21147044623865
 21
210.5699144534321
 31
0.0
  0
LINE
  5
8358
  8
0
 10
50.21147044623865
 20
210.5699144534321
 30
0.0
 11
49.87748654623863
 21
210.5699144534321
 31
0.0
  0
LINE
  5
8359
  8
0
 10
49.87748654623863
 20
210.5699144534321
 30
0.0
 11
49.87748654623863
 21
210.2359305534321
 31
0.0
  0
LINE
  5
835A
  8
0
 10
50.5459065462386
 20
210.2359305534321
 30
0.0
 11
50.87989139623863
 21
210.2359305534321
 31
0.0
  0
LINE
  5
835B
  8
0
 10
50.87989139623863
 20
210.2359305534321
 30
0.0
 11
50.87989139623863
 21
210.5699144534321
 31
0.0
  0
LINE
  5
835C
  8
0
 10
50.87989139623863
 20
210.5699144534321
 30
0.0
 11
50.5459065462386
 21
210.5699144534321
 31
0.0
  0
LINE
  5
835D
  8
0
 10
50.5459065462386
 20
210.5699144534321
 30
0.0
 11
50.5459065462386
 21
210.2359305534321
 31
0.0
  0
LINE
  5
835E
  8
0
 10
42.53436654623863
 20
209.9015305534321
 30
0.0
 11
42.86872189623864
 21
209.9015305534321
 31
0.0
  0
LINE
  5
835F
  8
0
 10
42.86872189623864
 20
209.9015305534321
 30
0.0
 11
42.86872189623864
 21
210.2358859034321
 31
0.0
  0
LINE
  5
8360
  8
0
 10
42.86872189623864
 20
210.2358859034321
 30
0.0
 11
42.53436654623863
 21
210.2358859034321
 31
0.0
  0
LINE
  5
8361
  8
0
 10
42.53436654623863
 20
210.2358859034321
 30
0.0
 11
42.53436654623863
 21
209.9015305534321
 31
0.0
  0
LINE
  5
8362
  8
0
 10
44.5374415462386
 20
209.9015305534321
 30
0.0
 11
44.87142544623862
 21
209.9015305534321
 31
0.0
  0
LINE
  5
8363
  8
0
 10
44.87142544623862
 20
209.9015305534321
 30
0.0
 11
44.87142544623862
 21
210.2358859034321
 31
0.0
  0
LINE
  5
8364
  8
0
 10
44.87142544623862
 20
210.2358859034321
 30
0.0
 11
44.5374415462386
 21
210.2358859034321
 31
0.0
  0
LINE
  5
8365
  8
0
 10
44.5374415462386
 20
210.2358859034321
 30
0.0
 11
44.5374415462386
 21
209.9015305534321
 31
0.0
  0
LINE
  5
8366
  8
0
 10
45.20510154623861
 20
209.9015305534321
 30
0.0
 11
46.20668654623864
 21
209.9015305534321
 31
0.0
  0
LINE
  5
8367
  8
0
 10
46.20668654623864
 20
209.9015305534321
 30
0.0
 11
46.20668654623864
 21
210.2358859034321
 31
0.0
  0
LINE
  5
8368
  8
0
 10
46.20668654623864
 20
210.2358859034321
 30
0.0
 11
45.20510154623861
 21
210.2358859034321
 31
0.0
  0
LINE
  5
8369
  8
0
 10
45.20510154623861
 20
210.2358859034321
 30
0.0
 11
45.20510154623861
 21
209.9015305534321
 31
0.0
  0
LINE
  5
836A
  8
0
 10
46.8734915462386
 20
209.9015305534321
 30
0.0
 11
48.54267004623864
 21
209.9015305534321
 31
0.0
  0
LINE
  5
836B
  8
0
 10
48.54267004623864
 20
209.9015305534321
 30
0.0
 11
48.54267004623864
 21
210.2358859034321
 31
0.0
  0
LINE
  5
836C
  8
0
 10
48.54267004623864
 20
210.2358859034321
 30
0.0
 11
46.8734915462386
 21
210.2358859034321
 31
0.0
  0
LINE
  5
836D
  8
0
 10
46.8734915462386
 20
210.2358859034321
 30
0.0
 11
46.8734915462386
 21
209.9015305534321
 31
0.0
  0
LINE
  5
836E
  8
0
 10
49.87748654623863
 20
209.9015305534321
 30
0.0
 11
50.21147044623865
 21
209.9015305534321
 31
0.0
  0
LINE
  5
836F
  8
0
 10
50.21147044623865
 20
209.9015305534321
 30
0.0
 11
50.21147044623865
 21
210.2358859034321
 31
0.0
  0
LINE
  5
8370
  8
0
 10
50.21147044623865
 20
210.2358859034321
 30
0.0
 11
49.87748654623863
 21
210.2358859034321
 31
0.0
  0
LINE
  5
8371
  8
0
 10
49.87748654623863
 20
210.2358859034321
 30
0.0
 11
49.87748654623863
 21
209.9015305534321
 31
0.0
  0
LINE
  5
8372
  8
0
 10
50.5459065462386
 20
209.9015305534321
 30
0.0
 11
51.5471210462386
 21
209.9015305534321
 31
0.0
  0
LINE
  5
8373
  8
0
 10
51.5471210462386
 20
209.9015305534321
 30
0.0
 11
51.5471210462386
 21
210.2358859034321
 31
0.0
  0
LINE
  5
8374
  8
0
 10
51.5471210462386
 20
210.2358859034321
 30
0.0
 11
50.5459065462386
 21
210.2358859034321
 31
0.0
  0
LINE
  5
8375
  8
0
 10
50.5459065462386
 20
210.2358859034321
 30
0.0
 11
50.5459065462386
 21
209.9015305534321
 31
0.0
  0
LINE
  5
8376
  8
0
 10
52.21391654623864
 20
209.9015305534321
 30
0.0
 11
53.21550154623861
 21
209.9015305534321
 31
0.0
  0
LINE
  5
8377
  8
0
 10
53.21550154623861
 20
209.9015305534321
 30
0.0
 11
53.21550154623861
 21
210.2358859034321
 31
0.0
  0
LINE
  5
8378
  8
0
 10
53.21550154623861
 20
210.2358859034321
 30
0.0
 11
52.21391654623864
 21
210.2358859034321
 31
0.0
  0
LINE
  5
8379
  8
0
 10
52.21391654623864
 20
210.2358859034321
 30
0.0
 11
52.21391654623864
 21
209.9015305534321
 31
0.0
  0
LINE
  5
837A
  8
0
 10
42.53436654623863
 20
209.5682705534321
 30
0.0
 11
42.86872189623864
 21
209.5682705534321
 31
0.0
  0
LINE
  5
837B
  8
0
 10
42.86872189623864
 20
209.5682705534321
 30
0.0
 11
42.86872189623864
 21
209.9022554034321
 31
0.0
  0
LINE
  5
837C
  8
0
 10
42.86872189623864
 20
209.9022554034321
 30
0.0
 11
42.53436654623863
 21
209.9022554034321
 31
0.0
  0
LINE
  5
837D
  8
0
 10
42.53436654623863
 20
209.9022554034321
 30
0.0
 11
42.53436654623863
 21
209.5682705534321
 31
0.0
  0
LINE
  5
837E
  8
0
 10
44.20351654623863
 20
209.5682705534321
 30
0.0
 11
44.53750139623861
 21
209.5682705534321
 31
0.0
  0
LINE
  5
837F
  8
0
 10
44.53750139623861
 20
209.5682705534321
 30
0.0
 11
44.53750139623861
 21
209.9022554034321
 31
0.0
  0
LINE
  5
8380
  8
0
 10
44.53750139623861
 20
209.9022554034321
 30
0.0
 11
44.20351654623863
 21
209.9022554034321
 31
0.0
  0
LINE
  5
8381
  8
0
 10
44.20351654623863
 20
209.9022554034321
 30
0.0
 11
44.20351654623863
 21
209.5682705534321
 31
0.0
  0
LINE
  5
8382
  8
0
 10
45.20510154623861
 20
209.5682705534321
 30
0.0
 11
45.53908639623864
 21
209.5682705534321
 31
0.0
  0
LINE
  5
8383
  8
0
 10
45.53908639623864
 20
209.5682705534321
 30
0.0
 11
45.53908639623864
 21
209.9022554034321
 31
0.0
  0
LINE
  5
8384
  8
0
 10
45.53908639623864
 20
209.9022554034321
 30
0.0
 11
45.20510154623861
 21
209.9022554034321
 31
0.0
  0
LINE
  5
8385
  8
0
 10
45.20510154623861
 20
209.9022554034321
 30
0.0
 11
45.20510154623861
 21
209.5682705534321
 31
0.0
  0
LINE
  5
8386
  8
0
 10
45.87266654623863
 20
209.5682705534321
 30
0.0
 11
46.87388104623864
 21
209.5682705534321
 31
0.0
  0
LINE
  5
8387
  8
0
 10
46.87388104623864
 20
209.5682705534321
 30
0.0
 11
46.87388104623864
 21
209.9022554034321
 31
0.0
  0
LINE
  5
8388
  8
0
 10
46.87388104623864
 20
209.9022554034321
 30
0.0
 11
45.87266654623863
 21
209.9022554034321
 31
0.0
  0
LINE
  5
8389
  8
0
 10
45.87266654623863
 20
209.9022554034321
 30
0.0
 11
45.87266654623863
 21
209.5682705534321
 31
0.0
  0
LINE
  5
838A
  8
0
 10
47.54153154623862
 20
209.5682705534321
 30
0.0
 11
47.87588689623863
 21
209.5682705534321
 31
0.0
  0
LINE
  5
838B
  8
0
 10
47.87588689623863
 20
209.5682705534321
 30
0.0
 11
47.87588689623863
 21
209.9022554034321
 31
0.0
  0
LINE
  5
838C
  8
0
 10
47.87588689623863
 20
209.9022554034321
 30
0.0
 11
47.54153154623862
 21
209.9022554034321
 31
0.0
  0
LINE
  5
838D
  8
0
 10
47.54153154623862
 20
209.9022554034321
 30
0.0
 11
47.54153154623862
 21
209.5682705534321
 31
0.0
  0
LINE
  5
838E
  8
0
 10
48.54273654623864
 20
209.5682705534321
 30
0.0
 11
49.20996334623862
 21
209.5682705534321
 31
0.0
  0
LINE
  5
838F
  8
0
 10
49.20996334623862
 20
209.5682705534321
 30
0.0
 11
49.20996334623862
 21
209.9022554034321
 31
0.0
  0
LINE
  5
8390
  8
0
 10
49.20996334623862
 20
209.9022554034321
 30
0.0
 11
48.54273654623864
 21
209.9022554034321
 31
0.0
  0
LINE
  5
8391
  8
0
 10
48.54273654623864
 20
209.9022554034321
 30
0.0
 11
48.54273654623864
 21
209.5682705534321
 31
0.0
  0
LINE
  5
8392
  8
0
 10
49.54432154623862
 20
209.5682705534321
 30
0.0
 11
50.5459065462386
 21
209.5682705534321
 31
0.0
  0
LINE
  5
8393
  8
0
 10
50.5459065462386
 20
209.5682705534321
 30
0.0
 11
50.5459065462386
 21
209.9022554034321
 31
0.0
  0
LINE
  5
8394
  8
0
 10
50.5459065462386
 20
209.9022554034321
 30
0.0
 11
49.54432154623862
 21
209.9022554034321
 31
0.0
  0
LINE
  5
8395
  8
0
 10
49.54432154623862
 20
209.9022554034321
 30
0.0
 11
49.54432154623862
 21
209.5682705534321
 31
0.0
  0
LINE
  5
8396
  8
0
 10
51.88065654623864
 20
209.5682705534321
 30
0.0
 11
52.88224154623862
 21
209.5682705534321
 31
0.0
  0
LINE
  5
8397
  8
0
 10
52.88224154623862
 20
209.5682705534321
 30
0.0
 11
52.88224154623862
 21
209.9022554034321
 31
0.0
  0
LINE
  5
8398
  8
0
 10
52.88224154623862
 20
209.9022554034321
 30
0.0
 11
51.88065654623864
 21
209.9022554034321
 31
0.0
  0
LINE
  5
8399
  8
0
 10
51.88065654623864
 20
209.9022554034321
 30
0.0
 11
51.88065654623864
 21
209.5682705534321
 31
0.0
  0
LINE
  5
839A
  8
0
 10
43.2019315462386
 20
209.2343455534321
 30
0.0
 11
43.53628784623862
 21
209.2343455534321
 31
0.0
  0
LINE
  5
839B
  8
0
 10
43.53628784623862
 20
209.2343455534321
 30
0.0
 11
43.53628784623862
 21
209.5683294534321
 31
0.0
  0
LINE
  5
839C
  8
0
 10
43.53628784623862
 20
209.5683294534321
 30
0.0
 11
43.2019315462386
 21
209.5683294534321
 31
0.0
  0
LINE
  5
839D
  8
0
 10
43.2019315462386
 20
209.5683294534321
 30
0.0
 11
43.2019315462386
 21
209.2343455534321
 31
0.0
  0
LINE
  5
839E
  8
0
 10
43.86949654623862
 20
209.2343455534321
 30
0.0
 11
45.20469304623862
 21
209.2343455534321
 31
0.0
  0
LINE
  5
839F
  8
0
 10
45.20469304623862
 20
209.2343455534321
 30
0.0
 11
45.20469304623862
 21
209.5683294534321
 31
0.0
  0
LINE
  5
83A0
  8
0
 10
45.20469304623862
 20
209.5683294534321
 30
0.0
 11
43.86949654623862
 21
209.5683294534321
 31
0.0
  0
LINE
  5
83A1
  8
0
 10
43.86949654623862
 20
209.5683294534321
 30
0.0
 11
43.86949654623862
 21
209.2343455534321
 31
0.0
  0
LINE
  5
83A2
  8
0
 10
45.53874154623861
 20
209.2343455534321
 30
0.0
 11
46.20596834623865
 21
209.2343455534321
 31
0.0
  0
LINE
  5
83A3
  8
0
 10
46.20596834623865
 20
209.2343455534321
 30
0.0
 11
46.20596834623865
 21
209.5683294534321
 31
0.0
  0
LINE
  5
83A4
  8
0
 10
46.20596834623865
 20
209.5683294534321
 30
0.0
 11
45.53874154623861
 21
209.5683294534321
 31
0.0
  0
LINE
  5
83A5
  8
0
 10
45.53874154623861
 20
209.5683294534321
 30
0.0
 11
45.53874154623861
 21
209.2343455534321
 31
0.0
  0
LINE
  5
83A6
  8
0
 10
46.54032654623865
 20
209.2343455534321
 30
0.0
 11
46.87431044623861
 21
209.2343455534321
 31
0.0
  0
LINE
  5
83A7
  8
0
 10
46.87431044623861
 20
209.2343455534321
 30
0.0
 11
46.87431044623861
 21
209.5683294534321
 31
0.0
  0
LINE
  5
83A8
  8
0
 10
46.87431044623861
 20
209.5683294534321
 30
0.0
 11
46.54032654623865
 21
209.5683294534321
 31
0.0
  0
LINE
  5
83A9
  8
0
 10
46.54032654623865
 20
209.5683294534321
 30
0.0
 11
46.54032654623865
 21
209.2343455534321
 31
0.0
  0
LINE
  5
83AA
  8
0
 10
47.54153154623862
 20
209.2343455534321
 30
0.0
 11
47.87588689623863
 21
209.2343455534321
 31
0.0
  0
LINE
  5
83AB
  8
0
 10
47.87588689623863
 20
209.2343455534321
 30
0.0
 11
47.87588689623863
 21
209.5683294534321
 31
0.0
  0
LINE
  5
83AC
  8
0
 10
47.87588689623863
 20
209.5683294534321
 30
0.0
 11
47.54153154623862
 21
209.5683294534321
 31
0.0
  0
LINE
  5
83AD
  8
0
 10
47.54153154623862
 20
209.5683294534321
 30
0.0
 11
47.54153154623862
 21
209.2343455534321
 31
0.0
  0
LINE
  5
83AE
  8
0
 10
48.54273654623864
 20
209.2343455534321
 30
0.0
 11
48.87672139623862
 21
209.2343455534321
 31
0.0
  0
LINE
  5
83AF
  8
0
 10
48.87672139623862
 20
209.2343455534321
 30
0.0
 11
48.87672139623862
 21
209.5683294534321
 31
0.0
  0
LINE
  5
83B0
  8
0
 10
48.87672139623862
 20
209.5683294534321
 30
0.0
 11
48.54273654623864
 21
209.5683294534321
 31
0.0
  0
LINE
  5
83B1
  8
0
 10
48.54273654623864
 20
209.5683294534321
 30
0.0
 11
48.54273654623864
 21
209.2343455534321
 31
0.0
  0
LINE
  5
83B2
  8
0
 10
49.2099215462386
 20
209.2343455534321
 30
0.0
 11
49.54427689623861
 21
209.2343455534321
 31
0.0
  0
LINE
  5
83B3
  8
0
 10
49.54427689623861
 20
209.2343455534321
 30
0.0
 11
49.54427689623861
 21
209.5683294534321
 31
0.0
  0
LINE
  5
83B4
  8
0
 10
49.54427689623861
 20
209.5683294534321
 30
0.0
 11
49.2099215462386
 21
209.5683294534321
 31
0.0
  0
LINE
  5
83B5
  8
0
 10
49.2099215462386
 20
209.5683294534321
 30
0.0
 11
49.2099215462386
 21
209.2343455534321
 31
0.0
  0
LINE
  5
83B6
  8
0
 10
49.87748654623863
 20
209.2343455534321
 30
0.0
 11
50.21147044623865
 21
209.2343455534321
 31
0.0
  0
LINE
  5
83B7
  8
0
 10
50.21147044623865
 20
209.2343455534321
 30
0.0
 11
50.21147044623865
 21
209.5683294534321
 31
0.0
  0
LINE
  5
83B8
  8
0
 10
50.21147044623865
 20
209.5683294534321
 30
0.0
 11
49.87748654623863
 21
209.5683294534321
 31
0.0
  0
LINE
  5
83B9
  8
0
 10
49.87748654623863
 20
209.5683294534321
 30
0.0
 11
49.87748654623863
 21
209.2343455534321
 31
0.0
  0
LINE
  5
83BA
  8
0
 10
50.5459065462386
 20
209.2343455534321
 30
0.0
 11
51.5471210462386
 21
209.2343455534321
 31
0.0
  0
LINE
  5
83BB
  8
0
 10
51.5471210462386
 20
209.2343455534321
 30
0.0
 11
51.5471210462386
 21
209.5683294534321
 31
0.0
  0
LINE
  5
83BC
  8
0
 10
51.5471210462386
 20
209.5683294534321
 30
0.0
 11
50.5459065462386
 21
209.5683294534321
 31
0.0
  0
LINE
  5
83BD
  8
0
 10
50.5459065462386
 20
209.5683294534321
 30
0.0
 11
50.5459065462386
 21
209.2343455534321
 31
0.0
  0
LINE
  5
83BE
  8
0
 10
51.88065654623864
 20
209.2343455534321
 30
0.0
 11
52.21464139623862
 21
209.2343455534321
 31
0.0
  0
LINE
  5
83BF
  8
0
 10
52.21464139623862
 20
209.2343455534321
 30
0.0
 11
52.21464139623862
 21
209.5683294534321
 31
0.0
  0
LINE
  5
83C0
  8
0
 10
52.21464139623862
 20
209.5683294534321
 30
0.0
 11
51.88065654623864
 21
209.5683294534321
 31
0.0
  0
LINE
  5
83C1
  8
0
 10
51.88065654623864
 20
209.5683294534321
 30
0.0
 11
51.88065654623864
 21
209.2343455534321
 31
0.0
  0
LINE
  5
83C2
  8
0
 10
52.5483165462386
 20
209.2343455534321
 30
0.0
 11
53.21554239623862
 21
209.2343455534321
 31
0.0
  0
LINE
  5
83C3
  8
0
 10
53.21554239623862
 20
209.2343455534321
 30
0.0
 11
53.21554239623862
 21
209.5683294534321
 31
0.0
  0
LINE
  5
83C4
  8
0
 10
53.21554239623862
 20
209.5683294534321
 30
0.0
 11
52.5483165462386
 21
209.5683294534321
 31
0.0
  0
LINE
  5
83C5
  8
0
 10
52.5483165462386
 20
209.5683294534321
 30
0.0
 11
52.5483165462386
 21
209.2343455534321
 31
0.0
  0
LINE
  5
83C6
  8
0
 10
42.53436654623863
 20
208.8999455534321
 30
0.0
 11
43.20196384623858
 21
208.8999455534321
 31
0.0
  0
LINE
  5
83C7
  8
0
 10
43.20196384623858
 20
208.8999455534321
 30
0.0
 11
43.20196384623858
 21
209.2343009034321
 31
0.0
  0
LINE
  5
83C8
  8
0
 10
43.20196384623858
 20
209.2343009034321
 30
0.0
 11
42.53436654623863
 21
209.2343009034321
 31
0.0
  0
LINE
  5
83C9
  8
0
 10
42.53436654623863
 20
209.2343009034321
 30
0.0
 11
42.53436654623863
 21
208.8999455534321
 31
0.0
  0
LINE
  5
83CA
  8
0
 10
43.53585654623862
 20
208.8999455534321
 30
0.0
 11
44.20345384623863
 21
208.8999455534321
 31
0.0
  0
LINE
  5
83CB
  8
0
 10
44.20345384623863
 20
208.8999455534321
 30
0.0
 11
44.20345384623863
 21
209.2343009034321
 31
0.0
  0
LINE
  5
83CC
  8
0
 10
44.20345384623863
 20
209.2343009034321
 30
0.0
 11
43.53585654623862
 21
209.2343009034321
 31
0.0
  0
LINE
  5
83CD
  8
0
 10
43.53585654623862
 20
209.2343009034321
 30
0.0
 11
43.53585654623862
 21
208.8999455534321
 31
0.0
  0
LINE
  5
83CE
  8
0
 10
44.8710815462386
 20
208.8999455534321
 30
0.0
 11
45.20506544623862
 21
208.8999455534321
 31
0.0
  0
LINE
  5
83CF
  8
0
 10
45.20506544623862
 20
208.8999455534321
 30
0.0
 11
45.20506544623862
 21
209.2343009034321
 31
0.0
  0
LINE
  5
83D0
  8
0
 10
45.20506544623862
 20
209.2343009034321
 30
0.0
 11
44.8710815462386
 21
209.2343009034321
 31
0.0
  0
LINE
  5
83D1
  8
0
 10
44.8710815462386
 20
209.2343009034321
 30
0.0
 11
44.8710815462386
 21
208.8999455534321
 31
0.0
  0
LINE
  5
83D2
  8
0
 10
45.87266654623863
 20
208.8999455534321
 30
0.0
 11
46.5398923962386
 21
208.8999455534321
 31
0.0
  0
LINE
  5
83D3
  8
0
 10
46.5398923962386
 20
208.8999455534321
 30
0.0
 11
46.5398923962386
 21
209.2343009034321
 31
0.0
  0
LINE
  5
83D4
  8
0
 10
46.5398923962386
 20
209.2343009034321
 30
0.0
 11
45.87266654623863
 21
209.2343009034321
 31
0.0
  0
LINE
  5
83D5
  8
0
 10
45.87266654623863
 20
209.2343009034321
 30
0.0
 11
45.87266654623863
 21
208.8999455534321
 31
0.0
  0
LINE
  5
83D6
  8
0
 10
47.20751154623861
 20
208.8999455534321
 30
0.0
 11
47.87510884623862
 21
208.8999455534321
 31
0.0
  0
LINE
  5
83D7
  8
0
 10
47.87510884623862
 20
208.8999455534321
 30
0.0
 11
47.87510884623862
 21
209.2343009034321
 31
0.0
  0
LINE
  5
83D8
  8
0
 10
47.87510884623862
 20
209.2343009034321
 30
0.0
 11
47.20751154623861
 21
209.2343009034321
 31
0.0
  0
LINE
  5
83D9
  8
0
 10
47.20751154623861
 20
209.2343009034321
 30
0.0
 11
47.20751154623861
 21
208.8999455534321
 31
0.0
  0
LINE
  5
83DA
  8
0
 10
48.87666154623861
 20
208.8999455534321
 30
0.0
 11
49.54425884623862
 21
208.8999455534321
 31
0.0
  0
LINE
  5
83DB
  8
0
 10
49.54425884623862
 20
208.8999455534321
 30
0.0
 11
49.54425884623862
 21
209.2343009034321
 31
0.0
  0
LINE
  5
83DC
  8
0
 10
49.54425884623862
 20
209.2343009034321
 30
0.0
 11
48.87666154623861
 21
209.2343009034321
 31
0.0
  0
LINE
  5
83DD
  8
0
 10
48.87666154623861
 20
209.2343009034321
 30
0.0
 11
48.87666154623861
 21
208.8999455534321
 31
0.0
  0
LINE
  5
83DE
  8
0
 10
49.87748654623863
 20
208.8999455534321
 30
0.0
 11
50.54508384623864
 21
208.8999455534321
 31
0.0
  0
LINE
  5
83DF
  8
0
 10
50.54508384623864
 20
208.8999455534321
 30
0.0
 11
50.54508384623864
 21
209.2343009034321
 31
0.0
  0
LINE
  5
83E0
  8
0
 10
50.54508384623864
 20
209.2343009034321
 30
0.0
 11
49.87748654623863
 21
209.2343009034321
 31
0.0
  0
LINE
  5
83E1
  8
0
 10
49.87748654623863
 20
209.2343009034321
 30
0.0
 11
49.87748654623863
 21
208.8999455534321
 31
0.0
  0
LINE
  5
83E2
  8
0
 10
50.87907154623861
 20
208.8999455534321
 30
0.0
 11
51.21305639623864
 21
208.8999455534321
 31
0.0
  0
LINE
  5
83E3
  8
0
 10
51.21305639623864
 20
208.8999455534321
 30
0.0
 11
51.21305639623864
 21
209.2343009034321
 31
0.0
  0
LINE
  5
83E4
  8
0
 10
51.21305639623864
 20
209.2343009034321
 30
0.0
 11
50.87907154623861
 21
209.2343009034321
 31
0.0
  0
LINE
  5
83E5
  8
0
 10
50.87907154623861
 20
209.2343009034321
 30
0.0
 11
50.87907154623861
 21
208.8999455534321
 31
0.0
  0
LINE
  5
83E6
  8
0
 10
51.54673154623862
 20
208.8999455534321
 30
0.0
 11
53.54915104623865
 21
208.8999455534321
 31
0.0
  0
LINE
  5
83E7
  8
0
 10
53.54915104623865
 20
208.8999455534321
 30
0.0
 11
53.54915104623865
 21
209.2343009034321
 31
0.0
  0
LINE
  5
83E8
  8
0
 10
53.54915104623865
 20
209.2343009034321
 30
0.0
 11
51.54673154623862
 21
209.2343009034321
 31
0.0
  0
LINE
  5
83E9
  8
0
 10
51.54673154623862
 20
209.2343009034321
 30
0.0
 11
51.54673154623862
 21
208.8999455534321
 31
0.0
  0
LINE
  5
83EA
  8
0
 10
42.8686715462386
 20
208.5666855534321
 30
0.0
 11
43.20265639623864
 21
208.5666855534321
 31
0.0
  0
LINE
  5
83EB
  8
0
 10
43.20265639623864
 20
208.5666855534321
 30
0.0
 11
43.20265639623864
 21
208.9006704034321
 31
0.0
  0
LINE
  5
83EC
  8
0
 10
43.20265639623864
 20
208.9006704034321
 30
0.0
 11
42.8686715462386
 21
208.9006704034321
 31
0.0
  0
LINE
  5
83ED
  8
0
 10
42.8686715462386
 20
208.9006704034321
 30
0.0
 11
42.8686715462386
 21
208.5666855534321
 31
0.0
  0
LINE
  5
83EE
  8
0
 10
43.53585654623862
 20
208.5666855534321
 30
0.0
 11
43.86984044623864
 21
208.5666855534321
 31
0.0
  0
LINE
  5
83EF
  8
0
 10
43.86984044623864
 20
208.5666855534321
 30
0.0
 11
43.86984044623864
 21
208.9006704034321
 31
0.0
  0
LINE
  5
83F0
  8
0
 10
43.86984044623864
 20
208.9006704034321
 30
0.0
 11
43.53585654623862
 21
208.9006704034321
 31
0.0
  0
LINE
  5
83F1
  8
0
 10
43.53585654623862
 20
208.9006704034321
 30
0.0
 11
43.53585654623862
 21
208.5666855534321
 31
0.0
  0
LINE
  5
83F2
  8
0
 10
44.5374415462386
 20
208.5666855534321
 30
0.0
 11
45.53902654623863
 21
208.5666855534321
 31
0.0
  0
LINE
  5
83F3
  8
0
 10
45.53902654623863
 20
208.5666855534321
 30
0.0
 11
45.53902654623863
 21
208.9006704034321
 31
0.0
  0
LINE
  5
83F4
  8
0
 10
45.53902654623863
 20
208.9006704034321
 30
0.0
 11
44.5374415462386
 21
208.9006704034321
 31
0.0
  0
LINE
  5
83F5
  8
0
 10
44.5374415462386
 20
208.9006704034321
 30
0.0
 11
44.5374415462386
 21
208.5666855534321
 31
0.0
  0
LINE
  5
83F6
  8
0
 10
46.8734915462386
 20
208.5666855534321
 30
0.0
 11
47.54108979623862
 21
208.5666855534321
 31
0.0
  0
LINE
  5
83F7
  8
0
 10
47.54108979623862
 20
208.5666855534321
 30
0.0
 11
47.54108979623862
 21
208.9006704034321
 31
0.0
  0
LINE
  5
83F8
  8
0
 10
47.54108979623862
 20
208.9006704034321
 30
0.0
 11
46.8734915462386
 21
208.9006704034321
 31
0.0
  0
LINE
  5
83F9
  8
0
 10
46.8734915462386
 20
208.9006704034321
 30
0.0
 11
46.8734915462386
 21
208.5666855534321
 31
0.0
  0
LINE
  5
83FA
  8
0
 10
47.87507654623863
 20
208.5666855534321
 30
0.0
 11
48.87666154623861
 21
208.5666855534321
 31
0.0
  0
LINE
  5
83FB
  8
0
 10
48.87666154623861
 20
208.5666855534321
 30
0.0
 11
48.87666154623861
 21
208.9006704034321
 31
0.0
  0
LINE
  5
83FC
  8
0
 10
48.87666154623861
 20
208.9006704034321
 30
0.0
 11
47.87507654623863
 21
208.9006704034321
 31
0.0
  0
LINE
  5
83FD
  8
0
 10
47.87507654623863
 20
208.9006704034321
 30
0.0
 11
47.87507654623863
 21
208.5666855534321
 31
0.0
  0
LINE
  5
83FE
  8
0
 10
49.2099215462386
 20
208.5666855534321
 30
0.0
 11
50.21150654623864
 21
208.5666855534321
 31
0.0
  0
LINE
  5
83FF
  8
0
 10
50.21150654623864
 20
208.5666855534321
 30
0.0
 11
50.21150654623864
 21
208.9006704034321
 31
0.0
  0
LINE
  5
8400
  8
0
 10
50.21150654623864
 20
208.9006704034321
 30
0.0
 11
49.2099215462386
 21
208.9006704034321
 31
0.0
  0
LINE
  5
8401
  8
0
 10
49.2099215462386
 20
208.9006704034321
 30
0.0
 11
49.2099215462386
 21
208.5666855534321
 31
0.0
  0
LINE
  5
8402
  8
0
 10
50.5459065462386
 20
208.5666855534321
 30
0.0
 11
50.87989139623863
 21
208.5666855534321
 31
0.0
  0
LINE
  5
8403
  8
0
 10
50.87989139623863
 20
208.5666855534321
 30
0.0
 11
50.87989139623863
 21
208.9006704034321
 31
0.0
  0
LINE
  5
8404
  8
0
 10
50.87989139623863
 20
208.9006704034321
 30
0.0
 11
50.5459065462386
 21
208.9006704034321
 31
0.0
  0
LINE
  5
8405
  8
0
 10
50.5459065462386
 20
208.9006704034321
 30
0.0
 11
50.5459065462386
 21
208.5666855534321
 31
0.0
  0
LINE
  5
8406
  8
0
 10
51.21309154623862
 20
208.5666855534321
 30
0.0
 11
51.88068884623863
 21
208.5666855534321
 31
0.0
  0
LINE
  5
8407
  8
0
 10
51.88068884623863
 20
208.5666855534321
 30
0.0
 11
51.88068884623863
 21
208.9006704034321
 31
0.0
  0
LINE
  5
8408
  8
0
 10
51.88068884623863
 20
208.9006704034321
 30
0.0
 11
51.21309154623862
 21
208.9006704034321
 31
0.0
  0
LINE
  5
8409
  8
0
 10
51.21309154623862
 20
208.9006704034321
 30
0.0
 11
51.21309154623862
 21
208.5666855534321
 31
0.0
  0
LINE
  5
840A
  8
0
 10
42.53436654623863
 20
208.2327605534321
 30
0.0
 11
43.20196384623858
 21
208.2327605534321
 31
0.0
  0
LINE
  5
840B
  8
0
 10
43.20196384623858
 20
208.2327605534321
 30
0.0
 11
43.20196384623858
 21
208.5667444534321
 31
0.0
  0
LINE
  5
840C
  8
0
 10
43.20196384623858
 20
208.5667444534321
 30
0.0
 11
42.53436654623863
 21
208.5667444534321
 31
0.0
  0
LINE
  5
840D
  8
0
 10
42.53436654623863
 20
208.5667444534321
 30
0.0
 11
42.53436654623863
 21
208.2327605534321
 31
0.0
  0
LINE
  5
840E
  8
0
 10
43.53585654623862
 20
208.2327605534321
 30
0.0
 11
44.20345384623863
 21
208.2327605534321
 31
0.0
  0
LINE
  5
840F
  8
0
 10
44.20345384623863
 20
208.2327605534321
 30
0.0
 11
44.20345384623863
 21
208.5667444534321
 31
0.0
  0
LINE
  5
8410
  8
0
 10
44.20345384623863
 20
208.5667444534321
 30
0.0
 11
43.53585654623862
 21
208.5667444534321
 31
0.0
  0
LINE
  5
8411
  8
0
 10
43.53585654623862
 20
208.5667444534321
 30
0.0
 11
43.53585654623862
 21
208.2327605534321
 31
0.0
  0
LINE
  5
8412
  8
0
 10
44.8710815462386
 20
208.2327605534321
 30
0.0
 11
45.53867884623861
 21
208.2327605534321
 31
0.0
  0
LINE
  5
8413
  8
0
 10
45.53867884623861
 20
208.2327605534321
 30
0.0
 11
45.53867884623861
 21
208.5667444534321
 31
0.0
  0
LINE
  5
8414
  8
0
 10
45.53867884623861
 20
208.5667444534321
 30
0.0
 11
44.8710815462386
 21
208.5667444534321
 31
0.0
  0
LINE
  5
8415
  8
0
 10
44.8710815462386
 20
208.5667444534321
 30
0.0
 11
44.8710815462386
 21
208.2327605534321
 31
0.0
  0
LINE
  5
8416
  8
0
 10
46.20592654623863
 20
208.2327605534321
 30
0.0
 11
46.87352384623864
 21
208.2327605534321
 31
0.0
  0
LINE
  5
8417
  8
0
 10
46.87352384623864
 20
208.2327605534321
 30
0.0
 11
46.87352384623864
 21
208.5667444534321
 31
0.0
  0
LINE
  5
8418
  8
0
 10
46.87352384623864
 20
208.5667444534321
 30
0.0
 11
46.20592654623863
 21
208.5667444534321
 31
0.0
  0
LINE
  5
8419
  8
0
 10
46.20592654623863
 20
208.5667444534321
 30
0.0
 11
46.20592654623863
 21
208.2327605534321
 31
0.0
  0
LINE
  5
841A
  8
0
 10
47.20751154623861
 20
208.2327605534321
 30
0.0
 11
47.54149544623863
 21
208.2327605534321
 31
0.0
  0
LINE
  5
841B
  8
0
 10
47.54149544623863
 20
208.2327605534321
 30
0.0
 11
47.54149544623863
 21
208.5667444534321
 31
0.0
  0
LINE
  5
841C
  8
0
 10
47.54149544623863
 20
208.5667444534321
 30
0.0
 11
47.20751154623861
 21
208.5667444534321
 31
0.0
  0
LINE
  5
841D
  8
0
 10
47.20751154623861
 20
208.5667444534321
 30
0.0
 11
47.20751154623861
 21
208.2327605534321
 31
0.0
  0
LINE
  5
841E
  8
0
 10
47.87507654623863
 20
208.2327605534321
 30
0.0
 11
48.54267384623864
 21
208.2327605534321
 31
0.0
  0
LINE
  5
841F
  8
0
 10
48.54267384623864
 20
208.2327605534321
 30
0.0
 11
48.54267384623864
 21
208.5667444534321
 31
0.0
  0
LINE
  5
8420
  8
0
 10
48.54267384623864
 20
208.5667444534321
 30
0.0
 11
47.87507654623863
 21
208.5667444534321
 31
0.0
  0
LINE
  5
8421
  8
0
 10
47.87507654623863
 20
208.5667444534321
 30
0.0
 11
47.87507654623863
 21
208.2327605534321
 31
0.0
  0
LINE
  5
8422
  8
0
 10
49.2099215462386
 20
208.2327605534321
 30
0.0
 11
49.87751979623863
 21
208.2327605534321
 31
0.0
  0
LINE
  5
8423
  8
0
 10
49.87751979623863
 20
208.2327605534321
 30
0.0
 11
49.87751979623863
 21
208.5667444534321
 31
0.0
  0
LINE
  5
8424
  8
0
 10
49.87751979623863
 20
208.5667444534321
 30
0.0
 11
49.2099215462386
 21
208.5667444534321
 31
0.0
  0
LINE
  5
8425
  8
0
 10
49.2099215462386
 20
208.5667444534321
 30
0.0
 11
49.2099215462386
 21
208.2327605534321
 31
0.0
  0
LINE
  5
8426
  8
0
 10
50.21150654623864
 20
208.2327605534321
 30
0.0
 11
50.54586189623865
 21
208.2327605534321
 31
0.0
  0
LINE
  5
8427
  8
0
 10
50.54586189623865
 20
208.2327605534321
 30
0.0
 11
50.54586189623865
 21
208.5667444534321
 31
0.0
  0
LINE
  5
8428
  8
0
 10
50.54586189623865
 20
208.5667444534321
 30
0.0
 11
50.21150654623864
 21
208.5667444534321
 31
0.0
  0
LINE
  5
8429
  8
0
 10
50.21150654623864
 20
208.5667444534321
 30
0.0
 11
50.21150654623864
 21
208.2327605534321
 31
0.0
  0
LINE
  5
842A
  8
0
 10
51.21309154623862
 20
208.2327605534321
 30
0.0
 11
51.54707544623864
 21
208.2327605534321
 31
0.0
  0
LINE
  5
842B
  8
0
 10
51.54707544623864
 20
208.2327605534321
 30
0.0
 11
51.54707544623864
 21
208.5667444534321
 31
0.0
  0
LINE
  5
842C
  8
0
 10
51.54707544623864
 20
208.5667444534321
 30
0.0
 11
51.21309154623862
 21
208.5667444534321
 31
0.0
  0
LINE
  5
842D
  8
0
 10
51.21309154623862
 20
208.5667444534321
 30
0.0
 11
51.21309154623862
 21
208.2327605534321
 31
0.0
  0
LINE
  5
842E
  8
0
 10
52.21391654623864
 20
208.2327605534321
 30
0.0
 11
53.54911304623863
 21
208.2327605534321
 31
0.0
  0
LINE
  5
842F
  8
0
 10
53.54911304623863
 20
208.2327605534321
 30
0.0
 11
53.54911304623863
 21
208.5667444534321
 31
0.0
  0
LINE
  5
8430
  8
0
 10
53.54911304623863
 20
208.5667444534321
 30
0.0
 11
52.21391654623864
 21
208.5667444534321
 31
0.0
  0
LINE
  5
8431
  8
0
 10
52.21391654623864
 20
208.5667444534321
 30
0.0
 11
52.21391654623864
 21
208.2327605534321
 31
0.0
  0
LINE
  5
8432
  8
0
 10
42.8686715462386
 20
207.8991205534321
 30
0.0
 11
46.2066580462386
 21
207.8991205534321
 31
0.0
  0
LINE
  5
8433
  8
0
 10
46.2066580462386
 20
207.8991205534321
 30
0.0
 11
46.2066580462386
 21
208.2331054034321
 31
0.0
  0
LINE
  5
8434
  8
0
 10
46.2066580462386
 20
208.2331054034321
 30
0.0
 11
42.8686715462386
 21
208.2331054034321
 31
0.0
  0
LINE
  5
8435
  8
0
 10
42.8686715462386
 20
208.2331054034321
 30
0.0
 11
42.8686715462386
 21
207.8991205534321
 31
0.0
  0
LINE
  5
8436
  8
0
 10
46.8734915462386
 20
207.8991205534321
 30
0.0
 11
47.20747639623863
 21
207.8991205534321
 31
0.0
  0
LINE
  5
8437
  8
0
 10
47.20747639623863
 20
207.8991205534321
 30
0.0
 11
47.20747639623863
 21
208.2331054034321
 31
0.0
  0
LINE
  5
8438
  8
0
 10
47.20747639623863
 20
208.2331054034321
 30
0.0
 11
46.8734915462386
 21
208.2331054034321
 31
0.0
  0
LINE
  5
8439
  8
0
 10
46.8734915462386
 20
208.2331054034321
 30
0.0
 11
46.8734915462386
 21
207.8991205534321
 31
0.0
  0
LINE
  5
843A
  8
0
 10
48.20909654623864
 20
207.8991205534321
 30
0.0
 11
48.5430804462386
 21
207.8991205534321
 31
0.0
  0
LINE
  5
843B
  8
0
 10
48.5430804462386
 20
207.8991205534321
 30
0.0
 11
48.5430804462386
 21
208.2331054034321
 31
0.0
  0
LINE
  5
843C
  8
0
 10
48.5430804462386
 20
208.2331054034321
 30
0.0
 11
48.20909654623864
 21
208.2331054034321
 31
0.0
  0
LINE
  5
843D
  8
0
 10
48.20909654623864
 20
208.2331054034321
 30
0.0
 11
48.20909654623864
 21
207.8991205534321
 31
0.0
  0
LINE
  5
843E
  8
0
 10
48.87666154623861
 20
207.8991205534321
 30
0.0
 11
49.21064544623863
 21
207.8991205534321
 31
0.0
  0
LINE
  5
843F
  8
0
 10
49.21064544623863
 20
207.8991205534321
 30
0.0
 11
49.21064544623863
 21
208.2331054034321
 31
0.0
  0
LINE
  5
8440
  8
0
 10
49.21064544623863
 20
208.2331054034321
 30
0.0
 11
48.87666154623861
 21
208.2331054034321
 31
0.0
  0
LINE
  5
8441
  8
0
 10
48.87666154623861
 20
208.2331054034321
 30
0.0
 11
48.87666154623861
 21
207.8991205534321
 31
0.0
  0
LINE
  5
8442
  8
0
 10
50.87907154623861
 20
207.8991205534321
 30
0.0
 11
51.54666979623863
 21
207.8991205534321
 31
0.0
  0
LINE
  5
8443
  8
0
 10
51.54666979623863
 20
207.8991205534321
 30
0.0
 11
51.54666979623863
 21
208.2331054034321
 31
0.0
  0
LINE
  5
8444
  8
0
 10
51.54666979623863
 20
208.2331054034321
 30
0.0
 11
50.87907154623861
 21
208.2331054034321
 31
0.0
  0
LINE
  5
8445
  8
0
 10
50.87907154623861
 20
208.2331054034321
 30
0.0
 11
50.87907154623861
 21
207.8991205534321
 31
0.0
  0
LINE
  5
8446
  8
0
 10
51.88065654623864
 20
207.8991205534321
 30
0.0
 11
52.21464139623862
 21
207.8991205534321
 31
0.0
  0
LINE
  5
8447
  8
0
 10
52.21464139623862
 20
207.8991205534321
 30
0.0
 11
52.21464139623862
 21
208.2331054034321
 31
0.0
  0
LINE
  5
8448
  8
0
 10
52.21464139623862
 20
208.2331054034321
 30
0.0
 11
51.88065654623864
 21
208.2331054034321
 31
0.0
  0
LINE
  5
8449
  8
0
 10
51.88065654623864
 20
208.2331054034321
 30
0.0
 11
51.88065654623864
 21
207.8991205534321
 31
0.0
  0
LINE
  5
844A
  8
0
 10
52.5483165462386
 20
207.8991205534321
 30
0.0
 11
53.21554239623862
 21
207.8991205534321
 31
0.0
  0
LINE
  5
844B
  8
0
 10
53.21554239623862
 20
207.8991205534321
 30
0.0
 11
53.21554239623862
 21
208.2331054034321
 31
0.0
  0
LINE
  5
844C
  8
0
 10
53.21554239623862
 20
208.2331054034321
 30
0.0
 11
52.5483165462386
 21
208.2331054034321
 31
0.0
  0
LINE
  5
844D
  8
0
 10
52.5483165462386
 20
208.2331054034321
 30
0.0
 11
52.5483165462386
 21
207.8991205534321
 31
0.0
  0
LINE
  5
844E
  8
0
 10
42.53436654623863
 20
207.5651005534321
 30
0.0
 11
43.20196384623858
 21
207.5651005534321
 31
0.0
  0
LINE
  5
844F
  8
0
 10
43.20196384623858
 20
207.5651005534321
 30
0.0
 11
43.20196384623858
 21
207.8991205534321
 31
0.0
  0
LINE
  5
8450
  8
0
 10
43.20196384623858
 20
207.8991205534321
 30
0.0
 11
42.53436654623863
 21
207.8991205534321
 31
0.0
  0
LINE
  5
8451
  8
0
 10
42.53436654623863
 20
207.8991205534321
 30
0.0
 11
42.53436654623863
 21
207.5651005534321
 31
0.0
  0
LINE
  5
8452
  8
0
 10
43.53585654623862
 20
207.5651005534321
 30
0.0
 11
44.20345384623863
 21
207.5651005534321
 31
0.0
  0
LINE
  5
8453
  8
0
 10
44.20345384623863
 20
207.5651005534321
 30
0.0
 11
44.20345384623863
 21
207.8991205534321
 31
0.0
  0
LINE
  5
8454
  8
0
 10
44.20345384623863
 20
207.8991205534321
 30
0.0
 11
43.53585654623862
 21
207.8991205534321
 31
0.0
  0
LINE
  5
8455
  8
0
 10
43.53585654623862
 20
207.8991205534321
 30
0.0
 11
43.53585654623862
 21
207.5651005534321
 31
0.0
  0
LINE
  5
8456
  8
0
 10
45.53874154623861
 20
207.5651005534321
 30
0.0
 11
45.87272639623859
 21
207.5651005534321
 31
0.0
  0
LINE
  5
8457
  8
0
 10
45.87272639623859
 20
207.5651005534321
 30
0.0
 11
45.87272639623859
 21
207.8991205534321
 31
0.0
  0
LINE
  5
8458
  8
0
 10
45.87272639623859
 20
207.8991205534321
 30
0.0
 11
45.53874154623861
 21
207.8991205534321
 31
0.0
  0
LINE
  5
8459
  8
0
 10
45.53874154623861
 20
207.8991205534321
 30
0.0
 11
45.53874154623861
 21
207.5651005534321
 31
0.0
  0
LINE
  5
845A
  8
0
 10
46.54032654623865
 20
207.5651005534321
 30
0.0
 11
46.87431044623861
 21
207.5651005534321
 31
0.0
  0
LINE
  5
845B
  8
0
 10
46.87431044623861
 20
207.5651005534321
 30
0.0
 11
46.87431044623861
 21
207.8991205534321
 31
0.0
  0
LINE
  5
845C
  8
0
 10
46.87431044623861
 20
207.8991205534321
 30
0.0
 11
46.54032654623865
 21
207.8991205534321
 31
0.0
  0
LINE
  5
845D
  8
0
 10
46.54032654623865
 20
207.8991205534321
 30
0.0
 11
46.54032654623865
 21
207.5651005534321
 31
0.0
  0
LINE
  5
845E
  8
0
 10
47.20751154623861
 20
207.5651005534321
 30
0.0
 11
47.87510884623862
 21
207.5651005534321
 31
0.0
  0
LINE
  5
845F
  8
0
 10
47.87510884623862
 20
207.5651005534321
 30
0.0
 11
47.87510884623862
 21
207.8991205534321
 31
0.0
  0
LINE
  5
8460
  8
0
 10
47.87510884623862
 20
207.8991205534321
 30
0.0
 11
47.20751154623861
 21
207.8991205534321
 31
0.0
  0
LINE
  5
8461
  8
0
 10
47.20751154623861
 20
207.8991205534321
 30
0.0
 11
47.20751154623861
 21
207.5651005534321
 31
0.0
  0
LINE
  5
8462
  8
0
 10
48.54273654623864
 20
207.5651005534321
 30
0.0
 11
49.20996334623862
 21
207.5651005534321
 31
0.0
  0
LINE
  5
8463
  8
0
 10
49.20996334623862
 20
207.5651005534321
 30
0.0
 11
49.20996334623862
 21
207.8991205534321
 31
0.0
  0
LINE
  5
8464
  8
0
 10
49.20996334623862
 20
207.8991205534321
 30
0.0
 11
48.54273654623864
 21
207.8991205534321
 31
0.0
  0
LINE
  5
8465
  8
0
 10
48.54273654623864
 20
207.8991205534321
 30
0.0
 11
48.54273654623864
 21
207.5651005534321
 31
0.0
  0
LINE
  5
8466
  8
0
 10
50.87907154623861
 20
207.5651005534321
 30
0.0
 11
51.21309154623862
 21
207.5651005534321
 31
0.0
  0
LINE
  5
8467
  8
0
 10
51.21309154623862
 20
207.5651005534321
 30
0.0
 11
51.21309154623862
 21
207.8991205534321
 31
0.0
  0
LINE
  5
8468
  8
0
 10
51.21309154623862
 20
207.8991205534321
 30
0.0
 11
50.87910669623864
 21
207.8991205534321
 31
0.0
  0
LINE
  5
8469
  8
0
 10
50.87910669623864
 20
207.8991205534321
 30
0.0
 11
50.87907154623861
 21
207.5651005534321
 31
0.0
  0
LINE
  5
846A
  8
0
 10
51.88065654623864
 20
207.5651005534321
 30
0.0
 11
52.88224154623862
 21
207.5651005534321
 31
0.0
  0
LINE
  5
846B
  8
0
 10
52.88224154623862
 20
207.5651005534321
 30
0.0
 11
52.88224154623862
 21
207.8991205534321
 31
0.0
  0
LINE
  5
846C
  8
0
 10
52.88224154623862
 20
207.8991205534321
 30
0.0
 11
51.88065654623864
 21
207.8991205534321
 31
0.0
  0
LINE
  5
846D
  8
0
 10
51.88065654623864
 20
207.8991205534321
 30
0.0
 11
51.88065654623864
 21
207.5651005534321
 31
0.0
  0
LINE
  5
846E
  8
0
 10
53.21550154623861
 20
207.5651005534321
 30
0.0
 11
53.54985784623864
 21
207.5651005534321
 31
0.0
  0
LINE
  5
846F
  8
0
 10
53.54985784623864
 20
207.5651005534321
 30
0.0
 11
53.54985784623864
 21
207.8991205534321
 31
0.0
  0
LINE
  5
8470
  8
0
 10
53.54985784623864
 20
207.8991205534321
 30
0.0
 11
53.21550154623861
 21
207.8991205534321
 31
0.0
  0
LINE
  5
8471
  8
0
 10
53.21550154623861
 20
207.8991205534321
 30
0.0
 11
53.21550154623861
 21
207.5651005534321
 31
0.0
  0
LINE
  5
8472
  8
0
 10
42.8686715462386
 20
207.2315555534321
 30
0.0
 11
43.20265639623864
 21
207.2315555534321
 31
0.0
  0
LINE
  5
8473
  8
0
 10
43.20265639623864
 20
207.2315555534321
 30
0.0
 11
43.20265639623864
 21
207.5659109034321
 31
0.0
  0
LINE
  5
8474
  8
0
 10
43.20265639623864
 20
207.5659109034321
 30
0.0
 11
42.8686715462386
 21
207.5659109034321
 31
0.0
  0
LINE
  5
8475
  8
0
 10
42.8686715462386
 20
207.5659109034321
 30
0.0
 11
42.8686715462386
 21
207.2315555534321
 31
0.0
  0
LINE
  5
8476
  8
0
 10
44.5374415462386
 20
207.2315555534321
 30
0.0
 11
44.87142544623862
 21
207.2315555534321
 31
0.0
  0
LINE
  5
8477
  8
0
 10
44.87142544623862
 20
207.2315555534321
 30
0.0
 11
44.87142544623862
 21
207.5659109034321
 31
0.0
  0
LINE
  5
8478
  8
0
 10
44.87142544623862
 20
207.5659109034321
 30
0.0
 11
44.5374415462386
 21
207.5659109034321
 31
0.0
  0
LINE
  5
8479
  8
0
 10
44.5374415462386
 20
207.5659109034321
 30
0.0
 11
44.5374415462386
 21
207.2315555534321
 31
0.0
  0
LINE
  5
847A
  8
0
 10
45.53874154623861
 20
207.2315555534321
 30
0.0
 11
46.20596834623865
 21
207.2315555534321
 31
0.0
  0
LINE
  5
847B
  8
0
 10
46.20596834623865
 20
207.2315555534321
 30
0.0
 11
46.20596834623865
 21
207.5659109034321
 31
0.0
  0
LINE
  5
847C
  8
0
 10
46.20596834623865
 20
207.5659109034321
 30
0.0
 11
45.53874154623861
 21
207.5659109034321
 31
0.0
  0
LINE
  5
847D
  8
0
 10
45.53874154623861
 20
207.5659109034321
 30
0.0
 11
45.53874154623861
 21
207.2315555534321
 31
0.0
  0
LINE
  5
847E
  8
0
 10
46.54032654623865
 20
207.2315555534321
 30
0.0
 11
47.20755334623863
 21
207.2315555534321
 31
0.0
  0
LINE
  5
847F
  8
0
 10
47.20755334623863
 20
207.2315555534321
 30
0.0
 11
47.20755334623863
 21
207.5659109034321
 31
0.0
  0
LINE
  5
8480
  8
0
 10
47.20755334623863
 20
207.5659109034321
 30
0.0
 11
46.54032654623865
 21
207.5659109034321
 31
0.0
  0
LINE
  5
8481
  8
0
 10
46.54032654623865
 20
207.5659109034321
 30
0.0
 11
46.54032654623865
 21
207.2315555534321
 31
0.0
  0
LINE
  5
8482
  8
0
 10
48.20909654623864
 20
207.2315555534321
 30
0.0
 11
49.21068154623862
 21
207.2315555534321
 31
0.0
  0
LINE
  5
8483
  8
0
 10
49.21068154623862
 20
207.2315555534321
 30
0.0
 11
49.21068154623862
 21
207.5659109034321
 31
0.0
  0
LINE
  5
8484
  8
0
 10
49.21068154623862
 20
207.5659109034321
 30
0.0
 11
48.20909654623864
 21
207.5659109034321
 31
0.0
  0
LINE
  5
8485
  8
0
 10
48.20909654623864
 20
207.5659109034321
 30
0.0
 11
48.20909654623864
 21
207.2315555534321
 31
0.0
  0
LINE
  5
8486
  8
0
 10
49.87748654623863
 20
207.2315555534321
 30
0.0
 11
50.21147044623865
 21
207.2315555534321
 31
0.0
  0
LINE
  5
8487
  8
0
 10
50.21147044623865
 20
207.2315555534321
 30
0.0
 11
50.21147044623865
 21
207.5659109034321
 31
0.0
  0
LINE
  5
8488
  8
0
 10
50.21147044623865
 20
207.5659109034321
 30
0.0
 11
49.87748654623863
 21
207.5659109034321
 31
0.0
  0
LINE
  5
8489
  8
0
 10
49.87748654623863
 20
207.5659109034321
 30
0.0
 11
49.87748654623863
 21
207.2315555534321
 31
0.0
  0
LINE
  5
848A
  8
0
 10
50.5459065462386
 20
207.2315555534321
 30
0.0
 11
51.21313334623864
 21
207.2315555534321
 31
0.0
  0
LINE
  5
848B
  8
0
 10
51.21313334623864
 20
207.2315555534321
 30
0.0
 11
51.21313334623864
 21
207.5659109034321
 31
0.0
  0
LINE
  5
848C
  8
0
 10
51.21313334623864
 20
207.5659109034321
 30
0.0
 11
50.5459065462386
 21
207.5659109034321
 31
0.0
  0
LINE
  5
848D
  8
0
 10
50.5459065462386
 20
207.5659109034321
 30
0.0
 11
50.5459065462386
 21
207.2315555534321
 31
0.0
  0
LINE
  5
848E
  8
0
 10
51.54673154623862
 20
207.2315555534321
 30
0.0
 11
52.5483165462386
 21
207.2315555534321
 31
0.0
  0
LINE
  5
848F
  8
0
 10
52.5483165462386
 20
207.2315555534321
 30
0.0
 11
52.5483165462386
 21
207.5659109034321
 31
0.0
  0
LINE
  5
8490
  8
0
 10
52.5483165462386
 20
207.5659109034321
 30
0.0
 11
51.54673154623862
 21
207.5659109034321
 31
0.0
  0
LINE
  5
8491
  8
0
 10
51.54673154623862
 20
207.5659109034321
 30
0.0
 11
51.54673154623862
 21
207.2315555534321
 31
0.0
  0
LINE
  5
8492
  8
0
 10
53.21550154623861
 20
207.2315555534321
 30
0.0
 11
53.54985784623864
 21
207.2315555534321
 31
0.0
  0
LINE
  5
8493
  8
0
 10
53.54985784623864
 20
207.2315555534321
 30
0.0
 11
53.54985784623864
 21
207.5659109034321
 31
0.0
  0
LINE
  5
8494
  8
0
 10
53.54985784623864
 20
207.5659109034321
 30
0.0
 11
53.21550154623861
 21
207.5659109034321
 31
0.0
  0
LINE
  5
8495
  8
0
 10
53.21550154623861
 20
207.5659109034321
 30
0.0
 11
53.21550154623861
 21
207.2315555534321
 31
0.0
  0
LINE
  5
8496
  8
0
 10
42.8686715462386
 20
206.8975355534321
 30
0.0
 11
43.53589834623864
 21
206.8975355534321
 31
0.0
  0
LINE
  5
8497
  8
0
 10
43.53589834623864
 20
206.8975355534321
 30
0.0
 11
43.53589834623864
 21
207.2315204034321
 31
0.0
  0
LINE
  5
8498
  8
0
 10
43.53589834623864
 20
207.2315204034321
 30
0.0
 11
42.8686715462386
 21
207.2315204034321
 31
0.0
  0
LINE
  5
8499
  8
0
 10
42.8686715462386
 20
207.2315204034321
 30
0.0
 11
42.8686715462386
 21
206.8975355534321
 31
0.0
  0
LINE
  5
849A
  8
0
 10
43.86949654623862
 20
206.8975355534321
 30
0.0
 11
44.20348044623864
 21
206.8975355534321
 31
0.0
  0
LINE
  5
849B
  8
0
 10
44.20348044623864
 20
206.8975355534321
 30
0.0
 11
44.20348044623864
 21
207.2315204034321
 31
0.0
  0
LINE
  5
849C
  8
0
 10
44.20348044623864
 20
207.2315204034321
 30
0.0
 11
43.86949654623862
 21
207.2315204034321
 31
0.0
  0
LINE
  5
849D
  8
0
 10
43.86949654623862
 20
207.2315204034321
 30
0.0
 11
43.86949654623862
 21
206.8975355534321
 31
0.0
  0
LINE
  5
849E
  8
0
 10
46.20592654623863
 20
206.8975355534321
 30
0.0
 11
46.53991044623865
 21
206.8975355534321
 31
0.0
  0
LINE
  5
849F
  8
0
 10
46.53991044623865
 20
206.8975355534321
 30
0.0
 11
46.53991044623865
 21
207.2315204034321
 31
0.0
  0
LINE
  5
84A0
  8
0
 10
46.53991044623865
 20
207.2315204034321
 30
0.0
 11
46.20592654623863
 21
207.2315204034321
 31
0.0
  0
LINE
  5
84A1
  8
0
 10
46.20592654623863
 20
207.2315204034321
 30
0.0
 11
46.20592654623863
 21
206.8975355534321
 31
0.0
  0
LINE
  5
84A2
  8
0
 10
46.8734915462386
 20
206.8975355534321
 30
0.0
 11
49.8774960462386
 21
206.8975355534321
 31
0.0
  0
LINE
  5
84A3
  8
0
 10
49.8774960462386
 20
206.8975355534321
 30
0.0
 11
49.8774960462386
 21
207.2315204034321
 31
0.0
  0
LINE
  5
84A4
  8
0
 10
49.8774960462386
 20
207.2315204034321
 30
0.0
 11
46.8734915462386
 21
207.2315204034321
 31
0.0
  0
LINE
  5
84A5
  8
0
 10
46.8734915462386
 20
207.2315204034321
 30
0.0
 11
46.8734915462386
 21
206.8975355534321
 31
0.0
  0
LINE
  5
84A6
  8
0
 10
50.21150654623864
 20
206.8975355534321
 30
0.0
 11
51.54670304623863
 21
206.8975355534321
 31
0.0
  0
LINE
  5
84A7
  8
0
 10
51.54670304623863
 20
206.8975355534321
 30
0.0
 11
51.54670304623863
 21
207.2315204034321
 31
0.0
  0
LINE
  5
84A8
  8
0
 10
51.54670304623863
 20
207.2315204034321
 30
0.0
 11
50.21150654623864
 21
207.2315204034321
 31
0.0
  0
LINE
  5
84A9
  8
0
 10
50.21150654623864
 20
207.2315204034321
 30
0.0
 11
50.21150654623864
 21
206.8975355534321
 31
0.0
  0
LINE
  5
84AA
  8
0
 10
52.21391654623864
 20
206.8975355534321
 30
0.0
 11
52.88151384623859
 21
206.8975355534321
 31
0.0
  0
LINE
  5
84AB
  8
0
 10
52.88151384623859
 20
206.8975355534321
 30
0.0
 11
52.88151384623859
 21
207.2315204034321
 31
0.0
  0
LINE
  5
84AC
  8
0
 10
52.88151384623859
 20
207.2315204034321
 30
0.0
 11
52.21391654623864
 21
207.2315204034321
 31
0.0
  0
LINE
  5
84AD
  8
0
 10
52.21391654623864
 20
207.2315204034321
 30
0.0
 11
52.21391654623864
 21
206.8975355534321
 31
0.0
  0
LINE
  5
84AE
  8
0
 10
53.21550154623861
 20
206.8975355534321
 30
0.0
 11
53.54985784623864
 21
206.8975355534321
 31
0.0
  0
LINE
  5
84AF
  8
0
 10
53.54985784623864
 20
206.8975355534321
 30
0.0
 11
53.54985784623864
 21
207.2315204034321
 31
0.0
  0
LINE
  5
84B0
  8
0
 10
53.54985784623864
 20
207.2315204034321
 30
0.0
 11
53.21550154623861
 21
207.2315204034321
 31
0.0
  0
LINE
  5
84B1
  8
0
 10
53.21550154623861
 20
207.2315204034321
 30
0.0
 11
53.21550154623861
 21
206.8975355534321
 31
0.0
  0
LINE
  5
84B2
  8
0
 10
43.2019315462386
 20
206.5642755534321
 30
0.0
 11
43.53628784623862
 21
206.5642755534321
 31
0.0
  0
LINE
  5
84B3
  8
0
 10
43.53628784623862
 20
206.5642755534321
 30
0.0
 11
43.53628784623862
 21
206.8982594534321
 31
0.0
  0
LINE
  5
84B4
  8
0
 10
43.53628784623862
 20
206.8982594534321
 30
0.0
 11
43.2019315462386
 21
206.8982594534321
 31
0.0
  0
LINE
  5
84B5
  8
0
 10
43.2019315462386
 20
206.8982594534321
 30
0.0
 11
43.2019315462386
 21
206.5642755534321
 31
0.0
  0
LINE
  5
84B6
  8
0
 10
43.86949654623862
 20
206.5642755534321
 30
0.0
 11
44.20348044623864
 21
206.5642755534321
 31
0.0
  0
LINE
  5
84B7
  8
0
 10
44.20348044623864
 20
206.5642755534321
 30
0.0
 11
44.20348044623864
 21
206.8982594534321
 31
0.0
  0
LINE
  5
84B8
  8
0
 10
44.20348044623864
 20
206.8982594534321
 30
0.0
 11
43.86949654623862
 21
206.8982594534321
 31
0.0
  0
LINE
  5
84B9
  8
0
 10
43.86949654623862
 20
206.8982594534321
 30
0.0
 11
43.86949654623862
 21
206.5642755534321
 31
0.0
  0
LINE
  5
84BA
  8
0
 10
44.5374415462386
 20
206.5642755534321
 30
0.0
 11
46.5402315462386
 21
206.5642755534321
 31
0.0
  0
LINE
  5
84BB
  8
0
 10
46.5402315462386
 20
206.5642755534321
 30
0.0
 11
46.5402315462386
 21
206.8982594534321
 31
0.0
  0
LINE
  5
84BC
  8
0
 10
46.5402315462386
 20
206.8982594534321
 30
0.0
 11
44.5374415462386
 21
206.8982594534321
 31
0.0
  0
LINE
  5
84BD
  8
0
 10
44.5374415462386
 20
206.8982594534321
 30
0.0
 11
44.5374415462386
 21
206.5642755534321
 31
0.0
  0
LINE
  5
84BE
  8
0
 10
46.8734915462386
 20
206.5642755534321
 30
0.0
 11
47.20747639623863
 21
206.5642755534321
 31
0.0
  0
LINE
  5
84BF
  8
0
 10
47.20747639623863
 20
206.5642755534321
 30
0.0
 11
47.20747639623863
 21
206.8982594534321
 31
0.0
  0
LINE
  5
84C0
  8
0
 10
47.20747639623863
 20
206.8982594534321
 30
0.0
 11
46.8734915462386
 21
206.8982594534321
 31
0.0
  0
LINE
  5
84C1
  8
0
 10
46.8734915462386
 20
206.8982594534321
 30
0.0
 11
46.8734915462386
 21
206.5642755534321
 31
0.0
  0
LINE
  5
84C2
  8
0
 10
47.54153154623862
 20
206.5642755534321
 30
0.0
 11
48.20912979623859
 21
206.5642755534321
 31
0.0
  0
LINE
  5
84C3
  8
0
 10
48.20912979623859
 20
206.5642755534321
 30
0.0
 11
48.20912979623859
 21
206.8982594534321
 31
0.0
  0
LINE
  5
84C4
  8
0
 10
48.20912979623859
 20
206.8982594534321
 30
0.0
 11
47.54153154623862
 21
206.8982594534321
 31
0.0
  0
LINE
  5
84C5
  8
0
 10
47.54153154623862
 20
206.8982594534321
 30
0.0
 11
47.54153154623862
 21
206.5642755534321
 31
0.0
  0
LINE
  5
84C6
  8
0
 10
48.87666154623861
 20
206.5642755534321
 30
0.0
 11
49.21064544623863
 21
206.5642755534321
 31
0.0
  0
LINE
  5
84C7
  8
0
 10
49.21064544623863
 20
206.5642755534321
 30
0.0
 11
49.21064544623863
 21
206.8982594534321
 31
0.0
  0
LINE
  5
84C8
  8
0
 10
49.21064544623863
 20
206.8982594534321
 30
0.0
 11
48.87666154623861
 21
206.8982594534321
 31
0.0
  0
LINE
  5
84C9
  8
0
 10
48.87666154623861
 20
206.8982594534321
 30
0.0
 11
48.87666154623861
 21
206.5642755534321
 31
0.0
  0
LINE
  5
84CA
  8
0
 10
50.21150654623864
 20
206.5642755534321
 30
0.0
 11
50.54586189623865
 21
206.5642755534321
 31
0.0
  0
LINE
  5
84CB
  8
0
 10
50.54586189623865
 20
206.5642755534321
 30
0.0
 11
50.54586189623865
 21
206.8982594534321
 31
0.0
  0
LINE
  5
84CC
  8
0
 10
50.54586189623865
 20
206.8982594534321
 30
0.0
 11
50.21150654623864
 21
206.8982594534321
 31
0.0
  0
LINE
  5
84CD
  8
0
 10
50.21150654623864
 20
206.8982594534321
 30
0.0
 11
50.21150654623864
 21
206.5642755534321
 31
0.0
  0
LINE
  5
84CE
  8
0
 10
51.54673154623862
 20
206.5642755534321
 30
0.0
 11
51.88071544623864
 21
206.5642755534321
 31
0.0
  0
LINE
  5
84CF
  8
0
 10
51.88071544623864
 20
206.5642755534321
 30
0.0
 11
51.88071544623864
 21
206.8982594534321
 31
0.0
  0
LINE
  5
84D0
  8
0
 10
51.88071544623864
 20
206.8982594534321
 30
0.0
 11
51.54673154623862
 21
206.8982594534321
 31
0.0
  0
LINE
  5
84D1
  8
0
 10
51.54673154623862
 20
206.8982594534321
 30
0.0
 11
51.54673154623862
 21
206.5642755534321
 31
0.0
  0
LINE
  5
84D2
  8
0
 10
52.21391654623864
 20
206.5642755534321
 30
0.0
 11
52.88151384623859
 21
206.5642755534321
 31
0.0
  0
LINE
  5
84D3
  8
0
 10
52.88151384623859
 20
206.5642755534321
 30
0.0
 11
52.88151384623859
 21
206.8982594534321
 31
0.0
  0
LINE
  5
84D4
  8
0
 10
52.88151384623859
 20
206.8982594534321
 30
0.0
 11
52.21391654623864
 21
206.8982594534321
 31
0.0
  0
LINE
  5
84D5
  8
0
 10
52.21391654623864
 20
206.8982594534321
 30
0.0
 11
52.21391654623864
 21
206.5642755534321
 31
0.0
  0
LINE
  5
84D6
  8
0
 10
53.21550154623861
 20
206.5642755534321
 30
0.0
 11
53.54985784623864
 21
206.5642755534321
 31
0.0
  0
LINE
  5
84D7
  8
0
 10
53.54985784623864
 20
206.5642755534321
 30
0.0
 11
53.54985784623864
 21
206.8982594534321
 31
0.0
  0
LINE
  5
84D8
  8
0
 10
53.54985784623864
 20
206.8982594534321
 30
0.0
 11
53.21550154623861
 21
206.8982594534321
 31
0.0
  0
LINE
  5
84D9
  8
0
 10
53.21550154623861
 20
206.8982594534321
 30
0.0
 11
53.21550154623861
 21
206.5642755534321
 31
0.0
  0
LINE
  5
84DA
  8
0
 10
42.8686715462386
 20
206.2303505534321
 30
0.0
 11
43.20265639623864
 21
206.2303505534321
 31
0.0
  0
LINE
  5
84DB
  8
0
 10
43.20265639623864
 20
206.2303505534321
 30
0.0
 11
43.20265639623864
 21
206.5643354034321
 31
0.0
  0
LINE
  5
84DC
  8
0
 10
43.20265639623864
 20
206.5643354034321
 30
0.0
 11
42.8686715462386
 21
206.5643354034321
 31
0.0
  0
LINE
  5
84DD
  8
0
 10
42.8686715462386
 20
206.5643354034321
 30
0.0
 11
42.8686715462386
 21
206.2303505534321
 31
0.0
  0
LINE
  5
84DE
  8
0
 10
43.53585654623862
 20
206.2303505534321
 30
0.0
 11
44.5374415462386
 21
206.2303505534321
 31
0.0
  0
LINE
  5
84DF
  8
0
 10
44.5374415462386
 20
206.2303505534321
 30
0.0
 11
44.5374415462386
 21
206.5643354034321
 31
0.0
  0
LINE
  5
84E0
  8
0
 10
44.5374415462386
 20
206.5643354034321
 30
0.0
 11
43.53585654623862
 21
206.5643354034321
 31
0.0
  0
LINE
  5
84E1
  8
0
 10
43.53585654623862
 20
206.5643354034321
 30
0.0
 11
43.53585654623862
 21
206.2303505534321
 31
0.0
  0
LINE
  5
84E2
  8
0
 10
44.8710815462386
 20
206.2303505534321
 30
0.0
 11
45.53867884623861
 21
206.2303505534321
 31
0.0
  0
LINE
  5
84E3
  8
0
 10
45.53867884623861
 20
206.2303505534321
 30
0.0
 11
45.53867884623861
 21
206.5643354034321
 31
0.0
  0
LINE
  5
84E4
  8
0
 10
45.53867884623861
 20
206.5643354034321
 30
0.0
 11
44.8710815462386
 21
206.5643354034321
 31
0.0
  0
LINE
  5
84E5
  8
0
 10
44.8710815462386
 20
206.5643354034321
 30
0.0
 11
44.8710815462386
 21
206.2303505534321
 31
0.0
  0
LINE
  5
84E6
  8
0
 10
45.87266654623863
 20
206.2303505534321
 30
0.0
 11
46.20665044623865
 21
206.2303505534321
 31
0.0
  0
LINE
  5
84E7
  8
0
 10
46.20665044623865
 20
206.2303505534321
 30
0.0
 11
46.20665044623865
 21
206.5643354034321
 31
0.0
  0
LINE
  5
84E8
  8
0
 10
46.20665044623865
 20
206.5643354034321
 30
0.0
 11
45.87266654623863
 21
206.5643354034321
 31
0.0
  0
LINE
  5
84E9
  8
0
 10
45.87266654623863
 20
206.5643354034321
 30
0.0
 11
45.87266654623863
 21
206.2303505534321
 31
0.0
  0
LINE
  5
84EA
  8
0
 10
47.54153154623862
 20
206.2303505534321
 30
0.0
 11
49.87831304623865
 21
206.2303505534321
 31
0.0
  0
LINE
  5
84EB
  8
0
 10
49.87831304623865
 20
206.2303505534321
 30
0.0
 11
49.87831304623865
 21
206.5643354034321
 31
0.0
  0
LINE
  5
84EC
  8
0
 10
49.87831304623865
 20
206.5643354034321
 30
0.0
 11
47.54153154623862
 21
206.5643354034321
 31
0.0
  0
LINE
  5
84ED
  8
0
 10
47.54153154623862
 20
206.5643354034321
 30
0.0
 11
47.54153154623862
 21
206.2303505534321
 31
0.0
  0
LINE
  5
84EE
  8
0
 10
50.21150654623864
 20
206.2303505534321
 30
0.0
 11
50.54586189623865
 21
206.2303505534321
 31
0.0
  0
LINE
  5
84EF
  8
0
 10
50.54586189623865
 20
206.2303505534321
 30
0.0
 11
50.54586189623865
 21
206.5643354034321
 31
0.0
  0
LINE
  5
84F0
  8
0
 10
50.54586189623865
 20
206.5643354034321
 30
0.0
 11
50.21150654623864
 21
206.5643354034321
 31
0.0
  0
LINE
  5
84F1
  8
0
 10
50.21150654623864
 20
206.5643354034321
 30
0.0
 11
50.21150654623864
 21
206.2303505534321
 31
0.0
  0
LINE
  5
84F2
  8
0
 10
50.87907154623861
 20
206.2303505534321
 30
0.0
 11
51.21305639623864
 21
206.2303505534321
 31
0.0
  0
LINE
  5
84F3
  8
0
 10
51.21305639623864
 20
206.2303505534321
 30
0.0
 11
51.21305639623864
 21
206.5643354034321
 31
0.0
  0
LINE
  5
84F4
  8
0
 10
51.21305639623864
 20
206.5643354034321
 30
0.0
 11
50.87907154623861
 21
206.5643354034321
 31
0.0
  0
LINE
  5
84F5
  8
0
 10
50.87907154623861
 20
206.5643354034321
 30
0.0
 11
50.87907154623861
 21
206.2303505534321
 31
0.0
  0
LINE
  5
84F6
  8
0
 10
51.88065654623864
 20
206.2303505534321
 30
0.0
 11
52.88224154623862
 21
206.2303505534321
 31
0.0
  0
LINE
  5
84F7
  8
0
 10
52.88224154623862
 20
206.2303505534321
 30
0.0
 11
52.88224154623862
 21
206.5643354034321
 31
0.0
  0
LINE
  5
84F8
  8
0
 10
52.88224154623862
 20
206.5643354034321
 30
0.0
 11
51.88065654623864
 21
206.5643354034321
 31
0.0
  0
LINE
  5
84F9
  8
0
 10
51.88065654623864
 20
206.5643354034321
 30
0.0
 11
51.88065654623864
 21
206.2303505534321
 31
0.0
  0
LINE
  5
84FA
  8
0
 10
53.21550154623861
 20
206.2303505534321
 30
0.0
 11
53.54985784623864
 21
206.2303505534321
 31
0.0
  0
LINE
  5
84FB
  8
0
 10
53.54985784623864
 20
206.2303505534321
 30
0.0
 11
53.54985784623864
 21
206.5643354034321
 31
0.0
  0
LINE
  5
84FC
  8
0
 10
53.54985784623864
 20
206.5643354034321
 30
0.0
 11
53.21550154623861
 21
206.5643354034321
 31
0.0
  0
LINE
  5
84FD
  8
0
 10
53.21550154623861
 20
206.5643354034321
 30
0.0
 11
53.21550154623861
 21
206.2303505534321
 31
0.0
  0
LINE
  5
84FE
  8
0
 10
42.53436654623863
 20
205.8959505534321
 30
0.0
 11
43.86956304623862
 21
205.8959505534321
 31
0.0
  0
LINE
  5
84FF
  8
0
 10
43.86956304623862
 20
205.8959505534321
 30
0.0
 11
43.86956304623862
 21
206.2303059034321
 31
0.0
  0
LINE
  5
8500
  8
0
 10
43.86956304623862
 20
206.2303059034321
 30
0.0
 11
42.53436654623863
 21
206.2303059034321
 31
0.0
  0
LINE
  5
8501
  8
0
 10
42.53436654623863
 20
206.2303059034321
 30
0.0
 11
42.53436654623863
 21
205.8959505534321
 31
0.0
  0
LINE
  5
8502
  8
0
 10
44.5374415462386
 20
205.8959505534321
 30
0.0
 11
44.87142544623862
 21
205.8959505534321
 31
0.0
  0
LINE
  5
8503
  8
0
 10
44.87142544623862
 20
205.8959505534321
 30
0.0
 11
44.87142544623862
 21
206.2303059034321
 31
0.0
  0
LINE
  5
8504
  8
0
 10
44.87142544623862
 20
206.2303059034321
 30
0.0
 11
44.5374415462386
 21
206.2303059034321
 31
0.0
  0
LINE
  5
8505
  8
0
 10
44.5374415462386
 20
206.2303059034321
 30
0.0
 11
44.5374415462386
 21
205.8959505534321
 31
0.0
  0
LINE
  5
8506
  8
0
 10
45.20510154623861
 20
205.8959505534321
 30
0.0
 11
45.53908639623864
 21
205.8959505534321
 31
0.0
  0
LINE
  5
8507
  8
0
 10
45.53908639623864
 20
205.8959505534321
 30
0.0
 11
45.53908639623864
 21
206.2303059034321
 31
0.0
  0
LINE
  5
8508
  8
0
 10
45.53908639623864
 20
206.2303059034321
 30
0.0
 11
45.20510154623861
 21
206.2303059034321
 31
0.0
  0
LINE
  5
8509
  8
0
 10
45.20510154623861
 20
206.2303059034321
 30
0.0
 11
45.20510154623861
 21
205.8959505534321
 31
0.0
  0
LINE
  5
850A
  8
0
 10
45.87266654623863
 20
205.8959505534321
 30
0.0
 11
46.20665044623865
 21
205.8959505534321
 31
0.0
  0
LINE
  5
850B
  8
0
 10
46.20665044623865
 20
205.8959505534321
 30
0.0
 11
46.20665044623865
 21
206.2303059034321
 31
0.0
  0
LINE
  5
850C
  8
0
 10
46.20665044623865
 20
206.2303059034321
 30
0.0
 11
45.87266654623863
 21
206.2303059034321
 31
0.0
  0
LINE
  5
850D
  8
0
 10
45.87266654623863
 20
206.2303059034321
 30
0.0
 11
45.87266654623863
 21
205.8959505534321
 31
0.0
  0
LINE
  5
850E
  8
0
 10
46.54032654623865
 20
205.8959505534321
 30
0.0
 11
47.54154104623865
 21
205.8959505534321
 31
0.0
  0
LINE
  5
850F
  8
0
 10
47.54154104623865
 20
205.8959505534321
 30
0.0
 11
47.54154104623865
 21
206.2303059034321
 31
0.0
  0
LINE
  5
8510
  8
0
 10
47.54154104623865
 20
206.2303059034321
 30
0.0
 11
46.54032654623865
 21
206.2303059034321
 31
0.0
  0
LINE
  5
8511
  8
0
 10
46.54032654623865
 20
206.2303059034321
 30
0.0
 11
46.54032654623865
 21
205.8959505534321
 31
0.0
  0
LINE
  5
8512
  8
0
 10
47.87507654623863
 20
205.8959505534321
 30
0.0
 11
48.20906139623861
 21
205.8959505534321
 31
0.0
  0
LINE
  5
8513
  8
0
 10
48.20906139623861
 20
205.8959505534321
 30
0.0
 11
48.20906139623861
 21
206.2303059034321
 31
0.0
  0
LINE
  5
8514
  8
0
 10
48.20906139623861
 20
206.2303059034321
 30
0.0
 11
47.87507654623863
 21
206.2303059034321
 31
0.0
  0
LINE
  5
8515
  8
0
 10
47.87507654623863
 20
206.2303059034321
 30
0.0
 11
47.87507654623863
 21
205.8959505534321
 31
0.0
  0
LINE
  5
8516
  8
0
 10
49.2099215462386
 20
205.8959505534321
 30
0.0
 11
50.21150654623864
 21
205.8959505534321
 31
0.0
  0
LINE
  5
8517
  8
0
 10
50.21150654623864
 20
205.8959505534321
 30
0.0
 11
50.21150654623864
 21
206.2303059034321
 31
0.0
  0
LINE
  5
8518
  8
0
 10
50.21150654623864
 20
206.2303059034321
 30
0.0
 11
49.2099215462386
 21
206.2303059034321
 31
0.0
  0
LINE
  5
8519
  8
0
 10
49.2099215462386
 20
206.2303059034321
 30
0.0
 11
49.2099215462386
 21
205.8959505534321
 31
0.0
  0
LINE
  5
851A
  8
0
 10
50.87907154623861
 20
205.8959505534321
 30
0.0
 11
51.21305639623864
 21
205.8959505534321
 31
0.0
  0
LINE
  5
851B
  8
0
 10
51.21305639623864
 20
205.8959505534321
 30
0.0
 11
51.21305639623864
 21
206.2303059034321
 31
0.0
  0
LINE
  5
851C
  8
0
 10
51.21305639623864
 20
206.2303059034321
 30
0.0
 11
50.87907154623861
 21
206.2303059034321
 31
0.0
  0
LINE
  5
851D
  8
0
 10
50.87907154623861
 20
206.2303059034321
 30
0.0
 11
50.87907154623861
 21
205.8959505534321
 31
0.0
  0
LINE
  5
851E
  8
0
 10
51.88065654623864
 20
205.8959505534321
 30
0.0
 11
52.54788334623862
 21
205.8959505534321
 31
0.0
  0
LINE
  5
851F
  8
0
 10
52.54788334623862
 20
205.8959505534321
 30
0.0
 11
52.54788334623862
 21
206.2303059034321
 31
0.0
  0
LINE
  5
8520
  8
0
 10
52.54788334623862
 20
206.2303059034321
 30
0.0
 11
51.88065654623864
 21
206.2303059034321
 31
0.0
  0
LINE
  5
8521
  8
0
 10
51.88065654623864
 20
206.2303059034321
 30
0.0
 11
51.88065654623864
 21
205.8959505534321
 31
0.0
  0
LINE
  5
8522
  8
0
 10
42.53436654623863
 20
205.5626905534321
 30
0.0
 11
43.20196384623858
 21
205.5626905534321
 31
0.0
  0
LINE
  5
8523
  8
0
 10
43.20196384623858
 20
205.5626905534321
 30
0.0
 11
43.20196384623858
 21
205.8966754034321
 31
0.0
  0
LINE
  5
8524
  8
0
 10
43.20196384623858
 20
205.8966754034321
 30
0.0
 11
42.53436654623863
 21
205.8966754034321
 31
0.0
  0
LINE
  5
8525
  8
0
 10
42.53436654623863
 20
205.8966754034321
 30
0.0
 11
42.53436654623863
 21
205.5626905534321
 31
0.0
  0
LINE
  5
8526
  8
0
 10
43.53585654623862
 20
205.5626905534321
 30
0.0
 11
43.86984044623864
 21
205.5626905534321
 31
0.0
  0
LINE
  5
8527
  8
0
 10
43.86984044623864
 20
205.5626905534321
 30
0.0
 11
43.86984044623864
 21
205.8966754034321
 31
0.0
  0
LINE
  5
8528
  8
0
 10
43.86984044623864
 20
205.8966754034321
 30
0.0
 11
43.53585654623862
 21
205.8966754034321
 31
0.0
  0
LINE
  5
8529
  8
0
 10
43.53585654623862
 20
205.8966754034321
 30
0.0
 11
43.53585654623862
 21
205.5626905534321
 31
0.0
  0
LINE
  5
852A
  8
0
 10
44.20351654623863
 20
205.5626905534321
 30
0.0
 11
44.53750139623861
 21
205.5626905534321
 31
0.0
  0
LINE
  5
852B
  8
0
 10
44.53750139623861
 20
205.5626905534321
 30
0.0
 11
44.53750139623861
 21
205.8966754034321
 31
0.0
  0
LINE
  5
852C
  8
0
 10
44.53750139623861
 20
205.8966754034321
 30
0.0
 11
44.20351654623863
 21
205.8966754034321
 31
0.0
  0
LINE
  5
852D
  8
0
 10
44.20351654623863
 20
205.8966754034321
 30
0.0
 11
44.20351654623863
 21
205.5626905534321
 31
0.0
  0
LINE
  5
852E
  8
0
 10
45.20510154623861
 20
205.5626905534321
 30
0.0
 11
45.53908639623864
 21
205.5626905534321
 31
0.0
  0
LINE
  5
852F
  8
0
 10
45.53908639623864
 20
205.5626905534321
 30
0.0
 11
45.53908639623864
 21
205.8966754034321
 31
0.0
  0
LINE
  5
8530
  8
0
 10
45.53908639623864
 20
205.8966754034321
 30
0.0
 11
45.20510154623861
 21
205.8966754034321
 31
0.0
  0
LINE
  5
8531
  8
0
 10
45.20510154623861
 20
205.8966754034321
 30
0.0
 11
45.20510154623861
 21
205.5626905534321
 31
0.0
  0
LINE
  5
8532
  8
0
 10
45.87266654623863
 20
205.5626905534321
 30
0.0
 11
46.87388104623864
 21
205.5626905534321
 31
0.0
  0
LINE
  5
8533
  8
0
 10
46.87388104623864
 20
205.5626905534321
 30
0.0
 11
46.87388104623864
 21
205.8966754034321
 31
0.0
  0
LINE
  5
8534
  8
0
 10
46.87388104623864
 20
205.8966754034321
 30
0.0
 11
45.87266654623863
 21
205.8966754034321
 31
0.0
  0
LINE
  5
8535
  8
0
 10
45.87266654623863
 20
205.8966754034321
 30
0.0
 11
45.87266654623863
 21
205.5626905534321
 31
0.0
  0
LINE
  5
8536
  8
0
 10
47.20751154623861
 20
205.5626905534321
 30
0.0
 11
47.54149544623863
 21
205.5626905534321
 31
0.0
  0
LINE
  5
8537
  8
0
 10
47.54149544623863
 20
205.5626905534321
 30
0.0
 11
47.54149544623863
 21
205.8966754034321
 31
0.0
  0
LINE
  5
8538
  8
0
 10
47.54149544623863
 20
205.8966754034321
 30
0.0
 11
47.20751154623861
 21
205.8966754034321
 31
0.0
  0
LINE
  5
8539
  8
0
 10
47.20751154623861
 20
205.8966754034321
 30
0.0
 11
47.20751154623861
 21
205.5626905534321
 31
0.0
  0
LINE
  5
853A
  8
0
 10
47.87507654623863
 20
205.5626905534321
 30
0.0
 11
48.87666154623861
 21
205.5626905534321
 31
0.0
  0
LINE
  5
853B
  8
0
 10
48.87666154623861
 20
205.5626905534321
 30
0.0
 11
48.87666154623861
 21
205.8966754034321
 31
0.0
  0
LINE
  5
853C
  8
0
 10
48.87666154623861
 20
205.8966754034321
 30
0.0
 11
47.87507654623863
 21
205.8966754034321
 31
0.0
  0
LINE
  5
853D
  8
0
 10
47.87507654623863
 20
205.8966754034321
 30
0.0
 11
47.87507654623863
 21
205.5626905534321
 31
0.0
  0
LINE
  5
853E
  8
0
 10
49.2099215462386
 20
205.5626905534321
 30
0.0
 11
49.54427689623861
 21
205.5626905534321
 31
0.0
  0
LINE
  5
853F
  8
0
 10
49.54427689623861
 20
205.5626905534321
 30
0.0
 11
49.54427689623861
 21
205.8966754034321
 31
0.0
  0
LINE
  5
8540
  8
0
 10
49.54427689623861
 20
205.8966754034321
 30
0.0
 11
49.2099215462386
 21
205.8966754034321
 31
0.0
  0
LINE
  5
8541
  8
0
 10
49.2099215462386
 20
205.8966754034321
 30
0.0
 11
49.2099215462386
 21
205.5626905534321
 31
0.0
  0
LINE
  5
8542
  8
0
 10
49.87748654623863
 20
205.5626905534321
 30
0.0
 11
50.54508384623864
 21
205.5626905534321
 31
0.0
  0
LINE
  5
8543
  8
0
 10
50.54508384623864
 20
205.5626905534321
 30
0.0
 11
50.54508384623864
 21
205.8966754034321
 31
0.0
  0
LINE
  5
8544
  8
0
 10
50.54508384623864
 20
205.8966754034321
 30
0.0
 11
49.87748654623863
 21
205.8966754034321
 31
0.0
  0
LINE
  5
8545
  8
0
 10
49.87748654623863
 20
205.8966754034321
 30
0.0
 11
49.87748654623863
 21
205.5626905534321
 31
0.0
  0
LINE
  5
8546
  8
0
 10
51.54673154623862
 20
205.5626905534321
 30
0.0
 11
52.88155754623864
 21
205.5626905534321
 31
0.0
  0
LINE
  5
8547
  8
0
 10
52.88155754623864
 20
205.5626905534321
 30
0.0
 11
52.88155754623864
 21
205.8966754034321
 31
0.0
  0
LINE
  5
8548
  8
0
 10
52.88155754623864
 20
205.8966754034321
 30
0.0
 11
51.54673154623862
 21
205.8966754034321
 31
0.0
  0
LINE
  5
8549
  8
0
 10
51.54673154623862
 20
205.8966754034321
 30
0.0
 11
51.54673154623862
 21
205.5626905534321
 31
0.0
  0
LINE
  5
854A
  8
0
 10
42.53436654623863
 20
205.2287655534321
 30
0.0
 11
42.86872189623864
 21
205.2287655534321
 31
0.0
  0
LINE
  5
854B
  8
0
 10
42.86872189623864
 20
205.2287655534321
 30
0.0
 11
42.86872189623864
 21
205.5627494534321
 31
0.0
  0
LINE
  5
854C
  8
0
 10
42.86872189623864
 20
205.5627494534321
 30
0.0
 11
42.53436654623863
 21
205.5627494534321
 31
0.0
  0
LINE
  5
854D
  8
0
 10
42.53436654623863
 20
205.5627494534321
 30
0.0
 11
42.53436654623863
 21
205.2287655534321
 31
0.0
  0
LINE
  5
854E
  8
0
 10
43.2019315462386
 20
205.2287655534321
 30
0.0
 11
43.53628784623862
 21
205.2287655534321
 31
0.0
  0
LINE
  5
854F
  8
0
 10
43.53628784623862
 20
205.2287655534321
 30
0.0
 11
43.53628784623862
 21
205.5627494534321
 31
0.0
  0
LINE
  5
8550
  8
0
 10
43.53628784623862
 20
205.5627494534321
 30
0.0
 11
43.2019315462386
 21
205.5627494534321
 31
0.0
  0
LINE
  5
8551
  8
0
 10
43.2019315462386
 20
205.5627494534321
 30
0.0
 11
43.2019315462386
 21
205.2287655534321
 31
0.0
  0
LINE
  5
8552
  8
0
 10
43.86949654623862
 20
205.2287655534321
 30
0.0
 11
44.8710815462386
 21
205.2287655534321
 31
0.0
  0
LINE
  5
8553
  8
0
 10
44.8710815462386
 20
205.2287655534321
 30
0.0
 11
44.8710815462386
 21
205.5627494534321
 31
0.0
  0
LINE
  5
8554
  8
0
 10
44.8710815462386
 20
205.5627494534321
 30
0.0
 11
43.86949654623862
 21
205.5627494534321
 31
0.0
  0
LINE
  5
8555
  8
0
 10
43.86949654623862
 20
205.5627494534321
 30
0.0
 11
43.86949654623862
 21
205.2287655534321
 31
0.0
  0
LINE
  5
8556
  8
0
 10
45.53874154623861
 20
205.2287655534321
 30
0.0
 11
45.87272639623859
 21
205.2287655534321
 31
0.0
  0
LINE
  5
8557
  8
0
 10
45.87272639623859
 20
205.2287655534321
 30
0.0
 11
45.87272639623859
 21
205.5627494534321
 31
0.0
  0
LINE
  5
8558
  8
0
 10
45.87272639623859
 20
205.5627494534321
 30
0.0
 11
45.53874154623861
 21
205.5627494534321
 31
0.0
  0
LINE
  5
8559
  8
0
 10
45.53874154623861
 20
205.5627494534321
 30
0.0
 11
45.53874154623861
 21
205.2287655534321
 31
0.0
  0
LINE
  5
855A
  8
0
 10
46.20592654623863
 20
205.2287655534321
 30
0.0
 11
46.53991044623865
 21
205.2287655534321
 31
0.0
  0
LINE
  5
855B
  8
0
 10
46.53991044623865
 20
205.2287655534321
 30
0.0
 11
46.53991044623865
 21
205.5627494534321
 31
0.0
  0
LINE
  5
855C
  8
0
 10
46.53991044623865
 20
205.5627494534321
 30
0.0
 11
46.20592654623863
 21
205.5627494534321
 31
0.0
  0
LINE
  5
855D
  8
0
 10
46.20592654623863
 20
205.5627494534321
 30
0.0
 11
46.20592654623863
 21
205.2287655534321
 31
0.0
  0
LINE
  5
855E
  8
0
 10
47.54153154623862
 20
205.2287655534321
 30
0.0
 11
48.54311654623859
 21
205.2287655534321
 31
0.0
  0
LINE
  5
855F
  8
0
 10
48.54311654623859
 20
205.2287655534321
 30
0.0
 11
48.54311654623859
 21
205.5627494534321
 31
0.0
  0
LINE
  5
8560
  8
0
 10
48.54311654623859
 20
205.5627494534321
 30
0.0
 11
47.54153154623862
 21
205.5627494534321
 31
0.0
  0
LINE
  5
8561
  8
0
 10
47.54153154623862
 20
205.5627494534321
 30
0.0
 11
47.54153154623862
 21
205.2287655534321
 31
0.0
  0
LINE
  5
8562
  8
0
 10
49.2099215462386
 20
205.2287655534321
 30
0.0
 11
49.87751979623863
 21
205.2287655534321
 31
0.0
  0
LINE
  5
8563
  8
0
 10
49.87751979623863
 20
205.2287655534321
 30
0.0
 11
49.87751979623863
 21
205.5627494534321
 31
0.0
  0
LINE
  5
8564
  8
0
 10
49.87751979623863
 20
205.5627494534321
 30
0.0
 11
49.2099215462386
 21
205.5627494534321
 31
0.0
  0
LINE
  5
8565
  8
0
 10
49.2099215462386
 20
205.5627494534321
 30
0.0
 11
49.2099215462386
 21
205.2287655534321
 31
0.0
  0
LINE
  5
8566
  8
0
 10
50.5459065462386
 20
205.2287655534321
 30
0.0
 11
51.21313334623864
 21
205.2287655534321
 31
0.0
  0
LINE
  5
8567
  8
0
 10
51.21313334623864
 20
205.2287655534321
 30
0.0
 11
51.21313334623864
 21
205.5627494534321
 31
0.0
  0
LINE
  5
8568
  8
0
 10
51.21313334623864
 20
205.5627494534321
 30
0.0
 11
50.5459065462386
 21
205.5627494534321
 31
0.0
  0
LINE
  5
8569
  8
0
 10
50.5459065462386
 20
205.5627494534321
 30
0.0
 11
50.5459065462386
 21
205.2287655534321
 31
0.0
  0
LINE
  5
856A
  8
0
 10
51.54673154623862
 20
205.2287655534321
 30
0.0
 11
51.88071544623864
 21
205.2287655534321
 31
0.0
  0
LINE
  5
856B
  8
0
 10
51.88071544623864
 20
205.2287655534321
 30
0.0
 11
51.88071544623864
 21
205.5627494534321
 31
0.0
  0
LINE
  5
856C
  8
0
 10
51.88071544623864
 20
205.5627494534321
 30
0.0
 11
51.54673154623862
 21
205.5627494534321
 31
0.0
  0
LINE
  5
856D
  8
0
 10
51.54673154623862
 20
205.5627494534321
 30
0.0
 11
51.54673154623862
 21
205.2287655534321
 31
0.0
  0
LINE
  5
856E
  8
0
 10
52.21391654623864
 20
205.2287655534321
 30
0.0
 11
53.21550154623861
 21
205.2287655534321
 31
0.0
  0
LINE
  5
856F
  8
0
 10
53.21550154623861
 20
205.2287655534321
 30
0.0
 11
53.21550154623861
 21
205.5627494534321
 31
0.0
  0
LINE
  5
8570
  8
0
 10
53.21550154623861
 20
205.5627494534321
 30
0.0
 11
52.21391654623864
 21
205.5627494534321
 31
0.0
  0
LINE
  5
8571
  8
0
 10
52.21391654623864
 20
205.5627494534321
 30
0.0
 11
52.21391654623864
 21
205.2287655534321
 31
0.0
  0
LINE
  5
8572
  8
0
 10
42.53436654623863
 20
204.8951255534321
 30
0.0
 11
42.86872189623864
 21
204.8951255534321
 31
0.0
  0
LINE
  5
8573
  8
0
 10
42.86872189623864
 20
204.8951255534321
 30
0.0
 11
42.86872189623864
 21
205.2291094534321
 31
0.0
  0
LINE
  5
8574
  8
0
 10
42.86872189623864
 20
205.2291094534321
 30
0.0
 11
42.53436654623863
 21
205.2291094534321
 31
0.0
  0
LINE
  5
8575
  8
0
 10
42.53436654623863
 20
205.2291094534321
 30
0.0
 11
42.53436654623863
 21
204.8951255534321
 31
0.0
  0
LINE
  5
8576
  8
0
 10
43.86949654623862
 20
204.8951255534321
 30
0.0
 11
44.53709384623863
 21
204.8951255534321
 31
0.0
  0
LINE
  5
8577
  8
0
 10
44.53709384623863
 20
204.8951255534321
 30
0.0
 11
44.53709384623863
 21
205.2291094534321
 31
0.0
  0
LINE
  5
8578
  8
0
 10
44.53709384623863
 20
205.2291094534321
 30
0.0
 11
43.86949654623862
 21
205.2291094534321
 31
0.0
  0
LINE
  5
8579
  8
0
 10
43.86949654623862
 20
205.2291094534321
 30
0.0
 11
43.86949654623862
 21
204.8951255534321
 31
0.0
  0
LINE
  5
857A
  8
0
 10
44.8710815462386
 20
204.8951255534321
 30
0.0
 11
46.87350104623863
 21
204.8951255534321
 31
0.0
  0
LINE
  5
857B
  8
0
 10
46.87350104623863
 20
204.8951255534321
 30
0.0
 11
46.87350104623863
 21
205.2291094534321
 31
0.0
  0
LINE
  5
857C
  8
0
 10
46.87350104623863
 20
205.2291094534321
 30
0.0
 11
44.8710815462386
 21
205.2291094534321
 31
0.0
  0
LINE
  5
857D
  8
0
 10
44.8710815462386
 20
205.2291094534321
 30
0.0
 11
44.8710815462386
 21
204.8951255534321
 31
0.0
  0
LINE
  5
857E
  8
0
 10
48.54273654623864
 20
204.8951255534321
 30
0.0
 11
48.87672139623862
 21
204.8951255534321
 31
0.0
  0
LINE
  5
857F
  8
0
 10
48.87672139623862
 20
204.8951255534321
 30
0.0
 11
48.87672139623862
 21
205.2291094534321
 31
0.0
  0
LINE
  5
8580
  8
0
 10
48.87672139623862
 20
205.2291094534321
 30
0.0
 11
48.54273654623864
 21
205.2291094534321
 31
0.0
  0
LINE
  5
8581
  8
0
 10
48.54273654623864
 20
205.2291094534321
 30
0.0
 11
48.54273654623864
 21
204.8951255534321
 31
0.0
  0
LINE
  5
8582
  8
0
 10
49.87748654623863
 20
204.8951255534321
 30
0.0
 11
50.54508384623864
 21
204.8951255534321
 31
0.0
  0
LINE
  5
8583
  8
0
 10
50.54508384623864
 20
204.8951255534321
 30
0.0
 11
50.54508384623864
 21
205.2291094534321
 31
0.0
  0
LINE
  5
8584
  8
0
 10
50.54508384623864
 20
205.2291094534321
 30
0.0
 11
49.87748654623863
 21
205.2291094534321
 31
0.0
  0
LINE
  5
8585
  8
0
 10
49.87748654623863
 20
205.2291094534321
 30
0.0
 11
49.87748654623863
 21
204.8951255534321
 31
0.0
  0
LINE
  5
8586
  8
0
 10
50.87907154623861
 20
204.8951255534321
 30
0.0
 11
51.88065654623864
 21
204.8951255534321
 31
0.0
  0
LINE
  5
8587
  8
0
 10
51.88065654623864
 20
204.8951255534321
 30
0.0
 11
51.88065654623864
 21
205.2291094534321
 31
0.0
  0
LINE
  5
8588
  8
0
 10
51.88065654623864
 20
205.2291094534321
 30
0.0
 11
50.87907154623861
 21
205.2291094534321
 31
0.0
  0
LINE
  5
8589
  8
0
 10
50.87907154623861
 20
205.2291094534321
 30
0.0
 11
50.87907154623861
 21
204.8951255534321
 31
0.0
  0
LINE
  5
858A
  8
0
 10
52.21391654623864
 20
204.8951255534321
 30
0.0
 11
52.88151384623859
 21
204.8951255534321
 31
0.0
  0
LINE
  5
858B
  8
0
 10
52.88151384623859
 20
204.8951255534321
 30
0.0
 11
52.88151384623859
 21
205.2291094534321
 31
0.0
  0
LINE
  5
858C
  8
0
 10
52.88151384623859
 20
205.2291094534321
 30
0.0
 11
52.21391654623864
 21
205.2291094534321
 31
0.0
  0
LINE
  5
858D
  8
0
 10
52.21391654623864
 20
205.2291094534321
 30
0.0
 11
52.21391654623864
 21
204.8951255534321
 31
0.0
  0
LINE
  5
858E
  8
0
 10
53.21550154623861
 20
204.8951255534321
 30
0.0
 11
53.54985784623864
 21
204.8951255534321
 31
0.0
  0
LINE
  5
858F
  8
0
 10
53.54985784623864
 20
204.8951255534321
 30
0.0
 11
53.54985784623864
 21
205.2291094534321
 31
0.0
  0
LINE
  5
8590
  8
0
 10
53.54985784623864
 20
205.2291094534321
 30
0.0
 11
53.21550154623861
 21
205.2291094534321
 31
0.0
  0
LINE
  5
8591
  8
0
 10
53.21550154623861
 20
205.2291094534321
 30
0.0
 11
53.21550154623861
 21
204.8951255534321
 31
0.0
  0
LINE
  5
8592
  8
0
 10
42.53436654623863
 20
204.5611055534321
 30
0.0
 11
43.20196384623858
 21
204.5611055534321
 31
0.0
  0
LINE
  5
8593
  8
0
 10
43.20196384623858
 20
204.5611055534321
 30
0.0
 11
43.20196384623858
 21
204.8950904034321
 31
0.0
  0
LINE
  5
8594
  8
0
 10
43.20196384623858
 20
204.8950904034321
 30
0.0
 11
42.53436654623863
 21
204.8950904034321
 31
0.0
  0
LINE
  5
8595
  8
0
 10
42.53436654623863
 20
204.8950904034321
 30
0.0
 11
42.53436654623863
 21
204.5611055534321
 31
0.0
  0
LINE
  5
8596
  8
0
 10
43.53585654623862
 20
204.5611055534321
 30
0.0
 11
43.86984044623864
 21
204.5611055534321
 31
0.0
  0
LINE
  5
8597
  8
0
 10
43.86984044623864
 20
204.5611055534321
 30
0.0
 11
43.86984044623864
 21
204.8950904034321
 31
0.0
  0
LINE
  5
8598
  8
0
 10
43.86984044623864
 20
204.8950904034321
 30
0.0
 11
43.53585654623862
 21
204.8950904034321
 31
0.0
  0
LINE
  5
8599
  8
0
 10
43.53585654623862
 20
204.8950904034321
 30
0.0
 11
43.53585654623862
 21
204.5611055534321
 31
0.0
  0
LINE
  5
859A
  8
0
 10
44.20351654623863
 20
204.5611055534321
 30
0.0
 11
46.20593604623861
 21
204.5611055534321
 31
0.0
  0
LINE
  5
859B
  8
0
 10
46.20593604623861
 20
204.5611055534321
 30
0.0
 11
46.20593604623861
 21
204.8950904034321
 31
0.0
  0
LINE
  5
859C
  8
0
 10
46.20593604623861
 20
204.8950904034321
 30
0.0
 11
44.20351654623863
 21
204.8950904034321
 31
0.0
  0
LINE
  5
859D
  8
0
 10
44.20351654623863
 20
204.8950904034321
 30
0.0
 11
44.20351654623863
 21
204.5611055534321
 31
0.0
  0
LINE
  5
859E
  8
0
 10
47.54153154623862
 20
204.5611055534321
 30
0.0
 11
48.20912979623859
 21
204.5611055534321
 31
0.0
  0
LINE
  5
859F
  8
0
 10
48.20912979623859
 20
204.5611055534321
 30
0.0
 11
48.20912979623859
 21
204.8950904034321
 31
0.0
  0
LINE
  5
85A0
  8
0
 10
48.20912979623859
 20
204.8950904034321
 30
0.0
 11
47.54153154623862
 21
204.8950904034321
 31
0.0
  0
LINE
  5
85A1
  8
0
 10
47.54153154623862
 20
204.8950904034321
 30
0.0
 11
47.54153154623862
 21
204.5611055534321
 31
0.0
  0
LINE
  5
85A2
  8
0
 10
48.87666154623861
 20
204.5611055534321
 30
0.0
 11
49.54425884623862
 21
204.5611055534321
 31
0.0
  0
LINE
  5
85A3
  8
0
 10
49.54425884623862
 20
204.5611055534321
 30
0.0
 11
49.54425884623862
 21
204.8950904034321
 31
0.0
  0
LINE
  5
85A4
  8
0
 10
49.54425884623862
 20
204.8950904034321
 30
0.0
 11
48.87666154623861
 21
204.8950904034321
 31
0.0
  0
LINE
  5
85A5
  8
0
 10
48.87666154623861
 20
204.8950904034321
 30
0.0
 11
48.87666154623861
 21
204.5611055534321
 31
0.0
  0
LINE
  5
85A6
  8
0
 10
50.5459065462386
 20
204.5611055534321
 30
0.0
 11
52.54832604623863
 21
204.5611055534321
 31
0.0
  0
LINE
  5
85A7
  8
0
 10
52.54832604623863
 20
204.5611055534321
 30
0.0
 11
52.54832604623863
 21
204.8950904034321
 31
0.0
  0
LINE
  5
85A8
  8
0
 10
52.54832604623863
 20
204.8950904034321
 30
0.0
 11
50.5459065462386
 21
204.8950904034321
 31
0.0
  0
LINE
  5
85A9
  8
0
 10
50.5459065462386
 20
204.8950904034321
 30
0.0
 11
50.5459065462386
 21
204.5611055534321
 31
0.0
  0
LINE
  5
85AA
  8
0
 10
45.20510154623861
 20
204.2275605534321
 30
0.0
 11
45.53908639623864
 21
204.2275605534321
 31
0.0
  0
LINE
  5
85AB
  8
0
 10
45.53908639623864
 20
204.2275605534321
 30
0.0
 11
45.53908639623864
 21
204.5615454034321
 31
0.0
  0
LINE
  5
85AC
  8
0
 10
45.53908639623864
 20
204.5615454034321
 30
0.0
 11
45.20510154623861
 21
204.5615454034321
 31
0.0
  0
LINE
  5
85AD
  8
0
 10
45.20510154623861
 20
204.5615454034321
 30
0.0
 11
45.20510154623861
 21
204.2275605534321
 31
0.0
  0
LINE
  5
85AE
  8
0
 10
46.20592654623863
 20
204.2275605534321
 30
0.0
 11
46.53991044623865
 21
204.2275605534321
 31
0.0
  0
LINE
  5
85AF
  8
0
 10
46.53991044623865
 20
204.2275605534321
 30
0.0
 11
46.53991044623865
 21
204.5615454034321
 31
0.0
  0
LINE
  5
85B0
  8
0
 10
46.53991044623865
 20
204.5615454034321
 30
0.0
 11
46.20592654623863
 21
204.5615454034321
 31
0.0
  0
LINE
  5
85B1
  8
0
 10
46.20592654623863
 20
204.5615454034321
 30
0.0
 11
46.20592654623863
 21
204.2275605534321
 31
0.0
  0
LINE
  5
85B2
  8
0
 10
46.8734915462386
 20
204.2275605534321
 30
0.0
 11
47.20747639623863
 21
204.2275605534321
 31
0.0
  0
LINE
  5
85B3
  8
0
 10
47.20747639623863
 20
204.2275605534321
 30
0.0
 11
47.20747639623863
 21
204.5615454034321
 31
0.0
  0
LINE
  5
85B4
  8
0
 10
47.20747639623863
 20
204.5615454034321
 30
0.0
 11
46.8734915462386
 21
204.5615454034321
 31
0.0
  0
LINE
  5
85B5
  8
0
 10
46.8734915462386
 20
204.5615454034321
 30
0.0
 11
46.8734915462386
 21
204.2275605534321
 31
0.0
  0
LINE
  5
85B6
  8
0
 10
47.54153154623862
 20
204.2275605534321
 30
0.0
 11
47.87588689623863
 21
204.2275605534321
 31
0.0
  0
LINE
  5
85B7
  8
0
 10
47.87588689623863
 20
204.2275605534321
 30
0.0
 11
47.87588689623863
 21
204.5615454034321
 31
0.0
  0
LINE
  5
85B8
  8
0
 10
47.87588689623863
 20
204.5615454034321
 30
0.0
 11
47.54153154623862
 21
204.5615454034321
 31
0.0
  0
LINE
  5
85B9
  8
0
 10
47.54153154623862
 20
204.5615454034321
 30
0.0
 11
47.54153154623862
 21
204.2275605534321
 31
0.0
  0
LINE
  5
85BA
  8
0
 10
48.54273654623864
 20
204.2275605534321
 30
0.0
 11
49.54395104623865
 21
204.2275605534321
 31
0.0
  0
LINE
  5
85BB
  8
0
 10
49.54395104623865
 20
204.2275605534321
 30
0.0
 11
49.54395104623865
 21
204.5615454034321
 31
0.0
  0
LINE
  5
85BC
  8
0
 10
49.54395104623865
 20
204.5615454034321
 30
0.0
 11
48.54273654623864
 21
204.5615454034321
 31
0.0
  0
LINE
  5
85BD
  8
0
 10
48.54273654623864
 20
204.5615454034321
 30
0.0
 11
48.54273654623864
 21
204.2275605534321
 31
0.0
  0
LINE
  5
85BE
  8
0
 10
49.87748654623863
 20
204.2275605534321
 30
0.0
 11
50.87907154623861
 21
204.2275605534321
 31
0.0
  0
LINE
  5
85BF
  8
0
 10
50.87907154623861
 20
204.2275605534321
 30
0.0
 11
50.87907154623861
 21
204.5615454034321
 31
0.0
  0
LINE
  5
85C0
  8
0
 10
50.87907154623861
 20
204.5615454034321
 30
0.0
 11
49.87748654623863
 21
204.5615454034321
 31
0.0
  0
LINE
  5
85C1
  8
0
 10
49.87748654623863
 20
204.5615454034321
 30
0.0
 11
49.87748654623863
 21
204.2275605534321
 31
0.0
  0
LINE
  5
85C2
  8
0
 10
51.88065654623864
 20
204.2275605534321
 30
0.0
 11
52.21464139623862
 21
204.2275605534321
 31
0.0
  0
LINE
  5
85C3
  8
0
 10
52.21464139623862
 20
204.2275605534321
 30
0.0
 11
52.21464139623862
 21
204.5615454034321
 31
0.0
  0
LINE
  5
85C4
  8
0
 10
52.21464139623862
 20
204.5615454034321
 30
0.0
 11
51.88065654623864
 21
204.5615454034321
 31
0.0
  0
LINE
  5
85C5
  8
0
 10
51.88065654623864
 20
204.5615454034321
 30
0.0
 11
51.88065654623864
 21
204.2275605534321
 31
0.0
  0
LINE
  5
85C6
  8
0
 10
52.5483165462386
 20
204.2275605534321
 30
0.0
 11
53.54990154623863
 21
204.2275605534321
 31
0.0
  0
LINE
  5
85C7
  8
0
 10
53.54990154623863
 20
204.2275605534321
 30
0.0
 11
53.54990154623863
 21
204.5615454034321
 31
0.0
  0
LINE
  5
85C8
  8
0
 10
53.54990154623863
 20
204.5615454034321
 30
0.0
 11
52.5483165462386
 21
204.5615454034321
 31
0.0
  0
LINE
  5
85C9
  8
0
 10
52.5483165462386
 20
204.5615454034321
 30
0.0
 11
52.5483165462386
 21
204.2275605534321
 31
0.0
  0
LINE
  5
85CA
  8
0
 10
42.53436654623863
 20
203.8935405534321
 30
0.0
 11
44.87114804623866
 21
203.8935405534321
 31
0.0
  0
LINE
  5
85CB
  8
0
 10
44.87114804623866
 20
203.8935405534321
 30
0.0
 11
44.87114804623866
 21
204.2275244534321
 31
0.0
  0
LINE
  5
85CC
  8
0
 10
44.87114804623866
 20
204.2275244534321
 30
0.0
 11
42.53436654623863
 21
204.2275244534321
 31
0.0
  0
LINE
  5
85CD
  8
0
 10
42.53436654623863
 20
204.2275244534321
 30
0.0
 11
42.53436654623863
 21
203.8935405534321
 31
0.0
  0
LINE
  5
85CE
  8
0
 10
46.20592654623863
 20
203.8935405534321
 30
0.0
 11
47.20751154623861
 21
203.8935405534321
 31
0.0
  0
LINE
  5
85CF
  8
0
 10
47.20751154623861
 20
203.8935405534321
 30
0.0
 11
47.20751154623861
 21
204.2275244534321
 31
0.0
  0
LINE
  5
85D0
  8
0
 10
47.20751154623861
 20
204.2275244534321
 30
0.0
 11
46.20592654623863
 21
204.2275244534321
 31
0.0
  0
LINE
  5
85D1
  8
0
 10
46.20592654623863
 20
204.2275244534321
 30
0.0
 11
46.20592654623863
 21
203.8935405534321
 31
0.0
  0
LINE
  5
85D2
  8
0
 10
47.54153154623862
 20
203.8935405534321
 30
0.0
 11
48.20912979623859
 21
203.8935405534321
 31
0.0
  0
LINE
  5
85D3
  8
0
 10
48.20912979623859
 20
203.8935405534321
 30
0.0
 11
48.20912979623859
 21
204.2275244534321
 31
0.0
  0
LINE
  5
85D4
  8
0
 10
48.20912979623859
 20
204.2275244534321
 30
0.0
 11
47.54153154623862
 21
204.2275244534321
 31
0.0
  0
LINE
  5
85D5
  8
0
 10
47.54153154623862
 20
204.2275244534321
 30
0.0
 11
47.54153154623862
 21
203.8935405534321
 31
0.0
  0
LINE
  5
85D6
  8
0
 10
48.54273654623864
 20
203.8935405534321
 30
0.0
 11
48.87672139623862
 21
203.8935405534321
 31
0.0
  0
LINE
  5
85D7
  8
0
 10
48.87672139623862
 20
203.8935405534321
 30
0.0
 11
48.87672139623862
 21
204.2275244534321
 31
0.0
  0
LINE
  5
85D8
  8
0
 10
48.87672139623862
 20
204.2275244534321
 30
0.0
 11
48.54273654623864
 21
204.2275244534321
 31
0.0
  0
LINE
  5
85D9
  8
0
 10
48.54273654623864
 20
204.2275244534321
 30
0.0
 11
48.54273654623864
 21
203.8935405534321
 31
0.0
  0
LINE
  5
85DA
  8
0
 10
49.2099215462386
 20
203.8935405534321
 30
0.0
 11
49.87751979623863
 21
203.8935405534321
 31
0.0
  0
LINE
  5
85DB
  8
0
 10
49.87751979623863
 20
203.8935405534321
 30
0.0
 11
49.87751979623863
 21
204.2275244534321
 31
0.0
  0
LINE
  5
85DC
  8
0
 10
49.87751979623863
 20
204.2275244534321
 30
0.0
 11
49.2099215462386
 21
204.2275244534321
 31
0.0
  0
LINE
  5
85DD
  8
0
 10
49.2099215462386
 20
204.2275244534321
 30
0.0
 11
49.2099215462386
 21
203.8935405534321
 31
0.0
  0
LINE
  5
85DE
  8
0
 10
50.21150654623864
 20
203.8935405534321
 30
0.0
 11
50.87910384623859
 21
203.8935405534321
 31
0.0
  0
LINE
  5
85DF
  8
0
 10
50.87910384623859
 20
203.8935405534321
 30
0.0
 11
50.87910384623859
 21
204.2275244534321
 31
0.0
  0
LINE
  5
85E0
  8
0
 10
50.87910384623859
 20
204.2275244534321
 30
0.0
 11
50.21150654623864
 21
204.2275244534321
 31
0.0
  0
LINE
  5
85E1
  8
0
 10
50.21150654623864
 20
204.2275244534321
 30
0.0
 11
50.21150654623864
 21
203.8935405534321
 31
0.0
  0
LINE
  5
85E2
  8
0
 10
51.21309154623862
 20
203.8935405534321
 30
0.0
 11
51.54707544623864
 21
203.8935405534321
 31
0.0
  0
LINE
  5
85E3
  8
0
 10
51.54707544623864
 20
203.8935405534321
 30
0.0
 11
51.54707544623864
 21
204.2275244534321
 31
0.0
  0
LINE
  5
85E4
  8
0
 10
51.54707544623864
 20
204.2275244534321
 30
0.0
 11
51.21309154623862
 21
204.2275244534321
 31
0.0
  0
LINE
  5
85E5
  8
0
 10
51.21309154623862
 20
204.2275244534321
 30
0.0
 11
51.21309154623862
 21
203.8935405534321
 31
0.0
  0
LINE
  5
85E6
  8
0
 10
51.88065654623864
 20
203.8935405534321
 30
0.0
 11
52.21464139623862
 21
203.8935405534321
 31
0.0
  0
LINE
  5
85E7
  8
0
 10
52.21464139623862
 20
203.8935405534321
 30
0.0
 11
52.21464139623862
 21
204.2275244534321
 31
0.0
  0
LINE
  5
85E8
  8
0
 10
52.21464139623862
 20
204.2275244534321
 30
0.0
 11
51.88065654623864
 21
204.2275244534321
 31
0.0
  0
LINE
  5
85E9
  8
0
 10
51.88065654623864
 20
204.2275244534321
 30
0.0
 11
51.88065654623864
 21
203.8935405534321
 31
0.0
  0
LINE
  5
85EA
  8
0
 10
52.5483165462386
 20
203.8935405534321
 30
0.0
 11
53.21554239623862
 21
203.8935405534321
 31
0.0
  0
LINE
  5
85EB
  8
0
 10
53.21554239623862
 20
203.8935405534321
 30
0.0
 11
53.21554239623862
 21
204.2275244534321
 31
0.0
  0
LINE
  5
85EC
  8
0
 10
53.21554239623862
 20
204.2275244534321
 30
0.0
 11
52.5483165462386
 21
204.2275244534321
 31
0.0
  0
LINE
  5
85ED
  8
0
 10
52.5483165462386
 20
204.2275244534321
 30
0.0
 11
52.5483165462386
 21
203.8935405534321
 31
0.0
  0
LINE
  5
85EE
  8
0
 10
42.53436654623863
 20
203.5602805534321
 30
0.0
 11
42.86872189623864
 21
203.5602805534321
 31
0.0
  0
LINE
  5
85EF
  8
0
 10
42.86872189623864
 20
203.5602805534321
 30
0.0
 11
42.86872189623864
 21
203.8942644534321
 31
0.0
  0
LINE
  5
85F0
  8
0
 10
42.86872189623864
 20
203.8942644534321
 30
0.0
 11
42.53436654623863
 21
203.8942644534321
 31
0.0
  0
LINE
  5
85F1
  8
0
 10
42.53436654623863
 20
203.8942644534321
 30
0.0
 11
42.53436654623863
 21
203.5602805534321
 31
0.0
  0
LINE
  5
85F2
  8
0
 10
44.5374415462386
 20
203.5602805534321
 30
0.0
 11
44.87142544623862
 21
203.5602805534321
 31
0.0
  0
LINE
  5
85F3
  8
0
 10
44.87142544623862
 20
203.5602805534321
 30
0.0
 11
44.87142544623862
 21
203.8942644534321
 31
0.0
  0
LINE
  5
85F4
  8
0
 10
44.87142544623862
 20
203.8942644534321
 30
0.0
 11
44.5374415462386
 21
203.8942644534321
 31
0.0
  0
LINE
  5
85F5
  8
0
 10
44.5374415462386
 20
203.8942644534321
 30
0.0
 11
44.5374415462386
 21
203.5602805534321
 31
0.0
  0
LINE
  5
85F6
  8
0
 10
45.53874154623861
 20
203.5602805534321
 30
0.0
 11
46.53995604623861
 21
203.5602805534321
 31
0.0
  0
LINE
  5
85F7
  8
0
 10
46.53995604623861
 20
203.5602805534321
 30
0.0
 11
46.53995604623861
 21
203.8942644534321
 31
0.0
  0
LINE
  5
85F8
  8
0
 10
46.53995604623861
 20
203.8942644534321
 30
0.0
 11
45.53874154623861
 21
203.8942644534321
 31
0.0
  0
LINE
  5
85F9
  8
0
 10
45.53874154623861
 20
203.8942644534321
 30
0.0
 11
45.53874154623861
 21
203.5602805534321
 31
0.0
  0
LINE
  5
85FA
  8
0
 10
47.54153154623862
 20
203.5602805534321
 30
0.0
 11
47.87588689623863
 21
203.5602805534321
 31
0.0
  0
LINE
  5
85FB
  8
0
 10
47.87588689623863
 20
203.5602805534321
 30
0.0
 11
47.87588689623863
 21
203.8942644534321
 31
0.0
  0
LINE
  5
85FC
  8
0
 10
47.87588689623863
 20
203.8942644534321
 30
0.0
 11
47.54153154623862
 21
203.8942644534321
 31
0.0
  0
LINE
  5
85FD
  8
0
 10
47.54153154623862
 20
203.8942644534321
 30
0.0
 11
47.54153154623862
 21
203.5602805534321
 31
0.0
  0
LINE
  5
85FE
  8
0
 10
49.2099215462386
 20
203.5602805534321
 30
0.0
 11
49.54427689623861
 21
203.5602805534321
 31
0.0
  0
LINE
  5
85FF
  8
0
 10
49.54427689623861
 20
203.5602805534321
 30
0.0
 11
49.54427689623861
 21
203.8942644534321
 31
0.0
  0
LINE
  5
8600
  8
0
 10
49.54427689623861
 20
203.8942644534321
 30
0.0
 11
49.2099215462386
 21
203.8942644534321
 31
0.0
  0
LINE
  5
8601
  8
0
 10
49.2099215462386
 20
203.8942644534321
 30
0.0
 11
49.2099215462386
 21
203.5602805534321
 31
0.0
  0
LINE
  5
8602
  8
0
 10
50.21150654623864
 20
203.5602805534321
 30
0.0
 11
50.87910384623859
 21
203.5602805534321
 31
0.0
  0
LINE
  5
8603
  8
0
 10
50.87910384623859
 20
203.5602805534321
 30
0.0
 11
50.87910384623859
 21
203.8942644534321
 31
0.0
  0
LINE
  5
8604
  8
0
 10
50.87910384623859
 20
203.8942644534321
 30
0.0
 11
50.21150654623864
 21
203.8942644534321
 31
0.0
  0
LINE
  5
8605
  8
0
 10
50.21150654623864
 20
203.8942644534321
 30
0.0
 11
50.21150654623864
 21
203.5602805534321
 31
0.0
  0
LINE
  5
8606
  8
0
 10
51.88065654623864
 20
203.5602805534321
 30
0.0
 11
52.88224154623862
 21
203.5602805534321
 31
0.0
  0
LINE
  5
8607
  8
0
 10
52.88224154623862
 20
203.5602805534321
 30
0.0
 11
52.88224154623862
 21
203.8942644534321
 31
0.0
  0
LINE
  5
8608
  8
0
 10
52.88224154623862
 20
203.8942644534321
 30
0.0
 11
51.88065654623864
 21
203.8942644534321
 31
0.0
  0
LINE
  5
8609
  8
0
 10
51.88065654623864
 20
203.8942644534321
 30
0.0
 11
51.88065654623864
 21
203.5602805534321
 31
0.0
  0
LINE
  5
860A
  8
0
 10
53.21550154623861
 20
203.5602805534321
 30
0.0
 11
53.54985784623864
 21
203.5602805534321
 31
0.0
  0
LINE
  5
860B
  8
0
 10
53.54985784623864
 20
203.5602805534321
 30
0.0
 11
53.54985784623864
 21
203.8942644534321
 31
0.0
  0
LINE
  5
860C
  8
0
 10
53.54985784623864
 20
203.8942644534321
 30
0.0
 11
53.21550154623861
 21
203.8942644534321
 31
0.0
  0
LINE
  5
860D
  8
0
 10
53.21550154623861
 20
203.8942644534321
 30
0.0
 11
53.21550154623861
 21
203.5602805534321
 31
0.0
  0
LINE
  5
860E
  8
0
 10
42.53436654623863
 20
203.2262605534321
 30
0.0
 11
42.86872189623864
 21
203.2262605534321
 31
0.0
  0
LINE
  5
860F
  8
0
 10
42.86872189623864
 20
203.2262605534321
 30
0.0
 11
42.86872189623864
 21
203.5602454034321
 31
0.0
  0
LINE
  5
8610
  8
0
 10
42.86872189623864
 20
203.5602454034321
 30
0.0
 11
42.53436654623863
 21
203.5602454034321
 31
0.0
  0
LINE
  5
8611
  8
0
 10
42.53436654623863
 20
203.5602454034321
 30
0.0
 11
42.53436654623863
 21
203.2262605534321
 31
0.0
  0
LINE
  5
8612
  8
0
 10
43.2019315462386
 20
203.2262605534321
 30
0.0
 11
44.20351654623863
 21
203.2262605534321
 31
0.0
  0
LINE
  5
8613
  8
0
 10
44.20351654623863
 20
203.2262605534321
 30
0.0
 11
44.20351654623863
 21
203.5602454034321
 31
0.0
  0
LINE
  5
8614
  8
0
 10
44.20351654623863
 20
203.5602454034321
 30
0.0
 11
43.2019315462386
 21
203.5602454034321
 31
0.0
  0
LINE
  5
8615
  8
0
 10
43.2019315462386
 20
203.5602454034321
 30
0.0
 11
43.2019315462386
 21
203.2262605534321
 31
0.0
  0
LINE
  5
8616
  8
0
 10
44.5374415462386
 20
203.2262605534321
 30
0.0
 11
44.87142544623862
 21
203.2262605534321
 31
0.0
  0
LINE
  5
8617
  8
0
 10
44.87142544623862
 20
203.2262605534321
 30
0.0
 11
44.87142544623862
 21
203.5602454034321
 31
0.0
  0
LINE
  5
8618
  8
0
 10
44.87142544623862
 20
203.5602454034321
 30
0.0
 11
44.5374415462386
 21
203.5602454034321
 31
0.0
  0
LINE
  5
8619
  8
0
 10
44.5374415462386
 20
203.5602454034321
 30
0.0
 11
44.5374415462386
 21
203.2262605534321
 31
0.0
  0
LINE
  5
861A
  8
0
 10
45.87266654623863
 20
203.2262605534321
 30
0.0
 11
46.5398923962386
 21
203.2262605534321
 31
0.0
  0
LINE
  5
861B
  8
0
 10
46.5398923962386
 20
203.2262605534321
 30
0.0
 11
46.5398923962386
 21
203.5602454034321
 31
0.0
  0
LINE
  5
861C
  8
0
 10
46.5398923962386
 20
203.5602454034321
 30
0.0
 11
45.87266654623863
 21
203.5602454034321
 31
0.0
  0
LINE
  5
861D
  8
0
 10
45.87266654623863
 20
203.5602454034321
 30
0.0
 11
45.87266654623863
 21
203.2262605534321
 31
0.0
  0
LINE
  5
861E
  8
0
 10
46.8734915462386
 20
203.2262605534321
 30
0.0
 11
47.54108979623862
 21
203.2262605534321
 31
0.0
  0
LINE
  5
861F
  8
0
 10
47.54108979623862
 20
203.2262605534321
 30
0.0
 11
47.54108979623862
 21
203.5602454034321
 31
0.0
  0
LINE
  5
8620
  8
0
 10
47.54108979623862
 20
203.5602454034321
 30
0.0
 11
46.8734915462386
 21
203.5602454034321
 31
0.0
  0
LINE
  5
8621
  8
0
 10
46.8734915462386
 20
203.5602454034321
 30
0.0
 11
46.8734915462386
 21
203.2262605534321
 31
0.0
  0
LINE
  5
8622
  8
0
 10
48.54273654623864
 20
203.2262605534321
 30
0.0
 11
49.20996334623862
 21
203.2262605534321
 31
0.0
  0
LINE
  5
8623
  8
0
 10
49.20996334623862
 20
203.2262605534321
 30
0.0
 11
49.20996334623862
 21
203.5602454034321
 31
0.0
  0
LINE
  5
8624
  8
0
 10
49.20996334623862
 20
203.5602454034321
 30
0.0
 11
48.54273654623864
 21
203.5602454034321
 31
0.0
  0
LINE
  5
8625
  8
0
 10
48.54273654623864
 20
203.5602454034321
 30
0.0
 11
48.54273654623864
 21
203.2262605534321
 31
0.0
  0
LINE
  5
8626
  8
0
 10
49.54432154623862
 20
203.2262605534321
 30
0.0
 11
49.8783063962386
 21
203.2262605534321
 31
0.0
  0
LINE
  5
8627
  8
0
 10
49.8783063962386
 20
203.2262605534321
 30
0.0
 11
49.8783063962386
 21
203.5602454034321
 31
0.0
  0
LINE
  5
8628
  8
0
 10
49.8783063962386
 20
203.5602454034321
 30
0.0
 11
49.54432154623862
 21
203.5602454034321
 31
0.0
  0
LINE
  5
8629
  8
0
 10
49.54432154623862
 20
203.5602454034321
 30
0.0
 11
49.54432154623862
 21
203.2262605534321
 31
0.0
  0
LINE
  5
862A
  8
0
 10
50.5459065462386
 20
203.2262605534321
 30
0.0
 11
52.54832604623863
 21
203.2262605534321
 31
0.0
  0
LINE
  5
862B
  8
0
 10
52.54832604623863
 20
203.2262605534321
 30
0.0
 11
52.54832604623863
 21
203.5602454034321
 31
0.0
  0
LINE
  5
862C
  8
0
 10
52.54832604623863
 20
203.5602454034321
 30
0.0
 11
50.5459065462386
 21
203.5602454034321
 31
0.0
  0
LINE
  5
862D
  8
0
 10
50.5459065462386
 20
203.5602454034321
 30
0.0
 11
50.5459065462386
 21
203.2262605534321
 31
0.0
  0
LINE
  5
862E
  8
0
 10
42.53436654623863
 20
202.8919555534321
 30
0.0
 11
42.86872189623864
 21
202.8919555534321
 31
0.0
  0
LINE
  5
862F
  8
0
 10
42.86872189623864
 20
202.8919555534321
 30
0.0
 11
42.86872189623864
 21
203.2263109034321
 31
0.0
  0
LINE
  5
8630
  8
0
 10
42.86872189623864
 20
203.2263109034321
 30
0.0
 11
42.53436654623863
 21
203.2263109034321
 31
0.0
  0
LINE
  5
8631
  8
0
 10
42.53436654623863
 20
203.2263109034321
 30
0.0
 11
42.53436654623863
 21
202.8919555534321
 31
0.0
  0
LINE
  5
8632
  8
0
 10
43.2019315462386
 20
202.8919555534321
 30
0.0
 11
44.20351654623863
 21
202.8919555534321
 31
0.0
  0
LINE
  5
8633
  8
0
 10
44.20351654623863
 20
202.8919555534321
 30
0.0
 11
44.20351654623863
 21
203.2263109034321
 31
0.0
  0
LINE
  5
8634
  8
0
 10
44.20351654623863
 20
203.2263109034321
 30
0.0
 11
43.2019315462386
 21
203.2263109034321
 31
0.0
  0
LINE
  5
8635
  8
0
 10
43.2019315462386
 20
203.2263109034321
 30
0.0
 11
43.2019315462386
 21
202.8919555534321
 31
0.0
  0
LINE
  5
8636
  8
0
 10
44.5374415462386
 20
202.8919555534321
 30
0.0
 11
44.87142544623862
 21
202.8919555534321
 31
0.0
  0
LINE
  5
8637
  8
0
 10
44.87142544623862
 20
202.8919555534321
 30
0.0
 11
44.87142544623862
 21
203.2263109034321
 31
0.0
  0
LINE
  5
8638
  8
0
 10
44.87142544623862
 20
203.2263109034321
 30
0.0
 11
44.5374415462386
 21
203.2263109034321
 31
0.0
  0
LINE
  5
8639
  8
0
 10
44.5374415462386
 20
203.2263109034321
 30
0.0
 11
44.5374415462386
 21
202.8919555534321
 31
0.0
  0
LINE
  5
863A
  8
0
 10
45.53874154623861
 20
202.8919555534321
 30
0.0
 11
46.87356754623863
 21
202.8919555534321
 31
0.0
  0
LINE
  5
863B
  8
0
 10
46.87356754623863
 20
202.8919555534321
 30
0.0
 11
46.87356754623863
 21
203.2263109034321
 31
0.0
  0
LINE
  5
863C
  8
0
 10
46.87356754623863
 20
203.2263109034321
 30
0.0
 11
45.53874154623861
 21
203.2263109034321
 31
0.0
  0
LINE
  5
863D
  8
0
 10
45.53874154623861
 20
203.2263109034321
 30
0.0
 11
45.53874154623861
 21
202.8919555534321
 31
0.0
  0
LINE
  5
863E
  8
0
 10
47.20751154623861
 20
202.8919555534321
 30
0.0
 11
47.54149544623863
 21
202.8919555534321
 31
0.0
  0
LINE
  5
863F
  8
0
 10
47.54149544623863
 20
202.8919555534321
 30
0.0
 11
47.54149544623863
 21
203.2263109034321
 31
0.0
  0
LINE
  5
8640
  8
0
 10
47.54149544623863
 20
203.2263109034321
 30
0.0
 11
47.20751154623861
 21
203.2263109034321
 31
0.0
  0
LINE
  5
8641
  8
0
 10
47.20751154623861
 20
203.2263109034321
 30
0.0
 11
47.20751154623861
 21
202.8919555534321
 31
0.0
  0
LINE
  5
8642
  8
0
 10
47.87507654623863
 20
202.8919555534321
 30
0.0
 11
48.20906139623861
 21
202.8919555534321
 31
0.0
  0
LINE
  5
8643
  8
0
 10
48.20906139623861
 20
202.8919555534321
 30
0.0
 11
48.20906139623861
 21
203.2263109034321
 31
0.0
  0
LINE
  5
8644
  8
0
 10
48.20906139623861
 20
203.2263109034321
 30
0.0
 11
47.87507654623863
 21
203.2263109034321
 31
0.0
  0
LINE
  5
8645
  8
0
 10
47.87507654623863
 20
203.2263109034321
 30
0.0
 11
47.87507654623863
 21
202.8919555534321
 31
0.0
  0
LINE
  5
8646
  8
0
 10
49.2099215462386
 20
202.8919555534321
 30
0.0
 11
49.54427689623861
 21
202.8919555534321
 31
0.0
  0
LINE
  5
8647
  8
0
 10
49.54427689623861
 20
202.8919555534321
 30
0.0
 11
49.54427689623861
 21
203.2263109034321
 31
0.0
  0
LINE
  5
8648
  8
0
 10
49.54427689623861
 20
203.2263109034321
 30
0.0
 11
49.2099215462386
 21
203.2263109034321
 31
0.0
  0
LINE
  5
8649
  8
0
 10
49.2099215462386
 20
203.2263109034321
 30
0.0
 11
49.2099215462386
 21
202.8919555534321
 31
0.0
  0
LINE
  5
864A
  8
0
 10
49.87748654623863
 20
202.8919555534321
 30
0.0
 11
50.54508384623864
 21
202.8919555534321
 31
0.0
  0
LINE
  5
864B
  8
0
 10
50.54508384623864
 20
202.8919555534321
 30
0.0
 11
50.54508384623864
 21
203.2263109034321
 31
0.0
  0
LINE
  5
864C
  8
0
 10
50.54508384623864
 20
203.2263109034321
 30
0.0
 11
49.87748654623863
 21
203.2263109034321
 31
0.0
  0
LINE
  5
864D
  8
0
 10
49.87748654623863
 20
203.2263109034321
 30
0.0
 11
49.87748654623863
 21
202.8919555534321
 31
0.0
  0
LINE
  5
864E
  8
0
 10
50.87907154623861
 20
202.8919555534321
 30
0.0
 11
51.21305639623864
 21
202.8919555534321
 31
0.0
  0
LINE
  5
864F
  8
0
 10
51.21305639623864
 20
202.8919555534321
 30
0.0
 11
51.21305639623864
 21
203.2263109034321
 31
0.0
  0
LINE
  5
8650
  8
0
 10
51.21305639623864
 20
203.2263109034321
 30
0.0
 11
50.87907154623861
 21
203.2263109034321
 31
0.0
  0
LINE
  5
8651
  8
0
 10
50.87907154623861
 20
203.2263109034321
 30
0.0
 11
50.87907154623861
 21
202.8919555534321
 31
0.0
  0
LINE
  5
8652
  8
0
 10
51.54673154623862
 20
202.8919555534321
 30
0.0
 11
52.21395834623866
 21
202.8919555534321
 31
0.0
  0
LINE
  5
8653
  8
0
 10
52.21395834623866
 20
202.8919555534321
 30
0.0
 11
52.21395834623866
 21
203.2263109034321
 31
0.0
  0
LINE
  5
8654
  8
0
 10
52.21395834623866
 20
203.2263109034321
 30
0.0
 11
51.54673154623862
 21
203.2263109034321
 31
0.0
  0
LINE
  5
8655
  8
0
 10
51.54673154623862
 20
203.2263109034321
 30
0.0
 11
51.54673154623862
 21
202.8919555534321
 31
0.0
  0
LINE
  5
8656
  8
0
 10
52.5483165462386
 20
202.8919555534321
 30
0.0
 11
52.88230044623862
 21
202.8919555534321
 31
0.0
  0
LINE
  5
8657
  8
0
 10
52.88230044623862
 20
202.8919555534321
 30
0.0
 11
52.88230044623862
 21
203.2263109034321
 31
0.0
  0
LINE
  5
8658
  8
0
 10
52.88230044623862
 20
203.2263109034321
 30
0.0
 11
52.5483165462386
 21
203.2263109034321
 31
0.0
  0
LINE
  5
8659
  8
0
 10
52.5483165462386
 20
203.2263109034321
 30
0.0
 11
52.5483165462386
 21
202.8919555534321
 31
0.0
  0
LINE
  5
865A
  8
0
 10
53.21550154623861
 20
202.8919555534321
 30
0.0
 11
53.54985784623864
 21
202.8919555534321
 31
0.0
  0
LINE
  5
865B
  8
0
 10
53.54985784623864
 20
202.8919555534321
 30
0.0
 11
53.54985784623864
 21
203.2263109034321
 31
0.0
  0
LINE
  5
865C
  8
0
 10
53.54985784623864
 20
203.2263109034321
 30
0.0
 11
53.21550154623861
 21
203.2263109034321
 31
0.0
  0
LINE
  5
865D
  8
0
 10
53.21550154623861
 20
203.2263109034321
 30
0.0
 11
53.21550154623861
 21
202.8919555534321
 31
0.0
  0
LINE
  5
865E
  8
0
 10
42.53436654623863
 20
202.5586955534321
 30
0.0
 11
42.86872189623864
 21
202.5586955534321
 31
0.0
  0
LINE
  5
865F
  8
0
 10
42.86872189623864
 20
202.5586955534321
 30
0.0
 11
42.86872189623864
 21
202.8926794534321
 31
0.0
  0
LINE
  5
8660
  8
0
 10
42.86872189623864
 20
202.8926794534321
 30
0.0
 11
42.53436654623863
 21
202.8926794534321
 31
0.0
  0
LINE
  5
8661
  8
0
 10
42.53436654623863
 20
202.8926794534321
 30
0.0
 11
42.53436654623863
 21
202.5586955534321
 31
0.0
  0
LINE
  5
8662
  8
0
 10
43.2019315462386
 20
202.5586955534321
 30
0.0
 11
44.20351654623863
 21
202.5586955534321
 31
0.0
  0
LINE
  5
8663
  8
0
 10
44.20351654623863
 20
202.5586955534321
 30
0.0
 11
44.20351654623863
 21
202.8926794534321
 31
0.0
  0
LINE
  5
8664
  8
0
 10
44.20351654623863
 20
202.8926794534321
 30
0.0
 11
43.2019315462386
 21
202.8926794534321
 31
0.0
  0
LINE
  5
8665
  8
0
 10
43.2019315462386
 20
202.8926794534321
 30
0.0
 11
43.2019315462386
 21
202.5586955534321
 31
0.0
  0
LINE
  5
8666
  8
0
 10
44.5374415462386
 20
202.5586955534321
 30
0.0
 11
44.87142544623862
 21
202.5586955534321
 31
0.0
  0
LINE
  5
8667
  8
0
 10
44.87142544623862
 20
202.5586955534321
 30
0.0
 11
44.87142544623862
 21
202.8926794534321
 31
0.0
  0
LINE
  5
8668
  8
0
 10
44.87142544623862
 20
202.8926794534321
 30
0.0
 11
44.5374415462386
 21
202.8926794534321
 31
0.0
  0
LINE
  5
8669
  8
0
 10
44.5374415462386
 20
202.8926794534321
 30
0.0
 11
44.5374415462386
 21
202.5586955534321
 31
0.0
  0
LINE
  5
866A
  8
0
 10
45.87266654623863
 20
202.5586955534321
 30
0.0
 11
47.2074925462386
 21
202.5586955534321
 31
0.0
  0
LINE
  5
866B
  8
0
 10
47.2074925462386
 20
202.5586955534321
 30
0.0
 11
47.2074925462386
 21
202.8926794534321
 31
0.0
  0
LINE
  5
866C
  8
0
 10
47.2074925462386
 20
202.8926794534321
 30
0.0
 11
45.87266654623863
 21
202.8926794534321
 31
0.0
  0
LINE
  5
866D
  8
0
 10
45.87266654623863
 20
202.8926794534321
 30
0.0
 11
45.87266654623863
 21
202.5586955534321
 31
0.0
  0
LINE
  5
866E
  8
0
 10
47.87507654623863
 20
202.5586955534321
 30
0.0
 11
48.20906139623861
 21
202.5586955534321
 31
0.0
  0
LINE
  5
866F
  8
0
 10
48.20906139623861
 20
202.5586955534321
 30
0.0
 11
48.20906139623861
 21
202.8926794534321
 31
0.0
  0
LINE
  5
8670
  8
0
 10
48.20906139623861
 20
202.8926794534321
 30
0.0
 11
47.87507654623863
 21
202.8926794534321
 31
0.0
  0
LINE
  5
8671
  8
0
 10
47.87507654623863
 20
202.8926794534321
 30
0.0
 11
47.87507654623863
 21
202.5586955534321
 31
0.0
  0
LINE
  5
8672
  8
0
 10
48.54273654623864
 20
202.5586955534321
 30
0.0
 11
48.87672139623862
 21
202.5586955534321
 31
0.0
  0
LINE
  5
8673
  8
0
 10
48.87672139623862
 20
202.5586955534321
 30
0.0
 11
48.87672139623862
 21
202.8926794534321
 31
0.0
  0
LINE
  5
8674
  8
0
 10
48.87672139623862
 20
202.8926794534321
 30
0.0
 11
48.54273654623864
 21
202.8926794534321
 31
0.0
  0
LINE
  5
8675
  8
0
 10
48.54273654623864
 20
202.8926794534321
 30
0.0
 11
48.54273654623864
 21
202.5586955534321
 31
0.0
  0
LINE
  5
8676
  8
0
 10
49.2099215462386
 20
202.5586955534321
 30
0.0
 11
49.54427689623861
 21
202.5586955534321
 31
0.0
  0
LINE
  5
8677
  8
0
 10
49.54427689623861
 20
202.5586955534321
 30
0.0
 11
49.54427689623861
 21
202.8926794534321
 31
0.0
  0
LINE
  5
8678
  8
0
 10
49.54427689623861
 20
202.8926794534321
 30
0.0
 11
49.2099215462386
 21
202.8926794534321
 31
0.0
  0
LINE
  5
8679
  8
0
 10
49.2099215462386
 20
202.8926794534321
 30
0.0
 11
49.2099215462386
 21
202.5586955534321
 31
0.0
  0
LINE
  5
867A
  8
0
 10
49.87748654623863
 20
202.5586955534321
 30
0.0
 11
50.21147044623865
 21
202.5586955534321
 31
0.0
  0
LINE
  5
867B
  8
0
 10
50.21147044623865
 20
202.5586955534321
 30
0.0
 11
50.21147044623865
 21
202.8926794534321
 31
0.0
  0
LINE
  5
867C
  8
0
 10
50.21147044623865
 20
202.8926794534321
 30
0.0
 11
49.87748654623863
 21
202.8926794534321
 31
0.0
  0
LINE
  5
867D
  8
0
 10
49.87748654623863
 20
202.8926794534321
 30
0.0
 11
49.87748654623863
 21
202.5586955534321
 31
0.0
  0
LINE
  5
867E
  8
0
 10
50.5459065462386
 20
202.5586955534321
 30
0.0
 11
50.87989139623863
 21
202.5586955534321
 31
0.0
  0
LINE
  5
867F
  8
0
 10
50.87989139623863
 20
202.5586955534321
 30
0.0
 11
50.87989139623863
 21
202.8926794534321
 31
0.0
  0
LINE
  5
8680
  8
0
 10
50.87989139623863
 20
202.8926794534321
 30
0.0
 11
50.5459065462386
 21
202.8926794534321
 31
0.0
  0
LINE
  5
8681
  8
0
 10
50.5459065462386
 20
202.8926794534321
 30
0.0
 11
50.5459065462386
 21
202.5586955534321
 31
0.0
  0
LINE
  5
8682
  8
0
 10
51.54673154623862
 20
202.5586955534321
 30
0.0
 11
52.21395834623866
 21
202.5586955534321
 31
0.0
  0
LINE
  5
8683
  8
0
 10
52.21395834623866
 20
202.5586955534321
 30
0.0
 11
52.21395834623866
 21
202.8926794534321
 31
0.0
  0
LINE
  5
8684
  8
0
 10
52.21395834623866
 20
202.8926794534321
 30
0.0
 11
51.54673154623862
 21
202.8926794534321
 31
0.0
  0
LINE
  5
8685
  8
0
 10
51.54673154623862
 20
202.8926794534321
 30
0.0
 11
51.54673154623862
 21
202.5586955534321
 31
0.0
  0
LINE
  5
8686
  8
0
 10
52.88157654623865
 20
202.5586955534321
 30
0.0
 11
53.5491738462386
 21
202.5586955534321
 31
0.0
  0
LINE
  5
8687
  8
0
 10
53.5491738462386
 20
202.5586955534321
 30
0.0
 11
53.5491738462386
 21
202.8926794534321
 31
0.0
  0
LINE
  5
8688
  8
0
 10
53.5491738462386
 20
202.8926794534321
 30
0.0
 11
52.88157654623865
 21
202.8926794534321
 31
0.0
  0
LINE
  5
8689
  8
0
 10
52.88157654623865
 20
202.8926794534321
 30
0.0
 11
52.88157654623865
 21
202.5586955534321
 31
0.0
  0
LINE
  5
868A
  8
0
 10
42.53436654623863
 20
202.2247705534321
 30
0.0
 11
42.86872189623864
 21
202.2247705534321
 31
0.0
  0
LINE
  5
868B
  8
0
 10
42.86872189623864
 20
202.2247705534321
 30
0.0
 11
42.86872189623864
 21
202.5587554034321
 31
0.0
  0
LINE
  5
868C
  8
0
 10
42.86872189623864
 20
202.5587554034321
 30
0.0
 11
42.53436654623863
 21
202.5587554034321
 31
0.0
  0
LINE
  5
868D
  8
0
 10
42.53436654623863
 20
202.5587554034321
 30
0.0
 11
42.53436654623863
 21
202.2247705534321
 31
0.0
  0
LINE
  5
868E
  8
0
 10
44.5374415462386
 20
202.2247705534321
 30
0.0
 11
44.87142544623862
 21
202.2247705534321
 31
0.0
  0
LINE
  5
868F
  8
0
 10
44.87142544623862
 20
202.2247705534321
 30
0.0
 11
44.87142544623862
 21
202.5587554034321
 31
0.0
  0
LINE
  5
8690
  8
0
 10
44.87142544623862
 20
202.5587554034321
 30
0.0
 11
44.5374415462386
 21
202.5587554034321
 31
0.0
  0
LINE
  5
8691
  8
0
 10
44.5374415462386
 20
202.5587554034321
 30
0.0
 11
44.5374415462386
 21
202.2247705534321
 31
0.0
  0
LINE
  5
8692
  8
0
 10
45.87266654623863
 20
202.2247705534321
 30
0.0
 11
46.5398923962386
 21
202.2247705534321
 31
0.0
  0
LINE
  5
8693
  8
0
 10
46.5398923962386
 20
202.2247705534321
 30
0.0
 11
46.5398923962386
 21
202.5587554034321
 31
0.0
  0
LINE
  5
8694
  8
0
 10
46.5398923962386
 20
202.5587554034321
 30
0.0
 11
45.87266654623863
 21
202.5587554034321
 31
0.0
  0
LINE
  5
8695
  8
0
 10
45.87266654623863
 20
202.5587554034321
 30
0.0
 11
45.87266654623863
 21
202.2247705534321
 31
0.0
  0
LINE
  5
8696
  8
0
 10
47.20751154623861
 20
202.2247705534321
 30
0.0
 11
48.20909654623864
 21
202.2247705534321
 31
0.0
  0
LINE
  5
8697
  8
0
 10
48.20909654623864
 20
202.2247705534321
 30
0.0
 11
48.20909654623864
 21
202.5587554034321
 31
0.0
  0
LINE
  5
8698
  8
0
 10
48.20909654623864
 20
202.5587554034321
 30
0.0
 11
47.20751154623861
 21
202.5587554034321
 31
0.0
  0
LINE
  5
8699
  8
0
 10
47.20751154623861
 20
202.5587554034321
 30
0.0
 11
47.20751154623861
 21
202.2247705534321
 31
0.0
  0
LINE
  5
869A
  8
0
 10
48.87666154623861
 20
202.2247705534321
 30
0.0
 11
49.54425884623862
 21
202.2247705534321
 31
0.0
  0
LINE
  5
869B
  8
0
 10
49.54425884623862
 20
202.2247705534321
 30
0.0
 11
49.54425884623862
 21
202.5587554034321
 31
0.0
  0
LINE
  5
869C
  8
0
 10
49.54425884623862
 20
202.5587554034321
 30
0.0
 11
48.87666154623861
 21
202.5587554034321
 31
0.0
  0
LINE
  5
869D
  8
0
 10
48.87666154623861
 20
202.5587554034321
 30
0.0
 11
48.87666154623861
 21
202.2247705534321
 31
0.0
  0
LINE
  5
869E
  8
0
 10
51.54673154623862
 20
202.2247705534321
 30
0.0
 11
52.88155754623864
 21
202.2247705534321
 31
0.0
  0
LINE
  5
869F
  8
0
 10
52.88155754623864
 20
202.2247705534321
 30
0.0
 11
52.88155754623864
 21
202.5587554034321
 31
0.0
  0
LINE
  5
86A0
  8
0
 10
52.88155754623864
 20
202.5587554034321
 30
0.0
 11
51.54673154623862
 21
202.5587554034321
 31
0.0
  0
LINE
  5
86A1
  8
0
 10
51.54673154623862
 20
202.5587554034321
 30
0.0
 11
51.54673154623862
 21
202.2247705534321
 31
0.0
  0
LINE
  5
86A2
  8
0
 10
42.53436654623863
 20
201.8911305534321
 30
0.0
 11
44.87114804623866
 21
201.8911305534321
 31
0.0
  0
LINE
  5
86A3
  8
0
 10
44.87114804623866
 20
201.8911305534321
 30
0.0
 11
44.87114804623866
 21
202.2251154034321
 31
0.0
  0
LINE
  5
86A4
  8
0
 10
44.87114804623866
 20
202.2251154034321
 30
0.0
 11
42.53436654623863
 21
202.2251154034321
 31
0.0
  0
LINE
  5
86A5
  8
0
 10
42.53436654623863
 20
202.2251154034321
 30
0.0
 11
42.53436654623863
 21
201.8911305534321
 31
0.0
  0
LINE
  5
86A6
  8
0
 10
45.20510154623861
 20
201.8911305534321
 30
0.0
 11
45.53908639623864
 21
201.8911305534321
 31
0.0
  0
LINE
  5
86A7
  8
0
 10
45.53908639623864
 20
201.8911305534321
 30
0.0
 11
45.53908639623864
 21
202.2251154034321
 31
0.0
  0
LINE
  5
86A8
  8
0
 10
45.53908639623864
 20
202.2251154034321
 30
0.0
 11
45.20510154623861
 21
202.2251154034321
 31
0.0
  0
LINE
  5
86A9
  8
0
 10
45.20510154623861
 20
202.2251154034321
 30
0.0
 11
45.20510154623861
 21
201.8911305534321
 31
0.0
  0
LINE
  5
86AA
  8
0
 10
46.20592654623863
 20
201.8911305534321
 30
0.0
 11
46.53991044623865
 21
201.8911305534321
 31
0.0
  0
LINE
  5
86AB
  8
0
 10
46.53991044623865
 20
201.8911305534321
 30
0.0
 11
46.53991044623865
 21
202.2251154034321
 31
0.0
  0
LINE
  5
86AC
  8
0
 10
46.53991044623865
 20
202.2251154034321
 30
0.0
 11
46.20592654623863
 21
202.2251154034321
 31
0.0
  0
LINE
  5
86AD
  8
0
 10
46.20592654623863
 20
202.2251154034321
 30
0.0
 11
46.20592654623863
 21
201.8911305534321
 31
0.0
  0
LINE
  5
86AE
  8
0
 10
47.20751154623861
 20
201.8911305534321
 30
0.0
 11
47.54149544623863
 21
201.8911305534321
 31
0.0
  0
LINE
  5
86AF
  8
0
 10
47.54149544623863
 20
201.8911305534321
 30
0.0
 11
47.54149544623863
 21
202.2251154034321
 31
0.0
  0
LINE
  5
86B0
  8
0
 10
47.54149544623863
 20
202.2251154034321
 30
0.0
 11
47.20751154623861
 21
202.2251154034321
 31
0.0
  0
LINE
  5
86B1
  8
0
 10
47.20751154623861
 20
202.2251154034321
 30
0.0
 11
47.20751154623861
 21
201.8911305534321
 31
0.0
  0
LINE
  5
86B2
  8
0
 10
48.20909654623864
 20
201.8911305534321
 30
0.0
 11
48.5430804462386
 21
201.8911305534321
 31
0.0
  0
LINE
  5
86B3
  8
0
 10
48.5430804462386
 20
201.8911305534321
 30
0.0
 11
48.5430804462386
 21
202.2251154034321
 31
0.0
  0
LINE
  5
86B4
  8
0
 10
48.5430804462386
 20
202.2251154034321
 30
0.0
 11
48.20909654623864
 21
202.2251154034321
 31
0.0
  0
LINE
  5
86B5
  8
0
 10
48.20909654623864
 20
202.2251154034321
 30
0.0
 11
48.20909654623864
 21
201.8911305534321
 31
0.0
  0
LINE
  5
86B6
  8
0
 10
48.87666154623861
 20
201.8911305534321
 30
0.0
 11
49.21064544623863
 21
201.8911305534321
 31
0.0
  0
LINE
  5
86B7
  8
0
 10
49.21064544623863
 20
201.8911305534321
 30
0.0
 11
49.21064544623863
 21
202.2251154034321
 31
0.0
  0
LINE
  5
86B8
  8
0
 10
49.21064544623863
 20
202.2251154034321
 30
0.0
 11
48.87666154623861
 21
202.2251154034321
 31
0.0
  0
LINE
  5
86B9
  8
0
 10
48.87666154623861
 20
202.2251154034321
 30
0.0
 11
48.87666154623861
 21
201.8911305534321
 31
0.0
  0
LINE
  5
86BA
  8
0
 10
49.87748654623863
 20
201.8911305534321
 30
0.0
 11
51.21231254623859
 21
201.8911305534321
 31
0.0
  0
LINE
  5
86BB
  8
0
 10
51.21231254623859
 20
201.8911305534321
 30
0.0
 11
51.21231254623859
 21
202.2251154034321
 31
0.0
  0
LINE
  5
86BC
  8
0
 10
51.21231254623859
 20
202.2251154034321
 30
0.0
 11
49.87748654623863
 21
202.2251154034321
 31
0.0
  0
LINE
  5
86BD
  8
0
 10
49.87748654623863
 20
202.2251154034321
 30
0.0
 11
49.87748654623863
 21
201.8911305534321
 31
0.0
  0
LINE
  5
86BE
  8
0
 10
51.54673154623862
 20
201.8911305534321
 30
0.0
 11
51.88071544623864
 21
201.8911305534321
 31
0.0
  0
LINE
  5
86BF
  8
0
 10
51.88071544623864
 20
201.8911305534321
 30
0.0
 11
51.88071544623864
 21
202.2251154034321
 31
0.0
  0
LINE
  5
86C0
  8
0
 10
51.88071544623864
 20
202.2251154034321
 30
0.0
 11
51.54673154623862
 21
202.2251154034321
 31
0.0
  0
LINE
  5
86C1
  8
0
 10
51.54673154623862
 20
202.2251154034321
 30
0.0
 11
51.54673154623862
 21
201.8911305534321
 31
0.0
  0
LINE
  5
86C2
  8
0
 10
52.21391654623864
 20
201.8911305534321
 30
0.0
 11
52.54827189623865
 21
201.8911305534321
 31
0.0
  0
LINE
  5
86C3
  8
0
 10
52.54827189623865
 20
201.8911305534321
 30
0.0
 11
52.54827189623865
 21
202.2251154034321
 31
0.0
  0
LINE
  5
86C4
  8
0
 10
52.54827189623865
 20
202.2251154034321
 30
0.0
 11
52.21391654623864
 21
202.2251154034321
 31
0.0
  0
LINE
  5
86C5
  8
0
 10
52.21391654623864
 20
202.2251154034321
 30
0.0
 11
52.21391654623864
 21
201.8911305534321
 31
0.0
  0
LINE
  5
86C6
  8
0
 10
52.88157654623865
 20
201.8911305534321
 30
0.0
 11
53.21556044623861
 21
201.8911305534321
 31
0.0
  0
LINE
  5
86C7
  8
0
 10
53.21556044623861
 20
201.8911305534321
 30
0.0
 11
53.21556044623861
 21
202.2251154034321
 31
0.0
  0
LINE
  5
86C8
  8
0
 10
53.21556044623861
 20
202.2251154034321
 30
0.0
 11
52.88157654623865
 21
202.2251154034321
 31
0.0
  0
LINE
  5
86C9
  8
0
 10
52.88157654623865
 20
202.2251154034321
 30
0.0
 11
52.88157654623865
 21
201.8911305534321
 31
0.0
  0
CIRCLE
  5
889F
  8
0
 10
63.52185615177348
 20
209.8911305534323
 30
0.0
 40
1.5
  0
TEXT
  5
88A0
  8
0
 10
44.47302297808371
 20
198.5567133397886
 30
0.0
 40
1.3
  1
冬期以外(凍結の心配がない期間)や長期間使用しないときは電源をOFFにしてください
  0
POLYLINE
  5
88A1
  8
0
 66
     1
 10
0.0
 20
0.0
 30
0.0
 70
     1
  0
VERTEX
  5
9EB9
  8
0
 10
42.75218928779998
 20
200.440364881229
 30
0.0
  0
VERTEX
  5
9EBA
  8
0
 10
41.53975372250181
 20
198.3403648812287
 30
0.0
 42
0.5773502691896262
  0
VERTEX
  5
9EBB
  8
0
 10
41.62635626288022
 20
198.190364881229
 30
0.0
  0
VERTEX
  5
9EBC
  8
0
 10
44.05122739347655
 20
198.190364881229
 30
0.0
 42
0.577350269189628
  0
VERTEX
  5
9EBD
  8
0
 10
44.13782993385496
 20
198.3403648812287
 30
0.0
  0
VERTEX
  5
9EBE
  8
0
 10
42.92539436855679
 20
200.440364881229
 30
0.0
 42
0.577350269189626
  0
SEQEND
  5
9EDE
  8
0
  0
POLYLINE
  5
88A2
  8
0
 66
     1
 10
0.0
 20
0.0
 30
0.0
 70
     1
  0
VERTEX
  5
9EBF
  8
0
 10
42.79549055868449
 20
200.315364881229
 30
0.0
  0
VERTEX
  5
9EC0
  8
0
 10
41.66965753310171
 20
198.3653648812401
 30
0.0
 42
0.577350269275458
  0
VERTEX
  5
9EC1
  8
0
 10
41.71295880328455
 20
198.2903648812285
 30
0.0
  0
VERTEX
  5
9EC2
  8
0
 10
43.96462485312406
 20
198.2903648812285
 30
0.0
 42
0.5773502691037941
  0
VERTEX
  5
9EC3
  8
0
 10
44.00792612331963
 20
198.3653648812174
 30
0.0
  0
VERTEX
  5
9EC4
  8
0
 10
42.8820930990629
 20
200.315364881229
 30
0.0
 42
0.5773502691896244
  0
SEQEND
  5
9EDF
  8
0
  0
CIRCLE
  5
88A3
  8
0
 10
42.83879182817839
 20
198.5903648812287
 30
0.0
 40
0.1
  0
LINE
  5
88A4
  8
0
 10
42.73879182817848
 20
199.5903648812287
 30
0.0
 11
42.78923430605448
 21
198.8337277130882
 31
0.0
  0
LINE
  5
88A5
  8
0
 10
42.93879182817875
 20
199.5903648812287
 30
0.0
 11
42.88834935030229
 21
198.8337277130863
 31
0.0
  0
ARC
  5
88A6
  8
0
 10
42.83879182817839
 20
199.5903648812287
 30
0.0
 40
0.1
 50
0.0
 51
180.0
  0
ARC
  5
88A7
  8
0
 10
42.83879182817839
 20
198.8403648812287
 30
0.0
 40
0.05
 50
187.6281496673324
 51
352.3718503305627
  0
CIRCLE
  5
88AB
  8
0
 10
82.52185615177353
 20
213.8911305534323
 30
0.0
 40
1.5
  0
CIRCLE
  5
88AC
  8
0
 10
82.52185615177353
 20
205.8911305534323
 30
0.0
 40
1.5
  0
POLYLINE
  5
88AD
  8
0
 66
     1
 10
0.0
 20
0.0
 30
0.0
 70
     1
  0
VERTEX
  5
9EC5
  8
0
 10
77.4734696911882
 20
206.2009970022328
 30
0.0
  0
VERTEX
  5
9EC6
  8
0
 10
77.2051174747466
 20
206.0460637778326
 30
0.0
  0
VERTEX
  5
9EC7
  8
0
 10
77.2051174747466
 20
205.7361973290323
 30
0.0
  0
VERTEX
  5
9EC8
  8
0
 10
77.4734696911882
 20
205.5812641046322
 30
0.0
  0
VERTEX
  5
9EC9
  8
0
 10
77.7418219076298
 20
205.7361973290323
 30
0.0
  0
VERTEX
  5
9ECA
  8
0
 10
77.7418219076298
 20
206.0460637778326
 30
0.0
  0
SEQEND
  5
9EE0
  8
0
  0
POLYLINE
  5
88AE
  8
0
 66
     1
 10
0.0
 20
0.0
 30
0.0
  0
VERTEX
  5
9ECB
  8
0
 10
77.32346969118811
 20
206.4986473888218
 30
0.0
  0
VERTEX
  5
9ECC
  8
0
 10
77.02234467851457
 20
206.3247927816948
 30
0.0
  0
SEQEND
  5
9EE1
  8
0
  0
LINE
  5
88AF
  8
0
 10
77.32346969118811
 20
202.7911305534324
 30
0.0
 11
77.32346969118811
 21
203.3375771628392
 31
0.0
1001
GENIUS_GENODEF_13
1002
{
1000
HIER
1070
     0
1002
}
1002
{
1000
MANEDIT
1070
     0
1002
}
1002
{
1000
NOSEL
1070
     0
1002
}
1002
{
1000
BEHIND
1070
     0
1002
}
1002
{
1000
OTHER
1070
     0
1002
}
1002
{
1000
REACTOR
1002
}
1001
GENIUS_GENOBJ-N-CEN_13
1002
{
1000
OWNER
1000
GEN
1002
}
1001
GENIUS_GENCEN_19
1002
{
1040
3.0
1002
}
  0
LINE
  5
88B0
  8
0
 10
77.62346969118829
 20
202.7911305534324
 30
0.0
 11
77.62346969118829
 21
203.3375771628392
 31
0.0
1001
GENIUS_GENODEF_13
1002
{
1000
HIER
1070
     0
1002
}
1002
{
1000
MANEDIT
1070
     0
1002
}
1002
{
1000
NOSEL
1070
     0
1002
}
1002
{
1000
BEHIND
1070
     0
1002
}
1002
{
1000
OTHER
1070
     0
1002
}
1002
{
1000
REACTOR
1002
}
1001
GENIUS_GENOBJ-N-CEN_13
1002
{
1000
OWNER
1000
GEN
1002
}
1001
GENIUS_GENCEN_19
1002
{
1040
3.0
1002
}
  0
LINE
  5
88B1
  8
0
 10
77.62346969118829
 20
206.8911305534325
 30
0.0
 11
78.26929649613515
 21
207.5369573583795
 31
0.0
  0
LINE
  5
88B2
  8
0
 10
77.62346969118829
 20
207.3911305534325
 30
0.0
 11
78.01929649613515
 21
207.7869573583795
 31
0.0
  0
ARC
  5
88B3
  8
0
 10
77.4734696911882
 20
208.9911305534324
 30
0.0
 40
0.1499999999999773
 50
0.0
 51
180.0
  0
ARC
  5
88B4
  8
0
 10
78.14429649613515
 20
207.6619573583795
 30
0.0
 40
0.1767766952966168
 50
315.0000000000326
 51
135.0000000000065
  0
LINE
  5
88B5
  8
0
 10
77.32346969118811
 20
206.8911305534325
 30
0.0
 11
76.67764288624124
 21
207.5369573583795
 31
0.0
  0
LINE
  5
88B6
  8
0
 10
77.32346969118811
 20
207.3911305534325
 30
0.0
 11
76.92764288624124
 21
207.7869573583795
 31
0.0
  0
ARC
  5
88B7
  8
0
 10
76.80264288624124
 20
207.6619573583795
 30
0.0
 40
0.1767766952966168
 50
44.99999999999348
 51
224.9999999999674
  0
LINE
  5
88B8
  8
0
 10
77.62346969118829
 20
208.0911305534325
 30
0.0
 11
78.02225558840968
 21
208.4899164506539
 31
0.0
  0
LINE
  5
88B9
  8
0
 10
77.62346969118829
 20
208.4446839440257
 30
0.0
 11
77.84547889311301
 21
208.6666931459504
 31
0.0
  0
ARC
  5
88BA
  8
0
 10
77.93386724076112
 20
208.5783047983023
 30
0.0
 40
0.1249999999999206
 50
314.9999999998987
 51
134.9999999999355
  0
LINE
  5
88BB
  8
0
 10
79.30372557951404
 20
204.6612267428649
 30
0.0
 11
79.44969134856791
 21
204.1164750765895
 31
0.0
  0
LINE
  5
88BC
  8
0
 10
79.60991179736192
 20
204.4844500475682
 30
0.0
 11
79.69117280514018
 21
204.1811798378652
 31
0.0
  0
ARC
  5
88BD
  8
0
 10
80.03082962642719
 20
204.946259404768
 30
0.0
 40
0.1249999999999206
 50
285.0000000000046
 51
105.0000000000046
  0
LINE
  5
88BE
  8
0
 10
77.62346969118829
 20
204.8911305534325
 30
0.0
 11
77.62346969118829
 21
205.2836137180432
 31
0.0
1001
GENIUS_GENODEF_13
1002
{
1000
HIER
1070
     0
1002
}
1002
{
1000
MANEDIT
1070
     0
1002
}
1002
{
1000
NOSEL
1070
     0
1002
}
1002
{
1000
BEHIND
1070
     0
1002
}
1002
{
1000
OTHER
1070
     0
1002
}
1002
{
1000
REACTOR
1002
}
1001
GENIUS_GENOBJ-N-CEN_13
1002
{
1000
OWNER
1000
GEN
1002
}
1001
GENIUS_GENCEN_19
1002
{
1040
3.0
1002
}
  0
LINE
  5
88BF
  8
0
 10
79.75991179736178
 20
204.7442576687036
 30
0.0
 11
80.063182007065
 21
204.8255186764819
 31
0.0
  0
ARC
  5
88C0
  8
0
 10
79.57043207685427
 20
204.1488274572273
 30
0.0
 40
0.1249999999999206
 50
194.9999999999634
 51
14.99999999999198
  0
LINE
  5
88C1
  8
0
 10
79.4537255795139
 20
204.9210343640002
 30
0.0
 11
79.99847724578939
 21
205.0670001330542
 31
0.0
  0
LINE
  5
88C2
  8
0
 10
77.62346969118829
 20
203.6911305534325
 30
0.0
 11
77.62346969118829
 21
204.3911305534325
 31
0.0
1001
GENIUS_GENODEF_13
1002
{
1000
HIER
1070
     0
1002
}
1002
{
1000
MANEDIT
1070
     0
1002
}
1002
{
1000
NOSEL
1070
     0
1002
}
1002
{
1000
BEHIND
1070
     0
1002
}
1002
{
1000
OTHER
1070
     0
1002
}
1002
{
1000
REACTOR
1002
}
1001
GENIUS_GENOBJ-N-CEN_13
1002
{
1000
OWNER
1000
GEN
1002
}
1001
GENIUS_GENCEN_19
1002
{
1040
3.0
1002
}
  0
LINE
  5
88C3
  8
0
 10
77.32346969118811
 20
203.6911305534325
 30
0.0
 11
77.32346969118811
 21
204.3911305534325
 31
0.0
1001
GENIUS_GENODEF_13
1002
{
1000
HIER
1070
     0
1002
}
1002
{
1000
MANEDIT
1070
     0
1002
}
1002
{
1000
NOSEL
1070
     0
1002
}
1002
{
1000
BEHIND
1070
     0
1002
}
1002
{
1000
OTHER
1070
     0
1002
}
1002
{
1000
REACTOR
1002
}
1001
GENIUS_GENOBJ-N-CEN_13
1002
{
1000
OWNER
1000
GEN
1002
}
1001
GENIUS_GENCEN_19
1002
{
1040
3.0
1002
}
  0
LINE
  5
88C4
  8
0
 10
77.32346969118811
 20
208.4446839440257
 30
0.0
 11
77.32346969118811
 21
208.9911305534324
 31
0.0
1001
GENIUS_GENODEF_13
1002
{
1000
HIER
1070
     0
1002
}
1002
{
1000
MANEDIT
1070
     0
1002
}
1002
{
1000
NOSEL
1070
     0
1002
}
1002
{
1000
BEHIND
1070
     0
1002
}
1002
{
1000
OTHER
1070
     0
1002
}
1002
{
1000
REACTOR
1002
}
1001
GENIUS_GENOBJ-N-CEN_13
1002
{
1000
OWNER
1000
GEN
1002
}
1001
GENIUS_GENCEN_19
1002
{
1040
3.0
1002
}
  0
LINE
  5
88C5
  8
0
 10
77.62346969118829
 20
208.4446839440257
 30
0.0
 11
77.62346969118829
 21
208.9911305534324
 31
0.0
1001
GENIUS_GENODEF_13
1002
{
1000
HIER
1070
     0
1002
}
1002
{
1000
MANEDIT
1070
     0
1002
}
1002
{
1000
NOSEL
1070
     0
1002
}
1002
{
1000
BEHIND
1070
     0
1002
}
1002
{
1000
OTHER
1070
     0
1002
}
1002
{
1000
REACTOR
1002
}
1001
GENIUS_GENOBJ-N-CEN_13
1002
{
1000
OWNER
1000
GEN
1002
}
1001
GENIUS_GENCEN_19
1002
{
1040
3.0
1002
}
  0
ARC
  5
88C6
  8
0
 10
77.01307214161528
 20
208.5783047983023
 30
0.0
 40
0.1249999999999206
 50
45.00000000006448
 51
224.999999999954
  0
LINE
  5
88C7
  8
0
 10
77.32346969118811
 20
208.4446839440257
 30
0.0
 11
77.10146048926339
 21
208.6666931459504
 31
0.0
  0
LINE
  5
88C8
  8
0
 10
77.32346969118811
 20
208.0911305534325
 30
0.0
 11
76.92468379396672
 21
208.4899164506539
 31
0.0
  0
LINE
  5
88C9
  8
0
 10
77.62346969118829
 20
207.3911305534325
 30
0.0
 11
77.62346969118829
 21
208.0911305534325
 31
0.0
1001
GENIUS_GENODEF_13
1002
{
1000
HIER
1070
     0
1002
}
1002
{
1000
MANEDIT
1070
     0
1002
}
1002
{
1000
NOSEL
1070
     0
1002
}
1002
{
1000
BEHIND
1070
     0
1002
}
1002
{
1000
OTHER
1070
     0
1002
}
1002
{
1000
REACTOR
1002
}
1001
GENIUS_GENOBJ-N-CEN_13
1002
{
1000
OWNER
1000
GEN
1002
}
1001
GENIUS_GENCEN_19
1002
{
1040
3.0
1002
}
  0
LINE
  5
88CA
  8
0
 10
77.32346969118811
 20
207.3911305534325
 30
0.0
 11
77.32346969118811
 21
208.0911305534325
 31
0.0
1001
GENIUS_GENODEF_13
1002
{
1000
HIER
1070
     0
1002
}
1002
{
1000
MANEDIT
1070
     0
1002
}
1002
{
1000
NOSEL
1070
     0
1002
}
1002
{
1000
BEHIND
1070
     0
1002
}
1002
{
1000
OTHER
1070
     0
1002
}
1002
{
1000
REACTOR
1002
}
1001
GENIUS_GENOBJ-N-CEN_13
1002
{
1000
OWNER
1000
GEN
1002
}
1001
GENIUS_GENCEN_19
1002
{
1040
3.0
1002
}
  0
LINE
  5
88CB
  8
0
 10
77.62346969118829
 20
203.3375771628392
 30
0.0
 11
77.84547889311301
 21
203.1155679609144
 31
0.0
  0
LINE
  5
88CC
  8
0
 10
77.32346969118811
 20
204.3911305534325
 30
0.0
 11
76.92764288624124
 21
203.9953037484854
 31
0.0
  0
ARC
  5
88CD
  8
0
 10
77.4734696911882
 20
202.7911305534324
 30
0.0
 40
0.1499999999999773
 50
180.0
 51
0.0
  0
ARC
  5
88CE
  8
0
 10
78.14429649613515
 20
204.1203037484854
 30
0.0
 40
0.1767766952966168
 50
224.9999999999935
 51
44.99999999999348
  0
ARC
  5
88CF
  8
0
 10
76.80264288624124
 20
204.1203037484854
 30
0.0
 40
0.1767766952966168
 50
135.0000000000065
 51
315.0000000000065
  0
LINE
  5
88D0
  8
0
 10
77.62346969118829
 20
204.3911305534325
 30
0.0
 11
78.01929649613515
 21
203.9953037484854
 31
0.0
  0
LINE
  5
88D1
  8
0
 10
77.32346969118811
 20
204.8911305534325
 30
0.0
 11
76.67764288624124
 21
204.2453037484854
 31
0.0
  0
ARC
  5
88D2
  8
0
 10
77.93386724076112
 20
203.2039563085627
 30
0.0
 40
0.1249999999999206
 50
225.0000000000645
 51
44.99999999995394
  0
LINE
  5
88D3
  8
0
 10
77.32346969118811
 20
203.6911305534325
 30
0.0
 11
76.92468379396672
 21
203.2923446562111
 31
0.0
  0
LINE
  5
88D4
  8
0
 10
77.62346969118829
 20
203.6911305534325
 30
0.0
 11
78.02225558840968
 21
203.2923446562111
 31
0.0
  0
LINE
  5
88D5
  8
0
 10
77.62346969118829
 20
204.8911305534325
 30
0.0
 11
78.26929649613515
 21
204.2453037484854
 31
0.0
  0
ARC
  5
88D6
  8
0
 10
77.01307214161528
 20
203.2039563085627
 30
0.0
 40
0.1249999999999206
 50
134.9999999998987
 51
314.9999999998987
  0
LINE
  5
88D7
  8
0
 10
77.32346969118811
 20
203.3375771628392
 30
0.0
 11
77.10146048926339
 21
203.1155679609144
 31
0.0
  0
LINE
  5
88D8
  8
0
 10
78.69750779686495
 20
206.7710343640001
 30
0.0
 11
78.84239046297438
 21
207.3117438350565
 31
0.0
  0
ARC
  5
88D9
  8
0
 10
78.67163728750137
 20
207.3574970105297
 30
0.0
 40
0.1767766952966168
 50
344.9999999999747
 51
164.9999999999747
  0
LINE
  5
88DA
  8
0
 10
75.33702758501448
 20
204.4844500475682
 30
0.0
 11
74.86379093945646
 21
204.2112267428649
 31
0.0
1001
GENIUS_GENODEF_13
1002
{
1000
HIER
1070
     0
1002
}
1002
{
1000
MANEDIT
1070
     0
1002
}
1002
{
1000
NOSEL
1070
     0
1002
}
1002
{
1000
BEHIND
1070
     0
1002
}
1002
{
1000
OTHER
1070
     0
1002
}
1002
{
1000
REACTOR
1002
}
1001
GENIUS_GENOBJ-N-CEN_13
1002
{
1000
OWNER
1000
GEN
1002
}
1001
GENIUS_GENCEN_19
1002
{
1040
3.0
1002
}
  0
LINE
  5
88DB
  8
0
 10
78.41449509497255
 20
206.2612267428648
 30
0.0
 11
79.29671091697531
 21
206.0248377258092
 31
0.0
  0
LINE
  5
88DC
  8
0
 10
79.4537255795139
 20
206.8612267428648
 30
0.0
 11
79.99847724578939
 21
206.7152609738108
 31
0.0
  0
LINE
  5
88DD
  8
0
 10
79.75991179736178
 20
207.0380034381615
 30
0.0
 11
80.063182007065
 21
206.9567424303831
 31
0.0
  0
ARC
  5
88DE
  8
0
 10
80.03082962642719
 20
206.8360017020971
 30
0.0
 40
0.1249999999999206
 50
254.9999999999954
 51
74.99999999999544
  0
LINE
  5
88DF
  8
0
 10
79.30372557951404
 20
207.1210343640002
 30
0.0
 11
79.44969134856791
 21
207.6657860302755
 31
0.0
  0
LINE
  5
88E0
  8
0
 10
76.09943158551158
 20
205.2710343640001
 30
0.0
 11
75.4932138028625
 21
204.9210343640001
 31
0.0
1001
GENIUS_GENODEF_13
1002
{
1000
HIER
1070
     0
1002
}
1002
{
1000
MANEDIT
1070
     0
1002
}
1002
{
1000
NOSEL
1070
     0
1002
}
1002
{
1000
BEHIND
1070
     0
1002
}
1002
{
1000
OTHER
1070
     0
1002
}
1002
{
1000
REACTOR
1002
}
1001
GENIUS_GENOBJ-N-CEN_13
1002
{
1000
OWNER
1000
GEN
1002
}
1001
GENIUS_GENCEN_19
1002
{
1040
3.0
1002
}
  0
ARC
  5
88E1
  8
0
 10
76.27530209487503
 20
204.4247640963353
 30
0.0
 40
0.1767766952966168
 50
164.9999999999747
 51
345.000000000024
  0
LINE
  5
88E2
  8
0
 10
76.09943158551158
 20
205.2710343640001
 30
0.0
 11
75.55872211445507
 21
205.4159170301096
 31
0.0
  0
ARC
  5
88E3
  8
0
 10
80.15814844291998
 20
207.4411305534325
 30
0.0
 40
0.1499999999999773
 50
300.0000000000254
 51
120.0000000000254
  0
LINE
  5
88E4
  8
0
 10
78.41449509497255
 20
206.2612267428648
 30
0.0
 11
78.07459470386192
 21
206.0649851605594
 31
0.0
1001
GENIUS_GENODEF_13
1002
{
1000
HIER
1070
     0
1002
}
1002
{
1000
MANEDIT
1070
     0
1002
}
1002
{
1000
NOSEL
1070
     0
1002
}
1002
{
1000
BEHIND
1070
     0
1002
}
1002
{
1000
OTHER
1070
     0
1002
}
1002
{
1000
REACTOR
1002
}
1001
GENIUS_GENOBJ-N-CEN_13
1002
{
1000
OWNER
1000
GEN
1002
}
1001
GENIUS_GENCEN_19
1002
{
1040
3.0
1002
}
  0
LINE
  5
88E5
  8
0
 10
78.26449509497269
 20
206.5210343640001
 30
0.0
 11
77.92459470386206
 21
206.3247927816947
 31
0.0
1001
GENIUS_GENODEF_13
1002
{
1000
HIER
1070
     0
1002
}
1002
{
1000
MANEDIT
1070
     0
1002
}
1002
{
1000
NOSEL
1070
     0
1002
}
1002
{
1000
BEHIND
1070
     0
1002
}
1002
{
1000
OTHER
1070
     0
1002
}
1002
{
1000
REACTOR
1002
}
1001
GENIUS_GENOBJ-N-CEN_13
1002
{
1000
OWNER
1000
GEN
1002
}
1001
GENIUS_GENCEN_19
1002
{
1040
3.0
1002
}
  0
LINE
  5
88E6
  8
0
 10
76.24943158551145
 20
205.0112267428648
 30
0.0
 11
76.10454891940202
 21
204.4705172718084
 31
0.0
  0
LINE
  5
88E7
  8
0
 10
76.68244428740371
 20
205.2612267428648
 30
0.0
 11
76.44605527034827
 21
204.3790109208623
 31
0.0
  0
LINE
  5
88E8
  8
0
 10
80.23314844292003
 20
207.3112267428649
 30
0.0
 11
79.75991179736178
 21
207.0380034381615
 31
0.0
1001
GENIUS_GENODEF_13
1002
{
1000
HIER
1070
     0
1002
}
1002
{
1000
MANEDIT
1070
     0
1002
}
1002
{
1000
NOSEL
1070
     0
1002
}
1002
{
1000
BEHIND
1070
     0
1002
}
1002
{
1000
OTHER
1070
     0
1002
}
1002
{
1000
REACTOR
1002
}
1001
GENIUS_GENOBJ-N-CEN_13
1002
{
1000
OWNER
1000
GEN
1002
}
1001
GENIUS_GENCEN_19
1002
{
1040
3.0
1002
}
  0
ARC
  5
88E9
  8
0
 10
74.78879093945642
 20
204.3411305534325
 30
0.0
 40
0.1499999999999773
 50
120.0000000000254
 51
300.0000000000254
  0
ARC
  5
88EA
  8
0
 10
75.60447528992808
 20
205.5866702055826
 30
0.0
 40
0.1767766952966168
 50
75.0000000000127
 51
255.0000000000038
  0
LINE
  5
88EB
  8
0
 10
80.08314844291993
 20
207.5710343640002
 30
0.0
 11
79.60991179736192
 21
207.2978110592968
 31
0.0
1001
GENIUS_GENODEF_13
1002
{
1000
HIER
1070
     0
1002
}
1002
{
1000
MANEDIT
1070
     0
1002
}
1002
{
1000
NOSEL
1070
     0
1002
}
1002
{
1000
BEHIND
1070
     0
1002
}
1002
{
1000
OTHER
1070
     0
1002
}
1002
{
1000
REACTOR
1002
}
1001
GENIUS_GENOBJ-N-CEN_13
1002
{
1000
OWNER
1000
GEN
1002
}
1001
GENIUS_GENCEN_19
1002
{
1040
3.0
1002
}
  0
LINE
  5
88EC
  8
0
 10
79.30372557951404
 20
207.1210343640002
 30
0.0
 11
78.69750779686495
 21
206.7710343640001
 31
0.0
1001
GENIUS_GENODEF_13
1002
{
1000
HIER
1070
     0
1002
}
1002
{
1000
MANEDIT
1070
     0
1002
}
1002
{
1000
NOSEL
1070
     0
1002
}
1002
{
1000
BEHIND
1070
     0
1002
}
1002
{
1000
OTHER
1070
     0
1002
}
1002
{
1000
REACTOR
1002
}
1001
GENIUS_GENOBJ-N-CEN_13
1002
{
1000
OWNER
1000
GEN
1002
}
1001
GENIUS_GENCEN_19
1002
{
1040
3.0
1002
}
  0
LINE
  5
88ED
  8
0
 10
75.18702758501462
 20
204.7442576687036
 30
0.0
 11
74.71379093945637
 21
204.4710343640002
 31
0.0
1001
GENIUS_GENODEF_13
1002
{
1000
HIER
1070
     0
1002
}
1002
{
1000
MANEDIT
1070
     0
1002
}
1002
{
1000
NOSEL
1070
     0
1002
}
1002
{
1000
BEHIND
1070
     0
1002
}
1002
{
1000
OTHER
1070
     0
1002
}
1002
{
1000
REACTOR
1002
}
1001
GENIUS_GENOBJ-N-CEN_13
1002
{
1000
OWNER
1000
GEN
1002
}
1001
GENIUS_GENCEN_19
1002
{
1040
3.0
1002
}
  0
LINE
  5
88EE
  8
0
 10
79.4537255795139
 20
206.8612267428648
 30
0.0
 11
78.84750779686482
 21
206.5112267428648
 31
0.0
1001
GENIUS_GENODEF_13
1002
{
1000
HIER
1070
     0
1002
}
1002
{
1000
MANEDIT
1070
     0
1002
}
1002
{
1000
NOSEL
1070
     0
1002
}
1002
{
1000
BEHIND
1070
     0
1002
}
1002
{
1000
OTHER
1070
     0
1002
}
1002
{
1000
REACTOR
1002
}
1001
GENIUS_GENOBJ-N-CEN_13
1002
{
1000
OWNER
1000
GEN
1002
}
1001
GENIUS_GENCEN_19
1002
{
1040
3.0
1002
}
  0
LINE
  5
88EF
  8
0
 10
75.64321380286236
 20
204.6612267428648
 30
0.0
 11
75.49724803380849
 21
204.1164750765894
 31
0.0
  0
LINE
  5
88F0
  8
0
 10
75.33702758501448
 20
204.4844500475682
 30
0.0
 11
75.25576657723622
 21
204.1811798378651
 31
0.0
  0
ARC
  5
88F1
  8
0
 10
75.37650730552213
 20
204.1488274572272
 30
0.0
 40
0.1249999999999206
 50
165.000000000008
 51
345.0000000001188
  0
LINE
  5
88F2
  8
0
 10
75.4932138028625
 20
204.9210343640001
 30
0.0
 11
74.94846213658701
 21
205.0670001330541
 31
0.0
  0
LINE
  5
88F3
  8
0
 10
75.18702758501462
 20
204.7442576687036
 30
0.0
 11
74.8837573753114
 21
204.8255186764818
 31
0.0
  0
LINE
  5
88F4
  8
0
 10
76.24943158551145
 20
205.0112267428648
 30
0.0
 11
75.64321380286236
 21
204.6612267428648
 31
0.0
1001
GENIUS_GENODEF_13
1002
{
1000
HIER
1070
     0
1002
}
1002
{
1000
MANEDIT
1070
     0
1002
}
1002
{
1000
NOSEL
1070
     0
1002
}
1002
{
1000
BEHIND
1070
     0
1002
}
1002
{
1000
OTHER
1070
     0
1002
}
1002
{
1000
REACTOR
1002
}
1001
GENIUS_GENOBJ-N-CEN_13
1002
{
1000
OWNER
1000
GEN
1002
}
1001
GENIUS_GENCEN_19
1002
{
1040
3.0
1002
}
  0
LINE
  5
88F5
  8
0
 10
76.53244428740385
 20
205.5210343640001
 30
0.0
 11
75.65022846540109
 21
205.7574233810557
 31
0.0
  0
ARC
  5
88F6
  8
0
 10
74.91610975594921
 20
204.9462594047679
 30
0.0
 40
0.1249999999999206
 50
74.99999999999544
 51
254.9999999999954
  0
LINE
  5
88F7
  8
0
 10
78.84750779686482
 20
206.5112267428648
 30
0.0
 11
79.38821726792133
 21
206.3663440767554
 31
0.0
  0
ARC
  5
88F8
  8
0
 10
79.34246409244832
 20
206.1955909012824
 30
0.0
 40
0.1767766952966168
 50
255.0000000000038
 51
75.0000000000127
  0
LINE
  5
88F9
  8
0
 10
78.26449509497269
 20
206.5210343640001
 30
0.0
 11
78.50088411202836
 21
207.4032501860027
 31
0.0
  0
LINE
  5
88FA
  8
0
 10
77.32346969118811
 20
204.8911305534325
 30
0.0
 11
77.32346969118811
 21
205.2836137180432
 31
0.0
1001
GENIUS_GENODEF_13
1002
{
1000
HIER
1070
     0
1002
}
1002
{
1000
MANEDIT
1070
     0
1002
}
1002
{
1000
NOSEL
1070
     0
1002
}
1002
{
1000
BEHIND
1070
     0
1002
}
1002
{
1000
OTHER
1070
     0
1002
}
1002
{
1000
REACTOR
1002
}
1001
GENIUS_GENOBJ-N-CEN_13
1002
{
1000
OWNER
1000
GEN
1002
}
1001
GENIUS_GENCEN_19
1002
{
1040
3.0
1002
}
  0
LINE
  5
88FB
  8
0
 10
79.60991179736192
 20
207.2978110592968
 30
0.0
 11
79.69117280514018
 21
207.6010812689998
 31
0.0
  0
ARC
  5
88FC
  8
0
 10
79.57043207685427
 20
207.6334336496377
 30
0.0
 40
0.1249999999999206
 50
345.000000000008
 51
165.0000000001188
  0
LINE
  5
88FD
  8
0
 10
75.33702758501448
 20
207.2978110592968
 30
0.0
 11
75.25576657723622
 21
207.6010812689999
 31
0.0
  0
LINE
  5
88FE
  8
0
 10
75.4932138028625
 20
206.8612267428648
 30
0.0
 11
74.94846213658701
 21
206.7152609738108
 31
0.0
  0
LINE
  5
88FF
  8
0
 10
75.18702758501462
 20
207.0380034381615
 30
0.0
 11
74.8837573753114
 21
206.9567424303832
 31
0.0
  0
LINE
  5
8900
  8
0
 10
79.30372557951404
 20
204.6612267428649
 30
0.0
 11
78.69750779686495
 21
205.0112267428649
 31
0.0
1001
GENIUS_GENODEF_13
1002
{
1000
HIER
1070
     0
1002
}
1002
{
1000
MANEDIT
1070
     0
1002
}
1002
{
1000
NOSEL
1070
     0
1002
}
1002
{
1000
BEHIND
1070
     0
1002
}
1002
{
1000
OTHER
1070
     0
1002
}
1002
{
1000
REACTOR
1002
}
1001
GENIUS_GENOBJ-N-CEN_13
1002
{
1000
OWNER
1000
GEN
1002
}
1001
GENIUS_GENCEN_19
1002
{
1040
3.0
1002
}
  0
LINE
  5
8901
  8
0
 10
79.4537255795139
 20
204.9210343640002
 30
0.0
 11
78.84750779686482
 21
205.2710343640003
 31
0.0
1001
GENIUS_GENODEF_13
1002
{
1000
HIER
1070
     0
1002
}
1002
{
1000
MANEDIT
1070
     0
1002
}
1002
{
1000
NOSEL
1070
     0
1002
}
1002
{
1000
BEHIND
1070
     0
1002
}
1002
{
1000
OTHER
1070
     0
1002
}
1002
{
1000
REACTOR
1002
}
1001
GENIUS_GENOBJ-N-CEN_13
1002
{
1000
OWNER
1000
GEN
1002
}
1001
GENIUS_GENCEN_19
1002
{
1040
3.0
1002
}
  0
ARC
  5
8902
  8
0
 10
75.37650730552213
 20
207.6334336496377
 30
0.0
 40
0.1249999999999206
 50
14.99999999995087
 51
194.9999999999509
  0
ARC
  5
8903
  8
0
 10
74.91610975594921
 20
206.8360017020971
 30
0.0
 40
0.1249999999999206
 50
105.0000000000046
 51
285.0000000000046
  0
LINE
  5
8904
  8
0
 10
78.26449509497269
 20
205.2612267428649
 30
0.0
 11
77.92459470386206
 21
205.4574683251703
 31
0.0
1001
GENIUS_GENODEF_13
1002
{
1000
HIER
1070
     0
1002
}
1002
{
1000
MANEDIT
1070
     0
1002
}
1002
{
1000
NOSEL
1070
     0
1002
}
1002
{
1000
BEHIND
1070
     0
1002
}
1002
{
1000
OTHER
1070
     0
1002
}
1002
{
1000
REACTOR
1002
}
1001
GENIUS_GENOBJ-N-CEN_13
1002
{
1000
OWNER
1000
GEN
1002
}
1001
GENIUS_GENCEN_19
1002
{
1040
3.0
1002
}
  0
LINE
  5
8905
  8
0
 10
75.33702758501448
 20
207.2978110592968
 30
0.0
 11
74.86379093945646
 21
207.5710343640002
 31
0.0
1001
GENIUS_GENODEF_13
1002
{
1000
HIER
1070
     0
1002
}
1002
{
1000
MANEDIT
1070
     0
1002
}
1002
{
1000
NOSEL
1070
     0
1002
}
1002
{
1000
BEHIND
1070
     0
1002
}
1002
{
1000
OTHER
1070
     0
1002
}
1002
{
1000
REACTOR
1002
}
1001
GENIUS_GENOBJ-N-CEN_13
1002
{
1000
OWNER
1000
GEN
1002
}
1001
GENIUS_GENCEN_19
1002
{
1040
3.0
1002
}
  0
LINE
  5
8906
  8
0
 10
76.24943158551145
 20
206.7710343640003
 30
0.0
 11
76.10454891940202
 21
207.3117438350567
 31
0.0
  0
LINE
  5
8907
  8
0
 10
78.41449509497255
 20
205.5210343640003
 30
0.0
 11
79.29671091697531
 21
205.7574233810557
 31
0.0
  0
ARC
  5
8908
  8
0
 10
76.27530209487503
 20
207.3574970105297
 30
0.0
 40
0.1767766952966168
 50
15.00000000002528
 51
194.999999999976
  0
LINE
  5
8909
  8
0
 10
80.08314844291993
 20
204.2112267428649
 30
0.0
 11
79.60991179736192
 21
204.4844500475682
 31
0.0
1001
GENIUS_GENODEF_13
1002
{
1000
HIER
1070
     0
1002
}
1002
{
1000
MANEDIT
1070
     0
1002
}
1002
{
1000
NOSEL
1070
     0
1002
}
1002
{
1000
BEHIND
1070
     0
1002
}
1002
{
1000
OTHER
1070
     0
1002
}
1002
{
1000
REACTOR
1002
}
1001
GENIUS_GENOBJ-N-CEN_13
1002
{
1000
OWNER
1000
GEN
1002
}
1001
GENIUS_GENCEN_19
1002
{
1040
3.0
1002
}
  0
LINE
  5
890A
  8
0
 10
76.53244428740385
 20
206.2612267428649
 30
0.0
 11
75.65022846540109
 21
206.0248377258094
 31
0.0
  0
LINE
  5
890B
  8
0
 10
78.41449509497255
 20
205.5210343640003
 30
0.0
 11
78.07459470386192
 21
205.7172759463056
 31
0.0
1001
GENIUS_GENODEF_13
1002
{
1000
HIER
1070
     0
1002
}
1002
{
1000
MANEDIT
1070
     0
1002
}
1002
{
1000
NOSEL
1070
     0
1002
}
1002
{
1000
BEHIND
1070
     0
1002
}
1002
{
1000
OTHER
1070
     0
1002
}
1002
{
1000
REACTOR
1002
}
1001
GENIUS_GENOBJ-N-CEN_13
1002
{
1000
OWNER
1000
GEN
1002
}
1001
GENIUS_GENCEN_19
1002
{
1040
3.0
1002
}
  0
LINE
  5
890C
  8
0
 10
80.23314844292003
 20
204.4710343640002
 30
0.0
 11
79.75991179736178
 21
204.7442576687036
 31
0.0
1001
GENIUS_GENODEF_13
1002
{
1000
HIER
1070
     0
1002
}
1002
{
1000
MANEDIT
1070
     0
1002
}
1002
{
1000
NOSEL
1070
     0
1002
}
1002
{
1000
BEHIND
1070
     0
1002
}
1002
{
1000
OTHER
1070
     0
1002
}
1002
{
1000
REACTOR
1002
}
1001
GENIUS_GENOBJ-N-CEN_13
1002
{
1000
OWNER
1000
GEN
1002
}
1001
GENIUS_GENCEN_19
1002
{
1040
3.0
1002
}
  0
LINE
  5
890D
  8
0
 10
75.64321380286236
 20
207.1210343640002
 30
0.0
 11
75.49724803380849
 21
207.6657860302755
 31
0.0
  0
ARC
  5
890E
  8
0
 10
75.60447528992808
 20
206.1955909012824
 30
0.0
 40
0.1767766952966168
 50
104.9999999999962
 51
284.9999999999873
  0
ARC
  5
890F
  8
0
 10
74.78879093945642
 20
207.4411305534326
 30
0.0
 40
0.1499999999999773
 50
59.99999999997465
 51
239.9999999999746
  0
LINE
  5
8910
  8
0
 10
78.84750779686482
 20
205.2710343640003
 30
0.0
 11
79.38821726792133
 21
205.4159170301096
 31
0.0
  0
LINE
  5
8911
  8
0
 10
76.24943158551145
 20
206.7710343640003
 30
0.0
 11
75.64321380286236
 21
207.1210343640002
 31
0.0
1001
GENIUS_GENODEF_13
1002
{
1000
HIER
1070
     0
1002
}
1002
{
1000
MANEDIT
1070
     0
1002
}
1002
{
1000
NOSEL
1070
     0
1002
}
1002
{
1000
BEHIND
1070
     0
1002
}
1002
{
1000
OTHER
1070
     0
1002
}
1002
{
1000
REACTOR
1002
}
1001
GENIUS_GENOBJ-N-CEN_13
1002
{
1000
OWNER
1000
GEN
1002
}
1001
GENIUS_GENCEN_19
1002
{
1040
3.0
1002
}
  0
ARC
  5
8912
  8
0
 10
80.15814844291998
 20
204.3411305534326
 30
0.0
 40
0.1499999999999773
 50
239.9999999999746
 51
59.99999999997465
  0
ARC
  5
8913
  8
0
 10
79.34246409244832
 20
205.5866702055827
 30
0.0
 40
0.1767766952966168
 50
284.9999999999873
 51
104.9999999999962
  0
LINE
  5
8914
  8
0
 10
78.26449509497269
 20
205.2612267428649
 30
0.0
 11
78.50088411202836
 21
204.3790109208623
 31
0.0
  0
LINE
  5
8915
  8
0
 10
75.18702758501462
 20
207.0380034381615
 30
0.0
 11
74.71379093945637
 21
207.3112267428649
 31
0.0
1001
GENIUS_GENODEF_13
1002
{
1000
HIER
1070
     0
1002
}
1002
{
1000
MANEDIT
1070
     0
1002
}
1002
{
1000
NOSEL
1070
     0
1002
}
1002
{
1000
BEHIND
1070
     0
1002
}
1002
{
1000
OTHER
1070
     0
1002
}
1002
{
1000
REACTOR
1002
}
1001
GENIUS_GENOBJ-N-CEN_13
1002
{
1000
OWNER
1000
GEN
1002
}
1001
GENIUS_GENCEN_19
1002
{
1040
3.0
1002
}
  0
LINE
  5
8916
  8
0
 10
78.69750779686495
 20
205.0112267428649
 30
0.0
 11
78.84239046297438
 21
204.4705172718084
 31
0.0
  0
LINE
  5
8917
  8
0
 10
76.09943158551158
 20
206.5112267428649
 30
0.0
 11
75.55872211445507
 21
206.3663440767555
 31
0.0
  0
LINE
  5
8918
  8
0
 10
76.68244428740371
 20
206.5210343640003
 30
0.0
 11
76.44605527034827
 21
207.4032501860028
 31
0.0
  0
ARC
  5
8919
  8
0
 10
78.67163728750137
 20
204.4247640963354
 30
0.0
 40
0.1767766952966168
 50
195.0000000000253
 51
14.99999999997601
  0
LINE
  5
891A
  8
0
 10
76.09943158551158
 20
206.5112267428649
 30
0.0
 11
75.4932138028625
 21
206.8612267428648
 31
0.0
1001
GENIUS_GENODEF_13
1002
{
1000
HIER
1070
     0
1002
}
1002
{
1000
MANEDIT
1070
     0
1002
}
1002
{
1000
NOSEL
1070
     0
1002
}
1002
{
1000
BEHIND
1070
     0
1002
}
1002
{
1000
OTHER
1070
     0
1002
}
1002
{
1000
REACTOR
1002
}
1001
GENIUS_GENOBJ-N-CEN_13
1002
{
1000
OWNER
1000
GEN
1002
}
1001
GENIUS_GENCEN_19
1002
{
1040
3.0
1002
}
  0
POLYLINE
  5
891B
  8
0
 66
     1
 10
0.0
 20
0.0
 30
0.0
  0
VERTEX
  5
9ECD
  8
0
 10
77.92459470386206
 20
206.3247927816947
 30
0.0
  0
VERTEX
  5
9ECE
  8
0
 10
77.62346969118829
 20
206.4986473888218
 30
0.0
  0
SEQEND
  5
9EE2
  8
0
  0
POLYLINE
  5
891C
  8
0
 66
     1
 10
0.0
 20
0.0
 30
0.0
  0
VERTEX
  5
9ECF
  8
0
 10
77.02234467851434
 20
205.4574683251701
 30
0.0
  0
VERTEX
  5
9ED0
  8
0
 10
77.32346969118811
 20
205.2836137180432
 30
0.0
  0
SEQEND
  5
9EE3
  8
0
  0
POLYLINE
  5
891D
  8
0
 66
     1
 10
0.0
 20
0.0
 30
0.0
  0
VERTEX
  5
9ED1
  8
0
 10
77.62346969118829
 20
205.2836137180432
 30
0.0
  0
VERTEX
  5
9ED2
  8
0
 10
77.92459470386206
 20
205.4574683251703
 30
0.0
  0
SEQEND
  5
9EE4
  8
0
  0
POLYLINE
  5
891E
  8
0
 66
     1
 10
0.0
 20
0.0
 30
0.0
  0
VERTEX
  5
9ED3
  8
0
 10
78.07459470386192
 20
205.7172759463056
 30
0.0
  0
VERTEX
  5
9ED4
  8
0
 10
78.07459470386192
 20
206.0649851605594
 30
0.0
  0
SEQEND
  5
9EE5
  8
0
  0
POLYLINE
  5
891F
  8
0
 66
     1
 10
0.0
 20
0.0
 30
0.0
  0
VERTEX
  5
9ED5
  8
0
 10
76.87234467851448
 20
206.0649851605595
 30
0.0
  0
VERTEX
  5
9ED6
  8
0
 10
76.87234467851448
 20
205.7172759463055
 30
0.0
  0
SEQEND
  5
9EE6
  8
0
  0
LINE
  5
8920
  8
0
 10
76.87234467851448
 20
206.0649851605595
 30
0.0
 11
76.53244428740385
 21
206.2612267428649
 31
0.0
1001
GENIUS_GENODEF_13
1002
{
1000
HIER
1070
     0
1002
}
1002
{
1000
MANEDIT
1070
     0
1002
}
1002
{
1000
NOSEL
1070
     0
1002
}
1002
{
1000
BEHIND
1070
     0
1002
}
1002
{
1000
OTHER
1070
     0
1002
}
1002
{
1000
REACTOR
1002
}
1001
GENIUS_GENOBJ-N-CEN_13
1002
{
1000
OWNER
1000
GEN
1002
}
1001
GENIUS_GENCEN_19
1002
{
1040
3.0
1002
}
  0
LINE
  5
8921
  8
0
 10
77.02234467851434
 20
205.4574683251701
 30
0.0
 11
76.68244428740371
 21
205.2612267428648
 31
0.0
1001
GENIUS_GENODEF_13
1002
{
1000
HIER
1070
     0
1002
}
1002
{
1000
MANEDIT
1070
     0
1002
}
1002
{
1000
NOSEL
1070
     0
1002
}
1002
{
1000
BEHIND
1070
     0
1002
}
1002
{
1000
OTHER
1070
     0
1002
}
1002
{
1000
REACTOR
1002
}
1001
GENIUS_GENOBJ-N-CEN_13
1002
{
1000
OWNER
1000
GEN
1002
}
1001
GENIUS_GENCEN_19
1002
{
1040
3.0
1002
}
  0
LINE
  5
8922
  8
0
 10
77.62346969118829
 20
206.4986473888218
 30
0.0
 11
77.62346969118829
 21
206.8911305534325
 31
0.0
1001
GENIUS_GENODEF_13
1002
{
1000
HIER
1070
     0
1002
}
1002
{
1000
MANEDIT
1070
     0
1002
}
1002
{
1000
NOSEL
1070
     0
1002
}
1002
{
1000
BEHIND
1070
     0
1002
}
1002
{
1000
OTHER
1070
     0
1002
}
1002
{
1000
REACTOR
1002
}
1001
GENIUS_GENOBJ-N-CEN_13
1002
{
1000
OWNER
1000
GEN
1002
}
1001
GENIUS_GENCEN_19
1002
{
1040
3.0
1002
}
  0
LINE
  5
8923
  8
0
 10
76.87234467851448
 20
205.7172759463055
 30
0.0
 11
76.53244428740385
 21
205.5210343640001
 31
0.0
1001
GENIUS_GENODEF_13
1002
{
1000
HIER
1070
     0
1002
}
1002
{
1000
MANEDIT
1070
     0
1002
}
1002
{
1000
NOSEL
1070
     0
1002
}
1002
{
1000
BEHIND
1070
     0
1002
}
1002
{
1000
OTHER
1070
     0
1002
}
1002
{
1000
REACTOR
1002
}
1001
GENIUS_GENOBJ-N-CEN_13
1002
{
1000
OWNER
1000
GEN
1002
}
1001
GENIUS_GENCEN_19
1002
{
1040
3.0
1002
}
  0
LINE
  5
8924
  8
0
 10
77.02234467851457
 20
206.3247927816948
 30
0.0
 11
76.68244428740371
 21
206.5210343640003
 31
0.0
1001
GENIUS_GENODEF_13
1002
{
1000
HIER
1070
     0
1002
}
1002
{
1000
MANEDIT
1070
     0
1002
}
1002
{
1000
NOSEL
1070
     0
1002
}
1002
{
1000
BEHIND
1070
     0
1002
}
1002
{
1000
OTHER
1070
     0
1002
}
1002
{
1000
REACTOR
1002
}
1001
GENIUS_GENOBJ-N-CEN_13
1002
{
1000
OWNER
1000
GEN
1002
}
1001
GENIUS_GENCEN_19
1002
{
1040
3.0
1002
}
  0
LINE
  5
8925
  8
0
 10
77.32346969118811
 20
206.4986473888218
 30
0.0
 11
77.32346969118811
 21
206.8911305534325
 31
0.0
1001
GENIUS_GENODEF_13
1002
{
1000
HIER
1070
     0
1002
}
1002
{
1000
MANEDIT
1070
     0
1002
}
1002
{
1000
NOSEL
1070
     0
1002
}
1002
{
1000
BEHIND
1070
     0
1002
}
1002
{
1000
OTHER
1070
     0
1002
}
1002
{
1000
REACTOR
1002
}
1001
GENIUS_GENOBJ-N-CEN_13
1002
{
1000
OWNER
1000
GEN
1002
}
1001
GENIUS_GENCEN_19
1002
{
1040
3.0
1002
}
  0
POINT
  5
8926
  8
0
 10
77.4734696911882
 20
205.8911305534325
 30
0.0
  0
INSERT
  5
8928
  8
0
 62
     7
  2
*X10
 10
0.0
 20
0.0
 30
0.0
  0
ARC
  5
9CC5
  8
0
 10
57.65747357530596
 20
237.9020857790754
 30
0.0
 40
2.818784487207035
 50
42.10643774613582
 51
72.54963860556856
  0
ARC
  5
9CC6
  8
0
 10
57.66204042009603
 20
237.8940127484665
 30
0.0
 40
2.825124600724308
 50
72.68709389380213
 51
114.8350808121767
  0
ARC
  5
9CC7
  8
0
 10
57.66886519955997
 20
237.8951178347016
 30
0.0
 40
2.82699601279636
 50
114.9700164788607
 51
159.7658782060661
  0
ARC
  5
9CC8
  8
0
 10
57.67023802492429
 20
237.9019345202998
 30
0.0
 40
2.825934871198894
 50
159.905183900427
 51
208.1033156220139
  0
ARC
  5
9CC9
  8
0
 10
57.66700786976529
 20
237.9059701935839
 30
0.0
 40
2.824991178843034
 50
208.2063768521136
 51
252.9917058831041
  0
ARC
  5
9CCA
  8
0
 10
57.6611374182206
 20
237.8985017643477
 30
0.0
 40
2.816134321775382
 50
253.0614728184792
 51
303.6104044070932
  0
ARC
  5
9CCB
  8
0
 10
57.65197731125307
 20
237.9078056420599
 30
0.0
 40
2.828954381084524
 50
303.6606050060742
 51
336.6888212394869
  0
ARC
  5
9CCC
  8
0
 10
57.6730220420623
 20
237.8961943776728
 30
0.0
 40
2.805033656979198
 50
336.7365264644543
 51
352.0115546408769
  0
ARC
  5
9CCD
  8
0
 10
60.88196512445772
 20
237.4395066032306
 30
0.0
 40
0.4362831274249897
 50
124.9417661980038
 51
171.1843733476157
  0
ARC
  5
9CCE
  8
0
 10
60.95858726098081
 20
237.3812852868729
 30
0.0
 40
0.5287156028486799
 50
68.4989425064667
 51
128.1363643025119
  0
ARC
  5
9CCF
  8
0
 10
60.95744437000715
 20
237.378146887451
 30
0.0
 40
0.5320545012467646
 50
21.1786845759318
 51
68.50830305575624
  0
ARC
  5
9CD0
  8
0
 10
60.90062769955978
 20
237.3654600645949
 30
0.0
 40
0.589681274627146
 50
351.3677592453784
 51
20.3336515506318
  0
ARC
  5
9CD1
  8
0
 10
57.68343705213375
 20
237.8923655245407
 30
0.0
 40
3.849700154783129
 50
329.2955579547443
 51
350.8012500119645
  0
ARC
  5
9CD2
  8
0
 10
57.66066851953234
 20
237.9020081643038
 30
0.0
 40
3.874201887614873
 50
272.110292872708
 51
329.3448789643533
  0
ARC
  5
9CD3
  8
0
 10
57.65755494499676
 20
237.8871146964819
 30
0.0
 40
3.859434907830362
 50
228.1538869054162
 51
272.1646262877288
  0
ARC
  5
9CD4
  8
0
 10
57.65900386452154
 20
237.90017757222
 30
0.0
 40
3.870140110233152
 50
191.6688789272142
 51
228.2669244735644
  0
ARC
  5
9CD5
  8
0
 10
54.43289767128074
 20
239.206833669126
 30
0.0
 40
2.164208178393929
 50
198.723963475941
 51
254.8927875963115
  0
ARC
  5
9CD6
  8
0
 10
52.35567876398017
 20
239.7876004500213
 30
0.0
 40
1.275794832121307
 50
159.5889286416676
 51
271.2373210171075
  0
ARC
  5
9CD7
  8
0
 10
52.35551363530631
 20
239.7874554294814
 30
0.0
 40
1.27569066216106
 50
56.35876753652801
 51
159.5802376694569
  0
ARC
  5
9CD8
  8
0
 10
52.3550884812209
 20
239.7872806929895
 30
0.0
 40
1.27607169163755
 50
300.8474340774569
 51
56.3472215566183
  0
ARC
  5
9CD9
  8
0
 10
54.43269053159614
 20
239.2057593264058
 30
0.0
 40
1.513270340059136
 50
199.8575424768347
 51
244.8702054099216
  0
ARC
  5
9CDA
  8
0
 10
57.65322924019218
 20
237.9057679620422
 30
0.0
 40
3.863814594731709
 50
128.8924189419203
 51
181.0387416655363
  0
ARC
  5
9CDB
  8
0
 10
57.65982246991529
 20
237.9092435534847
 30
0.0
 40
3.865255996170545
 50
64.08752047055657
 51
129.0008345454499
  0
ARC
  5
9CDC
  8
0
 10
57.63603020600057
 20
237.881329516853
 30
0.0
 40
3.900771647075106
 50
41.93148962721691
 51
63.95236016528539
  0
ARC
  5
9CDD
  8
0
 10
60.13292493824081
 20
240.1416051043697
 30
0.0
 40
0.5329691384397407
 50
326.9391245431075
 51
40.53482220835337
  0
ARC
  5
9CDE
  8
0
 10
60.13437214279038
 20
240.1420730792606
 30
0.0
 40
0.532012855346209
 50
288.8262582044613
 51
326.8118599153543
  0
ARC
  5
9CDF
  8
0
 10
60.13890334140628
 20
240.1199579821216
 30
0.0
 40
0.5096266244015553
 50
220.0392534532336
 51
289.1464231932406
  0
ARC
  5
9CE0
  8
0
 10
52.35555897674907
 20
239.7874893808546
 30
0.0
 40
0.5333610920542913
 50
358.2903179254369
 51
182.8871640299775
  0
ARC
  5
9CE1
  8
0
 10
52.35556125442235
 20
239.7872677273976
 30
0.0
 40
0.533352248318835
 50
182.8633706346291
 51
358.3141113207849
  0
ARC
  5
9CE2
  8
0
 10
56.41442408629543
 20
238.3677711163663
 30
0.0
 40
0.6197235851139764
 50
269.9860909562865
 51
92.215844524471
  0
ARC
  5
9CE3
  8
0
 10
56.41454741015212
 20
238.3677734863885
 30
0.0
 40
0.619725997344469
 50
92.2272460800959
 51
269.9746892990934
  0
ARC
  5
9CE4
  8
0
 10
58.91025527816747
 20
238.3677641728642
 30
0.0
 40
0.6197167624590886
 50
269.9616101028838
 51
89.98977670141691
  0
ARC
  5
9CE5
  8
0
 10
58.90992044989125
 20
238.3677643149085
 30
0.0
 40
0.6197167706109338
 50
89.95882022245952
 51
269.9925665818412
  0
ARC
  5
9CE6
  8
0
 10
57.66213579924922
 20
238.3884265884265
 30
0.0
 40
1.621966970399848
 50
233.6417470358276
 51
306.8838773871507
  0
ARC
  5
9CE7
  8
0
 10
58.78581951004258
 20
236.8818256657476
 30
0.0
 40
0.2575808481740123
 50
48.75225273409504
 51
125.6665677964157
  0
ARC
  5
9CE8
  8
0
 10
58.78543677085509
 20
236.8815638093422
 30
0.0
 40
0.2580301008803177
 50
350.2089239138174
 51
48.72668974044582
  0
ARC
  5
9CE9
  8
0
 10
58.78228387416633
 20
236.8818071988885
 30
0.0
 40
0.2611786316846578
 50
302.7722891929776
 51
350.273929821677
  0
ARC
  5
9CEA
  8
0
 10
57.65846606407185
 20
238.3944598865074
 30
0.0
 40
2.145096291517153
 50
279.580629416799
 51
306.1433603622944
  0
ARC
  5
9CEB
  8
0
 10
57.66204946286871
 20
238.3875972813016
 30
0.0
 40
2.137734336466047
 50
255.4417152635177
 51
279.5165392426289
  0
ARC
  5
9CEC
  8
0
 10
57.66299912160252
 20
238.3853976232512
 30
0.0
 40
2.135844522087935
 50
232.8702473643658
 51
255.4022254017396
  0
ARC
  5
9CED
  8
0
 10
56.53944883532784
 20
236.8814560137392
 30
0.0
 40
0.25887643170293
 50
155.1529278431441
 51
230.2048092005848
  0
ARC
  5
9CEE
  8
0
 10
56.53824733876169
 20
236.8818955876214
 30
0.0
 40
0.2576014684421306
 50
103.7622011258897
 51
155.1293551933427
  0
ARC
  5
9CEF
  8
0
 10
56.53857260243923
 20
236.8821357754505
 30
0.0
 40
0.2574458242313935
 50
51.00202248787202
 51
103.845228473221
  0
ARC
  5
9CF0
  8
0
 10
49.67809520652032
 20
234.8563943007476
 30
0.0
 40
0.9091768622367206
 50
133.222959671733
 51
270.1894734199499
  0
ARC
  5
9CF1
  8
0
 10
49.67852055412749
 20
234.8560106117527
 30
0.0
 40
0.9087918676904274
 50
270.1627370543721
 51
50.19893912908906
  0
ARC
  5
9CF2
  8
0
 10
49.65784207733929
 20
241.2524807673734
 30
0.0
 40
0.6024320394943272
 50
2.835526177202197
 51
174.3732816204337
  0
ARC
  5
9CF3
  8
0
 10
49.65787804371765
 20
241.2524026784081
 30
0.0
 40
0.2295028634559424
 50
358.9188453068101
 51
179.9730971000994
  0
ARC
  5
9CF4
  8
0
 10
46.78493243185751
 20
235.9457459212866
 30
0.0
 40
0.0873768611613766
 50
87.47256260673397
 51
234.0891406317526
  0
ARC
  5
9CF5
  8
0
 10
48.19601220484149
 20
235.9466594019905
 30
0.0
 40
0.0863646317370953
 50
317.9031549580241
 51
87.18148688827209
  0
ARC
  5
9CF6
  8
0
 10
47.4901688107625
 20
235.2405610328387
 30
0.0
 40
0.086253216996548
 50
226.0322552542306
 51
315.2107938570516
  0
LINE
  5
9CF7
  8
0
 10
49.42837520556115
 20
241.2525104401383
 30
0.0
 11
49.42837520556115
 21
237.7287995026381
 31
0.0
  0
LINE
  5
9CF8
  8
0
 10
49.42837520556115
 20
237.7287995026381
 30
0.0
 11
49.88734004931159
 21
237.7287995026381
 31
0.0
  0
LINE
  5
9CF9
  8
0
 10
49.88734004931159
 20
237.7287995026381
 30
0.0
 11
49.88734004931159
 21
241.2480722831276
 31
0.0
  0
LINE
  5
9CFA
  8
0
 10
50.25953653284289
 20
241.2822825194278
 30
0.0
 11
50.26025997118624
 21
235.5542096588878
 31
0.0
  0
LINE
  5
9CFB
  8
0
 10
49.0554552836865
 20
235.5189062578625
 30
0.0
 11
49.0554552836865
 21
237.4994049713877
 31
0.0
  0
LINE
  5
9CFC
  8
0
 10
49.0554552836865
 20
237.4994049713877
 30
0.0
 11
46.59223262743619
 21
237.4994049713877
 31
0.0
  0
LINE
  5
9CFD
  8
0
 10
46.59223262743619
 20
237.4994049713877
 30
0.0
 11
46.59223262743619
 21
237.7287155590316
 31
0.0
  0
LINE
  5
9CFE
  8
0
 10
46.59223262743619
 20
237.7287155590316
 30
0.0
 11
49.0554552836865
 21
237.7287995026381
 31
0.0
  0
LINE
  5
9CFF
  8
0
 10
49.0554552836865
 20
237.7287995026381
 30
0.0
 11
49.05831268399724
 21
241.3115474138687
 31
0.0
  0
LINE
  5
9D00
  8
0
 10
46.73368364192781
 20
235.8749767373351
 30
0.0
 11
47.43028723017609
 21
235.1784819401527
 31
0.0
  0
LINE
  5
9D01
  8
0
 10
47.55138301806157
 20
235.1797955963884
 30
0.0
 11
48.2600958633003
 21
235.8887617825782
 31
0.0
  0
LINE
  5
9D02
  8
0
 10
48.20025896937083
 20
236.0329195585294
 30
0.0
 11
47.81909786181124
 21
236.0330377838881
 31
0.0
  0
LINE
  5
9D03
  8
0
 10
47.81909786181124
 20
236.0330377838881
 30
0.0
 11
47.81909786181124
 21
237.0471678531527
 31
0.0
  0
LINE
  5
9D04
  8
0
 10
47.81909786181124
 20
237.0471678531527
 30
0.0
 11
47.16114864306148
 21
237.0472955963878
 31
0.0
  0
LINE
  5
9D05
  8
0
 10
47.16114864306148
 20
237.0472955963878
 30
0.0
 11
47.16114864306148
 21
236.0330377838881
 31
0.0
  0
LINE
  5
9D06
  8
0
 10
47.16114864306148
 20
236.0330377838881
 30
0.0
 11
46.78878555915455
 21
236.0330377838881
 31
0.0
  0
LINE
  5
9D07
  8
0
 10
48.38810176806139
 20
239.6238971588882
 30
0.0
 11
48.18735958056133
 21
239.7397370026383
 31
0.0
  0
LINE
  5
9D08
  8
0
 10
48.18735958056133
 20
239.7397370026383
 30
0.0
 11
47.69104122118635
 21
239.4532135651379
 31
0.0
  0
LINE
  5
9D09
  8
0
 10
47.69104122118635
 20
239.4532135651379
 30
0.0
 11
47.6909533305615
 21
240.0264362213883
 31
0.0
  0
LINE
  5
9D0A
  8
0
 10
47.6909533305615
 20
240.0264362213883
 30
0.0
 11
47.49021114306144
 21
240.142276065138
 31
0.0
  0
LINE
  5
9D0B
  8
0
 10
47.49021114306144
 20
240.142276065138
 30
0.0
 11
47.28938106493653
 21
240.0264362213883
 31
0.0
  0
LINE
  5
9D0C
  8
0
 10
47.28938106493653
 20
240.0264362213883
 30
0.0
 11
47.28938106493653
 21
239.4532135651379
 31
0.0
  0
LINE
  5
9D0D
  8
0
 10
47.28938106493653
 20
239.4532135651379
 30
0.0
 11
46.79297481493624
 21
239.7397370026383
 31
0.0
  0
LINE
  5
9D0E
  8
0
 10
46.79297481493624
 20
239.7397370026383
 30
0.0
 11
46.59223262743619
 21
239.6238971588882
 31
0.0
  0
LINE
  5
9D0F
  8
0
 10
46.59223262743619
 20
239.6238971588882
 30
0.0
 11
46.59223262743619
 21
239.3920416901382
 31
0.0
  0
LINE
  5
9D10
  8
0
 10
46.59223262743619
 20
239.3920416901382
 30
0.0
 11
47.08863887743648
 21
239.1055182526379
 31
0.0
  0
LINE
  5
9D11
  8
0
 10
47.08863887743648
 20
239.1055182526379
 30
0.0
 11
46.59223262743619
 21
238.8188190338878
 31
0.0
  0
LINE
  5
9D12
  8
0
 10
46.59223262743619
 20
238.8188190338878
 30
0.0
 11
46.59223262743619
 21
238.5869635651379
 31
0.0
  0
LINE
  5
9D13
  8
0
 10
46.59223262743619
 20
238.5869635651379
 30
0.0
 11
46.79297481493624
 21
238.4711237213878
 31
0.0
  0
LINE
  5
9D14
  8
0
 10
46.79297481493624
 20
238.4711237213878
 30
0.0
 11
47.28938106493653
 21
238.7576471588881
 31
0.0
  0
LINE
  5
9D15
  8
0
 10
47.28938106493653
 20
238.7576471588881
 30
0.0
 11
47.28946895556139
 21
238.1844245026381
 31
0.0
  0
LINE
  5
9D16
  8
0
 10
47.28946895556139
 20
238.1844245026381
 30
0.0
 11
47.49021114306144
 21
238.068584658888
 31
0.0
  0
LINE
  5
9D17
  8
0
 10
47.49021114306144
 20
238.068584658888
 30
0.0
 11
47.69104122118635
 21
238.1844245026381
 31
0.0
  0
LINE
  5
9D18
  8
0
 10
47.69104122118635
 20
238.1844245026381
 30
0.0
 11
47.6909533305615
 21
238.7576471588881
 31
0.0
  0
LINE
  5
9D19
  8
0
 10
47.6909533305615
 20
238.7576471588881
 30
0.0
 11
48.18735958056133
 21
238.4711237213878
 31
0.0
  0
LINE
  5
9D1A
  8
0
 10
48.18735958056133
 20
238.4711237213878
 30
0.0
 11
48.38810176806139
 21
238.5869635651379
 31
0.0
  0
LINE
  5
9D1B
  8
0
 10
48.38810176806139
 20
238.5869635651379
 30
0.0
 11
48.38810176806139
 21
238.8188190338878
 31
0.0
  0
LINE
  5
9D1C
  8
0
 10
48.38810176806139
 20
238.8188190338878
 30
0.0
 11
47.89178340868641
 21
239.1055182526379
 31
0.0
  0
LINE
  5
9D1D
  8
0
 10
47.89178340868641
 20
239.1055182526379
 30
0.0
 11
48.38810176806139
 21
239.3920416901382
 31
0.0
  0
LINE
  5
9D1E
  8
0
 10
48.38810176806139
 20
239.3920416901382
 30
0.0
 11
48.38810176806139
 21
239.6238971588882
 31
0.0
  0
ARC
  5
9D1F
  8
0
 10
43.12195934609586
 20
230.2040387761898
 30
0.0
 40
0.3670849884844836
 50
88.43595018400146
 51
181.5907611346543
  0
ARC
  5
9D20
  8
0
 10
43.11635833128771
 20
230.1781437015997
 30
0.0
 40
0.3616836161732613
 50
177.5113831094955
 51
272.4752596742406
  0
ARC
  5
9D21
  8
0
 10
47.84987986345508
 20
228.8144577835455
 30
0.0
 40
1.757421872517575
 50
58.63205765538193
 51
91.82624667791212
  0
ARC
  5
9D22
  8
0
 10
48.03110437421923
 20
229.1539834573693
 30
0.0
 40
1.373363550070809
 50
357.3646905701011
 51
57.71432541069638
  0
ARC
  5
9D23
  8
0
 10
47.3722260600024
 20
229.1492349193533
 30
0.0
 40
2.031628876196131
 50
312.3580077297276
 51
358.3528725601312
  0
ARC
  5
9D24
  8
0
 10
46.53428715551005
 20
230.2833945949467
 30
0.0
 40
3.437343882281632
 50
279.6428930056555
 51
309.9410387066555
  0
ARC
  5
9D25
  8
0
 10
45.82933059788138
 20
233.0637988506724
 30
0.0
 40
6.30072093565917
 50
275.4117803201625
 51
281.7281302859267
  0
ARC
  5
9D26
  8
0
 10
46.41897769867534
 20
226.687003267115
 30
0.0
 40
0.104260725704256
 50
87.4752300347481
 51
163.7199139015231
  0
ARC
  5
9D27
  8
0
 10
46.61712834302529
 20
226.6564014696752
 30
0.0
 40
0.3041729537229
 50
168.6561978748385
 51
200.0889648778359
  0
ARC
  5
9D28
  8
0
 10
46.25955381345892
 20
225.9016384064045
 30
0.0
 40
0.2537512839947012
 50
261.3372320245579
 51
20.62119432797275
  0
ARC
  5
9D29
  8
0
 10
45.89216037940247
 20
227.3439404448404
 30
0.0
 40
1.693196324176135
 50
200.7119394462078
 51
269.6171287198742
  0
ARC
  5
9D2A
  8
0
 10
44.01207273051691
 20
228.5589379550532
 30
0.0
 40
0.2418104089398966
 50
78.56434552526832
 51
205.2442294015707
  0
ARC
  5
9D2B
  8
0
 10
45.20963082066827
 20
228.2511709040651
 30
0.0
 40
0.5454708950328662
 50
22.03436718337224
 51
87.10976279916946
  0
ARC
  5
9D2C
  8
0
 10
46.42807187546418
 20
228.0722141248961
 30
0.0
 40
0.5575982287956304
 50
198.5615711856641
 51
231.4697421334256
  0
ARC
  5
9D2D
  8
0
 10
46.27522808336143
 20
227.9079663356238
 30
0.0
 40
0.3343453227859988
 50
234.4274826077689
 51
282.9237961332864
  0
ARC
  5
9D2E
  8
0
 10
45.96412109231591
 20
228.9255339366646
 30
0.0
 40
1.397765155718417
 50
286.0259576150772
 51
322.7723331413743
  0
ARC
  5
9D2F
  8
0
 10
45.45650265127784
 20
229.3733371161109
 30
0.0
 40
2.073453716718684
 50
321.405557856657
 51
357.0055140470168
  0
ARC
  5
9D30
  8
0
 10
46.98166557240863
 20
229.303648848505
 30
0.0
 40
0.5468257340680802
 50
355.949160792519
 51
43.9861427071242
  0
ARC
  5
9D31
  8
0
 10
46.9897057134591
 20
229.2030994841304
 30
0.0
 40
0.6158215084356161
 50
51.25619189844242
 51
94.75943482914414
  0
ARC
  5
9D32
  8
0
 10
50.95033516609458
 20
228.1107919878851
 30
0.0
 40
0.9170993127764647
 50
90.00286747961208
 51
268.2497146487426
  0
ARC
  5
9D33
  8
0
 10
50.95025858474772
 20
228.1107931557721
 30
0.0
 40
0.9170981442542538
 50
268.2544990708273
 51
89.99808305752734
  0
ARC
  5
9D34
  8
0
 10
53.00544743993535
 20
230.1893326381902
 30
0.0
 40
0.3770840596473977
 50
89.9884213680942
 51
178.6192995487076
  0
ARC
  5
9D35
  8
0
 10
54.17349042306669
 20
230.1893326175699
 30
0.0
 40
0.3770841082509337
 50
1.380703407340469
 51
90.02492579868495
  0
ARC
  5
9D36
  8
0
 10
54.17356772625742
 20
227.6231577171774
 30
0.0
 40
0.3768973543141036
 50
269.9633102497762
 51
0.0233356470828619
  0
ARC
  5
9D37
  8
0
 10
53.00537010634585
 20
227.6231576846727
 30
0.0
 40
0.3768972758079303
 50
179.9766594067293
 51
270.0233405932998
  0
ARC
  5
9D38
  8
0
 10
56.67348593965091
 20
230.1899644561244
 30
0.0
 40
0.3765533069000618
 50
91.32755171042443
 51
178.7135156246359
  0
ARC
  5
9D39
  8
0
 10
57.84184585275487
 20
230.1892472310768
 30
0.0
 40
0.3772853742403397
 50
1.39293758417252
 51
88.57968746194234
  0
ARC
  5
9D3A
  8
0
 10
55.35470066232909
 20
227.3334093743741
 30
0.0
 40
0.9424222807007966
 50
270.2596160298706
 51
359.1847732707243
  0
ARC
  5
9D3B
  8
0
 10
55.08760860399882
 20
226.0185602448254
 30
0.0
 40
0.3724651062386549
 50
89.29017710179693
 51
270.7098228982031
  0
ARC
  5
9D3C
  8
0
 10
56.0287811363823
 20
227.7815096841047
 30
0.0
 40
2.135678174171317
 50
269.0521856153052
 51
304.9431031995392
  0
ARC
  5
9D3D
  8
0
 10
55.98388093546889
 20
227.8864387220395
 30
0.0
 40
2.247528607778139
 50
304.3492687691318
 51
342.0336073987834
  0
ARC
  5
9D3E
  8
0
 10
55.96985022703149
 20
227.8474149107187
 30
0.0
 40
2.249219839620582
 50
343.0895187182542
 51
0.3832968636579526
  0
ARC
  5
9D3F
  8
0
 10
59.44663312707412
 20
230.2030329010758
 30
0.0
 40
0.3724661917305334
 50
89.27682506750826
 51
270.7231749324918
  0
ARC
  5
9D40
  8
0
 10
59.216921308872
 20
228.5260797760754
 30
0.0
 40
0.3541906372867973
 50
86.29944766479187
 51
273.7005523352082
  0
ARC
  5
9D41
  8
0
 10
60.42079770475274
 20
229.2378727134472
 30
0.0
 40
0.358803858625055
 50
267.0887535299613
 51
356.4733133196503
  0
ARC
  5
9D42
  8
0
 10
60.4414053390705
 20
229.4931541659064
 30
0.0
 40
0.3396690833730922
 50
354.8685998202262
 51
96.56439594170052
  0
ARC
  5
9D43
  8
0
 10
64.74309688524858
 20
230.2030329010758
 30
0.0
 40
0.3724651062386495
 50
269.2901771018636
 51
90.7098228981364
  0
ARC
  5
9D44
  8
0
 10
63.07886620009531
 20
229.4536991331043
 30
0.0
 40
0.3768972758071489
 50
89.97665940658239
 51
180.0233405934893
  0
ARC
  5
9D45
  8
0
 10
63.03671043351198
 20
229.2116152041542
 30
0.0
 40
0.3347676534002981
 50
179.2835006658344
 51
277.2606919210987
  0
ARC
  5
9D46
  8
0
 10
63.06765651134675
 20
227.8065051579766
 30
0.0
 40
0.3662987656052747
 50
88.22229995736356
 51
176.6896381244135
  0
ARC
  5
9D47
  8
0
 10
63.6135897247112
 20
227.2567616655865
 30
0.0
 40
0.9125541393853733
 50
182.5916258786893
 51
271.6600393676819
  0
ARC
  5
9D48
  8
0
 10
64.76530104827286
 20
225.9953571198257
 30
0.0
 40
0.3502616083451314
 50
265.608746066266
 51
94.39125393373403
  0
ARC
  5
9D49
  8
0
 10
62.96167971981927
 20
227.8729562577855
 30
0.0
 40
2.227259321723195
 50
225.0349285396396
 51
271.1216669202527
  0
ARC
  5
9D4A
  8
0
 10
62.7074616697024
 20
227.7024321428191
 30
0.0
 40
1.927871578424823
 50
179.3527648258316
 51
226.7994771726991
  0
ARC
  5
9D4B
  8
0
 10
60.60008253863428
 20
227.9573428655314
 30
0.0
 40
0.1798521029892861
 50
357.1558279388276
 51
48.65700890603938
  0
ARC
  5
9D4C
  8
0
 10
60.52984032741126
 20
227.8612999176024
 30
0.0
 40
0.2985497565163959
 50
50.7122642471553
 51
78.58034235835271
  0
ARC
  5
9D4D
  8
0
 10
60.41503395109232
 20
227.3581788406266
 30
0.0
 40
0.8145440850389851
 50
77.67158325142975
 51
90.87644874463575
  0
ARC
  5
9D4E
  8
0
 10
64.94827264105756
 20
228.5523433517421
 30
0.0
 40
0.3797198155434018
 50
270.2659772238895
 51
356.0405792706824
  0
ARC
  5
9D4F
  8
0
 10
64.96166616666889
 20
228.5140992049591
 30
0.0
 40
0.365617762344841
 50
1.884695911894787
 51
91.822965253088
  0
LINE
  5
9D50
  8
0
 10
43.13197872118637
 20
230.570987002638
 30
0.0
 11
47.79387325243663
 21
230.570987002638
 31
0.0
  0
LINE
  5
9D51
  8
0
 10
46.93860958056159
 20
229.8167975495134
 30
0.0
 11
43.13197872118637
 21
229.8167975495134
 31
0.0
  0
LINE
  5
9D52
  8
0
 10
44.06001583056143
 20
228.7959479401379
 30
0.0
 11
45.23713497118608
 21
228.7959479401379
 31
0.0
  0
LINE
  5
9D53
  8
0
 10
45.71525997118663
 20
228.455811221388
 30
0.0
 11
45.8994787211863
 21
227.894717471388
 31
0.0
  0
LINE
  5
9D54
  8
0
 10
43.79335567431136
 20
228.455811221388
 30
0.0
 11
44.30839473681174
 21
226.7451080963883
 31
0.0
  0
LINE
  5
9D55
  8
0
 10
45.88084590868623
 20
225.6507819245134
 30
0.0
 11
46.22133418993637
 21
225.6507819245134
 31
0.0
  0
LINE
  5
9D56
  8
0
 10
46.49704708056144
 20
225.9910065338881
 30
0.0
 11
46.3314611430614
 21
226.551924502638
 31
0.0
  0
LINE
  5
9D57
  8
0
 10
52.62847286181106
 20
230.1984186432628
 30
0.0
 11
52.62847286181106
 21
227.6233112213881
 31
0.0
  0
LINE
  5
9D58
  8
0
 10
53.00552364306115
 20
227.246260440138
 30
0.0
 11
54.17332637743623
 21
227.246260440138
 31
0.0
  0
LINE
  5
9D59
  8
0
 10
54.55046504931163
 20
227.6233112213881
 30
0.0
 11
54.55046504931163
 21
230.1984186432628
 31
0.0
  0
LINE
  5
9D5A
  8
0
 10
54.17332637743623
 20
230.5664166901378
 30
0.0
 11
53.00552364306115
 21
230.5664166901378
 31
0.0
  0
LINE
  5
9D5B
  8
0
 10
56.29702754931115
 20
230.1984186432628
 30
0.0
 11
56.29702754931115
 21
227.3200006745128
 31
0.0
  0
LINE
  5
9D5C
  8
0
 10
55.35897090868632
 20
226.3909967682629
 30
0.0
 11
55.09222286181141
 21
226.3909967682629
 31
0.0
  0
LINE
  5
9D5D
  8
0
 10
55.09222286181141
 20
225.6461237213879
 30
0.0
 11
55.99345333056174
 21
225.6461237213879
 31
0.0
  0
LINE
  5
9D5E
  8
0
 10
58.21901973681126
 20
227.8624616120132
 30
0.0
 11
58.21901973681126
 21
230.1984186432628
 31
0.0
  0
LINE
  5
9D5F
  8
0
 10
57.85119747118635
 20
230.5664166901378
 30
0.0
 11
56.66476192431166
 21
230.5664166901378
 31
0.0
  0
LINE
  5
9D60
  8
0
 10
59.45133418993639
 20
230.5754694245133
 30
0.0
 11
64.73848262743643
 21
230.5754694245133
 31
0.0
  0
LINE
  5
9D61
  8
0
 10
64.73848262743643
 20
229.8305963776383
 30
0.0
 11
63.07901973681139
 21
229.8305963776383
 31
0.0
  0
LINE
  5
9D62
  8
0
 10
62.70196895556131
 20
229.4535455963878
 30
0.0
 11
62.7019689555613
 21
229.215801455763
 31
0.0
  0
LINE
  5
9D63
  8
0
 10
63.07901973681139
 20
228.8795319245127
 30
0.0
 11
64.95003536181132
 21
228.8795319245127
 31
0.0
  0
LINE
  5
9D64
  8
0
 10
64.95003536181132
 20
228.1726276276381
 30
0.0
 11
63.07901973681139
 21
228.1726276276381
 31
0.0
  0
LINE
  5
9D65
  8
0
 10
62.7019689555613
 20
227.8276569245131
 30
0.0
 11
62.7019689555613
 21
227.215498721388
 31
0.0
  0
LINE
  5
9D66
  8
0
 10
63.64002559618659
 20
226.3445905182634
 30
0.0
 11
64.73848262743643
 21
226.3445905182634
 31
0.0
  0
LINE
  5
9D67
  8
0
 10
64.73848262743643
 20
225.6461237213879
 30
0.0
 11
63.00527950243615
 21
225.6461237213879
 31
0.0
  0
LINE
  5
9D68
  8
0
 10
60.77971309618663
 20
227.7242096588879
 30
0.0
 11
60.77971309618663
 21
227.9484186432628
 31
0.0
  0
LINE
  5
9D69
  8
0
 10
60.40257442431123
 20
228.1726276276381
 30
0.0
 11
59.2397814555615
 21
228.1726276276381
 31
0.0
  0
LINE
  5
9D6A
  8
0
 10
59.2397814555615
 20
228.8795319245127
 30
0.0
 11
60.40257442431123
 21
228.8795319245127
 31
0.0
  0
LINE
  5
9D6B
  8
0
 10
60.77892208056158
 20
229.215801455763
 30
0.0
 11
60.77971309618663
 21
229.4627741120129
 31
0.0
  0
LINE
  5
9D6C
  8
0
 10
60.40257442431123
 20
229.8305963776382
 30
0.0
 11
59.45133418993639
 21
229.8305963776383
 31
0.0
  0
LINE
  5
9D70
  8
0
 10
44.90033809618619
 20
232.4509674713881
 30
0.0
 11
44.01844356493659
 21
232.4509674713881
 31
0.0
  0
LINE
  5
9D71
  8
0
 10
44.01844356493659
 20
232.4509674713881
 30
0.0
 11
44.01844356493659
 21
232.616377627638
 31
0.0
  0
LINE
  5
9D72
  8
0
 10
44.01844356493659
 20
232.616377627638
 30
0.0
 11
45.09387325243635
 21
232.616377627638
 31
0.0
  0
LINE
  5
9D73
  8
0
 10
45.09387325243635
 20
232.616377627638
 30
0.0
 11
45.09387325243635
 21
232.4509674713881
 31
0.0
  0
LINE
  5
9D74
  8
0
 10
44.47477168993639
 20
232.0305866120133
 30
0.0
 11
44.3240392680613
 21
232.2360748932633
 31
0.0
  0
LINE
  5
9D75
  8
0
 10
44.3240392680613
 20
232.2360748932633
 30
0.0
 11
44.17058223681163
 21
232.1334186432632
 31
0.0
  0
LINE
  5
9D76
  8
0
 10
44.5708361430615
 20
231.5636237213884
 30
0.0
 11
44.72824825243644
 21
231.6623248932628
 31
0.0
  0
LINE
  5
9D77
  8
0
 10
44.72824825243644
 20
231.6623248932628
 30
0.0
 11
44.58015254931108
 21
231.8811725495133
 31
0.0
  0
ARC
  5
9D78
  8
0
 10
34.35775638356547
 20
224.8148967676702
 30
0.0
 40
12.24141795992888
 50
33.45643062216249
 51
36.71601240395405
  0
ARC
  5
9D79
  8
0
 10
44.07174330386139
 20
232.8641848850849
 30
0.0
 40
0.9259146617534648
 50
295.8028544447355
 51
333.4947229782731
  0
ARC
  5
9D7A
  8
0
 10
44.14461749811925
 20
232.7903259304112
 30
0.0
 40
1.008092580477948
 50
295.5970136290768
 51
340.3280553328837
  0
LINE
  5
9D7B
  8
0
 10
45.86775020556108
 20
232.156006533888
 30
0.0
 11
45.86775020556108
 21
231.5796198151383
 31
0.0
  0
LINE
  5
9D7C
  8
0
 10
45.86775020556108
 20
231.5796198151383
 30
0.0
 11
46.0598791118113
 21
231.5796198151383
 31
0.0
  0
LINE
  5
9D7D
  8
0
 10
46.0598791118113
 20
231.5796198151383
 30
0.0
 11
46.0598791118113
 21
232.2481159088883
 31
0.0
  0
LINE
  5
9D7E
  8
0
 10
46.44545528368637
 20
232.5283112213883
 30
0.0
 11
46.33603145556155
 21
232.653731143263
 31
0.0
  0
LINE
  5
9D7F
  8
0
 10
45.33803340868637
 20
232.1800885651382
 30
0.0
 11
45.36607051806133
 21
232.0159967682629
 31
0.0
  0
ARC
  5
9D80
  8
0
 10
45.0947499563062
 20
233.9809509588591
 30
0.0
 40
1.817221010036674
 50
277.6936667564446
 51
313.0836814663463
  0
ARC
  5
9D81
  8
0
 10
45.27396661180968
 20
233.7350013538609
 30
0.0
 40
1.681810567258462
 50
297.8592692614841
 51
314.1519780416271
  0
ARC
  5
9D82
  8
0
 10
45.08145891948318
 20
234.0046186208202
 30
0.0
 40
2.008885420952019
 50
278.1448623061169
 51
293.0420589932965
  0
LINE
  5
9D83
  8
0
 10
47.17529903368624
 20
232.2467975495128
 30
0.0
 11
47.17529903368624
 21
232.2774713776379
 31
0.0
  0
LINE
  5
9D84
  8
0
 10
47.17529903368624
 20
232.2774713776379
 30
0.0
 11
46.66025997118633
 21
232.2774713776379
 31
0.0
  0
LINE
  5
9D85
  8
0
 10
46.66025997118633
 20
232.2774713776379
 30
0.0
 11
46.66025997118633
 21
232.4469245026384
 31
0.0
  0
LINE
  5
9D86
  8
0
 10
46.66025997118633
 20
232.4469245026384
 30
0.0
 11
47.17529903368624
 21
232.4469245026384
 31
0.0
  0
LINE
  5
9D87
  8
0
 10
47.17529903368624
 20
232.4469245026384
 30
0.0
 11
47.17529903368624
 21
232.6963580963883
 31
0.0
  0
LINE
  5
9D88
  8
0
 10
47.17529903368624
 20
232.6963580963883
 30
0.0
 11
47.36206661181124
 21
232.6963580963883
 31
0.0
  0
LINE
  5
9D89
  8
0
 10
47.36206661181124
 20
232.6963580963883
 30
0.0
 11
47.36206661181124
 21
232.4469245026384
 31
0.0
  0
LINE
  5
9D8A
  8
0
 10
47.36206661181124
 20
232.4469245026384
 30
0.0
 11
47.78903926806144
 21
232.4469245026384
 31
0.0
  0
LINE
  5
9D8B
  8
0
 10
47.78903926806144
 20
232.4469245026384
 30
0.0
 11
47.78903926806144
 21
232.2774713776379
 31
0.0
  0
LINE
  5
9D8C
  8
0
 10
47.78903926806144
 20
232.2774713776379
 30
0.0
 11
47.36206661181124
 21
232.2774713776379
 31
0.0
  0
LINE
  5
9D8D
  8
0
 10
47.36206661181124
 20
232.2774713776379
 30
0.0
 11
47.36206661181124
 21
232.2467975495128
 31
0.0
  0
LINE
  5
9D8E
  8
0
 10
46.82971309618635
 20
231.5835748932631
 30
0.0
 11
46.77363887743643
 21
231.7490729401379
 31
0.0
  0
ARC
  5
9D8F
  8
0
 10
46.40237051412197
 20
232.2322920178045
 30
0.0
 40
0.7730646200712835
 50
342.2910204567376
 51
1.075142363622295
  0
ARC
  5
9D90
  8
0
 10
46.84883908709895
 20
232.0961070549206
 30
0.0
 40
0.3063876798952075
 50
304.2370088981581
 51
341.1546735930816
  0
ARC
  5
9D91
  8
0
 10
46.67687034067098
 20
232.3784759840081
 30
0.0
 40
0.6367985092080606
 50
278.7405863986843
 51
302.7346045229082
  0
ARC
  5
9D92
  8
0
 10
46.70441931145866
 20
232.3594315604494
 30
0.0
 40
0.7859084555523594
 50
279.173547062458
 51
305.3414915022681
  0
ARC
  5
9D93
  8
0
 10
46.85359934896988
 20
232.106448416855
 30
0.0
 40
0.4938678410143298
 50
308.2022886499759
 51
350.7296062183676
  0
ARC
  5
9D94
  8
0
 10
46.30947755310297
 20
232.2365906375485
 30
0.0
 40
1.05263854554364
 50
348.508946732466
 51
0.5555773579723515
  0
LINE
  5
9D95
  8
0
 10
48.78712520556148
 20
232.4602838776381
 30
0.0
 11
48.13198848681115
 21
232.4602838776381
 31
0.0
  0
LINE
  5
9D96
  8
0
 10
48.13198848681115
 20
232.4602838776381
 30
0.0
 11
48.13198848681115
 21
232.6243756745134
 31
0.0
  0
LINE
  5
9D97
  8
0
 10
48.13198848681115
 20
232.6243756745134
 30
0.0
 11
48.98584590868624
 21
232.6243756745134
 31
0.0
  0
LINE
  5
9D98
  8
0
 10
48.98584590868624
 20
232.6243756745134
 30
0.0
 11
48.98584590868624
 21
232.4602838776381
 31
0.0
  0
LINE
  5
9D99
  8
0
 10
49.10063106493674
 20
231.7156745026381
 30
0.0
 11
48.9778478618113
 21
231.5942975495131
 31
0.0
  0
LINE
  5
9D9A
  8
0
 10
48.0945470805613
 20
231.602295596388
 30
0.0
 11
48.01447872118608
 21
231.7490729401379
 31
0.0
  0
ARC
  5
9D9B
  8
0
 10
47.31555533298859
 20
233.2836703920664
 30
0.0
 40
1.686263099876902
 50
294.4866134087317
 51
330.7717068869524
  0
ARC
  5
9D9C
  8
0
 10
47.24978877546848
 20
233.4126676719937
 30
0.0
 40
1.997764662355422
 50
295.0147624386637
 51
312.8436054073329
  0
ARC
  5
9D9D
  8
0
 10
41.37531573621809
 20
224.0177697619705
 30
0.0
 40
10.73323194737177
 50
44.90184257982877
 51
47.63246263973681
  0
ARC
  5
9D9E
  8
0
 10
42.14617892478304
 20
224.7138531580131
 30
0.0
 40
9.868632464113261
 50
45.19446774917355
 51
48.17612407225278
  0
ARC
  5
9D9F
  8
0
 10
47.61264821767273
 20
233.0846604807048
 30
0.0
 40
1.508482032064661
 50
317.6232793949262
 51
335.5492736743415
  0
LINE
  5
9DA0
  8
0
 10
49.64766231493643
 20
232.6590924713882
 30
0.0
 11
49.47284786181119
 21
232.6790436432629
 31
0.0
  0
LINE
  5
9DA1
  8
0
 10
49.47284786181119
 20
231.5742584870131
 30
0.0
 11
49.64766231493643
 21
231.5942975495131
 31
0.0
  0
ARC
  5
9DA2
  8
0
 10
51.82399673873388
 20
232.1266950104506
 30
0.0
 40
2.24050855401593
 50
166.2536808747335
 51
193.7463191252665
  0
ARC
  5
9DA3
  8
0
 10
51.72627309725122
 20
232.126651065138
 30
0.0
 40
2.320142851654927
 50
166.2264222050919
 51
193.7735777949081
  0
LINE
  5
9DA4
  8
0
 10
49.85578731493653
 20
232.4202057526381
 30
0.0
 11
49.85578731493653
 21
232.5762995026379
 31
0.0
  0
LINE
  5
9DA5
  8
0
 10
49.85578731493653
 20
232.5762995026379
 30
0.0
 11
50.42953731493655
 21
232.5762995026379
 31
0.0
  0
LINE
  5
9DA6
  8
0
 10
50.42953731493655
 20
232.5762995026379
 30
0.0
 11
50.42953731493655
 21
232.4202057526381
 31
0.0
  0
LINE
  5
9DA7
  8
0
 10
50.42953731493655
 20
232.4202057526381
 30
0.0
 11
49.85578731493653
 21
232.4202057526381
 31
0.0
  0
LINE
  5
9DA8
  8
0
 10
50.03596309618608
 20
232.082705752638
 30
0.0
 11
49.91045528368606
 21
232.1828131745132
 31
0.0
  0
LINE
  5
9DA9
  8
0
 10
50.44149043993632
 20
231.8238678620127
 30
0.0
 11
50.46557247118646
 21
231.6690924713884
 31
0.0
  0
ARC
  5
9DAA
  8
0
 10
50.27006351224563
 20
231.7648513474278
 30
0.0
 40
0.5513711698559726
 50
130.708220238404
 51
157.703625479385
  0
ARC
  5
9DAB
  8
0
 10
49.96061856925129
 20
231.8917130205812
 30
0.0
 40
0.2169312572480087
 50
157.6967650917142
 51
205.3984993646999
  0
ARC
  5
9DAC
  8
0
 10
50.0269886395852
 20
231.9460103564613
 30
0.0
 40
0.3008800009813904
 50
209.3210192654115
 51
257.5935048122165
  0
ARC
  5
9DAD
  8
0
 10
50.15961532795585
 20
232.4579935696387
 30
0.0
 40
0.8296316180790294
 50
256.2444659394042
 51
275.2215523672216
  0
ARC
  5
9DAE
  8
0
 10
50.15724436771681
 20
232.8438964051231
 30
0.0
 40
1.214590672657983
 50
273.6760364924776
 51
284.7056607611161
  0
ARC
  5
9DAF
  8
0
 10
50.14568430461708
 20
233.0665319716303
 30
0.0
 40
1.277386143272562
 50
270.1640623199838
 51
283.3896060448867
  0
ARC
  5
9DB0
  8
0
 10
50.12692642604705
 20
232.1592004984622
 30
0.0
 40
0.3707277183708511
 50
242.6706422703897
 51
273.4664302047655
  0
ARC
  5
9DB1
  8
0
 10
50.00640184778196
 20
231.9008870549938
 30
0.0
 40
0.0866823147437489
 50
154.8854560630789
 51
235.0327799996414
  0
ARC
  5
9DB2
  8
0
 10
50.3454501541353
 20
231.7393688550352
 30
0.0
 40
0.4622363727478137
 50
132.0317914832259
 51
154.5946083240115
  0
LINE
  5
9DB3
  8
0
 10
50.90186153368624
 20
232.3976178620132
 30
0.0
 11
50.71641231493633
 21
232.3976178620132
 31
0.0
  0
LINE
  5
9DB4
  8
0
 10
50.71641231493633
 20
232.3976178620132
 30
0.0
 11
50.71641231493633
 21
232.5496686432634
 31
0.0
  0
LINE
  5
9DB5
  8
0
 10
50.71641231493633
 20
232.5496686432634
 30
0.0
 11
50.94457637743646
 21
232.5496686432634
 31
0.0
  0
LINE
  5
9DB6
  8
0
 10
50.9912462993115
 20
232.7378424713879
 30
0.0
 11
51.15138301806148
 21
232.7164850495128
 31
0.0
  0
LINE
  5
9DB7
  8
0
 10
51.11130489306144
 20
232.5496686432634
 30
0.0
 11
51.33419551806166
 21
232.5496686432634
 31
0.0
  0
LINE
  5
9DB8
  8
0
 10
51.33419551806166
 20
232.5496686432634
 30
0.0
 11
51.33419551806166
 21
232.3976178620132
 31
0.0
  0
LINE
  5
9DB9
  8
0
 10
51.33419551806166
 20
232.3976178620132
 30
0.0
 11
51.07131465868626
 21
232.3976178620132
 31
0.0
  0
LINE
  5
9DBA
  8
0
 10
50.84042598681155
 20
231.7291217682632
 30
0.0
 11
50.68573848681119
 21
231.7811530182634
 31
0.0
  0
LINE
  5
9DBB
  8
0
 10
51.46893184618641
 20
232.5496686432634
 30
0.0
 11
51.46893184618641
 21
232.0479889557627
 31
0.0
  0
LINE
  5
9DBC
  8
0
 10
51.63838497118643
 20
232.3934870026378
 30
0.0
 11
51.63838497118643
 21
231.9651959870134
 31
0.0
  0
LINE
  5
9DBD
  8
0
 10
51.88790645556166
 20
232.522949893263
 30
0.0
 11
51.86786739306119
 21
232.370811221388
 31
0.0
  0
LINE
  5
9DBE
  8
0
 10
51.89449825243666
 20
231.7650690338878
 30
0.0
 11
51.78911739306106
 21
231.6477350495133
 31
0.0
  0
LINE
  5
9DBF
  8
0
 10
51.78911739306106
 20
231.6477350495133
 30
0.0
 11
51.63038692431148
 21
231.7798346588879
 31
0.0
  0
ARC
  5
9DC0
  8
0
 10
42.92107959564639
 20
234.6394900997848
 30
0.0
 40
8.291191369612257
 50
345.4009556896889
 51
346.740746954867
  0
ARC
  5
9DC1
  8
0
 10
44.37678254768474
 20
234.3390925887633
 30
0.0
 40
6.807788178855744
 50
337.9301136346513
 51
343.4301309136037
  0
ARC
  5
9DC2
  8
0
 10
45.15534858739827
 20
234.0667843035349
 30
0.0
 40
6.146931849803847
 50
337.647891114247
 51
344.2437969395151
  0
ARC
  5
9DC3
  8
0
 10
48.22945414164455
 20
233.3302642832464
 30
0.0
 40
2.985698127172701
 50
344.84418349645
 51
348.136949894858
  0
ARC
  5
9DC4
  8
0
 10
51.49143897058518
 20
229.6042878227811
 30
0.0
 40
2.945466813310544
 50
82.26435931630408
 51
90.43781711643568
  0
ARC
  5
9DC5
  8
0
 10
51.58570134588818
 20
230.6877838119379
 30
0.0
 40
1.706516609687102
 50
80.48265313058977
 51
88.23088210500025
  0
ARC
  5
9DC6
  8
0
 10
50.6711145410726
 20
230.4633832420595
 30
0.0
 40
1.786352038619028
 50
46.77616557053221
 51
57.2156866531281
  0
ARC
  5
9DC7
  8
0
 10
51.40025390213537
 20
231.810260738651
 30
0.0
 40
0.2321356375605922
 50
300.4982959066377
 51
352.4685567394949
  0
ARC
  5
9DC8
  8
0
 10
51.32984951683881
 20
232.0140019463045
 30
0.0
 40
0.4454740180557357
 50
260.8493170262734
 51
294.9930070723727
  0
ARC
  5
9DC9
  8
0
 10
51.273294051896
 20
231.8483496438293
 30
0.0
 40
0.274524516799522
 50
210.6191600754503
 51
267.0164240300838
  0
ARC
  5
9DCA
  8
0
 10
51.27264975303346
 20
231.8216940602871
 30
0.0
 40
0.2613734309622749
 50
147.2334581988806
 51
205.6564160796825
  0
ARC
  5
9DCB
  8
0
 10
51.27761829581457
 20
231.7829304263821
 30
0.0
 40
0.2880874616600608
 50
91.03111037243933
 51
141.2747978514547
  0
ARC
  5
9DCC
  8
0
 10
51.32024310807709
 20
231.6282209939088
 30
0.0
 40
0.4453240198322287
 50
70.49501453936077
 51
96.16302987731919
  0
ARC
  5
9DCD
  8
0
 10
51.32306317960315
 20
231.6381877676356
 30
0.0
 40
0.2902930385304879
 50
59.83528150936421
 51
103.2201440558064
  0
ARC
  5
9DCE
  8
0
 10
51.27816164637228
 20
231.8243211092687
 30
0.0
 40
0.0988304488869036
 50
102.5568170755454
 51
180.262765637224
  0
ARC
  5
9DCF
  8
0
 10
51.28045616725617
 20
231.8211013848135
 30
0.0
 40
0.1011617650333014
 50
178.4329333203594
 51
256.0701828760615
  0
ARC
  5
9DD0
  8
0
 10
51.32722201670417
 20
231.9739703164507
 30
0.0
 40
0.2609345439815814
 50
254.1836782918791
 51
287.6043484841652
  0
ARC
  5
9DD1
  8
0
 10
51.37699042447224
 20
231.8044013546886
 30
0.0
 40
0.0843426031298885
 50
290.2187264652961
 51
350.7581622463694
  0
ARC
  5
9DD2
  8
0
 10
51.10227097165179
 20
231.8720513900134
 30
0.0
 40
0.3670603004158596
 50
347.2201738930314
 51
2.67316898487712
  0
LINE
  5
9DD3
  8
0
 10
52.20941036181141
 20
232.1573248932631
 30
0.0
 11
52.17741817431163
 21
232.309551455763
 31
0.0
  0
LINE
  5
9DD4
  8
0
 10
52.36550411181126
 20
231.763838565138
 30
0.0
 11
52.37754512743633
 21
231.6116120026381
 31
0.0
  0
ARC
  5
9DD5
  8
0
 10
52.79608475219847
 20
229.9765883549638
 30
0.0
 40
2.413600042319521
 50
93.0330778001963
 51
104.852125248309
  0
ARC
  5
9DD6
  8
0
 10
52.69343224161609
 20
231.8599895269889
 30
0.0
 40
0.5274133454568837
 50
60.91960556758053
 51
92.72310713201327
  0
ARC
  5
9DD7
  8
0
 10
52.79619597207144
 20
232.0883596830898
 30
0.0
 40
0.2786914630822537
 50
9.671194361801408
 51
56.55959162043377
  0
ARC
  5
9DD8
  8
0
 10
52.63619650665357
 20
232.0478726135253
 30
0.0
 40
0.4434101722744036
 50
333.9597813248128
 51
11.35547973600755
  0
ARC
  5
9DD9
  8
0
 10
52.70757506049436
 20
232.038919058635
 30
0.0
 40
0.3760688166287614
 50
291.9740011095546
 51
330.4090690351002
  0
ARC
  5
9DDA
  8
0
 10
52.52203315210052
 20
232.4326010338437
 30
0.0
 40
0.8109562744615367
 50
277.5911083880274
 51
293.7231081887235
  0
ARC
  5
9DDB
  8
0
 10
52.38885013573393
 20
233.301117662334
 30
0.0
 40
1.689543481937406
 50
269.6166218252729
 51
278.1772037059889
  0
ARC
  5
9DDC
  8
0
 10
52.40409914763714
 20
232.9172483815856
 30
0.0
 40
1.154055363259622
 50
268.0835017580472
 51
287.3544714703422
  0
ARC
  5
9DDD
  8
0
 10
52.68169839822269
 20
232.0315253143573
 30
0.0
 40
0.2258508101221847
 50
287.1599817388461
 51
352.3121354184231
  0
ARC
  5
9DDE
  8
0
 10
52.70757749126122
 20
232.0373156815245
 30
0.0
 40
0.2011894179017752
 50
349.6911030936221
 51
46.3182034235858
  0
ARC
  5
9DDF
  8
0
 10
52.67569695710564
 20
231.915788303855
 30
0.0
 40
0.3169953313446048
 50
57.39040451094466
 51
96.72424011120249
  0
ARC
  5
9DE0
  8
0
 10
52.85523187775924
 20
229.6683336864473
 30
0.0
 40
2.571412580288827
 50
94.83313718967965
 51
104.5458325788219
  0
LINE
  5
9DE1
  8
0
 10
53.6103869243115
 20
232.4202057526381
 30
0.0
 11
53.42889278368641
 21
232.4202057526381
 31
0.0
  0
LINE
  5
9DE2
  8
0
 10
53.42889278368641
 20
232.4202057526381
 30
0.0
 11
53.42889278368641
 21
232.571026065138
 31
0.0
  0
LINE
  5
9DE3
  8
0
 10
53.42889278368641
 20
232.571026065138
 30
0.0
 11
53.64106075243619
 21
232.571026065138
 31
0.0
  0
LINE
  5
9DE4
  8
0
 10
53.64106075243619
 20
232.571026065138
 30
0.0
 11
53.66909786181115
 21
232.7324811432631
 31
0.0
  0
LINE
  5
9DE5
  8
0
 10
53.66909786181115
 20
232.7324811432631
 30
0.0
 11
53.83863887743648
 21
232.717715518263
 31
0.0
  0
LINE
  5
9DE6
  8
0
 10
53.83863887743648
 20
232.717715518263
 30
0.0
 11
53.81323848681124
 21
232.571026065138
 31
0.0
  0
LINE
  5
9DE7
  8
0
 10
53.81323848681124
 20
232.571026065138
 30
0.0
 11
54.27897090868639
 21
232.571026065138
 31
0.0
  0
LINE
  5
9DE8
  8
0
 10
54.27897090868639
 20
232.571026065138
 30
0.0
 11
54.27897090868639
 21
232.4202057526381
 31
0.0
  0
LINE
  5
9DE9
  8
0
 10
54.27897090868639
 20
232.4202057526381
 30
0.0
 11
53.7839709086865
 21
232.4202057526381
 31
0.0
  0
LINE
  5
9DEA
  8
0
 10
53.55703731493615
 20
231.5689850495127
 30
0.0
 11
53.38890254931123
 21
231.6076569245133
 31
0.0
  0
LINE
  5
9DEB
  8
0
 10
53.94129512743659
 20
232.1334186432632
 30
0.0
 11
53.93066036181146
 21
232.2827448151383
 31
0.0
  0
LINE
  5
9DEC
  8
0
 10
54.48032833056133
 20
232.3135065338883
 30
0.0
 11
54.48032833056133
 21
232.1640924713883
 31
0.0
  0
LINE
  5
9DED
  8
0
 10
54.08007442431146
 20
231.962647158888
 30
0.0
 11
53.95869747118643
 21
232.0399030182634
 31
0.0
  0
LINE
  5
9DEE
  8
0
 10
54.49105098681132
 20
231.770430362013
 30
0.0
 11
54.51109004931133
 21
231.6196979401383
 31
0.0
  0
ARC
  5
9DEF
  8
0
 10
47.01143885224876
 20
233.7824850247976
 30
0.0
 40
6.738094721294446
 50
341.1697144444025
 51
348.3357808241415
  0
ARC
  5
9DF0
  8
0
 10
47.03051474647847
 20
233.7648021683757
 30
0.0
 40
6.886008252687487
 50
341.4047346856015
 51
348.7397953124075
  0
ARC
  5
9DF1
  8
0
 10
54.46814351763309
 20
227.6049601938636
 30
0.0
 40
4.708562105975219
 50
89.85172986605279
 51
96.5546104840503
  0
ARC
  5
9DF2
  8
0
 10
54.46915602137177
 20
227.6088542818716
 30
0.0
 40
4.555251890260736
 50
89.85947499256585
 51
96.65436322543621
  0
ARC
  5
9DF3
  8
0
 10
54.18685431908082
 20
231.7252695632277
 30
0.0
 40
0.3886512038689388
 50
125.9477923082765
 51
153.9456213275426
  0
ARC
  5
9DF4
  8
0
 10
53.99978889060151
 20
231.8312913564518
 30
0.0
 40
0.1745196541164178
 50
158.2451995748845
 51
211.937738790848
  0
ARC
  5
9DF5
  8
0
 10
54.10853904793863
 20
231.9253983763094
 30
0.0
 40
0.3173766808952333
 50
215.9728103304899
 51
258.577083270988
  0
ARC
  5
9DF6
  8
0
 10
54.22196071284154
 20
232.3136828203066
 30
0.0
 40
0.7212479843673572
 50
255.8532185042195
 51
272.6578213791558
  0
ARC
  5
9DF7
  8
0
 10
54.22575990582899
 20
233.1267032903354
 30
0.0
 40
1.533779128917274
 50
271.1075186277241
 51
280.7212356446171
  0
ARC
  5
9DF8
  8
0
 10
54.21305002584157
 20
233.2109087808553
 30
0.0
 40
1.467059170398629
 50
270.0695624886666
 51
280.923337658684
  0
ARC
  5
9DF9
  8
0
 10
54.20865017539024
 20
232.1111486105993
 30
0.0
 40
0.3680274217404644
 50
240.6869572496387
 51
273.2459162436446
  0
ARC
  5
9DFA
  8
0
 10
54.06797053583696
 20
231.8536597120951
 30
0.0
 40
0.074711058388821
 50
182.4248820533392
 51
238.082482720991
  0
ARC
  5
9DFB
  8
0
 10
54.07651269374469
 20
231.8455335163347
 30
0.0
 40
0.0833343655532817
 50
131.1757227927974
 51
176.5841957139149
  0
ARC
  5
9DFC
  8
0
 10
54.53985796740207
 20
231.4101488310324
 30
0.0
 40
0.7187873877436253
 50
129.7668863169349
 51
136.1330162188036
  0
LINE
  5
9DFD
  8
0
 10
54.99941036181137
 20
232.6604108307628
 30
0.0
 11
54.9807775493113
 21
232.5095905182633
 31
0.0
  0
LINE
  5
9DFE
  8
0
 10
55.63450801806123
 20
232.6203327057628
 30
0.0
 11
55.63450801806123
 21
232.4695123932633
 31
0.0
  0
LINE
  5
9DFF
  8
0
 10
55.05267208056141
 20
232.3934870026378
 30
0.0
 11
54.87935176806143
 21
232.4069342682632
 31
0.0
  0
LINE
  5
9E00
  8
0
 10
54.87935176806143
 20
232.4069342682632
 30
0.0
 11
54.81255489306106
 21
231.9892780182631
 31
0.0
  0
LINE
  5
9E01
  8
0
 10
54.81255489306106
 20
231.9892780182631
 30
0.0
 11
54.97146114306126
 21
231.9545612213878
 31
0.0
  0
LINE
  5
9E02
  8
0
 10
55.0181310649363
 20
232.137373721388
 30
0.0
 11
55.05267208056141
 21
232.3934870026378
 31
0.0
  0
LINE
  5
9E03
  8
0
 10
54.92602168993646
 20
231.7503912995134
 30
0.0
 11
54.91406856493624
 21
231.5970221588881
 31
0.0
  0
ARC
  5
9E04
  8
0
 10
55.43399971825417
 20
231.5431149879354
 30
0.0
 40
0.725320742221686
 50
82.7383955307303
 51
124.9847424284259
  0
ARC
  5
9E05
  8
0
 10
55.51424843690588
 20
231.9691522048441
 30
0.0
 40
0.2936885684487056
 50
25.47750666320868
 51
87.76921556057754
  0
ARC
  5
9E06
  8
0
 10
55.44638886227661
 20
231.9625787786894
 30
0.0
 40
0.3585317338785675
 50
321.3543299701645
 51
21.75842031571825
  0
ARC
  5
9E07
  8
0
 10
55.37076651704876
 20
232.0944448854913
 30
0.0
 40
0.5030455772132802
 50
274.9636499740987
 51
314.989839151749
  0
ARC
  5
9E08
  8
0
 10
55.1787874762694
 20
233.5507888478434
 30
0.0
 40
1.971618719957279
 50
262.2838934043664
 51
276.8602022226234
  0
ARC
  5
9E09
  8
0
 10
55.23959338752309
 20
234.458734870242
 30
0.0
 40
2.726435788097946
 50
263.3957068302936
 51
271.0732963894559
  0
ARC
  5
9E0A
  8
0
 10
55.29777609091038
 20
232.1218370736923
 30
0.0
 40
0.3891246493399197
 50
268.9526659567916
 51
311.9026700510424
  0
ARC
  5
9E0B
  8
0
 10
55.42184816720459
 20
231.9532917114223
 30
0.0
 40
0.1819431806139916
 50
318.2838146029565
 51
32.76134975180928
  0
ARC
  5
9E0C
  8
0
 10
55.4204316478395
 20
231.9029096998001
 30
0.0
 40
0.2144715613892272
 50
43.94597849543317
 51
93.25534829104993
  0
ARC
  5
9E0D
  8
0
 10
55.39829567840494
 20
231.5990201314897
 30
0.0
 40
0.518110737832
 50
88.89882867160388
 51
112.7433476052045
  0
ARC
  5
9E0E
  8
0
 10
55.6419050142874
 20
230.9835346512363
 30
0.0
 40
1.179994739142887
 50
112.0984440204114
 51
124.6230820154886
  0
ARC
  5
9E0F
  8
0
 10
55.63247403871691
 20
237.640175051789
 30
0.0
 40
5.019842758098118
 50
262.7550085222148
 51
270.023215555127
  0
ARC
  5
9E10
  8
0
 10
55.63385476779274
 20
237.8105267579193
 30
0.0
 40
5.341014404604963
 50
262.9765318468749
 51
270.0070077480808
  0
LINE
  5
9E11
  8
0
 10
56.2002599711863
 20
232.0559870026381
 30
0.0
 11
56.2002599711863
 21
232.6563678620132
 31
0.0
  0
LINE
  5
9E12
  8
0
 10
56.2002599711863
 20
232.6563678620132
 30
0.0
 11
56.3870275493113
 21
232.6563678620132
 31
0.0
  0
LINE
  5
9E13
  8
0
 10
56.3870275493113
 20
232.6563678620132
 30
0.0
 11
56.3870275493113
 21
232.0559870026381
 31
0.0
  0
LINE
  5
9E14
  8
0
 10
56.3870275493113
 20
232.0559870026381
 30
0.0
 11
56.2002599711863
 21
232.0559870026381
 31
0.0
  0
LINE
  5
9E15
  8
0
 10
56.87130489306166
 20
232.2868756745128
 30
0.0
 11
56.87130489306166
 21
232.6563678620132
 31
0.0
  0
LINE
  5
9E16
  8
0
 10
56.87130489306166
 20
232.6563678620132
 30
0.0
 11
57.06220333056119
 21
232.6563678620132
 31
0.0
  0
LINE
  5
9E17
  8
0
 10
57.06220333056119
 20
232.6563678620132
 30
0.0
 11
57.06220333056119
 21
232.2908307526381
 31
0.0
  0
LINE
  5
9E18
  8
0
 10
56.36567012743619
 20
231.566348330763
 30
0.0
 11
56.32831661181119
 21
231.7304401276378
 31
0.0
  0
LINE
  5
9E19
  8
0
 10
57.76128536181106
 20
231.9304791901381
 30
0.0
 11
57.76128536181106
 21
232.0733014557631
 31
0.0
  0
LINE
  5
9E1A
  8
0
 10
57.76128536181106
 20
232.0733014557631
 30
0.0
 11
57.39179317431119
 21
232.0733014557631
 31
0.0
  0
LINE
  5
9E1B
  8
0
 10
57.39179317431119
 20
232.0733014557631
 30
0.0
 11
57.39179317431119
 21
232.2334381745131
 31
0.0
  0
LINE
  5
9E1C
  8
0
 10
57.39179317431119
 20
232.2334381745131
 30
0.0
 11
57.76128536181106
 21
232.2334381745131
 31
0.0
  0
LINE
  5
9E1D
  8
0
 10
57.76128536181106
 20
232.2334381745131
 30
0.0
 11
57.76128536181106
 21
232.4695123932633
 31
0.0
  0
LINE
  5
9E1E
  8
0
 10
57.76128536181106
 20
232.4695123932633
 30
0.0
 11
57.50772090868615
 21
232.4695123932633
 31
0.0
  0
LINE
  5
9E1F
  8
0
 10
57.50772090868615
 20
232.4695123932633
 30
0.0
 11
57.50772090868615
 21
232.6337799713883
 31
0.0
  0
LINE
  5
9E20
  8
0
 10
57.50772090868615
 20
232.6337799713883
 30
0.0
 11
58.42310176806124
 21
232.6337799713883
 31
0.0
  0
LINE
  5
9E21
  8
0
 10
58.42310176806124
 20
232.6337799713883
 30
0.0
 11
58.42310176806124
 21
232.4695123932633
 31
0.0
  0
LINE
  5
9E22
  8
0
 10
58.42310176806124
 20
232.4695123932633
 30
0.0
 11
57.95613887743632
 21
232.4695123932633
 31
0.0
  0
LINE
  5
9E23
  8
0
 10
57.95613887743632
 20
232.4695123932633
 30
0.0
 11
57.95613887743632
 21
232.2334381745131
 31
0.0
  0
LINE
  5
9E24
  8
0
 10
57.95613887743632
 20
232.2334381745131
 30
0.0
 11
58.53920528368637
 21
232.2334381745131
 31
0.0
  0
LINE
  5
9E25
  8
0
 10
58.53920528368637
 20
232.2334381745131
 30
0.0
 11
58.53920528368637
 21
232.0733014557631
 31
0.0
  0
LINE
  5
9E26
  8
0
 10
58.53920528368637
 20
232.0733014557631
 30
0.0
 11
57.95613887743632
 21
232.0733014557631
 31
0.0
  0
LINE
  5
9E27
  8
0
 10
57.95613887743632
 20
232.0733014557631
 30
0.0
 11
57.95613887743632
 21
231.9358405182629
 31
0.0
  0
LINE
  5
9E28
  8
0
 10
58.43646114306141
 20
231.7757037995133
 30
0.0
 11
58.44173458056132
 21
231.6103815338883
 31
0.0
  0
ARC
  5
9E29
  8
0
 10
56.06603300268421
 20
232.2696536065995
 30
0.0
 40
0.8054560304915982
 50
340.9437882329723
 51
1.225178000018496
  0
ARC
  5
9E2A
  8
0
 10
56.50331369974411
 20
232.127576581268
 30
0.0
 40
0.345855307889423
 50
291.670576553406
 51
339.5389467977661
  0
ARC
  5
9E2B
  8
0
 10
56.22617633258459
 20
232.781647586579
 30
0.0
 40
1.056158017710445
 50
275.5497072742328
 51
292.5397602820191
  0
ARC
  5
9E2C
  8
0
 10
56.29352495102281
 20
232.6144490879759
 30
0.0
 40
1.050580850648829
 50
273.9376978144313
 51
296.3652409231708
  0
ARC
  5
9E2D
  8
0
 10
56.5069132568183
 20
232.149418256885
 30
0.0
 40
0.5393756653461665
 50
297.9933108679145
 51
349.2973959047169
  0
ARC
  5
9E2E
  8
0
 10
56.01234402685567
 20
232.2786522891865
 30
0.0
 40
1.049929936971548
 50
347.3794742886816
 51
0.6646064465848662
  0
ARC
  5
9E2F
  8
0
 10
58.25061254406238
 20
231.9008894740639
 30
0.0
 40
0.4902210140205808
 50
176.5395261482863
 51
206.0121964930288
  0
ARC
  5
9E30
  8
0
 10
57.99301301416072
 20
231.8380117107441
 30
0.0
 40
0.2379373016522034
 50
219.7400975832281
 51
273.8636407009164
  0
ARC
  5
9E31
  8
0
 10
58.14657881403449
 20
235.0971599504295
 30
0.0
 40
3.499248583992225
 50
267.747489334722
 51
274.8385522250587
  0
ARC
  5
9E32
  8
0
 10
58.13313627712584
 20
235.2947633359711
 30
0.0
 40
3.532107868600457
 50
269.5594493554569
 51
274.926425743971
  0
ARC
  5
9E33
  8
0
 10
58.1068529508933
 20
232.0980264750143
 30
0.0
 40
0.3352677379612373
 50
252.6101303751348
 51
269.8504673977251
  0
ARC
  5
9E34
  8
0
 10
58.03117260889034
 20
231.8388728979157
 30
0.0
 40
0.0655496828836007
 50
188.1794661638701
 51
248.0315991587105
  0
ARC
  5
9E35
  8
0
 10
58.41283809890544
 20
231.9258230150378
 30
0.0
 40
0.4568090730928223
 50
178.7434429434794
 51
192.1667740459287
  0
LINE
  5
9E36
  8
0
 10
58.74864864306157
 20
232.0372662995132
 30
0.0
 11
58.74864864306157
 21
232.2160358307628
 31
0.0
  0
LINE
  5
9E37
  8
0
 10
58.74864864306157
 20
232.2160358307628
 30
0.0
 11
59.85070918993635
 21
232.2160358307628
 31
0.0
  0
LINE
  5
9E38
  8
0
 10
59.85070918993635
 20
232.2160358307628
 30
0.0
 11
59.85070918993635
 21
232.0372662995132
 31
0.0
  0
LINE
  5
9E39
  8
0
 10
59.85070918993635
 20
232.0372662995132
 30
0.0
 11
58.74864864306157
 21
232.0372662995132
 31
0.0
  0
LINE
  5
9E3A
  8
0
 10
60.45645137743615
 20
232.1213776276381
 30
0.0
 11
60.45645137743615
 21
231.575664737013
 31
0.0
  0
LINE
  5
9E3B
  8
0
 10
60.45645137743615
 20
231.575664737013
 30
0.0
 11
60.26968379931115
 21
231.575664737013
 31
0.0
  0
LINE
  5
9E3C
  8
0
 10
60.26968379931115
 20
231.575664737013
 30
0.0
 11
60.26968379931115
 21
232.6778131745131
 31
0.0
  0
LINE
  5
9E3D
  8
0
 10
60.26968379931115
 20
232.6778131745131
 30
0.0
 11
60.45645137743615
 21
232.6778131745131
 31
0.0
  0
LINE
  5
9E3E
  8
0
 10
60.45645137743615
 20
232.6778131745131
 30
0.0
 11
60.45645137743615
 21
232.3041022370134
 31
0.0
  0
LINE
  5
9E3F
  8
0
 10
61.18225215868635
 20
232.081299502638
 30
0.0
 11
61.12626583056174
 21
231.913252627638
 31
0.0
  0
ARC
  5
9E40
  8
0
 10
58.86105535365099
 20
225.8133668303076
 30
0.0
 40
6.683931073296139
 50
69.67895110286432
 51
76.19068882595862
  0
ARC
  5
9E41
  8
0
 10
58.91330410086642
 20
225.9731202930295
 30
0.0
 40
6.338956678330691
 50
69.56741481783094
 51
75.9104163881585
  0
LINE
  5
9E42
  8
0
 10
61.52379512743657
 20
231.7304401276378
 30
0.0
 11
61.52379512743657
 21
231.9065729401381
 31
0.0
  0
LINE
  5
9E43
  8
0
 10
61.52379512743657
 20
231.9065729401381
 30
0.0
 11
61.41850215868674
 21
231.8838971588884
 31
0.0
  0
LINE
  5
9E44
  8
0
 10
61.41850215868674
 20
231.8838971588884
 30
0.0
 11
61.40646114306166
 21
232.0399030182634
 31
0.0
  0
LINE
  5
9E45
  8
0
 10
61.40646114306166
 20
232.0399030182634
 30
0.0
 11
61.52379512743657
 21
232.0639850495131
 31
0.0
  0
LINE
  5
9E46
  8
0
 10
61.52379512743657
 20
232.0639850495131
 30
0.0
 11
61.52379512743657
 21
232.3535846588883
 31
0.0
  0
LINE
  5
9E47
  8
0
 10
61.52379512743657
 20
232.3535846588883
 30
0.0
 11
61.40786739306115
 21
232.3535846588883
 31
0.0
  0
LINE
  5
9E48
  8
0
 10
61.40786739306115
 20
232.3535846588883
 30
0.0
 11
61.40786739306115
 21
232.5002741120133
 31
0.0
  0
LINE
  5
9E49
  8
0
 10
61.40786739306115
 20
232.5002741120133
 30
0.0
 11
61.52379512743657
 21
232.5002741120133
 31
0.0
  0
LINE
  5
9E4A
  8
0
 10
61.52379512743657
 20
232.5002741120133
 30
0.0
 11
61.52379512743657
 21
232.7310748932632
 31
0.0
  0
LINE
  5
9E4B
  8
0
 10
61.52379512743657
 20
232.7310748932632
 30
0.0
 11
61.69201778368635
 21
232.7310748932632
 31
0.0
  0
LINE
  5
9E4C
  8
0
 10
61.69201778368635
 20
232.7310748932632
 30
0.0
 11
61.69201778368635
 21
232.5002741120133
 31
0.0
  0
LINE
  5
9E4D
  8
0
 10
61.69201778368635
 20
232.5002741120133
 30
0.0
 11
61.80407833056135
 21
232.5002741120133
 31
0.0
  0
LINE
  5
9E4E
  8
0
 10
61.80407833056135
 20
232.5002741120133
 30
0.0
 11
61.80407833056135
 21
232.3695807526382
 31
0.0
  0
LINE
  5
9E4F
  8
0
 10
61.80407833056135
 20
232.3695807526382
 30
0.0
 11
62.19237911181146
 21
232.3695807526382
 31
0.0
  0
LINE
  5
9E50
  8
0
 10
62.19237911181146
 20
232.3695807526382
 30
0.0
 11
62.19237911181146
 21
232.0866608307633
 31
0.0
  0
LINE
  5
9E51
  8
0
 10
62.19237911181146
 20
232.0866608307633
 30
0.0
 11
62.23236934618619
 21
232.0866608307633
 31
0.0
  0
LINE
  5
9E52
  8
0
 10
62.23236934618619
 20
232.0866608307633
 30
0.0
 11
62.23236934618619
 21
232.3695807526382
 31
0.0
  0
LINE
  5
9E53
  8
0
 10
62.23236934618619
 20
232.3695807526382
 30
0.0
 11
62.63525997118624
 21
232.3695807526382
 31
0.0
  0
LINE
  5
9E54
  8
0
 10
62.63525997118624
 20
232.3695807526382
 30
0.0
 11
62.63525997118624
 21
232.0532623932631
 31
0.0
  0
LINE
  5
9E55
  8
0
 10
62.63525997118624
 20
232.0532623932631
 30
0.0
 11
62.29644161181106
 21
232.0532623932631
 31
0.0
  0
LINE
  5
9E56
  8
0
 10
62.29644161181106
 20
232.0532623932631
 30
0.0
 11
62.29644161181106
 21
232.0039557526379
 31
0.0
  0
LINE
  5
9E57
  8
0
 10
62.29644161181106
 20
232.0039557526379
 30
0.0
 11
62.65793575243644
 21
232.0039557526379
 31
0.0
  0
LINE
  5
9E58
  8
0
 10
62.65793575243644
 20
232.0039557526379
 30
0.0
 11
62.65793575243644
 21
231.8664948151381
 31
0.0
  0
LINE
  5
9E59
  8
0
 10
62.65793575243644
 20
231.8664948151381
 30
0.0
 11
62.38986934618644
 21
231.8664948151381
 31
0.0
  0
LINE
  5
9E5A
  8
0
 10
62.03224239306148
 20
231.8664948151381
 30
0.0
 11
61.75872676806141
 21
231.8664948151381
 31
0.0
  0
LINE
  5
9E5B
  8
0
 10
61.75872676806141
 20
231.8664948151381
 30
0.0
 11
61.75872676806141
 21
231.9745123932634
 31
0.0
  0
LINE
  5
9E5C
  8
0
 10
61.75872676806141
 20
231.9745123932634
 30
0.0
 11
61.69201778368635
 21
231.9532428620132
 31
0.0
  0
LINE
  5
9E5D
  8
0
 10
61.69201778368635
 20
231.9532428620132
 30
0.0
 11
61.69201778368635
 21
231.7437116120131
 31
0.0
  0
LINE
  5
9E5E
  8
0
 10
61.72005489306132
 20
231.6797272370131
 30
0.0
 11
61.79608028368641
 21
231.544903018263
 31
0.0
  0
LINE
  5
9E5F
  8
0
 10
62.12303340868623
 20
231.7784284088884
 30
0.0
 11
62.12303340868623
 21
231.5289069245131
 31
0.0
  0
LINE
  5
9E60
  8
0
 10
62.12303340868623
 20
231.5289069245131
 30
0.0
 11
62.29644161181106
 21
231.5289069245131
 31
0.0
  0
LINE
  5
9E61
  8
0
 10
62.29644161181106
 20
231.5289069245131
 30
0.0
 11
62.29644161181106
 21
231.7811530182634
 31
0.0
  0
LINE
  5
9E62
  8
0
 10
62.67929317431155
 20
231.6797272370131
 30
0.0
 11
62.59931270556119
 21
231.544903018263
 31
0.0
  0
LINE
  5
9E63
  8
0
 10
61.86815059618623
 20
232.717715518263
 30
0.0
 11
62.57531856493635
 21
232.717715518263
 31
0.0
  0
LINE
  5
9E64
  8
0
 10
62.57531856493635
 20
232.717715518263
 30
0.0
 11
62.57531856493635
 21
232.4055280182628
 31
0.0
  0
LINE
  5
9E65
  8
0
 10
62.57531856493635
 20
232.4055280182628
 30
0.0
 11
61.86815059618623
 21
232.4055280182628
 31
0.0
  0
LINE
  5
9E66
  8
0
 10
61.86815059618623
 20
232.4055280182628
 30
0.0
 11
61.86815059618623
 21
232.717715518263
 31
0.0
  0
LINE
  5
9E67
  8
0
 10
62.03083614306153
 20
232.5829791901378
 30
0.0
 11
62.03083614306153
 21
232.5242682526381
 31
0.0
  0
LINE
  5
9E68
  8
0
 10
62.03083614306153
 20
232.5242682526381
 30
0.0
 11
62.40577754931148
 21
232.5242682526381
 31
0.0
  0
LINE
  5
9E69
  8
0
 10
62.40577754931148
 20
232.5242682526381
 30
0.0
 11
62.40577754931148
 21
232.5829791901378
 31
0.0
  0
LINE
  5
9E6A
  8
0
 10
62.40577754931148
 20
232.5829791901378
 30
0.0
 11
62.03083614306153
 21
232.5829791901378
 31
0.0
  0
LINE
  5
9E6B
  8
0
 10
61.69201778368635
 20
232.1080182526384
 30
0.0
 11
61.69201778368635
 21
232.3535846588883
 31
0.0
  0
LINE
  5
9E6C
  8
0
 10
61.69201778368635
 20
232.3535846588883
 30
0.0
 11
61.79071895556119
 21
232.3535846588883
 31
0.0
  0
LINE
  5
9E6D
  8
0
 10
61.79071895556119
 20
232.3535846588883
 30
0.0
 11
61.79071895556119
 21
232.1400104401382
 31
0.0
  0
LINE
  5
9E6E
  8
0
 10
61.79071895556119
 20
232.1400104401382
 30
0.0
 11
61.69201778370245
 21
232.1080182526434
 31
0.0
  0
LINE
  5
9E6F
  8
0
 10
62.12303340868623
 20
232.0039557526379
 30
0.0
 11
61.8054845805613
 21
232.0039557526379
 31
0.0
  0
LINE
  5
9E70
  8
0
 10
61.8054845805613
 20
232.0039557526379
 30
0.0
 11
61.80275997118626
 21
232.0532623932631
 31
0.0
  0
LINE
  5
9E71
  8
0
 10
61.80275997118626
 20
232.0532623932631
 30
0.0
 11
62.12303340868623
 21
232.0532623932631
 31
0.0
  0
LINE
  5
9E72
  8
0
 10
62.12303340868623
 20
232.0532623932631
 30
0.0
 11
62.12303340868623
 21
232.0039557526379
 31
0.0
  0
LINE
  5
9E73
  8
0
 10
62.05351192431128
 20
232.1734088776383
 30
0.0
 11
61.93617793993637
 21
232.1734088776383
 31
0.0
  0
LINE
  5
9E74
  8
0
 10
61.93617793993637
 20
232.1734088776383
 30
0.0
 11
61.93617793993637
 21
232.2453912995133
 31
0.0
  0
LINE
  5
9E75
  8
0
 10
61.93617793993637
 20
232.2453912995133
 30
0.0
 11
62.05351192431128
 21
232.2453912995133
 31
0.0
  0
LINE
  5
9E76
  8
0
 10
62.05351192431128
 20
232.2453912995133
 30
0.0
 11
62.05351192431128
 21
232.1734088776383
 31
0.0
  0
LINE
  5
9E77
  8
0
 10
62.36842403368648
 20
232.1734088776383
 30
0.0
 11
62.36842403368648
 21
232.2453912995133
 31
0.0
  0
LINE
  5
9E78
  8
0
 10
62.36842403368648
 20
232.2453912995133
 30
0.0
 11
62.48452754931115
 21
232.2453912995133
 31
0.0
  0
LINE
  5
9E79
  8
0
 10
62.48452754931115
 20
232.2453912995133
 30
0.0
 11
62.48452754931115
 21
232.1734088776383
 31
0.0
  0
LINE
  5
9E7A
  8
0
 10
62.48452754931115
 20
232.1734088776383
 30
0.0
 11
62.36842403368648
 21
232.1734088776383
 31
0.0
  0
LINE
  5
9E7B
  8
0
 10
61.41314083056106
 20
231.6757721588883
 30
0.0
 11
61.42122676806132
 21
231.5329498932633
 31
0.0
  0
ARC
  5
9E7C
  8
0
 10
61.6253526172145
 20
233.9382185168585
 30
0.0
 40
2.272377029695415
 50
264.6414777738622
 51
266.9348152461827
  0
ARC
  5
9E7D
  8
0
 10
61.50617972700457
 20
231.691447250747
 30
0.0
 40
0.022476476334337
 50
264.03501221812
 51
306.5640674473047
  0
ARC
  5
9E7E
  8
0
 10
61.50749320566487
 20
231.6820177182678
 30
0.0
 40
0.014839073681366
 50
324.4701988857918
 51
4.421974038738584
  0
ARC
  5
9E7F
  8
0
 10
61.01692946217351
 20
231.7229335673472
 30
0.0
 40
0.5069212474043316
 50
355.5000960438273
 51
0.8484748777902161
  0
ARC
  5
9E80
  8
0
 10
61.63483598799694
 20
234.0666503312578
 30
0.0
 40
2.542688893344043
 50
265.1809484774698
 51
267.5208014624529
  0
ARC
  5
9E81
  8
0
 10
61.53231194556466
 20
232.2737615657143
 30
0.0
 40
0.7474574208886295
 50
269.4278258300276
 51
274.7828769779775
  0
ARC
  5
9E82
  8
0
 10
61.58194420662661
 20
231.670088225527
 30
0.0
 40
0.1417505388387061
 50
275.1365035074422
 51
297.894765149848
  0
ARC
  5
9E83
  8
0
 10
61.61222055856099
 20
231.604199025532
 30
0.0
 40
0.0694715375261978
 50
301.2514755256504
 51
351.3397225057918
  0
ARC
  5
9E84
  8
0
 10
61.37097983889947
 20
231.6740088878767
 30
0.0
 40
0.3201466567477245
 50
345.4792488797654
 51
359.0668339659391
  0
ARC
  5
9E85
  8
0
 10
59.49868979905696
 20
231.7335847179173
 30
0.0
 40
2.193351363129598
 50
358.3072842196231
 51
0.2645405394391241
  0
ARC
  5
9E86
  8
0
 10
61.25338018083357
 20
232.8140868274288
 30
0.0
 40
1.226603834737866
 50
292.3622304129851
 51
309.4180965652807
  0
ARC
  5
9E87
  8
0
 10
61.1797021656205
 20
232.7535209682513
 30
0.0
 40
1.356716379153855
 50
297.0209406626466
 51
314.0515009572343
  0
ARC
  5
9E88
  8
0
 10
63.25416393633054
 20
232.6966828678882
 30
0.0
 40
1.324925264474462
 50
223.7097081622024
 51
240.3793491799922
  0
ARC
  5
9E89
  8
0
 10
63.27546236360375
 20
232.9212152488277
 30
0.0
 40
1.377211017143197
 50
229.981595629291
 51
244.349432299083
  0
LINE
  5
9E8A
  8
0
 10
63.23968379931141
 20
232.7044440338881
 30
0.0
 11
63.07559200243615
 21
232.7364362213884
 31
0.0
  0
LINE
  5
9E8B
  8
0
 10
62.80075801806144
 20
232.1520514557632
 30
0.0
 11
62.87019161181108
 21
231.9732819245127
 31
0.0
  0
LINE
  5
9E8C
  8
0
 10
62.96616817431133
 20
232.1026569245132
 30
0.0
 11
62.96616817431133
 21
231.5223151276381
 31
0.0
  0
LINE
  5
9E8D
  8
0
 10
62.96616817431133
 20
231.5223151276381
 30
0.0
 11
63.14502559618624
 21
231.5223151276381
 31
0.0
  0
LINE
  5
9E8E
  8
0
 10
63.14502559618624
 20
231.5223151276381
 30
0.0
 11
63.14502559618624
 21
232.3882135651383
 31
0.0
  0
LINE
  5
9E8F
  8
0
 10
63.15829708056155
 20
232.2187604401378
 30
0.0
 11
63.29980098681146
 21
232.1107428620134
 31
0.0
  0
LINE
  5
9E90
  8
0
 10
63.50651973681163
 20
232.4736432526378
 30
0.0
 11
63.50651973681163
 21
231.5223151276381
 31
0.0
  0
LINE
  5
9E91
  8
0
 10
63.50651973681163
 20
231.5223151276381
 30
0.0
 11
63.68933223681135
 21
231.5223151276381
 31
0.0
  0
LINE
  5
9E92
  8
0
 10
63.68933223681135
 20
231.5223151276381
 30
0.0
 11
63.68933223681135
 21
231.7837897370131
 31
0.0
  0
LINE
  5
9E93
  8
0
 10
63.68933223681135
 20
231.7837897370131
 30
0.0
 11
64.02287715868663
 21
231.7837897370131
 31
0.0
  0
LINE
  5
9E94
  8
0
 10
64.02287715868663
 20
231.7837897370131
 30
0.0
 11
64.02287715868663
 21
231.9358405182629
 31
0.0
  0
LINE
  5
9E95
  8
0
 10
64.02287715868663
 20
231.9358405182629
 30
0.0
 11
63.68933223681135
 21
231.9358405182629
 31
0.0
  0
LINE
  5
9E96
  8
0
 10
63.68933223681135
 20
231.9358405182629
 30
0.0
 11
63.68933223681135
 21
232.1334186432632
 31
0.0
  0
LINE
  5
9E97
  8
0
 10
63.68933223681135
 20
232.1334186432632
 30
0.0
 11
64.02287715868663
 21
232.1334186432632
 31
0.0
  0
LINE
  5
9E98
  8
0
 10
64.02287715868663
 20
232.1334186432632
 30
0.0
 11
64.02287715868663
 21
232.2801080963881
 31
0.0
  0
LINE
  5
9E99
  8
0
 10
64.02287715868663
 20
232.2801080963881
 30
0.0
 11
63.68933223681135
 21
232.2801080963881
 31
0.0
  0
LINE
  5
9E9A
  8
0
 10
63.68933223681135
 20
232.2801080963881
 30
0.0
 11
63.68933223681135
 21
232.4736432526378
 31
0.0
  0
LINE
  5
9E9B
  8
0
 10
63.68933223681135
 20
232.4736432526378
 30
0.0
 11
64.06295528368666
 21
232.4736432526378
 31
0.0
  0
LINE
  5
9E9C
  8
0
 10
64.06295528368666
 20
232.4736432526378
 30
0.0
 11
64.06295528368666
 21
232.6203327057628
 31
0.0
  0
LINE
  5
9E9D
  8
0
 10
64.06295528368666
 20
232.6203327057628
 30
0.0
 11
63.54527950243657
 21
232.6203327057628
 31
0.0
  0
LINE
  5
9E9E
  8
0
 10
63.57604122118657
 20
232.7164850495128
 30
0.0
 11
63.40650020556124
 21
232.7511139557627
 31
0.0
  0
ARC
  5
9E9F
  8
0
 10
61.5977225278677
 20
233.0423257968548
 30
0.0
 40
1.509194028694409
 50
335.5457096686311
 51
348.3060403035889
  0
ARC
  5
9EA0
  8
0
 10
61.88909118811154
 20
232.9260790788761
 30
0.0
 40
1.195932761560066
 50
319.6679218269052
 51
334.8367065032426
  0
ARC
  5
9EA1
  8
0
 10
62.10095993385127
 20
232.6442222745969
 30
0.0
 40
1.020724413232922
 50
318.9043658670693
 51
327.9560510819899
  0
ARC
  5
9EA2
  8
0
 10
61.96384773900743
 20
232.9140614272418
 30
0.0
 40
1.292941260989209
 50
336.0018785125659
 51
350.6697714262836
  0
ARC
  5
9EA3
  8
0
 10
61.43628519640497
 20
233.3456643522102
 30
0.0
 40
2.057969231116068
 50
326.7988139724891
 51
343.207798180194
  0
ARC
  5
9EA4
  8
0
 10
61.22811460479014
 20
233.4228705296287
 30
0.0
 40
2.452256813952018
 50
327.6513795623706
 51
337.2268745923164
  0
LINE
  5
9EA5
  8
0
 10
63.48920528368619
 20
232.4736432526378
 30
0.0
 11
63.50651973681163
 21
232.4736432526378
 31
0.0
  0
LINE
  5
9EA6
  8
0
 10
63.57604122118657
 20
232.7164850495128
 30
0.0
 11
63.56090449122618
 21
232.6679065529256
 31
0.0
  0
LINE
  5
9EA7
  8
0
 10
63.56090449122618
 20
232.6679065529256
 30
0.0
 11
63.54527950243657
 21
232.6203327057628
 31
0.0
  0
VIEWPORT
  5
22
 67
     1
  8
0
 10
5.269134197284911
 20
5.545311567251436
 30
0.0
 40
11.13808705479925
 41
12.32365374410561
 68
     1
 69
     1
1001
GENIUS_GENSCREG_15
1000
PF
1040
1.0
1000
DF
1040
1.0
1000
MIN
1011
-0.2999093301147138
1021
-0.6165153048013714
1031
0.0
1021
-0.6165153048013714
1031
0.0
1000
MAX
1011
10.83817772468454
1021
11.70713843930424
1031
0.0
1021
11.70713843930424
1031
0.0
1000
FLAGS
1070
     4
1001
GENIUS_GENODEF_13
1002
{
1000
HIER
1070
     0
1002
}
1002
{
1000
MANEDIT
1070
     0
1002
}
1002
{
1000
NOSEL
1070
     0
1002
}
1002
{
1000
BEHIND
1070
     0
1002
}
1002
{
1000
OTHER
1070
     0
1002
}
1002
{
1000
REACTOR
1002
}
1001
GENIUS_GENOBJ-N-SDF_13
1002
{
1000
OWNER
1000
GEN
1002
}
1001
ACAD
1000
MVIEW
1002
{
1070
    16
1010
0.0
1020
0.0
1030
0.0
1020
0.0
1030
0.0
1010
0.0
1020
0.0
1030
1.0
1020
0.0
1030
1.0
1040
0.0
1040
12.32365374410561
1040
5.269134197284911
1040
5.545311567251436
1040
50.0
1040
0.0
1040
0.0
1070
     0
1070
   100
1070
     0
1070
     1
1070
     0
1070
     0
1070
     0
1070
     0
1040
0.0
1040
0.0
1040
0.0
1040
1.0
1040
1.0
1040
10.0
1040
10.0
1070
     0
1002
{
1002
}
1002
}
  0
ENDSEC
  0
EOF
