  0
SECTION
  2
HEADER
  9
$ACADVER
  1
AC1009
  9
$DWGCODEPAGE
  3
ansi_932
  9
$INSBASE
 10
0.0
 20
0.0
 30
0.0
  9
$EXTMIN
 10
-0.0000026270345188
 20
0.0000050735020523
 30
0.0
  9
$EXTMAX
 10
235.1103271693009
 20
294.6851362700033
 30
0.0
  9
$LIMMIN
 10
0.0
 20
0.0
  9
$LIMMAX
 10
297.0
 20
210.0
  9
$ORTHOMODE
 70
     0
  9
$REGENMODE
 70
     1
  9
$FILLMODE
 70
     1
  9
$QTEXTMODE
 70
     0
  9
$MIRRTEXT
 70
     0
  9
$DRAGMODE
 70
     2
  9
$LTSCALE
 40
10.0
  9
$OSMODE
 70
   549
  9
$ATTMODE
 70
     1
  9
$TEXTSIZE
 40
3.5
  9
$TRACEWID
 40
1.0
  9
$TEXTSTYLE
  7
STANDARD
  9
$CLAYER
  8
0
  9
$CELTYPE
  6
BYLAYER
  9
$CECOLOR
 62
   256
  9
$DIMSCALE
 40
1.0
  9
$DIMASZ
 40
2.5
  9
$DIMEXO
 40
1.0
  9
$DIMDLI
 40
7.0
  9
$DIMRND
 40
0.0
  9
$DIMDLE
 40
0.0
  9
$DIMEXE
 40
1.0
  9
$DIMTP
 40
0.1
  9
$DIMTM
 40
0.1
  9
$DIMTXT
 40
3.0
  9
$DIMCEN
 40
0.0
  9
$DIMTSZ
 40
0.0
  9
$DIMTOL
 70
     0
  9
$DIMLIM
 70
     0
  9
$DIMTIH
 70
     0
  9
$DIMTOH
 70
     0
  9
$DIMSE1
 70
     0
  9
$DIMSE2
 70
     0
  9
$DIMTAD
 70
     3
  9
$DIMZIN
 70
     8
  9
$DIMBLK
  1
OPEN
  9
$DIMASO
 70
     1
  9
$DIMSHO
 70
     1
  9
$DIMPOST
  1

  9
$DIMAPOST
  1
"
  9
$DIMALT
 70
     0
  9
$DIMALTD
 70
     2
  9
$DIMALTF
 40
0.0393701
  9
$DIMLFAC
 40
1.0
  9
$DIMTOFL
 70
     1
  9
$DIMTVP
 40
0.0
  9
$DIMTIX
 70
     0
  9
$DIMSOXD
 70
     0
  9
$DIMSAH
 70
     0
  9
$DIMBLK1
  1

  9
$DIMBLK2
  1

  9
$DIMSTYLE
  2
AM_JIS
  9
$DIMCLRD
 70
   256
  9
$DIMCLRE
 70
   256
  9
$DIMCLRT
 70
     2
  9
$DIMTFAC
 40
0.71
  9
$DIMGAP
 40
1.0
  9
$LUNITS
 70
     2
  9
$LUPREC
 70
     2
  9
$SKETCHINC
 40
1.0
  9
$FILLETRAD
 40
2.5
  9
$AUNITS
 70
     0
  9
$AUPREC
 70
     0
  9
$MENU
  1
.
  9
$ELEVATION
 40
0.0
  9
$PELEVATION
 40
0.0
  9
$THICKNESS
 40
0.0
  9
$LIMCHECK
 70
     0
  9
$CHAMFERA
 40
2.5
  9
$CHAMFERB
 40
2.5
  9
$SKPOLY
 70
     1
  9
$TDCREATE
 40
2460342.739742338
  9
$TDUPDATE
 40
2460346.659862153
  9
$TDINDWG
 40
0.0892507176
  9
$TDUSRTIMER
 40
0.0891547917
  9
$USRTIMER
 70
     1
  9
$ANGBASE
 50
0.0
  9
$ANGDIR
 70
     0
  9
$PDMODE
 70
     0
  9
$PDSIZE
 40
0.0
  9
$PLINEWID
 40
0.0
  9
$COORDS
 70
     0
  9
$SPLFRAME
 70
     0
  9
$SPLINETYPE
 70
     6
  9
$SPLINESEGS
 70
     8
  9
$ATTDIA
 70
     1
  9
$ATTREQ
 70
     1
  9
$HANDLING
 70
     1
  9
$HANDSEED
  5
4C8D
  9
$SURFTAB1
 70
     6
  9
$SURFTAB2
 70
     6
  9
$SURFTYPE
 70
     6
  9
$SURFU
 70
     6
  9
$SURFV
 70
     6
  9
$UCSNAME
  2

  9
$UCSORG
 10
0.0
 20
0.0
 30
0.0
  9
$UCSXDIR
 10
1.0
 20
0.0
 30
0.0
  9
$UCSYDIR
 10
0.0
 20
1.0
 30
0.0
  9
$PUCSNAME
  2

  9
$PUCSORG
 10
0.0
 20
0.0
 30
0.0
  9
$PUCSXDIR
 10
1.0
 20
0.0
 30
0.0
  9
$PUCSYDIR
 10
0.0
 20
1.0
 30
0.0
  9
$USERI1
 70
     0
  9
$USERI2
 70
     0
  9
$USERI3
 70
     0
  9
$USERI4
 70
     0
  9
$USERI5
 70
     0
  9
$USERR1
 40
0.0
  9
$USERR2
 40
0.0
  9
$USERR3
 40
0.0
  9
$USERR4
 40
0.0
  9
$USERR5
 40
0.0
  9
$WORLDVIEW
 70
     1
  9
$SHADEDGE
 70
     3
  9
$SHADEDIF
 70
    70
  9
$TILEMODE
 70
     1
  9
$MAXACTVP
 70
    48
  9
$PLIMCHECK
 70
     0
  9
$PEXTMIN
 10
1.000000000000000E+20
 20
1.000000000000000E+20
 30
1.000000000000000E+20
  9
$PEXTMAX
 10
-1.000000000000000E+20
 20
-1.000000000000000E+20
 30
-1.000000000000000E+20
  9
$PLIMMIN
 10
-0.2500002402958907
 20
-0.2499999962453767
  9
$PLIMMAX
 10
10.74999951940822
 20
8.249999763458732
  9
$UNITMODE
 70
     0
  9
$VISRETAIN
 70
     1
  9
$PLINEGEN
 70
     0
  9
$PSLTSCALE
 70
     1
  0
ENDSEC
  0
SECTION
  2
TABLES
  0
TABLE
  2
VPORT
 70
     1
  0
VPORT
  2
*ACTIVE
 70
     0
 10
0.0
 20
0.0
 11
1.0
 21
1.0
 12
148.4999986864827
 22
147.3425681350016
 13
0.0
 23
0.0
 14
2.5
 24
2.5
 15
10.0
 25
10.0
 16
0.0
 26
0.0
 36
1.0
 17
0.0
 27
0.0
 37
0.0
 40
296.9717328656968
 41
2.05293551491819
 42
50.0
 43
0.0
 44
0.0
 50
0.0
 51
0.0
 71
     0
 72
   100
 73
     1
 74
     3
 75
     0
 76
     0
 77
     0
 78
     0
  0
ENDTAB
  0
TABLE
  2
LTYPE
 70
    14
  0
LTYPE
  2
CONTINUOUS
 70
     0
  3
Solid line
 72
    65
 73
     0
 40
0.0
  0
LTYPE
  2
PHANTOM2
 70
     0
  3
___ _ _ ___ _ _ ___ _ _ ___ _ _ ___ _ _ ___ _ _
 72
    65
 73
     6
 40
1.25
 49
0.625
 49
-0.125
 49
0.125
 49
-0.125
 49
0.125
 49
-0.125
  0
LTYPE
  2
ACJISTGB
 70
     0
  3
__ . . __ . .
 72
    65
 73
     6
 40
9.0
 49
4.0
 49
-1.0
 49
1.0
 49
-1.0
 49
1.0
 49
-1.0
  0
LTYPE
  2
ACJISTGL
 70
     0
  3
_ _ _ _ _
 72
    65
 73
     2
 40
3.0
 49
2.0
 49
-1.0
  0
LTYPE
  2
AM_ISO02W050
 70
     0
  3
__ __ __ __ __ __ __ __ __ __ __ __ __ __ __
 72
    65
 73
     2
 40
7.5
 49
6.0
 49
-1.5
  0
LTYPE
  2
AM_ISO08W050
 70
     0
  3
____ . ____ . ____ . ____ . ____ . ____ . ____
 72
    65
 73
     4
 40
18.0
 49
12.0
 49
-1.5
 49
3.0
 49
-1.5
  0
LTYPE
  2
AM_ISO09W050
 70
     0
  3
_____ . . _____ . . _____ . . ____ .. ____
 72
    65
 73
     6
 40
22.5
 49
12.0
 49
-1.5
 49
3.0
 49
-1.5
 49
3.0
 49
-1.5
  0
LTYPE
  2
AM_ISO02W050X2
 70
     0
  3
 _ _ _ _ _ _ _ _ _ _ _ _
 72
    65
 73
     2
 40
3.75
 49
3.0
 49
-0.75
  0
LTYPE
  2
AM_ISO08W050X2
 70
     0
  3
__ . __ . __ . __ . __ . __
 72
    65
 73
     4
 40
9.0
 49
6.0
 49
-0.75
 49
1.5
 49
-0.75
  0
LTYPE
  2
AMZIGZAG
 70
     0
  3
/\/-/\/-/\/-/\/-/\/-/\/
 72
    65
 73
     2
 40
11.0001
 49
0.0001
 49
-11.0
  0
LTYPE
  2
AMCONSTR
 70
     0
  3
_______________________
 72
    65
 73
     2
 40
9999.0
 49
9999.0
 49
0.0
  0
LTYPE
  2
CENTER2
 70
     0
  3
Center (.5x) ___ _ ___ _ ___ _ ___ _ ___ _ ___
 72
    65
 73
     4
 40
1.125
 49
0.75
 49
-0.125
 49
0.125
 49
-0.125
  0
LTYPE
  2
HIDDEN2
 70
     0
  3
Hidden (.5x) _ _ _ _ _ _ _ _ _ _ _ _ _ _ _ _ _
 72
    65
 73
     2
 40
0.1875
 49
0.125
 49
-0.0625
  0
LTYPE
  2
ACJISWELD
 70
     0
  3
_ _ _ _ _
 72
    65
 73
     2
 40
2.0
 49
2.0
 49
-1.0
  0
ENDTAB
  0
TABLE
  2
LAYER
 70
     5
  0
LAYER
  2
0
 70
     0
 62
     7
  6
CONTINUOUS
  0
LAYER
  2
7
 70
     0
 62
     4
  6
CENTER2
  0
LAYER
  2
AM_0
 70
     0
 62
     7
  6
CONTINUOUS
  0
LAYER
  2
10
 70
     0
 62
     2
  6
CONTINUOUS
  0
LAYER
  2
DEFPOINTS
 70
     0
 62
     7
  6
CONTINUOUS
  0
ENDTAB
  0
TABLE
  2
STYLE
 70
     4
  0
STYLE
  2
STANDARD
 70
     0
 40
0.0
 41
1.0
 50
0.0
 71
     0
 42
3.5
  3
isocp.shx
  4
extfont.shx
  0
STYLE
  2
ACJISTS
 70
     0
 40
1.0
 41
1.0
 50
0.0
 71
     0
 42
3.5
  3
isocp.shx
  4
extfont.shx
  0
STYLE
  2
ACJISGDT
 70
     0
 40
0.0
 41
1.0
 50
0.0
 71
     0
 42
3.5
  3
amgdt.shx
  4
extfont.shx
  0
STYLE
  2

 70
     1
 40
0.0
 41
1.0
 50
0.0
 71
     0
 42
3.5
  3
ltypeshp.shx
  4

  0
ENDTAB
  0
TABLE
  2
VIEW
 70
     3
  0
VIEW
  2
AMDTVIEW1
 70
     0
 40
329.0721649484536
 10
210.0
 20
164.5360824742268
 41
420.0
 11
0.0
 21
0.0
 31
1.0
 12
0.0
 22
0.0
 32
0.0
 42
50.0
 43
0.0
 44
0.0
 50
0.0
 71
     0
  0
VIEW
  2
AMDTVIEW2
 70
     0
 40
329.0721649484536
 10
210.0
 20
164.5360824742268
 41
420.0
 11
0.0
 21
0.0
 31
1.0
 12
0.0
 22
0.0
 32
0.0
 42
50.0
 43
0.0
 44
0.0
 50
0.0
 71
     0
  0
VIEW
  2
AMDTVIEW3
 70
     0
 40
329.0721649484536
 10
210.0
 20
164.5360824742268
 41
420.0
 11
0.0
 21
0.0
 31
1.0
 12
0.0
 22
0.0
 32
0.0
 42
50.0
 43
0.0
 44
0.0
 50
0.0
 71
     0
  0
ENDTAB
  0
TABLE
  2
UCS
 70
     0
  0
ENDTAB
  0
TABLE
  2
APPID
 70
    68
  0
APPID
  2
ACAD
 70
     0
  0
APPID
  2
AD_DRAW
 70
     0
  0
APPID
  2
DESIGNERASSEMBLIES
 70
     0
  0
APPID
  2
MCAD_NO_VIS
 70
     0
  0
APPID
  2
ASURF_PCURVE_APPNAME
 70
     0
  0
APPID
  2
ACAD_TEMP_GRAPHIC
 70
     0
  0
APPID
  2
ACATTRIBSERVICES
 70
     0
  0
APPID
  2
ACADM_DIM_EDIT
 70
     0
  0
APPID
  2
GENIUS_GENDIM_13
 70
     0
  0
APPID
  2
GENIUS_GENDTOL_13
 70
     0
  0
APPID
  2
GENIUS_GE3DTOL_13
 70
     0
  0
APPID
  2
AMG_3D2D_5_0
 70
     0
  0
APPID
  2
AMDT_DM_ADJ
 70
     0
  0
APPID
  2
ACAD_PSEXT
 70
     0
  0
APPID
  2
ACAD_DSTYLE_DIMTEXT_FILL
 70
     0
  0
APPID
  2
ACAECLAYERSTANDARD
 70
     0
  0
APPID
  2
GENIUS_GENREC_14
 70
     0
  0
APPID
  2
GENIUS_GENODEF_13
 70
     0
  0
APPID
  2
GENIUS_GENOBJ-N-REC_13
 70
     0
  0
APPID
  2
DCO15
 70
     0
  0
APPID
  2
ACAD_DSTYLE_DIMJAG
 70
     0
  0
APPID
  2
ACAD_DSTYLE_DIMTALN
 70
     0
  0
APPID
  2
ACAD_MLEADERVER
 70
     0
  0
APPID
  2
GENIUS_GENSCREG_15
 70
     0
  0
APPID
  2
GENIUS_GENOBJ-N-SDF_13
 70
     0
  0
APPID
  2
ACAD_NAV_VCDISPLAY
 70
     0
  0
APPID
  2
ACAD_EXEMPT_FROM_CAD_STAND
 70
     0
  0
APPID
  2
ACCMTRANSPARENCY
 70
     0
  0
APPID
  2
HC_SUPERPART
 70
     0
  0
APPID
  2
HC_SP4BLOCK
 70
     0
  0
APPID
  2
HC_XDATA_SPRING
 70
     0
  0
APPID
  2
HCCAD_FRAME
 70
     0
  0
APPID
  2
GENIUS_GENOLIS_13
 70
     0
  0
APPID
  2
GENIUS_GENOENT_13
 70
     0
  0
APPID
  2
GENIUS_GENOREF_13
 70
     0
  0
APPID
  2
GENIUS_GENOBJ-N-TIT_13
 70
     0
  0
APPID
  2
GENIUS_GENOBJ-N-ZOO_13
 70
     0
  0
APPID
  2
GENIUS_GENTITLE_13
 70
     0
  0
APPID
  2
GENIUS_GENSYMENT_13
 70
     0
  0
APPID
  2
GENIUS_GENSCSYM_13
 70
     0
  0
APPID
  2
GENIUS_GENOBJ-N-REV_13
 70
     0
  0
APPID
  2
GENIUS_GENOBJ-N-RSSYM_13
 70
     0
  0
APPID
  2
GENIUS_GENREV_15
 70
     0
  0
APPID
  2
HRA
 70
     0
  0
APPID
  2
HTIT
 70
     0
  0
APPID
  2
GENIUS_GENZOO_17
 70
     0
  0
APPID
  2
GENIUS_GENOBJ-N-CEN_13
 70
     0
  0
APPID
  2
GENIUS_GENCEN_19
 70
     0
  0
APPID
  2
GENIUS_GENOBJ-N-CRS_13
 70
     0
  0
APPID
  2
GENIUS_GENCRS_20
 70
     0
  0
APPID
  2
GENIUS_GENOBJ-N-CRC_13
 70
     0
  0
APPID
  2
GENIUS_GENCRC_14
 70
     0
  0
APPID
  2
GENIUS_GENFIL_13
 70
     0
  0
APPID
  2
GENIUS_GENOBJ-N-CHA_13
 70
     0
  0
APPID
  2
GENIUS_GENOBJ-N-FIL_13
 70
     0
  0
APPID
  2
GENIUS_GENHATCH_13
 70
     0
  0
APPID
  2
GENIUS_GENOBJ-N-HTC_13
 70
     0
  0
APPID
  2
GENIUS_GENOBJ-N-DIM_13
 70
     0
  0
APPID
  2
GENIUS_GENOBJ-N-DIMLI_13
 70
     0
  0
APPID
  2
GENIUS_GENOBJ-N-FITL_13
 70
     0
  0
APPID
  2
GENIUS_GENFITL_13
 70
     0
  0
APPID
  2
GENLAYCOLOR
 70
     0
  0
APPID
  2
ACAD_DSTYLE_DIMBREAK
 70
     0
  0
APPID
  2
ACADANNOTATIVE
 70
     0
  0
APPID
  2
ACADANNOPO
 70
     0
  0
APPID
  2
PLOTTRANSPARENCY
 70
     0
  0
APPID
  2
ACAD_SPLINE_DATA
 70
     0
  0
APPID
  2
ACAD_SPLINE_DATA2
 70
     0
  0
ENDTAB
  0
TABLE
  2
DIMSTYLE
 70
     8
  0
DIMSTYLE
  2
STANDARD
 70
     0
  3

  4

  5

  6

  7

 40
1.0
 41
2.5
 42
0.625
 43
3.75
 44
1.25
 45
0.0
 46
0.0
 47
0.0
 48
0.0
140
2.5
141
2.5
142
0.0
143
0.0394
144
1.0
145
0.0
146
1.0
147
0.625
 71
     0
 72
     0
 73
     0
 74
     0
 75
     0
 76
     0
 77
     1
 78
     8
170
     0
171
     4
172
     1
173
     0
174
     0
175
     0
176
     0
177
     0
178
     0
  0
DIMSTYLE
  2
ISO-25
 70
     0
  3

  4

  5

  6

  7

 40
1.0
 41
2.5
 42
0.625
 43
3.75
 44
1.25
 45
0.0
 46
0.0
 47
0.0
 48
0.0
140
2.5
141
2.5
142
0.0
143
0.0394
144
1.0
145
0.0
146
1.0
147
0.625
 71
     0
 72
     0
 73
     0
 74
     0
 75
     0
 76
     0
 77
     1
 78
     8
170
     0
171
     4
172
     1
173
     0
174
     0
175
     0
176
     0
177
     0
178
     0
  0
DIMSTYLE
  2
AM_JIS
 70
     0
  3

  4
"
  5
OPEN
  6

  7

 40
1.0
 41
2.5
 42
1.0
 43
7.0
 44
1.0
 45
0.0
 46
0.0
 47
0.1
 48
0.1
140
3.0
141
0.0
142
0.0
143
0.0393701
144
1.0
145
0.0
146
0.71
147
1.0
 71
     0
 72
     0
 73
     0
 74
     0
 75
     0
 76
     0
 77
     3
 78
     8
170
     0
171
     2
172
     1
173
     0
174
     0
175
     0
176
   256
177
   256
178
     2
  0
DIMSTYLE
  2
AM_JIS$3
 70
     0
  3

  4
"
  5
OPEN
  6

  7

 40
1.0
 41
2.5
 42
1.0
 43
10.0
 44
1.0
 45
0.0
 46
0.0
 47
0.1
 48
0.1
140
3.0
141
0.0
142
0.0
143
0.0393701
144
1.0
145
0.0
146
0.71
147
1.0
 71
     0
 72
     0
 73
     0
 74
     0
 75
     0
 76
     0
 77
     3
 78
     8
170
     0
171
     2
172
     1
173
     0
174
     0
175
     0
176
   256
177
   256
178
     2
  0
DIMSTYLE
  2
AM_JIS$4
 70
     0
  3

  4
"
  5

  6
OPEN30
  7
OPEN
 40
1.0
 41
2.5
 42
1.0
 43
10.0
 44
1.0
 45
0.0
 46
0.0
 47
0.1
 48
0.1
140
3.0
141
0.0
142
0.0
143
0.0393701
144
1.0
145
0.0
146
0.71
147
1.0
 71
     0
 72
     0
 73
     0
 74
     0
 75
     1
 76
     0
 77
     3
 78
     8
170
     0
171
     2
172
     1
173
     1
174
     0
175
     0
176
   256
177
   256
178
     2
  0
DIMSTYLE
  2
AM_JIS$6
 70
     0
  3

  4
"
  5
OPEN30
  6
OPEN30
  7
OPEN30
 40
1.0
 41
2.5
 42
1.0
 43
10.0
 44
1.0
 45
0.0
 46
0.0
 47
0.1
 48
0.1
140
3.5
141
0.0
142
0.0
143
0.0393701
144
1.0
145
0.0
146
0.71
147
1.5
 71
     0
 72
     0
 73
     0
 74
     0
 75
     0
 76
     0
 77
     0
 78
     8
170
     0
171
     2
172
     1
173
     0
174
     0
175
     0
176
   256
177
   256
178
     2
  0
DIMSTYLE
  2
AM_JIS$7
 70
     0
  3

  4
"
  5
OPEN30
  6

  7

 40
1.0
 41
2.5
 42
1.0
 43
10.0
 44
1.0
 45
0.0
 46
0.0
 47
0.1
 48
0.1
140
3.0
141
0.0
142
0.0
143
0.0393701
144
1.0
145
0.0
146
0.71
147
1.0
 71
     0
 72
     0
 73
     0
 74
     0
 75
     0
 76
     0
 77
     3
 78
     8
170
     0
171
     2
172
     1
173
     0
174
     0
175
     0
176
   256
177
   256
178
     2
  0
DIMSTYLE
  2
AM_JIS$0
 70
     0
  3

  4
"
  5
OPEN
  6

  7

 40
1.0
 41
2.5
 42
1.0
 43
7.0
 44
1.0
 45
0.0
 46
0.0
 47
0.1
 48
0.1
140
3.0
141
0.0
142
0.0
143
0.0393701
144
1.0
145
0.0
146
0.71
147
1.0
 71
     0
 72
     0
 73
     0
 74
     0
 75
     0
 76
     0
 77
     3
 78
     8
170
     0
171
     2
172
     1
173
     0
174
     0
175
     0
176
   256
177
   256
178
     2
  0
ENDTAB
  0
ENDSEC
  0
SECTION
  2
BLOCKS
  0
BLOCK
  8
0
  2
$MODEL_SPACE
 70
     0
 10
0.0
 20
0.0
 30
0.0
  3
$MODEL_SPACE
  1

  0
ENDBLK
  5
1C
  8
0
  0
BLOCK
 67
     1
  8
0
  2
$PAPER_SPACE
 70
     0
 10
0.0
 20
0.0
 30
0.0
  3
$PAPER_SPACE
  1

  0
ENDBLK
  5
19
 67
     1
  8
0
  0
BLOCK
  8
0
  2
_OPEN30
 70
     0
 10
0.0
 20
0.0
 30
0.0
  3
_OPEN30
  1

  0
LINE
  5
2EF
  8
0
  6
BYBLOCK
 62
     0
 10
-1.0
 20
0.26794919
 30
0.0
 11
0.0
 21
0.0
 31
0.0
  0
LINE
  5
2F0
  8
0
  6
BYBLOCK
 62
     0
 10
0.0
 20
0.0
 30
0.0
 11
-1.0
 21
-0.26794919
 31
0.0
  0
LINE
  5
2F1
  8
0
  6
BYBLOCK
 62
     0
 10
0.0
 20
0.0
 30
0.0
 11
-1.0
 21
0.0
 31
0.0
  0
ENDBLK
  5
2F3
  8
0
  0
BLOCK
  8
0
  2
_OPEN
 70
     0
 10
0.0
 20
0.0
 30
0.0
  3
_OPEN
  1

  0
LINE
  5
597
  8
0
  6
BYBLOCK
 62
     0
 10
-1.0
 20
0.1666666666666667
 30
0.0
 11
0.0
 21
0.0
 31
0.0
  0
LINE
  5
598
  8
0
  6
BYBLOCK
 62
     0
 10
-1.0
 20
-0.1666666666666667
 30
0.0
 11
0.0
 21
0.0
 31
0.0
  0
LINE
  5
599
  8
0
  6
BYBLOCK
 62
     0
 10
0.0
 20
0.0
 30
0.0
 11
-1.0
 21
0.0
 31
0.0
  0
ENDBLK
  5
59B
  8
0
  0
BLOCK
  8
0
  2
_TAGCIRCLE
 70
     2
 10
0.0
 20
0.0
 30
0.0
  3
_TAGCIRCLE
  1

  0
CIRCLE
  5
1151
  8
0
  6
BYBLOCK
 62
     0
 10
0.0
 20
0.0
 30
0.0
 40
4.0
  0
ATTDEF
  5
1152
  8
0
 62
     0
 10
-7.1
 20
-1.5
 30
0.0
 40
3.0
  1
タグ番号
 72
     1
 11
0.0
 21
-1.5
 31
0.0
  3
タグ番号を入力
  2
タグ番号
 70
     0
  0
ENDBLK
  5
1154
  8
0
  0
BLOCK
  8
AM_0
  2
_ACMOPEN30
 70
     0
 10
0.0
 20
0.0
 30
0.0
  3
_ACMOPEN30
  1
Acad:XRef
  0
LINE
  5
1CA4
  8
AM_0
 62
     0
 10
-1.0
 20
0.0
 30
0.0
 11
0.0
 21
0.0
 31
0.0
  0
LINE
  5
1CA5
  8
AM_0
 62
     0
 10
-1.0
 20
-0.2679491924311227
 30
0.0
 11
0.0
 21
0.0
 31
0.0
  0
LINE
  5
1CA6
  8
AM_0
 62
     0
 10
-1.0
 20
0.2679491924311227
 30
0.0
 11
0.0
 21
0.0
 31
0.0
  0
ENDBLK
  5
1CA7
  8
AM_0
  0
BLOCK
  8
0
  2
*X6
 70
     1
 10
0.0
 20
0.0
 30
0.0
  3
*X6
  1
Acad:XRef
  0
TEXT
  5
4C61
  8
0
 62
     7
 10
69.3571225060213
 20
206.6384461030274
 30
0.0
 40
1.9
  1
凍結
  0
TEXT
  5
4C62
  8
0
 62
     7
 10
69.34302232049255
 20
203.314327364623
 30
0.0
 40
1.9
  1
予防
  0
ENDBLK
  5
4C82
  8
0
  0
ENDSEC
  0
SECTION
  2
ENTITIES
  0
TEXT
  5
2E5D
  8
10
 10
-1.500002627034519
 20
0.0000050735020523
 30
0.0
 40
10.0
  1
2024.02.01 EV3R 3台連動
 11
-1.500002627034519
 21
0.0000050735020523
 31
0.0
 73
     1
  0
LINE
  5
2E5E
  8
0
 10
25.52185159276132
 20
289.8911362700033
 30
0.0
 11
125.5218515927613
 21
289.8911362700031
 31
0.0
  0
LINE
  5
2E5F
  8
0
 10
25.52185159276132
 20
169.8911362700032
 30
0.0
 11
125.5218515927613
 21
169.8911362700032
 31
0.0
  0
ARC
  5
2E60
  8
0
 10
25.52185159276132
 20
281.8911362700033
 30
0.0
 40
8.0
 50
90.0
 51
180.0
  0
LINE
  5
2E61
  8
0
 10
21.279210905642
 20
286.1337769571224
 30
0.0
 11
29.52185159276132
 21
277.8911362700033
 31
0.0
  0
LINE
  5
2E62
  8
0
 10
31.52185159276132
 20
181.8911362700031
 30
0.0
 11
119.5218515927613
 21
181.8911362700034
 31
0.0
  0
LINE
  5
2E63
  8
0
 10
31.52185159276132
 20
277.8911362700033
 30
0.0
 11
119.5218515927613
 21
277.8911362700032
 31
0.0
  0
LINE
  5
2E64
  8
0
 10
29.52185159276132
 20
275.8911362700033
 30
0.0
 11
29.52185159276132
 21
183.8911362700032
 31
0.0
  0
LINE
  5
2E65
  8
0
 10
17.52185159276132
 20
281.8911362700033
 30
0.0
 11
17.52185159276132
 21
177.8911362700032
 31
0.0
  0
LINE
  5
2E66
  8
0
 10
21.27921090564223
 20
173.6484955828839
 30
0.0
 11
29.52185159276132
 21
181.8911362700032
 31
0.0
  0
ARC
  5
2E67
  8
0
 10
25.52185159276132
 20
177.8911362700032
 30
0.0
 40
8.0
 50
180.0
 51
270.0
  0
ARC
  5
2E68
  8
0
 10
125.5218515927613
 20
281.8911362700031
 30
0.0
 40
8.0
 50
0.0
 51
90.0
  0
LINE
  5
2E69
  8
0
 10
129.7644922798806
 20
286.1337769571224
 30
0.0
 11
121.5218515927613
 21
277.8911362700031
 31
0.0
  0
LINE
  5
2E6A
  8
0
 10
121.5218515927613
 20
275.8911362700032
 30
0.0
 11
121.5218515927613
 21
183.8911362700034
 31
0.0
  0
LINE
  5
2E6B
  8
0
 10
133.5218515927613
 20
281.8911362700031
 30
0.0
 11
133.5218515927613
 21
177.8911362700032
 31
0.0
  0
LINE
  5
2E6C
  8
0
 10
121.5218515927613
 20
181.8911362700033
 30
0.0
 11
129.7644922798806
 21
173.6484955828838
 31
0.0
  0
ARC
  5
2E6D
  8
0
 10
125.5218515927613
 20
177.8911362700032
 30
0.0
 40
8.0
 50
270.0
 51
0.0
  0
LINE
  5
2E6E
  8
0
 10
189.5660947791719
 20
280.4759216942329
 30
0.0
 11
190.8619808334525
 21
287.8252567141702
 31
0.0
  0
LINE
  5
2E6F
  8
0
 10
194.6103273695381
 20
169.8911362700031
 30
0.0
 11
194.6103273695382
 21
289.8911362700031
 31
0.0
  0
LINE
  5
2E70
  8
0
 10
189.1103273695382
 20
184.5157961757807
 30
0.0
 11
189.1103273695382
 21
275.266476364225
 31
0.0
  0
LINE
  5
2E71
  8
0
 10
189.5660947791719
 20
179.3063508457728
 30
0.0
 11
190.8619808334525
 21
171.9570158258359
 31
0.0
  0
ARC
  5
2E72
  8
0
 10
193.3240002159831
 20
172.3911362700032
 30
0.0
 40
2.5
 50
190.0000000000002
 51
270.0
  0
LINE
  5
2E73
  8
0
 10
194.6103273695382
 20
169.8911362700032
 30
0.0
 11
193.3240002159831
 21
169.8911362700032
 31
0.0
  0
ARC
  5
2E74
  8
0
 10
219.1103273695383
 20
184.5157961757807
 30
0.0
 40
30.0
 50
180.0
 51
190.0000000000002
  0
ARC
  5
2E75
  8
0
 10
219.1103273695383
 20
275.266476364225
 30
0.0
 40
30.0
 50
169.9999999999998
 51
180.0
  0
ARC
  5
2E76
  8
0
 10
193.3240002159831
 20
287.3911362700029
 30
0.0
 40
2.5
 50
90.0
 51
169.9999999999998
  0
LINE
  5
2E77
  8
0
 10
194.6103273695316
 20
289.8911362700031
 30
0.0
 11
193.3240002159765
 21
289.8911362700031
 31
0.0
  0
ARC
  5
2E78
  8
0
 10
186.410327515753
 20
259.6911362700032
 30
0.0
 40
1.0
 50
90.0
 51
180.0
  0
LINE
  5
2E79
  8
0
 10
186.410327515753
 20
260.6911362700032
 30
0.0
 11
189.1103275157529
 21
260.6911362700032
 31
0.0
  0
LINE
  5
2E7A
  8
0
 10
186.410327515753
 20
253.6911362700032
 30
0.0
 11
189.1103275157529
 21
253.6911362700032
 31
0.0
  0
LINE
  5
2E7B
  8
0
 10
185.410327515753
 20
259.6911362700032
 30
0.0
 11
185.410327515753
 21
254.6911362700032
 31
0.0
  0
ARC
  5
2E7C
  8
0
 10
186.410327515753
 20
254.6911362700032
 30
0.0
 40
1.0
 50
180.0
 51
270.0
  0
LINE
  5
2E7D
  8
0
 10
125.5218523378194
 20
144.5475054339939
 30
0.0
 11
25.52185084770332
 21
144.5475054339939
 31
0.0
  0
LINE
  5
2E7E
  8
0
 10
125.5218523378194
 20
140.5475055932501
 30
0.0
 11
25.52185084770332
 21
140.5475055932501
 31
0.0
  0
LINE
  5
2E7F
  8
0
 10
17.52185326169143
 20
140.5475055932501
 30
0.0
 11
17.52185326169143
 21
144.5475054339939
 31
0.0
  0
LINE
  5
2E80
  8
0
 10
25.52185084770332
 20
144.5475054339939
 30
0.0
 11
17.52185326169143
 21
144.5475054339939
 31
0.0
  0
LINE
  5
2E81
  8
0
 10
25.52185084770332
 20
140.5475055932501
 30
0.0
 11
17.52185326169143
 21
140.5475055932501
 31
0.0
  0
LINE
  5
2E82
  8
0
 10
133.5218499238313
 20
140.5475055932501
 30
0.0
 11
133.5218499238313
 21
144.5475054339939
 31
0.0
  0
LINE
  5
2E83
  8
0
 10
133.5218499238313
 20
144.5475054339939
 30
0.0
 11
125.5218523378194
 21
144.5475054339939
 31
0.0
  0
LINE
  5
2E84
  8
0
 10
133.5218499238313
 20
140.5475055932501
 30
0.0
 11
125.5218523378194
 21
140.5475055932501
 31
0.0
  0
LINE
  5
2E85
  8
0
 10
18.62185325573097
 20
144.5475054339939
 30
0.0
 11
18.62185325573097
 21
145.047505433991
 31
0.0
  0
LINE
  5
2E86
  8
0
 10
132.4218499297918
 20
144.5475054339939
 30
0.0
 11
132.4218499297918
 21
145.047505433991
 31
0.0
  0
LINE
  5
2E87
  8
0
 10
118.5218530530752
 20
138.0475056491294
 30
0.0
 11
32.52185013244758
 21
138.0475056491294
 31
0.0
  0
LINE
  5
2E88
  8
0
 10
120.5218533809007
 20
140.5475055932501
 30
0.0
 11
120.5218533809007
 21
138.0475056491294
 31
0.0
  0
LINE
  5
2E89
  8
0
 10
120.5218533809007
 20
138.0475056491294
 30
0.0
 11
118.5218530530752
 21
138.0475056491294
 31
0.0
  0
LINE
  5
2E8A
  8
0
 10
30.52184980462204
 20
138.0475056491294
 30
0.0
 11
30.52184980462204
 21
140.5475055932501
 31
0.0
  0
LINE
  5
2E8B
  8
0
 10
32.52185013244758
 20
138.0475056491294
 30
0.0
 11
30.52184980462204
 21
138.0475056491294
 31
0.0
  0
LINE
  5
2E8C
  8
0
 10
39.02185212920318
 20
150.5475053697327
 30
0.0
 11
112.0218510563196
 21
150.5475053697327
 31
0.0
  0
LINE
  5
2E8D
  8
0
 10
118.5218530530756
 20
118.5475052467981
 30
0.0
 11
50.02185206959899
 21
118.5475052467981
 31
0.0
  0
LINE
  5
2E8E
  8
0
 10
50.02185206959899
 20
118.5475052467981
 30
0.0
 11
40.15027981351074
 21
118.5475052467981
 31
0.0
  0
LINE
  5
2E8F
  8
0
 10
38.73606648395713
 20
119.13329224507
 30
0.0
 11
33.52185215900596
 21
124.3475047073761
 31
0.0
  0
LINE
  5
2E90
  8
0
 10
33.52185215900596
 20
124.3475047073761
 30
0.0
 11
33.10763713071998
 21
124.761719735662
 31
0.0
  0
ARC
  5
2E91
  8
0
 10
118.5218515927618
 20
120.5475054554143
 30
0.0
 40
2.000000000000028
 50
270.0
 51
0.0
  0
ARC
  5
2E92
  8
0
 10
40.15027871750777
 20
120.5475054554143
 30
0.0
 40
2.0
 50
224.9999999999954
 51
270.0
  0
LINE
  5
2E93
  8
0
 10
118.5218530530756
 20
137.5475055671731
 30
0.0
 11
32.52185013244804
 21
137.5475055671731
 31
0.0
  0
LINE
  5
2E94
  8
0
 10
120.5218533809012
 20
137.5475055671731
 30
0.0
 11
118.5218530530756
 21
137.5475055671731
 31
0.0
  0
LINE
  5
2E95
  8
0
 10
120.5218533809012
 20
137.5475055671731
 30
0.0
 11
120.5218533809012
 21
120.5475055746236
 31
0.0
  0
ARC
  5
2E96
  8
0
 10
34.52185159276183
 20
126.1759325801605
 30
0.0
 40
2.0
 50
180.0
 51
224.9999999999954
  0
LINE
  5
2E97
  8
0
 10
32.52185013244804
 20
126.1759330652156
 30
0.0
 11
32.52185013244804
 21
135.0475056230524
 31
0.0
  0
LINE
  5
2E98
  8
0
 10
30.52184980462249
 20
135.0475056230524
 30
0.0
 11
30.52184980462249
 21
137.5475055671731
 31
0.0
  0
LINE
  5
2E99
  8
0
 10
32.52185013244804
 20
137.5475055671731
 30
0.0
 11
30.52184980462249
 21
137.5475055671731
 31
0.0
  0
LINE
  5
2E9A
  8
0
 10
32.52185013244804
 20
135.0475056230524
 30
0.0
 11
30.52184980462249
 21
135.0475056230524
 31
0.0
  0
LINE
  5
2E9B
  8
0
 10
31.62184979866203
 20
137.5475055671731
 30
0.0
 11
31.62184979866203
 21
138.0475056491294
 31
0.0
  0
LINE
  5
2E9C
  8
0
 10
119.4218533868616
 20
137.5475055671731
 30
0.0
 11
119.4218533868616
 21
138.0475056491294
 31
0.0
  0
ARC
  5
2E9D
  8
0
 10
114.7218515927617
 20
118.3475054554143
 30
0.0
 40
0.2000000000000171
 50
90.0
 51
180.0
  0
LINE
  5
2E9E
  8
0
 10
48.52185089240726
 20
118.5475052467981
 30
0.0
 11
48.52185089240726
 21
118.3475055865445
 31
0.0
  0
LINE
  5
2E9F
  8
0
 10
50.02185206959899
 20
118.3475055865445
 30
0.0
 11
50.02185206959899
 21
118.5475052467981
 31
0.0
  0
LINE
  5
2EA0
  8
0
 10
49.82185240934547
 20
109.6934550575414
 30
0.0
 11
48.4002779061621
 21
109.6934550575414
 31
0.0
  0
LINE
  5
2EA1
  8
0
 10
50.02185206959899
 20
110.57925831
 30
0.0
 11
48.59897744010146
 21
110.57925831
 31
0.0
  0
LINE
  5
2EA2
  8
0
 10
112.521852069599
 20
109.5475056342283
 30
0.0
 11
50.02185206959899
 21
109.5475056342283
 31
0.0
  0
LINE
  5
2EA3
  8
0
 10
50.02185206959899
 20
110.57925831
 30
0.0
 11
50.02185206959899
 21
111.5475059620538
 31
0.0
  0
LINE
  5
2EA4
  8
0
 10
50.02185206959899
 20
109.5475056342283
 30
0.0
 11
50.02185206959899
 21
109.6246154181161
 31
0.0
  0
LINE
  5
2EA5
  8
0
 10
47.73606423388179
 20
110.1332926325002
 30
0.0
 11
38.91495864937957
 21
118.9544000796476
 31
0.0
  0
LINE
  5
2EA6
  8
0
 10
48.52185089240726
 20
111.9695273361602
 30
0.0
 11
48.52185089240726
 21
110.9190792910257
 31
0.0
  0
ARC
  5
2EA7
  8
0
 10
112.5218515927618
 20
111.5475054554143
 30
0.0
 40
2.0
 50
270.0
 51
0.0
  0
LINE
  5
2EA8
  8
0
 10
48.52185089240726
 20
111.9695273361602
 30
0.0
 11
48.52185089240726
 21
118.3475055865445
 31
0.0
  0
LINE
  5
2EA9
  8
0
 10
114.5218523974245
 20
118.3475055865445
 30
0.0
 11
114.5218523974245
 21
111.5475059620538
 31
0.0
  0
LINE
  5
2EAA
  8
0
 10
50.02185206959899
 20
118.3475055865445
 30
0.0
 11
50.02185206959899
 21
111.5475059620538
 31
0.0
  0
ARC
  5
2EAB
  8
0
 10
49.15027871750777
 20
111.5475054554143
 30
0.0
 40
1.114196214777944
 50
235.6658476036728
 51
240.343609400931
  0
ARC
  5
2EAC
  8
0
 10
49.15027871750777
 20
111.5475054554143
 30
0.0
 40
2.000000000000035
 50
224.9999999999954
 51
247.9756871629579
  0
ARC
  5
2EAD
  8
0
 10
48.72185159276165
 20
111.2475054554143
 30
0.0
 40
0.2000000000000171
 50
180.0
 51
270.0
  0
LINE
  5
2EAE
  8
0
 10
48.72185241530593
 20
111.0475049487748
 30
0.0
 11
49.82185240934547
 21
111.0475049487748
 31
0.0
  0
ARC
  5
2EAF
  8
0
 10
49.82185159276202
 20
111.2475054554143
 30
0.0
 40
0.1999999999999886
 50
270.0
 51
0.0
  0
ARC
  5
2EB0
  8
0
 10
49.15027871750777
 20
111.5475054554143
 30
0.0
 40
2.000000000000035
 50
247.9756871629579
 51
270.0
  0
LINE
  5
2EB1
  8
0
 10
49.15027942608054
 20
109.5475056342283
 30
0.0
 11
50.02185206959899
 21
109.5475056342283
 31
0.0
  0
LINE
  5
2EB2
  8
0
 10
48.52185089240726
 20
112.1759326330819
 30
0.0
 11
49.09169923613723
 21
111.606084289352
 31
0.0
  0
LINE
  5
2EB3
  8
0
 10
49.23312056909259
 20
111.5475059620538
 30
0.0
 11
50.02185206959899
 21
111.5475059620538
 31
0.0
  0
ARC
  5
2EB4
  8
0
 10
49.23312142998208
 20
111.7475054554143
 30
0.0
 40
0.1999999999999895
 50
224.9999999999954
 51
270.0
  0
LINE
  5
2EB5
  8
0
 10
32.52185159276183
 20
126.1759325801605
 30
0.0
 11
32.52185013244804
 21
125.347506376709
 31
0.0
  0
LINE
  5
2EB6
  8
0
 10
32.52185013244804
 20
125.347506376709
 30
0.0
 11
33.10759679670633
 21
124.7616794071773
 31
0.0
  0
LINE
  5
2EB7
  8
0
 10
52.96668179090585
 20
153.7471381050968
 30
0.0
 11
51.96668179090608
 21
153.7471381050968
 31
0.0
  0
LINE
  5
2EB8
  8
0
 10
53.96668179090608
 20
154.2471381050968
 30
0.0
 11
52.96668179090608
 21
154.2471381050968
 31
0.0
  0
LINE
  5
2EB9
  8
0
 10
51.96668179090608
 20
154.2471381050968
 30
0.0
 11
50.96668179090608
 21
154.2471381050968
 31
0.0
  0
LINE
  5
2EBA
  8
0
 10
51.96668179090608
 20
154.2471381050968
 30
0.0
 11
51.96668179090608
 21
153.7471381050968
 31
0.0
  0
LINE
  5
2EBB
  8
0
 10
54.96668179090608
 20
154.2471381050968
 30
0.0
 11
54.96668179090608
 21
153.7471381050968
 31
0.0
  0
LINE
  5
2EBC
  8
0
 10
52.96668179090608
 20
154.2471381050968
 30
0.0
 11
52.96668179090585
 21
153.7471381050968
 31
0.0
  0
LINE
  5
2EBD
  8
0
 10
53.96668179090608
 20
154.2471381050968
 30
0.0
 11
53.96668179090608
 21
153.7471381050968
 31
0.0
  0
LINE
  5
2EBE
  8
0
 10
54.96668179090608
 20
153.7471381050968
 30
0.0
 11
53.96668179090608
 21
153.7471381050968
 31
0.0
  0
LINE
  5
2EBF
  8
0
 10
56.96668179090602
 20
150.5475053697327
 30
0.0
 11
56.96668179090585
 21
153.2471381050968
 31
0.0
  0
ARC
  5
2EC0
  8
0
 10
55.96668179090585
 20
153.2471381050968
 30
0.0
 40
1.0
 50
0.0
 51
90.0
  0
LINE
  5
2EC1
  8
0
 10
55.96668179090585
 20
154.2471381050968
 30
0.0
 11
54.96668179090608
 21
154.2471381050968
 31
0.0
  0
LINE
  5
2EC2
  8
0
 10
49.96668179090608
 20
150.5475053697327
 30
0.0
 11
49.96668179090608
 21
153.2471381050968
 31
0.0
  0
ARC
  5
2EC3
  8
0
 10
50.96668179090608
 20
153.2471381050968
 30
0.0
 40
1.0
 50
90.0
 51
180.0
  0
ARC
  5
2EC4
  8
0
 10
40.32184396336635
 20
117.5475167449058
 30
0.0
 40
0.3000000119209
 50
179.9980552173233
 51
314.9996865396516
  0
LINE
  5
2EC5
  8
0
 10
40.02185235570056
 20
117.5475167449058
 30
0.0
 11
33.52185617039828
 21
124.0475129302088
 31
0.0
  0
LINE
  5
2EC6
  8
0
 10
35.50176034520251
 20
119.2391823943208
 30
0.0
 11
36.91597161839633
 21
120.6533974822107
 31
0.0
  0
LINE
  5
2EC7
  8
0
 10
36.91597161839633
 20
117.8249711211268
 30
0.0
 11
38.3301867062865
 21
119.2391823943208
 31
0.0
  0
LINE
  5
2EC8
  8
0
 10
36.63311944554431
 20
117.8249787505218
 30
0.0
 11
35.50175653050525
 21
118.9563416655608
 31
0.0
  0
ARC
  5
2EC9
  8
0
 10
35.64317880223444
 20
119.0977677519868
 30
0.0
 40
0.2000000029802
 50
135.0000039841167
 51
224.9999996583502
  0
ARC
  5
2ECA
  8
0
 10
36.77454934666736
 20
117.9664010222498
 30
0.0
 40
0.2000000029802
 50
224.9999996583502
 51
314.999998747812
  0
LINE
  5
2ECB
  8
0
 10
33.52184854100329
 20
124.0475053008148
 30
0.0
 11
33.52184854100329
 21
124.3475083253787
 31
0.0
  0
LINE
  5
2ECC
  8
0
 10
133.521851592761
 20
145.047505433991
 30
0.0
 11
17.52185159276092
 21
145.047505433991
 31
0.0
  0
ARC
  5
2ECD
  8
0
 10
118.8971916869836
 20
120.547505433991
 30
0.0
 40
30.0
 50
80.00000000000146
 51
90.0
  0
LINE
  5
2ECE
  8
0
 10
118.8971916869836
 20
150.547505433991
 30
0.0
 11
32.14651149853904
 21
150.547505433991
 31
0.0
  0
ARC
  5
2ECF
  8
0
 10
131.021851592761
 20
146.3338325875462
 30
0.0
 40
2.5
 50
0.0
 51
80.00000000000146
  0
LINE
  5
2ED0
  8
0
 10
133.521851592761
 20
145.047505433991
 30
0.0
 11
133.521851592761
 21
146.3338325875462
 31
0.0
  0
LINE
  5
2ED1
  8
0
 10
124.1066370169914
 20
150.0917380243573
 30
0.0
 11
131.4559720369284
 21
148.7958519700767
 31
0.0
  0
ARC
  5
2ED2
  8
0
 10
32.14651149853904
 20
120.547505433991
 30
0.0
 40
30.0
 50
90.0
 51
99.99999999999855
  0
ARC
  5
2ED3
  8
0
 10
20.02185159276115
 20
146.3338325875462
 30
0.0
 40
2.5
 50
99.99999999999855
 51
180.0
  0
LINE
  5
2ED4
  8
0
 10
26.9370661685312
 20
150.0917380243573
 30
0.0
 11
19.58773114859383
 21
148.7958519700767
 31
0.0
  0
LINE
  5
2ED5
  8
0
 10
17.52185159276092
 20
145.0475054339976
 30
0.0
 11
17.52185159276092
 21
146.3338325875528
 31
0.0
  0
LINE
  5
2ED6
  8
0
 10
202.1103272363562
 20
263.0161354131873
 30
0.0
 11
202.1103272363562
 21
197.0161357708151
 31
0.0
  0
LINE
  5
2ED7
  8
0
 10
202.1103272363562
 20
265.0161357410128
 30
0.0
 11
202.1103272363562
 21
263.0161354131873
 31
0.0
  0
LINE
  5
2ED8
  8
0
 10
202.1103272363562
 20
265.0161357410128
 30
0.0
 11
204.6103271804768
 21
265.0161357410128
 31
0.0
  0
LINE
  5
2ED9
  8
0
 10
204.6103271804768
 20
195.0161354429896
 30
0.0
 11
202.1103272363562
 21
195.0161354429896
 31
0.0
  0
LINE
  5
2EDA
  8
0
 10
202.1103272363562
 20
197.0161357708151
 30
0.0
 11
202.1103272363562
 21
195.0161354429896
 31
0.0
  0
LINE
  5
2EDB
  8
0
 10
202.1103272363562
 20
263.9161357469733
 30
0.0
 11
201.6103272363562
 21
263.9161357469733
 31
0.0
  0
LINE
  5
2EDC
  8
0
 10
202.1103272363562
 20
196.1161354370291
 30
0.0
 11
201.6103272363562
 21
196.1161354370291
 31
0.0
  0
LINE
  5
2EDD
  8
0
 10
204.6103271804768
 20
265.0161357410128
 30
0.0
 11
213.4818997383136
 21
265.0161357410128
 31
0.0
  0
LINE
  5
2EDE
  8
0
 10
213.4818997383136
 20
195.0161354429896
 30
0.0
 11
204.6103271804768
 21
195.0161354429896
 31
0.0
  0
LINE
  5
2EDF
  8
0
 10
213.4818997383136
 20
265.0161357410128
 30
0.0
 11
219.1103272289056
 21
265.0161357410128
 31
0.0
  0
LINE
  5
2EE0
  8
0
 10
219.1103272289056
 20
195.0161354429896
 30
0.0
 11
213.4818997383136
 21
195.0161354429896
 31
0.0
  0
LINE
  5
2EE1
  8
0
 10
228.1103268414754
 20
201.7661360837395
 30
0.0
 11
221.3103272169847
 21
201.7661360837395
 31
0.0
  0
ARC
  5
2EE2
  8
0
 10
219.1103273481149
 20
197.0161355920012
 30
0.0
 40
2.0
 50
270.0
 51
0.0
  0
LINE
  5
2EE3
  8
0
 10
221.1103275567311
 20
230.0161355920011
 30
0.0
 11
221.1103275567311
 21
197.0161357708151
 31
0.0
  0
ARC
  5
2EE4
  8
0
 10
219.1103273481149
 20
263.0161355920012
 30
0.0
 40
2.0
 50
0.0
 51
90.0
  0
LINE
  5
2EE5
  8
0
 10
221.1103275567311
 20
262.0161371119196
 30
0.0
 11
221.1103275567311
 21
230.0161355920012
 31
0.0
  0
LINE
  5
2EE6
  8
0
 10
221.3103272169847
 20
258.2661351002629
 30
0.0
 11
228.1103271693009
 21
258.2661351002629
 31
0.0
  0
ARC
  5
2EE7
  8
0
 10
221.3103273481147
 20
201.5661355920011
 30
0.0
 40
0.1999999999999957
 50
90.0
 51
180.0
  0
ARC
  5
2EE8
  8
0
 10
221.3103273481147
 20
258.4661355920011
 30
0.0
 40
0.2000000000000171
 50
180.0
 51
270.0
  0
LINE
  5
2EE9
  8
0
 10
230.1103271693009
 20
256.2661351002629
 30
0.0
 11
230.1103271693009
 21
203.766136411565
 31
0.0
  0
ARC
  5
2EEA
  8
0
 10
228.1103273481149
 20
203.7661355920012
 30
0.0
 40
2.0
 50
270.0
 51
0.0
  0
LINE
  5
2EEB
  8
0
 10
221.1103275567311
 20
263.0161354131873
 30
0.0
 11
221.1103275567311
 21
262.0161371119196
 31
0.0
  0
POLYLINE
  5
2EEC
  8
0
 66
     1
 10
0.0
 20
0.0
 30
0.0
  0
VERTEX
  5
4C3F
  8
0
 10
229.1399784535188
 20
202.051672134536
 30
0.0
  0
VERTEX
  5
4C40
  8
0
 10
229.1379174695246
 20
202.0504483285253
 30
0.0
  0
VERTEX
  5
4C41
  8
0
 10
229.135863290944
 20
202.0492285657381
 30
0.0
  0
VERTEX
  5
4C42
  8
0
 10
229.1338227231908
 20
202.0480168893984
 30
0.0
  0
VERTEX
  5
4C43
  8
0
 10
229.1318025716786
 20
202.0468173427297
 30
0.0
  0
VERTEX
  5
4C44
  8
0
 10
229.1298096418213
 20
202.0456339689557
 30
0.0
  0
VERTEX
  5
4C45
  8
0
 10
229.1278507390323
 20
202.0444708113002
 30
0.0
  0
VERTEX
  5
4C46
  8
0
 10
229.1259326687254
 20
202.0433319129866
 30
0.0
  0
VERTEX
  5
4C47
  8
0
 10
229.1240622363143
 20
202.0422213172389
 30
0.0
  0
VERTEX
  5
4C48
  8
0
 10
229.1222462472126
 20
202.0411430672806
 30
0.0
  0
VERTEX
  5
4C49
  8
0
 10
229.1204915068341
 20
202.0401012063355
 30
0.0
  0
VERTEX
  5
4C4A
  8
0
 10
229.1188048205925
 20
202.0390997776271
 30
0.0
  0
VERTEX
  5
4C4B
  8
0
 10
229.1171929939013
 20
202.0381428243792
 30
0.0
  0
VERTEX
  5
4C4C
  8
0
 10
229.1156628321743
 20
202.0372343898155
 30
0.0
  0
VERTEX
  5
4C4D
  8
0
 10
229.1142211408253
 20
202.0363785171596
 30
0.0
  0
VERTEX
  5
4C4E
  8
0
 10
229.1128747252678
 20
202.0355792496353
 30
0.0
  0
VERTEX
  5
4C4F
  8
0
 10
229.1116303909155
 20
202.0348406304661
 30
0.0
  0
VERTEX
  5
4C50
  8
0
 10
229.1104949431822
 20
202.0341667028759
 30
0.0
  0
VERTEX
  5
4C51
  8
0
 10
229.1094751874816
 20
202.0335615100882
 30
0.0
  0
VERTEX
  5
4C52
  8
0
 10
229.1085779292271
 20
202.0330290953268
 30
0.0
  0
VERTEX
  5
4C53
  8
0
 10
229.1078099738327
 20
202.0325735018152
 30
0.0
  0
VERTEX
  5
4C54
  8
0
 10
229.107178126712
 20
202.0321987727772
 30
0.0
  0
VERTEX
  5
4C55
  8
0
 10
229.1066891932786
 20
202.0319089514366
 30
0.0
  0
VERTEX
  5
4C56
  8
0
 10
229.1063499789463
 20
202.0317080810169
 30
0.0
  0
VERTEX
  5
4C57
  8
0
 10
229.1061672891286
 20
202.0316002047419
 30
0.0
  0
VERTEX
  5
4C58
  8
0
 10
229.1061479292394
 20
202.0315893658352
 30
0.0
  0
VERTEX
  5
4C59
  8
0
 10
229.1062987046922
 20
202.0316796075205
 30
0.0
  0
VERTEX
  5
4C5A
  8
0
 10
229.1066264209009
 20
202.0318749730215
 30
0.0
  0
VERTEX
  5
4C5B
  8
0
 10
229.1071378832789
 20
202.0321795055619
 30
0.0
  0
VERTEX
  5
4C5C
  8
0
 10
229.1078398972402
 20
202.0325972483653
 30
0.0
  0
VERTEX
  5
4C5D
  8
0
 10
229.1087392681982
 20
202.0331322446554
 30
0.0
  0
VERTEX
  5
4C5E
  8
0
 10
229.1098428015668
 20
202.033788537656
 30
0.0
  0
VERTEX
  5
4C5F
  8
0
 10
229.1111558824796
 20
202.0345693267758
 30
0.0
  0
SEQEND
  5
4C83
  8
0
  0
LINE
  5
2EED
  8
0
 10
199.1103272922355
 20
290.0161342508967
 30
0.0
 11
195.1103274514917
 21
290.0161342508967
 31
0.0
  0
LINE
  5
2EEE
  8
0
 10
195.1103274514917
 20
290.0161342508967
 30
0.0
 11
195.1103274514917
 21
282.0161366648848
 31
0.0
  0
LINE
  5
2EEF
  8
0
 10
199.1103272922355
 20
290.0161342508967
 30
0.0
 11
199.1103272922355
 21
282.0161366648848
 31
0.0
  0
LINE
  5
2EF0
  8
0
 10
195.1103274514917
 20
282.0161366648848
 30
0.0
 11
195.1103274514917
 21
178.0161345191175
 31
0.0
  0
LINE
  5
2EF1
  8
0
 10
199.1103272922355
 20
282.0161366648848
 30
0.0
 11
199.1103272922355
 21
178.0161345191175
 31
0.0
  0
LINE
  5
2EF2
  8
0
 10
199.1103272922355
 20
170.0161369331057
 30
0.0
 11
195.1103274514917
 21
170.0161369331057
 31
0.0
  0
LINE
  5
2EF3
  8
0
 10
195.1103274514917
 20
178.0161345191175
 30
0.0
 11
195.1103274514917
 21
170.0161369331057
 31
0.0
  0
LINE
  5
2EF4
  8
0
 10
199.1103272922355
 20
178.0161345191175
 30
0.0
 11
199.1103272922355
 21
170.0161369331057
 31
0.0
  0
LINE
  5
2EF5
  8
0
 10
195.1103274514917
 20
171.1161369271452
 30
0.0
 11
194.610327369538
 21
171.1161369271452
 31
0.0
  0
LINE
  5
2EF6
  8
0
 10
195.1103274514917
 20
288.9161342568572
 30
0.0
 11
194.6103273695382
 21
288.9161342568572
 31
0.0
  0
LINE
  5
2EF7
  8
0
 10
201.6103272363562
 20
263.0161354131873
 30
0.0
 11
201.6103272363562
 21
197.0161357708151
 31
0.0
  0
LINE
  5
2EF8
  8
0
 10
201.6103272363562
 20
195.0161354429896
 30
0.0
 11
199.1103272922355
 21
195.0161354429896
 31
0.0
  0
LINE
  5
2EF9
  8
0
 10
201.6103272363562
 20
197.0161357708151
 30
0.0
 11
201.6103272363562
 21
195.0161354429896
 31
0.0
  0
LINE
  5
2EFA
  8
0
 10
199.1103272922355
 20
265.0161357410128
 30
0.0
 11
201.6103272363562
 21
265.0161357410128
 31
0.0
  0
LINE
  5
2EFB
  8
0
 10
201.6103272363562
 20
265.0161357410128
 30
0.0
 11
201.6103272363562
 21
263.0161354131873
 31
0.0
  0
LINE
  5
2EFC
  8
0
 10
201.6103272363562
 20
263.0161354131873
 30
0.0
 11
201.6103272363562
 21
197.0161357708151
 31
0.0
  0
LINE
  5
2EFD
  8
7
 10
12.72785159276123
 20
229.8911362700033
 30
0.0
 11
138.3158515927612
 21
229.8911362700029
 31
0.0
1001
GENIUS_GENOBJ-N-CEN_13
1002
{
1000
OWNER
1000
GEN
1002
}
1001
GENIUS_GENODEF_13
1002
{
1000
HIER
1070
     0
1002
}
1002
{
1000
MANEDIT
1070
     0
1002
}
1002
{
1000
NOSEL
1070
     0
1002
}
1002
{
1000
BEHIND
1070
     0
1002
}
1002
{
1000
OTHER
1070
     0
1002
}
1002
{
1000
REACTOR
1002
}
1001
GENIUS_GENCEN_19
1002
{
1040
2.794
1002
}
  0
LINE
  5
2EFE
  8
7
 10
75.52185159276132
 20
294.6851362700033
 30
0.0
 11
75.52185159276132
 21
165.0971362700032
 31
0.0
1001
GENIUS_GENOBJ-N-CEN_13
1002
{
1000
OWNER
1000
GEN
1002
}
1001
GENIUS_GENODEF_13
1002
{
1000
HIER
1070
     0
1002
}
1002
{
1000
MANEDIT
1070
     0
1002
}
1002
{
1000
NOSEL
1070
     0
1002
}
1002
{
1000
BEHIND
1070
     0
1002
}
1002
{
1000
OTHER
1070
     0
1002
}
1002
{
1000
REACTOR
1002
}
1001
GENIUS_GENCEN_19
1002
{
1040
2.794
1002
}
  0
LINE
  5
2EFF
  8
7
 10
235.1103271693009
 20
230.0161355920012
 30
0.0
 11
184.1103273695382
 21
230.0161355920012
 31
0.0
1001
GENIUS_GENOBJ-N-CEN_13
1002
{
1000
OWNER
1000
GEN
1002
}
1001
GENIUS_GENODEF_13
1002
{
1000
HIER
1070
     0
1002
}
1002
{
1000
MANEDIT
1070
     0
1002
}
1002
{
1000
NOSEL
1070
     0
1002
}
1002
{
1000
BEHIND
1070
     0
1002
}
1002
{
1000
OTHER
1070
     0
1002
}
1002
{
1000
REACTOR
1002
}
1001
GENIUS_GENCEN_19
1002
{
1040
2.794
1002
}
  0
LINE
  5
2F00
  8
7
 10
75.52185159276138
 20
104.5475056342283
 30
0.0
 11
75.52185159276138
 21
155.547505433991
 31
0.0
1001
GENIUS_GENOBJ-N-CEN_13
1002
{
1000
OWNER
1000
GEN
1002
}
1001
GENIUS_GENODEF_13
1002
{
1000
HIER
1070
     0
1002
}
1002
{
1000
MANEDIT
1070
     0
1002
}
1002
{
1000
NOSEL
1070
     0
1002
}
1002
{
1000
BEHIND
1070
     0
1002
}
1002
{
1000
OTHER
1070
     0
1002
}
1002
{
1000
REACTOR
1002
}
1001
GENIUS_GENCEN_19
1002
{
1040
2.794
1002
}
  0
LINE
  5
2F01
  8
0
 10
48.59897734346151
 20
110.5792596188624
 30
0.0
 11
48.4002779061621
 21
109.6934550575414
 31
0.0
  0
LINE
  5
2F02
  8
0
 10
50.02185206959899
 20
109.5475056342283
 30
0.0
 11
50.02185206959899
 21
109.6246154181161
 31
0.0
  0
ARC
  5
2F03
  8
0
 10
49.99817280981625
 20
109.6234257302163
 30
0.0
 40
0.0237091269589662
 50
2.876222857360645
 51
43.43589811605125
  0
ARC
  5
2F04
  8
0
 10
49.93341188872716
 20
109.5593603589564
 30
0.0
 40
0.1147998884239122
 50
44.4315358257498
 51
70.88950362693386
  0
ARC
  5
2F05
  8
0
 10
49.82916352436348
 20
109.289129060192
 30
0.0
 40
0.4043928833089286
 50
69.46801332213798
 51
91.03603616465674
  0
LINE
  5
2F06
  8
0
 10
48.59897744010146
 20
110.57925831
 30
0.0
 11
48.52185159276183
 21
110.627444286845
 31
0.0
  0
LINE
  5
2F07
  8
0
 10
48.52185159276183
 20
110.627444286845
 30
0.0
 11
48.52185159276183
 21
110.9190783306682
 31
0.0
  0
LINE
  5
2F08
  8
0
 10
38.91495864937957
 20
118.9544000796476
 30
0.0
 11
38.73606648395713
 21
119.13329224507
 31
0.0
  0
ARC
  5
2F09
  8
0
 10
228.1103271693009
 20
256.2661351002629
 30
0.0
 40
2.0
 50
0.0
 51
90.0
  0
LINE
  5
2F0A
  8
0
 10
38.27185159276132
 20
264.9911362700032
 30
0.0
 11
112.7718515927613
 21
264.9911362700032
 31
0.0
  0
LINE
  5
2F0B
  8
0
 10
38.27185159276132
 20
194.7911362700031
 30
0.0
 11
112.7718515927613
 21
194.7911362700031
 31
0.0
  0
LINE
  5
2F0C
  8
0
 10
38.27185159276132
 20
264.9911362700032
 30
0.0
 11
38.27185159276132
 21
194.7911362700031
 31
0.0
  0
LINE
  5
2F0D
  8
0
 10
112.7718515927613
 20
264.9911362700032
 30
0.0
 11
112.7718515927613
 21
194.7911362700031
 31
0.0
  0
LINE
  5
2F0E
  8
0
 10
112.0218510563195
 20
195.3911371342705
 30
0.0
 11
112.0218510563195
 21
264.3911354057358
 31
0.0
  0
LINE
  5
2F0F
  8
0
 10
39.02185212920313
 20
195.3911371342705
 30
0.0
 11
112.0218510563195
 21
195.3911371342705
 31
0.0
  0
LINE
  5
2F10
  8
0
 10
39.02185212920313
 20
264.3911354057358
 30
0.0
 11
39.02185212920313
 21
195.3911371342705
 31
0.0
  0
LINE
  5
2F11
  8
0
 10
112.0218510563195
 20
264.3911354057358
 30
0.0
 11
39.02185212920313
 21
264.3911354057358
 31
0.0
  0
LINE
  5
2F12
  8
0
 10
40.52185144374971
 20
196.891136448817
 30
0.0
 11
110.5218517417729
 21
196.891136448817
 31
0.0
  0
LINE
  5
2F13
  8
0
 10
110.5218517417729
 20
196.891136448817
 30
0.0
 11
110.5218517417729
 21
262.8911360911892
 31
0.0
  0
LINE
  5
2F14
  8
0
 10
110.5218517417729
 20
262.8911360911892
 30
0.0
 11
65.52185181627874
 21
262.8911360911892
 31
0.0
  0
LINE
  5
2F15
  8
0
 10
40.52185144374971
 20
250.891135986881
 30
0.0
 11
65.52185181627874
 21
250.891135986881
 31
0.0
  0
LINE
  5
2F16
  8
0
 10
40.52185144374971
 20
250.891135986881
 30
0.0
 11
40.52185144374971
 21
196.891136448817
 31
0.0
  0
LINE
  5
2F17
  8
0
 10
47.32185106824045
 20
253.1911358050869
 30
0.0
 11
57.32185084472303
 21
253.1911358050869
 31
0.0
  0
LINE
  5
2F18
  8
0
 10
57.32185084472303
 20
253.1911358050869
 30
0.0
 11
57.32185084472303
 21
261.1911371163891
 31
0.0
  0
LINE
  5
2F19
  8
0
 10
57.32185084472303
 20
261.1911371163891
 30
0.0
 11
47.32185106824045
 21
261.1911371163891
 31
0.0
  0
LINE
  5
2F1A
  8
0
 10
47.32185106824045
 20
261.1911371163891
 30
0.0
 11
47.32185106824045
 21
253.1911358050869
 31
0.0
  0
LINE
  5
2F1B
  8
0
 10
65.52185181627874
 20
250.891135986881
 30
0.0
 11
65.52185181627874
 21
262.8911360911892
 31
0.0
  0
LINE
  5
2F1C
  8
0
 10
112.5218520695985
 20
194.8911361209915
 30
0.0
 11
112.5218520695985
 21
264.8911364190147
 31
0.0
  0
LINE
  5
2F1D
  8
0
 10
38.52185111592416
 20
194.8911361209915
 30
0.0
 11
112.5218520695985
 21
194.8911361209915
 31
0.0
  0
LINE
  5
2F1E
  8
0
 10
38.52185111592416
 20
264.8911364190147
 30
0.0
 11
38.52185111592416
 21
194.8911361209915
 31
0.0
  0
LINE
  5
2F1F
  8
0
 10
112.5218520695985
 20
264.8911364190147
 30
0.0
 11
38.52185111592416
 21
264.8911364190147
 31
0.0
  0
ARC
  5
2F20
  8
0
 10
48.72185095648172
 20
259.6911358050869
 30
0.0
 40
1.0
 50
90.0
 51
180.0
  0
ARC
  5
2F21
  8
0
 10
53.72185095648172
 20
259.6911358050869
 30
0.0
 40
1.0
 50
0.0
 51
90.0
  0
LINE
  5
2F22
  8
0
 10
48.72185095648172
 20
260.6911358050869
 30
0.0
 11
53.72185095648172
 21
260.6911358050869
 31
0.0
  0
LINE
  5
2F23
  8
0
 10
53.72185095648172
 20
253.691135805087
 30
0.0
 11
48.72185095648172
 21
253.6911358050869
 31
0.0
  0
ARC
  5
2F24
  8
0
 10
48.72185095648172
 20
254.6911358050869
 30
0.0
 40
1.0
 50
180.0
 51
270.0000000000016
  0
ARC
  5
2F25
  8
0
 10
53.72185095648172
 20
254.691135805087
 30
0.0
 40
1.0
 50
270.0
 51
0.0
  0
LINE
  5
2F26
  8
0
 10
52.72185095648172
 20
253.691135805087
 30
0.0
 11
52.72185095648172
 21
260.6911358050869
 31
0.0
  0
LINE
  5
2F27
  8
0
 10
51.72185095648172
 20
253.6911358050869
 30
0.0
 11
51.72185095648172
 21
260.6911358050869
 31
0.0
  0
LINE
  5
2F28
  8
0
 10
50.72185095648172
 20
253.6911358050868
 30
0.0
 11
50.72185095648172
 21
260.6911358050869
 31
0.0
  0
LINE
  5
2F29
  8
0
 10
49.72185095648172
 20
253.6911358050868
 30
0.0
 11
49.72185095648172
 21
260.6911358050869
 31
0.0
  0
LINE
  5
2F2A
  8
0
 10
47.72185095648172
 20
254.6911358050869
 30
0.0
 11
47.72185095648172
 21
259.6911358050869
 31
0.0
  0
LINE
  5
2F2B
  8
0
 10
54.72185095648172
 20
259.6911358050869
 30
0.0
 11
54.72185095648172
 21
254.691135805087
 31
0.0
  0
LINE
  5
2F2C
  8
0
 10
65.77185181627874
 20
262.6411362700032
 30
0.0
 11
110.2718515927614
 21
262.6411362700031
 31
0.0
  0
LINE
  5
2F2D
  8
0
 10
110.2718515927614
 20
262.6411362700031
 30
0.0
 11
110.2718515927614
 21
197.141136270003
 31
0.0
  0
LINE
  5
2F2E
  8
0
 10
40.77185159276132
 20
197.1411362700032
 30
0.0
 11
40.77185159276132
 21
250.641135986881
 31
0.0
  0
LINE
  5
2F2F
  8
0
 10
110.2718515927614
 20
197.141136270003
 30
0.0
 11
40.77185159276132
 21
197.1411362700032
 31
0.0
  0
LINE
  5
2F30
  8
0
  6
CONTINUOUS
 10
65.77185181627874
 20
250.641135986881
 30
0.0
 11
65.77185181627874
 21
262.6411362700032
 31
0.0
  0
LINE
  5
2F31
  8
0
  6
CONTINUOUS
 10
40.77185159276132
 20
250.641135986881
 30
0.0
 11
65.77185181627874
 21
250.641135986881
 31
0.0
  0
INSERT
  5
2F32
  8
0
 62
     7
  2
*X6
 10
0.0
 20
0.0
 30
0.0
  0
TEXT
  5
2F33
  8
0
 62
     7
 10
69.34772238233546
 20
212.9769742415556
 30
0.0
 40
1.9
  1
給水
  0
TEXT
  5
2F34
  8
0
 62
     7
 10
89.34300187105451
 20
207.9715320646847
 30
0.0
 40
4.0
  1
PUSH
 41
1.2
  0
TEXT
  5
2F35
  8
0
 62
     7
 10
49.75042238505317
 20
246.2980317554703
 30
0.0
 40
2.0
  1
電源
  0
LINE
  5
2F37
  8
0
 10
41.77185159276132
 20
217.1012443773083
 30
0.0
 11
41.77185159276132
 21
219.6387443773089
 31
0.0
  0
LINE
  5
2F38
  8
0
 10
43.87435159276129
 20
217.1012443773083
 30
0.0
 11
43.87435159276129
 21
219.6387443773089
 31
0.0
  0
LINE
  5
2F39
  8
0
 10
44.09185159276149
 20
217.1012443773083
 30
0.0
 11
44.09185159276149
 21
219.6387443773089
 31
0.0
  0
LINE
  5
2F3A
  8
0
 10
41.77185159276132
 20
217.1012443773083
 30
0.0
 11
42.56935159276145
 21
217.1012443773083
 31
0.0
  0
LINE
  5
2F3B
  8
0
 10
41.77185159276132
 20
219.6387443773089
 30
0.0
 11
42.56935159276145
 21
219.6387443773089
 31
0.0
  0
LINE
  5
2F3C
  8
0
 10
42.56935159276145
 20
219.6387443773089
 30
0.0
 11
42.56935159276145
 21
218.7687443773088
 31
0.0
  0
LINE
  5
2F3D
  8
0
 10
43.07685159276116
 20
219.6387443773089
 30
0.0
 11
43.07685159276116
 21
218.7687443773088
 31
0.0
  0
LINE
  5
2F3E
  8
0
 10
42.56935159276145
 20
217.1012443773083
 30
0.0
 11
42.56935159276145
 21
217.9712443773082
 31
0.0
  0
LINE
  5
2F3F
  8
0
 10
43.07685159276116
 20
217.1012443773083
 30
0.0
 11
43.07685159276116
 21
217.9712443773082
 31
0.0
  0
LINE
  5
2F40
  8
0
 10
43.07685159276116
 20
219.6387443773089
 30
0.0
 11
43.87435159276129
 21
219.6387443773089
 31
0.0
  0
LINE
  5
2F41
  8
0
 10
43.07685159276116
 20
217.1012443773083
 30
0.0
 11
43.87435159276129
 21
217.1012443773083
 31
0.0
  0
LINE
  5
2F42
  8
0
 10
42.56935159276145
 20
218.7687443773088
 30
0.0
 11
43.07685159276116
 21
218.7687443773088
 31
0.0
  0
LINE
  5
2F43
  8
0
 10
42.56935159276145
 20
217.9712443773082
 30
0.0
 11
43.07685159276116
 21
217.9712443773082
 31
0.0
  0
LINE
  5
2F44
  8
0
 10
44.88935159276116
 20
217.1012443773083
 30
0.0
 11
44.88935159276116
 21
219.6387443773089
 31
0.0
  0
LINE
  5
2F45
  8
0
 10
45.10685159276136
 20
217.1012443773083
 30
0.0
 11
45.10685159276136
 21
219.6387443773089
 31
0.0
  0
LINE
  5
2F46
  8
0
 10
44.09185159276149
 20
219.6387443773089
 30
0.0
 11
44.88935159276116
 21
219.6387443773089
 31
0.0
  0
LINE
  5
2F47
  8
0
 10
44.09185159276149
 20
217.1012443773083
 30
0.0
 11
44.88935159276116
 21
217.1012443773083
 31
0.0
  0
LINE
  5
2F48
  8
0
 10
47.20935159276132
 20
217.1012443773083
 30
0.0
 11
47.20935159276132
 21
217.6812443773083
 31
0.0
  0
LINE
  5
2F49
  8
0
 10
47.20935159276132
 20
219.058744377309
 30
0.0
 11
47.20935159276132
 21
219.6387443773089
 31
0.0
  0
LINE
  5
2F4A
  8
0
 10
45.10685159276136
 20
217.1012443773083
 30
0.0
 11
45.90435159276149
 21
217.1012443773083
 31
0.0
  0
LINE
  5
2F4B
  8
0
 10
45.10685159276136
 20
219.6387443773089
 30
0.0
 11
45.90435159276149
 21
219.6387443773089
 31
0.0
  0
LINE
  5
2F4C
  8
0
 10
45.90435159276149
 20
219.6387443773089
 30
0.0
 11
45.90435159276149
 21
218.7687443773088
 31
0.0
  0
LINE
  5
2F4D
  8
0
 10
46.4118515927612
 20
219.6387443773089
 30
0.0
 11
46.4118515927612
 21
219.058744377309
 31
0.0
  0
LINE
  5
2F4E
  8
0
 10
45.90435159276149
 20
217.1012443773083
 30
0.0
 11
45.90435159276149
 21
217.9712443773082
 31
0.0
  0
LINE
  5
2F4F
  8
0
 10
46.4118515927612
 20
217.1012443773083
 30
0.0
 11
46.4118515927612
 21
217.6812443773083
 31
0.0
  0
ARC
  5
2F50
  8
0
 10
46.12185159276123
 20
217.6812443773083
 30
0.0
 40
0.29
 50
0.0
 51
90.0
  0
ARC
  5
2F51
  8
0
 10
46.12185159276123
 20
217.6812443773083
 30
0.0
 40
1.0875
 50
0.0
 51
39.29648023918966
  0
LINE
  5
2F52
  8
0
 10
46.4118515927612
 20
219.6387443773089
 30
0.0
 11
47.20935159276132
 21
219.6387443773089
 31
0.0
  0
LINE
  5
2F53
  8
0
 10
46.4118515927612
 20
217.1012443773083
 30
0.0
 11
47.20935159276132
 21
217.1012443773083
 31
0.0
  0
LINE
  5
2F54
  8
0
 10
45.90435159276149
 20
218.7687443773088
 30
0.0
 11
46.12185159276123
 21
218.7687443773088
 31
0.0
  0
ARC
  5
2F55
  8
0
 10
46.12185159276123
 20
219.058744377309
 30
0.0
 40
0.29
 50
270.0
 51
0.0
  0
ARC
  5
2F56
  8
0
 10
46.12185159276123
 20
219.058744377309
 30
0.0
 40
1.0875
 50
320.7035197608187
 51
0.0
  0
LINE
  5
2F57
  8
0
 10
45.90435159276149
 20
217.9712443773082
 30
0.0
 11
46.12185159276123
 21
217.9712443773082
 31
0.0
  0
LINE
  5
2F58
  8
0
 10
47.42685159276152
 20
217.1012443773083
 30
0.0
 11
47.42685159276152
 21
218.5874943773083
 31
0.0
  0
LINE
  5
2F59
  8
0
 10
49.52935159276149
 20
217.1012443773083
 30
0.0
 11
49.52935159276149
 21
218.5874943773083
 31
0.0
  0
LINE
  5
2F5A
  8
0
 10
47.42685159276152
 20
217.1012443773083
 30
0.0
 11
48.2243515927612
 21
217.1012443773083
 31
0.0
  0
LINE
  5
2F5B
  8
0
 10
48.2243515927612
 20
217.1012443773083
 30
0.0
 11
48.2243515927612
 21
217.6087443773081
 31
0.0
  0
LINE
  5
2F5C
  8
0
 10
48.73185159276136
 20
217.1012443773083
 30
0.0
 11
48.73185159276136
 21
217.6087443773081
 31
0.0
  0
LINE
  5
2F5D
  8
0
 10
48.73185159276136
 20
217.1012443773083
 30
0.0
 11
49.52935159276149
 21
217.1012443773083
 31
0.0
  0
LINE
  5
2F5E
  8
0
 10
48.2243515927612
 20
217.6087443773081
 30
0.0
 11
48.73185159276136
 21
217.6087443773081
 31
0.0
  0
LINE
  5
2F5F
  8
0
 10
48.2243515927612
 20
218.3337443773084
 30
0.0
 11
48.73185159276136
 21
218.3337443773084
 31
0.0
  0
ARC
  5
2F60
  8
0
 10
48.4781015927615
 20
218.5874943773083
 30
0.0
 40
1.05125
 50
0.0
 51
180.0
  0
ARC
  5
2F61
  8
0
 10
48.4781015927615
 20
218.5874943773083
 30
0.0
 40
0.25375
 50
0.0
 51
180.0
  0
LINE
  5
2F62
  8
0
 10
48.2243515927612
 20
218.3337443773084
 30
0.0
 11
48.2243515927612
 21
218.5874943773083
 31
0.0
  0
LINE
  5
2F63
  8
0
 10
48.73185159276136
 20
218.5874943773083
 30
0.0
 11
48.73185159276136
 21
218.3337443773084
 31
0.0
  0
LINE
  5
2F64
  8
0
 10
49.74685159276123
 20
217.1012443773083
 30
0.0
 11
49.74685159276123
 21
219.6387443773089
 31
0.0
  0
LINE
  5
2F65
  8
0
 10
51.8493515927612
 20
217.1012443773083
 30
0.0
 11
51.8493515927612
 21
217.6812443773083
 31
0.0
  0
LINE
  5
2F66
  8
0
 10
49.74685159276123
 20
217.1012443773083
 30
0.0
 11
50.54435159276136
 21
217.1012443773083
 31
0.0
  0
LINE
  5
2F67
  8
0
 10
50.68935159276134
 20
217.8987443773085
 30
0.0
 11
50.83435159276132
 21
217.8987443773085
 31
0.0
  0
LINE
  5
2F68
  8
0
 10
50.68935159276134
 20
218.4787443773089
 30
0.0
 11
50.83435159276132
 21
218.4787443773089
 31
0.0
  0
LINE
  5
2F69
  8
0
 10
50.54435159276136
 20
217.1012443773083
 30
0.0
 11
50.54435159276136
 21
218.9137443773086
 31
0.0
  0
LINE
  5
2F6A
  8
0
 10
51.05185159276152
 20
217.1012443773083
 30
0.0
 11
51.05185159276152
 21
217.6812443773083
 31
0.0
  0
ARC
  5
2F6B
  8
0
 10
50.83435159276132
 20
217.6812443773083
 30
0.0
 40
0.2175
 50
0.0
 51
90.0
  0
ARC
  5
2F6C
  8
0
 10
50.83435159276132
 20
217.6812443773083
 30
0.0
 40
1.015
 50
0.0
 51
30.66296328368225
  0
LINE
  5
2F6D
  8
0
 10
49.74685159276123
 20
219.6387443773089
 30
0.0
 11
50.90685159276109
 21
219.6387443773089
 31
0.0
  0
LINE
  5
2F6E
  8
0
 10
50.54435159276136
 20
218.9137443773086
 30
0.0
 11
50.83435159276132
 21
218.9137443773086
 31
0.0
  0
LINE
  5
2F6F
  8
0
 10
51.05185159276152
 20
217.1012443773083
 30
0.0
 11
51.8493515927612
 21
217.1012443773083
 31
0.0
  0
ARC
  5
2F70
  8
0
 10
50.83435159276132
 20
218.6962443773086
 30
0.0
 40
0.2175
 50
270.0
 51
90.0
  0
ARC
  5
2F71
  8
0
 10
50.90685159276109
 20
218.6962443773086
 30
0.0
 40
0.9425
 50
328.1493895340805
 51
90.0
  0
LINE
  5
2F72
  8
0
 10
50.68935159276134
 20
218.4787443773089
 30
0.0
 11
50.68935159276134
 21
217.8987443773085
 31
0.0
  0
LINE
  5
2F73
  8
0
 10
52.0668515927614
 20
217.1012443773083
 30
0.0
 11
52.0668515927614
 21
219.6387443773089
 31
0.0
  0
LINE
  5
2F74
  8
0
 10
52.86435159276152
 20
217.1012443773083
 30
0.0
 11
52.86435159276152
 21
219.6387443773089
 31
0.0
  0
LINE
  5
2F75
  8
0
 10
55.76435159276116
 20
217.1374943773085
 30
0.0
 11
55.76435159276116
 21
218.5874943773083
 31
0.0
  0
LINE
  5
2F76
  8
0
 10
52.0668515927614
 20
219.6387443773089
 30
0.0
 11
52.86435159276152
 21
219.6387443773089
 31
0.0
  0
LINE
  5
2F77
  8
0
 10
52.0668515927614
 20
217.1012443773083
 30
0.0
 11
52.86435159276152
 21
217.1012443773083
 31
0.0
  0
ARC
  5
2F78
  8
0
 10
55.03935159276125
 20
218.3699943773085
 30
0.0
 40
1.305
 50
84.27518954777628
 51
281.4211862750086
  0
ARC
  5
2F79
  8
0
 10
55.03935159276125
 20
218.3699943773085
 30
0.0
 40
0.5075000000000001
 50
84.27518954777645
 51
270.0
  0
CIRCLE
  5
2F7A
  8
0
 10
57.2868515927612
 20
218.3699943773085
 30
0.0
 40
1.305
  0
CIRCLE
  5
2F7B
  8
0
 10
57.2868515927612
 20
218.3699943773085
 30
0.0
 40
0.5075000000000001
  0
LINE
  5
2F7C
  8
0
 10
55.03935159276125
 20
217.8624943773088
 30
0.0
 11
55.03935159276125
 21
218.5874943773083
 31
0.0
  0
LINE
  5
2F7D
  8
0
 10
55.03935159276125
 20
218.5874943773083
 30
0.0
 11
55.76435159276116
 21
218.5874943773083
 31
0.0
  0
LINE
  5
2F7E
  8
0
 10
55.29776743434559
 20
217.0908359614673
 30
0.0
 11
55.76435159276116
 21
217.1374943773085
 31
0.0
  0
LINE
  5
2F7F
  8
0
 10
55.16952615635228
 20
219.668485649129
 30
0.0
 11
55.76435159276116
 21
219.6387443773089
 31
0.0
  0
LINE
  5
2F80
  8
0
 10
55.76435159276116
 20
219.6387443773089
 30
0.0
 11
55.76435159276116
 21
218.8412443773084
 31
0.0
  0
LINE
  5
2F81
  8
0
 10
55.76435159276116
 20
218.8412443773084
 30
0.0
 11
55.08997503415776
 21
218.8749632052393
 31
0.0
  0
LINE
  5
2F82
  8
0
 10
58.80935159276123
 20
217.1012443773083
 30
0.0
 11
58.80935159276123
 21
219.6387443773089
 31
0.0
  0
LINE
  5
2F83
  8
0
 10
60.9118515927612
 20
217.1012443773083
 30
0.0
 11
60.9118515927612
 21
217.6812443773083
 31
0.0
  0
LINE
  5
2F84
  8
0
 10
60.9118515927612
 20
219.058744377309
 30
0.0
 11
60.9118515927612
 21
219.6387443773089
 31
0.0
  0
LINE
  5
2F85
  8
0
 10
58.80935159276123
 20
217.1012443773083
 30
0.0
 11
59.60685159276136
 21
217.1012443773083
 31
0.0
  0
LINE
  5
2F86
  8
0
 10
58.80935159276123
 20
219.6387443773089
 30
0.0
 11
59.60685159276136
 21
219.6387443773089
 31
0.0
  0
LINE
  5
2F87
  8
0
 10
59.60685159276136
 20
219.6387443773089
 30
0.0
 11
59.60685159276136
 21
218.7687443773088
 31
0.0
  0
LINE
  5
2F88
  8
0
 10
60.11435159276152
 20
219.6387443773089
 30
0.0
 11
60.11435159276152
 21
219.058744377309
 31
0.0
  0
LINE
  5
2F89
  8
0
 10
59.60685159276136
 20
217.1012443773083
 30
0.0
 11
59.60685159276136
 21
217.9712443773082
 31
0.0
  0
LINE
  5
2F8A
  8
0
 10
60.11435159276152
 20
217.1012443773083
 30
0.0
 11
60.11435159276152
 21
217.6812443773083
 31
0.0
  0
ARC
  5
2F8B
  8
0
 10
59.8243515927611
 20
217.6812443773083
 30
0.0
 40
0.29
 50
0.0
 51
90.0
  0
ARC
  5
2F8C
  8
0
 10
59.8243515927611
 20
217.6812443773083
 30
0.0
 40
1.0875
 50
0.0
 51
39.29648023918966
  0
LINE
  5
2F8D
  8
0
 10
60.11435159276152
 20
219.6387443773089
 30
0.0
 11
60.9118515927612
 21
219.6387443773089
 31
0.0
  0
LINE
  5
2F8E
  8
0
 10
60.11435159276152
 20
217.1012443773083
 30
0.0
 11
60.9118515927612
 21
217.1012443773083
 31
0.0
  0
LINE
  5
2F8F
  8
0
 10
59.60685159276136
 20
218.7687443773088
 30
0.0
 11
59.8243515927611
 21
218.7687443773088
 31
0.0
  0
ARC
  5
2F90
  8
0
 10
59.8243515927611
 20
219.058744377309
 30
0.0
 40
0.29
 50
270.0
 51
0.0
  0
ARC
  5
2F91
  8
0
 10
59.8243515927611
 20
219.058744377309
 30
0.0
 40
1.0875
 50
320.7035197608187
 51
0.0
  0
LINE
  5
2F92
  8
0
 10
59.60685159276136
 20
217.9712443773082
 30
0.0
 11
59.8243515927611
 21
217.9712443773082
 31
0.0
  0
LINE
  5
2F93
  8
0
 10
61.1293515927614
 20
217.1012443773083
 30
0.0
 11
61.1293515927614
 21
219.6387443773089
 31
0.0
  0
LINE
  5
2F94
  8
0
 10
61.92685159276152
 20
217.1012443773083
 30
0.0
 11
61.92685159276152
 21
219.6387443773089
 31
0.0
  0
LINE
  5
2F95
  8
0
 10
61.1293515927614
 20
219.6387443773089
 30
0.0
 11
61.92685159276152
 21
219.6387443773089
 31
0.0
  0
LINE
  5
2F96
  8
0
 10
61.1293515927614
 20
217.1012443773083
 30
0.0
 11
61.92685159276152
 21
217.1012443773083
 31
0.0
  0
LINE
  5
2F97
  8
0
 10
62.14435159276127
 20
217.1012443773083
 30
0.0
 11
62.14435159276127
 21
218.5874943773083
 31
0.0
  0
LINE
  5
2F98
  8
0
 10
64.24685159276123
 20
217.1012443773083
 30
0.0
 11
64.24685159276123
 21
218.5874943773083
 31
0.0
  0
LINE
  5
2F99
  8
0
 10
62.14435159276127
 20
217.1012443773083
 30
0.0
 11
62.9418515927614
 21
217.1012443773083
 31
0.0
  0
LINE
  5
2F9A
  8
0
 10
62.9418515927614
 20
217.1012443773083
 30
0.0
 11
62.9418515927614
 21
218.5874943773083
 31
0.0
  0
LINE
  5
2F9B
  8
0
 10
63.4493515927611
 20
217.1012443773083
 30
0.0
 11
63.4493515927611
 21
218.5874943773083
 31
0.0
  0
LINE
  5
2F9C
  8
0
 10
63.4493515927611
 20
217.1012443773083
 30
0.0
 11
64.24685159276123
 21
217.1012443773083
 31
0.0
  0
ARC
  5
2F9D
  8
0
 10
63.19560159276125
 20
218.5874943773083
 30
0.0
 40
1.05125
 50
0.0
 51
180.0
  0
ARC
  5
2F9E
  8
0
 10
63.19560159276125
 20
218.5874943773083
 30
0.0
 40
0.25375
 50
0.0
 51
180.0
  0
CIRCLE
  5
2F9F
  8
0
 10
95.52185159276138
 20
209.8911362700032
 30
0.0
 40
8.25
  0
LINE
  5
2FA0
  8
0
 10
68.27185159276092
 20
203.8911362700026
 30
0.0
 11
68.27185159276092
 21
215.8911362700031
 31
0.0
  0
ARC
  5
2FA1
  8
0
 10
70.27185159276092
 20
203.8911362700026
 30
0.0
 40
2.0
 50
180.0
 51
270.0
1001
GENIUS_GENOBJ-N-FIL_13
1002
{
1000
OWNER
1000
GEN
1002
}
1001
GENIUS_GENODEF_13
1002
{
1000
HIER
1070
     0
1002
}
1002
{
1000
MANEDIT
1070
     0
1002
}
1002
{
1000
NOSEL
1070
     0
1002
}
1002
{
1000
BEHIND
1070
     0
1002
}
1002
{
1000
OTHER
1070
     0
1002
}
1002
{
1000
REACTOR
1002
}
  0
LINE
  5
2FA2
  8
0
 10
86.27185159276002
 20
203.8911362700026
 30
0.0
 11
86.27185159276002
 21
215.8911362700022
 31
0.0
  0
ARC
  5
2FA3
  8
0
 10
84.27185159276002
 20
215.8911362700022
 30
0.0
 40
2.0
 50
0.0
 51
90.0
1001
GENIUS_GENODEF_13
1002
{
1000
HIER
1070
     0
1002
}
1002
{
1000
MANEDIT
1070
     0
1002
}
1002
{
1000
NOSEL
1070
     0
1002
}
1002
{
1000
BEHIND
1070
     0
1002
}
1002
{
1000
OTHER
1070
     0
1002
}
1002
{
1000
REACTOR
1002
}
1001
GENIUS_GENOBJ-N-FIL_13
1002
{
1000
OWNER
1000
GEN
1002
}
  0
LINE
  5
2FA4
  8
0
 10
86.27185159276002
 20
209.3911362700026
 30
0.0
 11
86.249631334247
 21
209.3911362700026
 31
0.0
  0
LINE
  5
2FA5
  8
0
 10
84.82185159276042
 20
209.5411362700025
 30
0.0
 11
69.72185159276052
 21
209.5411362700025
 31
0.0
  0
LINE
  5
2FA6
  8
0
 10
86.27185159276002
 20
210.3911362700026
 30
0.0
 11
86.249631334247
 21
210.3911362700026
 31
0.0
  0
LINE
  5
2FA7
  8
0
 10
84.82185159276042
 20
210.2411362700026
 30
0.0
 11
69.72185159276052
 21
210.2411362700026
 31
0.0
  0
CIRCLE
  5
2FA8
  8
0
 10
77.47346513217605
 20
213.8911362700031
 30
0.0
 40
2.0
  0
LINE
  5
2FA9
  8
0
 10
84.27185159276002
 20
217.8911362700022
 30
0.0
 11
70.27185159276092
 21
217.8911362700031
 31
0.0
  0
ARC
  5
2FAA
  8
0
 10
70.27185159276092
 20
215.8911362700031
 30
0.0
 40
2.0
 50
90.0
 51
180.0
1001
GENIUS_GENOBJ-N-FIL_13
1002
{
1000
OWNER
1000
GEN
1002
}
1001
GENIUS_GENODEF_13
1002
{
1000
HIER
1070
     0
1002
}
1002
{
1000
MANEDIT
1070
     0
1002
}
1002
{
1000
NOSEL
1070
     0
1002
}
1002
{
1000
BEHIND
1070
     0
1002
}
1002
{
1000
OTHER
1070
     0
1002
}
1002
{
1000
REACTOR
1002
}
  0
LINE
  5
2FAB
  8
0
 10
84.27185159276002
 20
201.8911362700026
 30
0.0
 11
70.27185159276092
 21
201.8911362700026
 31
0.0
  0
ARC
  5
2FAC
  8
0
 10
84.27185159276002
 20
203.8911362700026
 30
0.0
 40
2.0
 50
270.0
 51
0.0
1001
GENIUS_GENODEF_13
1002
{
1000
HIER
1070
     0
1002
}
1002
{
1000
MANEDIT
1070
     0
1002
}
1002
{
1000
NOSEL
1070
     0
1002
}
1002
{
1000
BEHIND
1070
     0
1002
}
1002
{
1000
OTHER
1070
     0
1002
}
1002
{
1000
REACTOR
1002
}
1001
GENIUS_GENOBJ-N-FIL_13
1002
{
1000
OWNER
1000
GEN
1002
}
  0
TEXT
  5
2FAD
  8
0
 10
41.65051578571123
 20
220.3458387727713
 30
0.0
 40
1.8
  1
電動水抜操作盤 EV3R
  0
CIRCLE
  5
2FDE
  8
0
 10
65.82231355532326
 20
224.3743007952837
 30
0.0
 40
1.125
  0
TEXT
  5
2FDF
  8
0
 10
65.10231355532326
 20
223.6063007952837
 30
0.0
 40
1.44
  1
Ｒ
 72
     4
 11
65.82231355532326
 21
224.3743007952837
 31
0.0
  0
LINE
  5
2FE8
  8
0
 10
55.82185095648174
 20
248.2411362700034
 30
0.0
 11
55.82185095648174
 21
246.2411362700034
 31
0.0
  0
LINE
  5
2FE9
  8
0
 10
48.82185095648174
 20
248.2411362700034
 30
0.0
 11
48.82185095648174
 21
246.2411362700034
 31
0.0
  0
ARC
  5
2FEA
  8
0
 10
49.82185095648174
 20
248.2411362700034
 30
0.0
 40
1.0
 50
90.0
 51
180.0
  0
ARC
  5
2FEB
  8
0
 10
49.82185095648174
 20
246.2411362700034
 30
0.0
 40
1.0
 50
180.0
 51
270.0
  0
ARC
  5
2FEC
  8
0
 10
54.82185095648174
 20
246.2411362700034
 30
0.0
 40
1.0
 50
270.0
 51
0.0
  0
ARC
  5
2FED
  8
0
 10
54.82185095648174
 20
248.2411362700034
 30
0.0
 40
1.0
 50
0.0
 51
90.0
  0
LINE
  5
2FEE
  8
0
 10
49.82185095648174
 20
249.2411362700034
 30
0.0
 11
54.82185095648174
 21
249.2411362700034
 31
0.0
  0
LINE
  5
2FEF
  8
0
 10
49.82185095648174
 20
245.2411362700034
 30
0.0
 11
54.82185095648174
 21
245.2411362700034
 31
0.0
  0
TEXT
  5
2FF0
  8
0
 10
42.16043779936887
 20
246.2788604505847
 30
0.0
 40
2.0
  1
OFF
 41
1.5
  0
TEXT
  5
2FF1
  8
0
 10
57.20728694906059
 20
246.2788604505847
 30
0.0
 40
2.0
  1
ON
 41
1.5
  0
ARC
  5
2FF2
  8
0
 10
69.72185159276052
 20
209.8911362700026
 30
0.0
 40
0.3500000000000227
 50
90.0
 51
270.0
  0
ARC
  5
2FF3
  8
0
 10
84.82185159276042
 20
209.8911362700026
 30
0.0
 40
0.3500000000000227
 50
270.0
 51
90.0
  0
LINE
  5
2FF4
  8
0
 10
56.52185159276132
 20
212.8911362700032
 30
0.0
 11
64.52185159276132
 21
212.8911362700032
 31
0.0
  0
ARC
  5
2FF5
  8
0
 10
64.52185159276132
 20
210.8911362700032
 30
0.0
 40
2.0
 50
0.0
 51
90.0
  0
ARC
  5
2FF6
  8
0
 10
56.52185159276132
 20
210.8911362700032
 30
0.0
 40
2.0
 50
90.0
 51
180.0
  0
ARC
  5
2FF7
  8
0
 10
64.52185159276132
 20
203.8911362700028
 30
0.0
 40
2.0
 50
270.0
 51
0.0
  0
LINE
  5
2FF8
  8
0
 10
66.52185159276132
 20
203.8911362700028
 30
0.0
 11
66.52185159276132
 21
210.8911362700032
 31
0.0
  0
LINE
  5
2FF9
  8
0
 10
56.52185159276132
 20
201.8911362700028
 30
0.0
 11
64.52185159276132
 21
201.8911362700028
 31
0.0
  0
ARC
  5
2FFA
  8
0
 10
56.52185159276132
 20
203.8911362700028
 30
0.0
 40
2.0
 50
180.0
 51
270.0
  0
LINE
  5
2FFB
  8
0
 10
54.52185159276132
 20
203.8911362700028
 30
0.0
 11
54.52185159276132
 21
210.8911362700032
 31
0.0
  0
TEXT
  5
2FFC
  8
0
 10
55.65608586510838
 20
203.1068556636894
 30
0.0
 40
1.9
  1
点検
  0
ARC
  5
2FFD
  8
0
 10
64.27348778648948
 20
204.4584520354258
 30
0.0
 40
0.9999999999999992
 50
233.0491207032591
 51
57.32628399712605
  0
LINE
  5
2FFE
  8
0
 10
63.67235766901891
 20
203.6593008720845
 30
0.0
 11
58.96522345740431
 21
207.2000579545675
 31
0.0
  0
LINE
  5
2FFF
  8
0
 10
59.8552433080491
 20
208.4800423840362
 30
0.0
 11
64.81334201355162
 21
205.3002105598991
 31
0.0
  0
ARC
  5
3000
  8
0
 10
57.40559221385206
 20
209.2339502767102
 30
0.0
 40
1.99079584716086
 50
1.683229077249547
 51
160.7903378653517
  0
ARC
  5
3001
  8
0
 10
60.39509753511166
 20
209.3218009085095
 30
0.0
 40
0.9999999999999992
 50
181.6832290772424
 51
237.326283997126
1001
GENIUS_GENODEF_13
1002
{
1000
HIER
1070
     0
1002
}
1002
{
1000
MANEDIT
1070
     0
1002
}
1002
{
1000
NOSEL
1070
     0
1002
}
1002
{
1000
BEHIND
1070
     0
1002
}
1002
{
1000
OTHER
1070
     0
1002
}
1002
{
1000
REACTOR
1002
}
1001
GENIUS_GENOBJ-N-FIL_13
1002
{
1000
OWNER
1000
GEN
1002
}
  0
ARC
  5
3002
  8
0
 10
57.40559221385206
 20
209.2339502767102
 30
0.0
 40
1.99079584716086
 50
219.5850668351122
 51
288.6921756231417
  0
ARC
  5
3003
  8
0
 10
58.3640933399341
 20
206.400906791226
 30
0.0
 40
0.9999999999999992
 50
53.04912070325908
 51
108.6921756231398
1001
GENIUS_GENOBJ-N-FIL_13
1002
{
1000
OWNER
1000
GEN
1002
}
1001
GENIUS_GENODEF_13
1002
{
1000
HIER
1070
     0
1002
}
1002
{
1000
MANEDIT
1070
     0
1002
}
1002
{
1000
NOSEL
1070
     0
1002
}
1002
{
1000
BEHIND
1070
     0
1002
}
1002
{
1000
OTHER
1070
     0
1002
}
1002
{
1000
REACTOR
1002
}
  0
LINE
  5
3004
  8
0
 10
57.9665367390767
 20
209.3347558361867
 30
0.0
 11
57.58408236238367
 21
208.2731629161468
 31
0.0
  0
LINE
  5
3005
  8
0
 10
57.58408236238367
 20
208.2731629161468
 30
0.0
 11
55.87132696385379
 21
207.9653690819416
 31
0.0
  0
LINE
  5
3006
  8
0
 10
57.96653673907659
 20
209.3347558361873
 30
0.0
 11
57.23839749018987
 21
210.1967675022118
 31
0.0
  0
LINE
  5
3007
  8
0
 10
57.23839749018987
 20
210.1967675022118
 30
0.0
 11
55.52564209165973
 21
209.8889736680061
 31
0.0
  0
CIRCLE
  5
3008
  8
0
 10
64.27348778648948
 20
204.4584520354258
 30
0.0
 40
0.4999999999999996
  0
LINE
  5
3009
  8
0
 10
42.53436198722648
 20
212.5722712700028
 30
0.0
 11
44.8711434872265
 21
212.5722712700028
 31
0.0
  0
LINE
  5
300A
  8
0
 10
44.8711434872265
 20
212.5722712700028
 30
0.0
 11
44.8711434872265
 21
212.9062551700028
 31
0.0
  0
LINE
  5
300B
  8
0
 10
44.8711434872265
 20
212.9062551700028
 30
0.0
 11
42.53436198722648
 21
212.9062551700028
 31
0.0
  0
LINE
  5
300C
  8
0
 10
42.53436198722648
 20
212.9062551700028
 30
0.0
 11
42.53436198722648
 21
212.5722712700028
 31
0.0
  0
LINE
  5
300D
  8
0
 10
45.53873698722646
 20
212.5722712700028
 30
0.0
 11
46.53995148722646
 21
212.5722712700028
 31
0.0
  0
LINE
  5
300E
  8
0
 10
46.53995148722646
 20
212.5722712700028
 30
0.0
 11
46.53995148722646
 21
212.9062551700028
 31
0.0
  0
LINE
  5
300F
  8
0
 10
46.53995148722646
 20
212.9062551700028
 30
0.0
 11
45.53873698722646
 21
212.9062551700028
 31
0.0
  0
LINE
  5
3010
  8
0
 10
45.53873698722646
 20
212.9062551700028
 30
0.0
 11
45.53873698722646
 21
212.5722712700028
 31
0.0
  0
LINE
  5
3011
  8
0
 10
47.20750698722648
 20
212.5722712700028
 30
0.0
 11
47.5414908872265
 21
212.5722712700028
 31
0.0
  0
LINE
  5
3012
  8
0
 10
47.5414908872265
 20
212.5722712700028
 30
0.0
 11
47.5414908872265
 21
212.9062551700028
 31
0.0
  0
LINE
  5
3013
  8
0
 10
47.5414908872265
 20
212.9062551700028
 30
0.0
 11
47.20750698722648
 21
212.9062551700028
 31
0.0
  0
LINE
  5
3014
  8
0
 10
47.20750698722648
 20
212.9062551700028
 30
0.0
 11
47.20750698722648
 21
212.5722712700028
 31
0.0
  0
LINE
  5
3015
  8
0
 10
47.87507198722648
 20
212.5722712700028
 30
0.0
 11
48.20905683722648
 21
212.5722712700028
 31
0.0
  0
LINE
  5
3016
  8
0
 10
48.20905683722648
 20
212.5722712700028
 30
0.0
 11
48.20905683722648
 21
212.9062551700028
 31
0.0
  0
LINE
  5
3017
  8
0
 10
48.20905683722648
 20
212.9062551700028
 30
0.0
 11
47.87507198722648
 21
212.9062551700028
 31
0.0
  0
LINE
  5
3018
  8
0
 10
47.87507198722648
 20
212.9062551700028
 30
0.0
 11
47.87507198722648
 21
212.5722712700028
 31
0.0
  0
LINE
  5
3019
  8
0
 10
48.54273198722649
 20
212.5722712700028
 30
0.0
 11
48.87671683722647
 21
212.5722712700028
 31
0.0
  0
LINE
  5
301A
  8
0
 10
48.87671683722647
 20
212.5722712700028
 30
0.0
 11
48.87671683722647
 21
212.9062551700028
 31
0.0
  0
LINE
  5
301B
  8
0
 10
48.87671683722647
 20
212.9062551700028
 30
0.0
 11
48.54273198722649
 21
212.9062551700028
 31
0.0
  0
LINE
  5
301C
  8
0
 10
48.54273198722649
 20
212.9062551700028
 30
0.0
 11
48.54273198722649
 21
212.5722712700028
 31
0.0
  0
LINE
  5
301D
  8
0
 10
49.87748198722647
 20
212.5722712700028
 30
0.0
 11
50.2114658872265
 21
212.5722712700028
 31
0.0
  0
LINE
  5
301E
  8
0
 10
50.2114658872265
 20
212.5722712700028
 30
0.0
 11
50.2114658872265
 21
212.9062551700028
 31
0.0
  0
LINE
  5
301F
  8
0
 10
50.2114658872265
 20
212.9062551700028
 30
0.0
 11
49.87748198722647
 21
212.9062551700028
 31
0.0
  0
LINE
  5
3020
  8
0
 10
49.87748198722647
 20
212.9062551700028
 30
0.0
 11
49.87748198722647
 21
212.5722712700028
 31
0.0
  0
LINE
  5
3022
  8
0
 10
51.54707088722648
 20
212.5722712700028
 30
0.0
 11
53.21549698722649
 21
212.5722712700028
 31
0.0
  0
LINE
  5
3023
  8
0
 10
53.54986848722649
 20
210.5691012700028
 30
0.0
 11
53.54986848722649
 21
212.9062551700028
 31
0.0
  0
LINE
  5
3024
  8
0
 10
53.54986848722649
 20
212.9062551700028
 30
0.0
 11
51.21308698722649
 21
212.9062551700028
 31
0.0
  0
LINE
  5
3025
  8
0
 10
51.21308698722649
 20
212.9062551700028
 30
0.0
 11
51.21308698722649
 21
210.5691012700028
 31
0.0
  0
LINE
  5
3026
  8
0
 10
42.53436198722648
 20
212.2383462700028
 30
0.0
 11
42.86871733722649
 21
212.2383462700028
 31
0.0
  0
LINE
  5
3027
  8
0
 10
42.86871733722649
 20
212.2383462700028
 30
0.0
 11
42.86871733722649
 21
212.5723311200028
 31
0.0
  0
LINE
  5
3028
  8
0
 10
42.86871733722649
 20
212.5723311200028
 30
0.0
 11
42.53436198722648
 21
212.5723311200028
 31
0.0
  0
LINE
  5
3029
  8
0
 10
42.53436198722648
 20
212.5723311200028
 30
0.0
 11
42.53436198722648
 21
212.2383462700028
 31
0.0
  0
LINE
  5
302A
  8
0
 10
44.53743698722647
 20
212.2383462700028
 30
0.0
 11
44.87142088722646
 21
212.2383462700028
 31
0.0
  0
LINE
  5
302B
  8
0
 10
44.87142088722646
 20
212.2383462700028
 30
0.0
 11
44.87142088722646
 21
212.5723311200028
 31
0.0
  0
LINE
  5
302C
  8
0
 10
44.87142088722646
 20
212.5723311200028
 30
0.0
 11
44.53743698722647
 21
212.5723311200028
 31
0.0
  0
LINE
  5
302D
  8
0
 10
44.53743698722647
 20
212.5723311200028
 30
0.0
 11
44.53743698722647
 21
212.2383462700028
 31
0.0
  0
LINE
  5
302E
  8
0
 10
45.20509698722648
 20
212.2383462700028
 30
0.0
 11
46.20668198722649
 21
212.2383462700028
 31
0.0
  0
LINE
  5
302F
  8
0
 10
46.20668198722649
 20
212.2383462700028
 30
0.0
 11
46.20668198722649
 21
212.5723311200028
 31
0.0
  0
LINE
  5
3030
  8
0
 10
46.20668198722649
 20
212.5723311200028
 30
0.0
 11
45.20509698722648
 21
212.5723311200028
 31
0.0
  0
LINE
  5
3031
  8
0
 10
45.20509698722648
 20
212.5723311200028
 30
0.0
 11
45.20509698722648
 21
212.2383462700028
 31
0.0
  0
LINE
  5
3032
  8
0
 10
46.54032198722649
 20
212.2383462700028
 30
0.0
 11
47.54153648722649
 21
212.2383462700028
 31
0.0
  0
LINE
  5
3033
  8
0
 10
47.54153648722649
 20
212.2383462700028
 30
0.0
 11
47.54153648722649
 21
212.5723311200028
 31
0.0
  0
LINE
  5
3034
  8
0
 10
47.54153648722649
 20
212.5723311200028
 30
0.0
 11
46.54032198722649
 21
212.5723311200028
 31
0.0
  0
LINE
  5
3035
  8
0
 10
46.54032198722649
 20
212.5723311200028
 30
0.0
 11
46.54032198722649
 21
212.2383462700028
 31
0.0
  0
LINE
  5
3036
  8
0
 10
48.20909198722649
 20
212.2383462700028
 30
0.0
 11
48.54307588722648
 21
212.2383462700028
 31
0.0
  0
LINE
  5
3037
  8
0
 10
48.54307588722648
 20
212.2383462700028
 30
0.0
 11
48.54307588722648
 21
212.5723311200028
 31
0.0
  0
LINE
  5
3038
  8
0
 10
48.54307588722648
 20
212.5723311200028
 30
0.0
 11
48.20909198722649
 21
212.5723311200028
 31
0.0
  0
LINE
  5
3039
  8
0
 10
48.20909198722649
 20
212.5723311200028
 30
0.0
 11
48.20909198722649
 21
212.2383462700028
 31
0.0
  0
LINE
  5
303A
  8
0
 10
49.20991698722648
 20
212.2383462700028
 30
0.0
 11
49.54427233722649
 21
212.2383462700028
 31
0.0
  0
LINE
  5
303B
  8
0
 10
49.54427233722649
 20
212.2383462700028
 30
0.0
 11
49.54427233722649
 21
212.5723311200028
 31
0.0
  0
LINE
  5
303C
  8
0
 10
49.54427233722649
 20
212.5723311200028
 30
0.0
 11
49.20991698722648
 21
212.5723311200028
 31
0.0
  0
LINE
  5
303D
  8
0
 10
49.20991698722648
 20
212.5723311200028
 30
0.0
 11
49.20991698722648
 21
212.2383462700028
 31
0.0
  0
LINE
  5
303E
  8
0
 10
49.87748198722647
 20
212.2383462700028
 30
0.0
 11
50.2114658872265
 21
212.2383462700028
 31
0.0
  0
LINE
  5
303F
  8
0
 10
50.2114658872265
 20
212.2383462700028
 30
0.0
 11
50.2114658872265
 21
212.5723311200028
 31
0.0
  0
LINE
  5
3040
  8
0
 10
50.2114658872265
 20
212.5723311200028
 30
0.0
 11
49.87748198722647
 21
212.5723311200028
 31
0.0
  0
LINE
  5
3041
  8
0
 10
49.87748198722647
 20
212.5723311200028
 30
0.0
 11
49.87748198722647
 21
212.2383462700028
 31
0.0
  0
LINE
  5
3042
  8
0
 10
50.54590198722647
 20
212.2383462700028
 30
0.0
 11
50.87988683722648
 21
212.2383462700028
 31
0.0
  0
LINE
  5
3044
  8
0
 10
50.87988683722648
 20
212.2383016200028
 30
0.0
 11
50.87988683722648
 21
212.5723311200028
 31
0.0
  0
LINE
  5
3045
  8
0
 10
50.87988683722648
 20
212.5723311200028
 30
0.0
 11
50.54590198722647
 21
212.5723311200028
 31
0.0
  0
LINE
  5
3046
  8
0
 10
50.54590198722647
 20
212.5723311200028
 30
0.0
 11
50.54590198722647
 21
212.2383016200028
 31
0.0
  0
LINE
  5
3047
  8
0
 10
42.53436198722648
 20
211.9039462700028
 30
0.0
 11
42.86871733722649
 21
211.9039462700028
 31
0.0
  0
LINE
  5
3048
  8
0
 10
42.86871733722649
 20
211.9039462700028
 30
0.0
 11
42.86871733722649
 21
212.2383016200028
 31
0.0
  0
LINE
  5
3049
  8
0
 10
42.86871733722649
 20
212.2383016200028
 30
0.0
 11
42.53436198722648
 21
212.2383016200028
 31
0.0
  0
LINE
  5
304A
  8
0
 10
42.53436198722648
 20
212.2383016200028
 30
0.0
 11
42.53436198722648
 21
211.9039462700028
 31
0.0
  0
LINE
  5
304B
  8
0
 10
43.20192698722647
 20
211.9039462700028
 30
0.0
 11
44.20351198722648
 21
211.9039462700028
 31
0.0
  0
LINE
  5
304C
  8
0
 10
44.20351198722648
 20
211.9039462700028
 30
0.0
 11
44.20351198722648
 21
212.2383016200028
 31
0.0
  0
LINE
  5
304D
  8
0
 10
44.20351198722648
 20
212.2383016200028
 30
0.0
 11
43.20192698722647
 21
212.2383016200028
 31
0.0
  0
LINE
  5
304E
  8
0
 10
43.20192698722647
 20
212.2383016200028
 30
0.0
 11
43.20192698722647
 21
211.9039462700028
 31
0.0
  0
LINE
  5
304F
  8
0
 10
44.53743698722647
 20
211.9039462700028
 30
0.0
 11
44.87142088722646
 21
211.9039462700028
 31
0.0
  0
LINE
  5
3050
  8
0
 10
44.87142088722646
 20
211.9039462700028
 30
0.0
 11
44.87142088722646
 21
212.2383016200028
 31
0.0
  0
LINE
  5
3051
  8
0
 10
44.87142088722646
 20
212.2383016200028
 30
0.0
 11
44.53743698722647
 21
212.2383016200028
 31
0.0
  0
LINE
  5
3052
  8
0
 10
44.53743698722647
 20
212.2383016200028
 30
0.0
 11
44.53743698722647
 21
211.9039462700028
 31
0.0
  0
LINE
  5
3053
  8
0
 10
45.20509698722648
 20
211.9039462700028
 30
0.0
 11
46.20668198722649
 21
211.9039462700028
 31
0.0
  0
LINE
  5
3054
  8
0
 10
46.20668198722649
 20
211.9039462700028
 30
0.0
 11
46.20668198722649
 21
212.2383016200028
 31
0.0
  0
LINE
  5
3055
  8
0
 10
46.20668198722649
 20
212.2383016200028
 30
0.0
 11
45.20509698722648
 21
212.2383016200028
 31
0.0
  0
LINE
  5
3056
  8
0
 10
45.20509698722648
 20
212.2383016200028
 30
0.0
 11
45.20509698722648
 21
211.9039462700028
 31
0.0
  0
LINE
  5
3057
  8
0
 10
46.54032198722649
 20
211.9039462700028
 30
0.0
 11
47.20754878722647
 21
211.9039462700028
 31
0.0
  0
LINE
  5
3058
  8
0
 10
47.20754878722647
 20
211.9039462700028
 30
0.0
 11
47.20754878722647
 21
212.2383016200028
 31
0.0
  0
LINE
  5
3059
  8
0
 10
47.20754878722647
 20
212.2383016200028
 30
0.0
 11
46.54032198722649
 21
212.2383016200028
 31
0.0
  0
LINE
  5
305A
  8
0
 10
46.54032198722649
 20
212.2383016200028
 30
0.0
 11
46.54032198722649
 21
211.9039462700028
 31
0.0
  0
LINE
  5
305B
  8
0
 10
47.54152698722649
 20
211.9039462700028
 30
0.0
 11
47.8758823372265
 21
211.9039462700028
 31
0.0
  0
LINE
  5
305C
  8
0
 10
47.8758823372265
 20
211.9039462700028
 30
0.0
 11
47.8758823372265
 21
212.2383016200028
 31
0.0
  0
LINE
  5
305D
  8
0
 10
47.8758823372265
 20
212.2383016200028
 30
0.0
 11
47.54152698722649
 21
212.2383016200028
 31
0.0
  0
LINE
  5
305E
  8
0
 10
47.54152698722649
 20
212.2383016200028
 30
0.0
 11
47.54152698722649
 21
211.9039462700028
 31
0.0
  0
LINE
  5
305F
  8
0
 10
48.20909198722649
 20
211.9039462700028
 30
0.0
 11
49.21067698722649
 21
211.9039462700028
 31
0.0
  0
LINE
  5
3060
  8
0
 10
49.21067698722649
 20
211.9039462700028
 30
0.0
 11
49.21067698722649
 21
212.2383016200028
 31
0.0
  0
LINE
  5
3061
  8
0
 10
49.21067698722649
 20
212.2383016200028
 30
0.0
 11
48.20909198722649
 21
212.2383016200028
 31
0.0
  0
LINE
  5
3062
  8
0
 10
48.20909198722649
 20
212.2383016200028
 30
0.0
 11
48.20909198722649
 21
211.9039462700028
 31
0.0
  0
LINE
  5
3063
  8
0
 10
49.54431698722647
 20
211.9039462700028
 30
0.0
 11
49.87830183722647
 21
211.9039462700028
 31
0.0
  0
LINE
  5
3064
  8
0
 10
49.87830183722647
 20
211.9039462700028
 30
0.0
 11
49.87830183722647
 21
212.2383016200028
 31
0.0
  0
LINE
  5
3065
  8
0
 10
49.87830183722647
 20
212.2383016200028
 30
0.0
 11
49.54431698722647
 21
212.2383016200028
 31
0.0
  0
LINE
  5
3066
  8
0
 10
49.54431698722647
 20
212.2383016200028
 30
0.0
 11
49.54431698722647
 21
211.9039462700028
 31
0.0
  0
LINE
  5
3067
  8
0
 10
50.54590198722647
 20
211.9039462700028
 30
0.0
 11
50.87988683722648
 21
211.9039462700028
 31
0.0
  0
LINE
  5
3068
  8
0
 10
50.87988683722648
 20
211.9039462700028
 30
0.0
 11
50.87988683722648
 21
212.2383016200028
 31
0.0
  0
LINE
  5
3069
  8
0
 10
50.87988683722648
 20
212.2383016200028
 30
0.0
 11
50.54590198722647
 21
212.2383016200028
 31
0.0
  0
LINE
  5
306A
  8
0
 10
50.54590198722647
 20
212.2383016200028
 30
0.0
 11
50.54590198722647
 21
211.9039462700028
 31
0.0
  0
LINE
  5
306C
  8
0
 10
52.88223698722646
 20
211.2367612700028
 30
0.0
 11
52.88223698722646
 21
212.2383016200028
 31
0.0
  0
LINE
  5
306D
  8
0
 10
52.88223698722646
 20
212.2383016200028
 30
0.0
 11
51.88065198722649
 21
212.2383016200028
 31
0.0
  0
LINE
  5
306E
  8
0
 10
51.88065198722649
 20
212.2383016200028
 30
0.0
 11
51.88065198722649
 21
211.2367612700028
 31
0.0
  0
LINE
  5
306F
  8
0
 10
42.53436198722648
 20
211.5706862700028
 30
0.0
 11
42.86871733722649
 21
211.5706862700028
 31
0.0
  0
LINE
  5
3070
  8
0
 10
42.86871733722649
 20
211.5706862700028
 30
0.0
 11
42.86871733722649
 21
211.9046701700028
 31
0.0
  0
LINE
  5
3071
  8
0
 10
42.86871733722649
 20
211.9046701700028
 30
0.0
 11
42.53436198722648
 21
211.9046701700028
 31
0.0
  0
LINE
  5
3072
  8
0
 10
42.53436198722648
 20
211.9046701700028
 30
0.0
 11
42.53436198722648
 21
211.5706862700028
 31
0.0
  0
LINE
  5
3073
  8
0
 10
43.20192698722647
 20
211.5706862700028
 30
0.0
 11
44.20351198722648
 21
211.5706862700028
 31
0.0
  0
LINE
  5
3074
  8
0
 10
44.20351198722648
 20
211.5706862700028
 30
0.0
 11
44.20351198722648
 21
211.9046701700028
 31
0.0
  0
LINE
  5
3075
  8
0
 10
44.20351198722648
 20
211.9046701700028
 30
0.0
 11
43.20192698722647
 21
211.9046701700028
 31
0.0
  0
LINE
  5
3076
  8
0
 10
43.20192698722647
 20
211.9046701700028
 30
0.0
 11
43.20192698722647
 21
211.5706862700028
 31
0.0
  0
LINE
  5
3077
  8
0
 10
44.53743698722647
 20
211.5706862700028
 30
0.0
 11
44.87142088722646
 21
211.5706862700028
 31
0.0
  0
LINE
  5
3078
  8
0
 10
44.87142088722646
 20
211.5706862700028
 30
0.0
 11
44.87142088722646
 21
211.9046701700028
 31
0.0
  0
LINE
  5
3079
  8
0
 10
44.87142088722646
 20
211.9046701700028
 30
0.0
 11
44.53743698722647
 21
211.9046701700028
 31
0.0
  0
LINE
  5
307A
  8
0
 10
44.53743698722647
 20
211.9046701700028
 30
0.0
 11
44.53743698722647
 21
211.5706862700028
 31
0.0
  0
LINE
  5
307B
  8
0
 10
45.20509698722648
 20
211.5706862700028
 30
0.0
 11
45.53908183722649
 21
211.5706862700028
 31
0.0
  0
LINE
  5
307C
  8
0
 10
45.53908183722649
 20
211.5706862700028
 30
0.0
 11
45.53908183722649
 21
211.9046701700028
 31
0.0
  0
LINE
  5
307D
  8
0
 10
45.53908183722649
 20
211.9046701700028
 30
0.0
 11
45.20509698722648
 21
211.9046701700028
 31
0.0
  0
LINE
  5
307E
  8
0
 10
45.20509698722648
 20
211.9046701700028
 30
0.0
 11
45.20509698722648
 21
211.5706862700028
 31
0.0
  0
LINE
  5
307F
  8
0
 10
48.87665698722648
 20
211.5706862700028
 30
0.0
 11
49.21064088722648
 21
211.5706862700028
 31
0.0
  0
LINE
  5
3080
  8
0
 10
49.21064088722648
 20
211.5706862700028
 30
0.0
 11
49.21064088722648
 21
211.9046701700028
 31
0.0
  0
LINE
  5
3081
  8
0
 10
49.21064088722648
 20
211.9046701700028
 30
0.0
 11
48.87665698722648
 21
211.9046701700028
 31
0.0
  0
LINE
  5
3082
  8
0
 10
48.87665698722648
 20
211.9046701700028
 30
0.0
 11
48.87665698722648
 21
211.5706862700028
 31
0.0
  0
LINE
  5
3083
  8
0
 10
49.54431698722647
 20
211.5706862700028
 30
0.0
 11
50.87914298722649
 21
211.5706862700028
 31
0.0
  0
LINE
  5
3084
  8
0
 10
50.87914298722649
 20
211.5706862700028
 30
0.0
 11
50.87914298722649
 21
211.9046701700028
 31
0.0
  0
LINE
  5
3085
  8
0
 10
50.87914298722649
 20
211.9046701700028
 30
0.0
 11
49.54431698722647
 21
211.9046701700028
 31
0.0
  0
LINE
  5
3086
  8
0
 10
49.54431698722647
 20
211.9046701700028
 30
0.0
 11
49.54431698722647
 21
211.5706862700028
 31
0.0
  0
LINE
  5
3087
  8
0
 10
42.53436198722648
 20
211.2367612700028
 30
0.0
 11
42.86871733722649
 21
211.2367612700028
 31
0.0
  0
LINE
  5
3088
  8
0
 10
42.86871733722649
 20
211.2367612700028
 30
0.0
 11
42.86871733722649
 21
211.5707461200028
 31
0.0
  0
LINE
  5
3089
  8
0
 10
42.86871733722649
 20
211.5707461200028
 30
0.0
 11
42.53436198722648
 21
211.5707461200028
 31
0.0
  0
LINE
  5
308A
  8
0
 10
42.53436198722648
 20
211.5707461200028
 30
0.0
 11
42.53436198722648
 21
211.2367612700028
 31
0.0
  0
LINE
  5
308B
  8
0
 10
43.20192698722647
 20
211.2367612700028
 30
0.0
 11
44.20351198722648
 21
211.2367612700028
 31
0.0
  0
LINE
  5
308C
  8
0
 10
44.20351198722648
 20
211.2367612700028
 30
0.0
 11
44.20351198722648
 21
211.5707461200028
 31
0.0
  0
LINE
  5
308D
  8
0
 10
44.20351198722648
 20
211.5707461200028
 30
0.0
 11
43.20192698722647
 21
211.5707461200028
 31
0.0
  0
LINE
  5
308E
  8
0
 10
43.20192698722647
 20
211.5707461200028
 30
0.0
 11
43.20192698722647
 21
211.2367612700028
 31
0.0
  0
LINE
  5
308F
  8
0
 10
44.53743698722647
 20
211.2367612700028
 30
0.0
 11
44.87142088722646
 21
211.2367612700028
 31
0.0
  0
LINE
  5
3090
  8
0
 10
44.87142088722646
 20
211.2367612700028
 30
0.0
 11
44.87142088722646
 21
211.5707461200028
 31
0.0
  0
LINE
  5
3091
  8
0
 10
44.87142088722646
 20
211.5707461200028
 30
0.0
 11
44.53743698722647
 21
211.5707461200028
 31
0.0
  0
LINE
  5
3092
  8
0
 10
44.53743698722647
 20
211.5707461200028
 30
0.0
 11
44.53743698722647
 21
211.2367612700028
 31
0.0
  0
LINE
  5
3093
  8
0
 10
45.53873698722646
 20
211.2367612700028
 30
0.0
 11
45.87272183722646
 21
211.2367612700028
 31
0.0
  0
LINE
  5
3094
  8
0
 10
45.87272183722646
 20
211.2367612700028
 30
0.0
 11
45.87272183722646
 21
211.5707461200028
 31
0.0
  0
LINE
  5
3095
  8
0
 10
45.87272183722646
 20
211.5707461200028
 30
0.0
 11
45.53873698722646
 21
211.5707461200028
 31
0.0
  0
LINE
  5
3096
  8
0
 10
45.53873698722646
 20
211.5707461200028
 30
0.0
 11
45.53873698722646
 21
211.2367612700028
 31
0.0
  0
LINE
  5
3097
  8
0
 10
46.20592198722647
 20
211.2367612700028
 30
0.0
 11
47.20750698722648
 21
211.2367612700028
 31
0.0
  0
LINE
  5
3098
  8
0
 10
47.20750698722648
 20
211.2367612700028
 30
0.0
 11
47.20750698722648
 21
211.5707461200028
 31
0.0
  0
LINE
  5
3099
  8
0
 10
47.20750698722648
 20
211.5707461200028
 30
0.0
 11
46.20592198722647
 21
211.5707461200028
 31
0.0
  0
LINE
  5
309A
  8
0
 10
46.20592198722647
 20
211.5707461200028
 30
0.0
 11
46.20592198722647
 21
211.2367612700028
 31
0.0
  0
LINE
  5
309B
  8
0
 10
47.54152698722649
 20
211.2367612700028
 30
0.0
 11
47.8758823372265
 21
211.2367612700028
 31
0.0
  0
LINE
  5
309C
  8
0
 10
47.8758823372265
 20
211.2367612700028
 30
0.0
 11
47.8758823372265
 21
211.5707461200028
 31
0.0
  0
LINE
  5
309D
  8
0
 10
47.8758823372265
 20
211.5707461200028
 30
0.0
 11
47.54152698722649
 21
211.5707461200028
 31
0.0
  0
LINE
  5
309E
  8
0
 10
47.54152698722649
 20
211.5707461200028
 30
0.0
 11
47.54152698722649
 21
211.2367612700028
 31
0.0
  0
LINE
  5
309F
  8
0
 10
48.20909198722649
 20
211.2367612700028
 30
0.0
 11
48.87668928722647
 21
211.2367612700028
 31
0.0
  0
LINE
  5
30A0
  8
0
 10
48.87668928722647
 20
211.2367612700028
 30
0.0
 11
48.87668928722647
 21
211.5707461200028
 31
0.0
  0
LINE
  5
30A1
  8
0
 10
48.87668928722647
 20
211.5707461200028
 30
0.0
 11
48.20909198722649
 21
211.5707461200028
 31
0.0
  0
LINE
  5
30A2
  8
0
 10
48.20909198722649
 20
211.5707461200028
 30
0.0
 11
48.20909198722649
 21
211.2367612700028
 31
0.0
  0
LINE
  5
30A3
  8
0
 10
50.21150198722648
 20
211.2367612700028
 30
0.0
 11
50.54585733722649
 21
211.2367612700028
 31
0.0
  0
LINE
  5
30A4
  8
0
 10
50.54585733722649
 20
211.2367612700028
 30
0.0
 11
50.54585733722649
 21
211.5707461200028
 31
0.0
  0
LINE
  5
30A5
  8
0
 10
50.54585733722649
 20
211.5707461200028
 30
0.0
 11
50.21150198722648
 21
211.5707461200028
 31
0.0
  0
LINE
  5
30A6
  8
0
 10
50.21150198722648
 20
211.5707461200028
 30
0.0
 11
50.21150198722648
 21
211.2367612700028
 31
0.0
  0
LINE
  5
30A7
  8
0
 10
51.88065198722649
 20
211.2367612700028
 30
0.0
 11
52.88223698722646
 21
211.2367612700028
 31
0.0
  0
LINE
  5
30A8
  8
0
 10
42.53436198722648
 20
210.9031212700028
 30
0.0
 11
42.86871733722649
 21
210.9031212700028
 31
0.0
  0
LINE
  5
30A9
  8
0
 10
42.86871733722649
 20
210.9031212700028
 30
0.0
 11
42.86871733722649
 21
211.2371061200027
 31
0.0
  0
LINE
  5
30AA
  8
0
 10
42.86871733722649
 20
211.2371061200027
 30
0.0
 11
42.53436198722648
 21
211.2371061200027
 31
0.0
  0
LINE
  5
30AB
  8
0
 10
42.53436198722648
 20
211.2371061200027
 30
0.0
 11
42.53436198722648
 21
210.9031212700028
 31
0.0
  0
LINE
  5
30AC
  8
0
 10
44.53743698722647
 20
210.9031212700028
 30
0.0
 11
44.87142088722646
 21
210.9031212700028
 31
0.0
  0
LINE
  5
30AD
  8
0
 10
44.87142088722646
 20
210.9031212700028
 30
0.0
 11
44.87142088722646
 21
211.2371061200027
 31
0.0
  0
LINE
  5
30AE
  8
0
 10
44.87142088722646
 20
211.2371061200027
 30
0.0
 11
44.53743698722647
 21
211.2371061200027
 31
0.0
  0
LINE
  5
30AF
  8
0
 10
44.53743698722647
 20
211.2371061200027
 30
0.0
 11
44.53743698722647
 21
210.9031212700028
 31
0.0
  0
LINE
  5
30B0
  8
0
 10
46.87348698722647
 20
210.9031212700028
 30
0.0
 11
47.5410852372265
 21
210.9031212700028
 31
0.0
  0
LINE
  5
30B1
  8
0
 10
47.5410852372265
 20
210.9031212700028
 30
0.0
 11
47.5410852372265
 21
211.2371061200027
 31
0.0
  0
LINE
  5
30B2
  8
0
 10
47.5410852372265
 20
211.2371061200027
 30
0.0
 11
46.87348698722647
 21
211.2371061200027
 31
0.0
  0
LINE
  5
30B3
  8
0
 10
46.87348698722647
 20
211.2371061200027
 30
0.0
 11
46.87348698722647
 21
210.9031212700028
 31
0.0
  0
LINE
  5
30B4
  8
0
 10
47.87507198722648
 20
210.9031212700028
 30
0.0
 11
48.20905683722648
 21
210.9031212700028
 31
0.0
  0
LINE
  5
30B5
  8
0
 10
48.20905683722648
 20
210.9031212700028
 30
0.0
 11
48.20905683722648
 21
211.2371061200027
 31
0.0
  0
LINE
  5
30B6
  8
0
 10
48.20905683722648
 20
211.2371061200027
 30
0.0
 11
47.87507198722648
 21
211.2371061200027
 31
0.0
  0
LINE
  5
30B7
  8
0
 10
47.87507198722648
 20
211.2371061200027
 30
0.0
 11
47.87507198722648
 21
210.9031212700028
 31
0.0
  0
LINE
  5
30B8
  8
0
 10
48.54273198722649
 20
210.9031212700028
 30
0.0
 11
48.87671683722647
 21
210.9031212700028
 31
0.0
  0
LINE
  5
30B9
  8
0
 10
48.87671683722647
 20
210.9031212700028
 30
0.0
 11
48.87671683722647
 21
211.2371061200027
 31
0.0
  0
LINE
  5
30BA
  8
0
 10
48.87671683722647
 20
211.2371061200027
 30
0.0
 11
48.54273198722649
 21
211.2371061200027
 31
0.0
  0
LINE
  5
30BB
  8
0
 10
48.54273198722649
 20
211.2371061200027
 30
0.0
 11
48.54273198722649
 21
210.9031212700028
 31
0.0
  0
LINE
  5
30BC
  8
0
 10
49.20991698722648
 20
210.9031212700028
 30
0.0
 11
49.54427233722649
 21
210.9031212700028
 31
0.0
  0
LINE
  5
30BD
  8
0
 10
49.54427233722649
 20
210.9031212700028
 30
0.0
 11
49.54427233722649
 21
211.2371061200027
 31
0.0
  0
LINE
  5
30BE
  8
0
 10
49.54427233722649
 20
211.2371061200027
 30
0.0
 11
49.20991698722648
 21
211.2371061200027
 31
0.0
  0
LINE
  5
30BF
  8
0
 10
49.20991698722648
 20
211.2371061200027
 30
0.0
 11
49.20991698722648
 21
210.9031212700028
 31
0.0
  0
LINE
  5
30C0
  8
0
 10
51.54707088722648
 20
210.9030851700028
 30
0.0
 11
51.54707088722648
 21
212.5722712700028
 31
0.0
  0
LINE
  5
30C1
  8
0
 10
53.21549698722649
 20
212.5722712700028
 30
0.0
 11
53.21549698722649
 21
210.9030851700028
 31
0.0
  0
LINE
  5
30C2
  8
0
 10
42.53436198722648
 20
210.5691012700028
 30
0.0
 11
44.8711434872265
 21
210.5691012700028
 31
0.0
  0
LINE
  5
30C3
  8
0
 10
44.8711434872265
 20
210.5691012700028
 30
0.0
 11
44.8711434872265
 21
210.9030851700028
 31
0.0
  0
LINE
  5
30C4
  8
0
 10
44.8711434872265
 20
210.9030851700028
 30
0.0
 11
42.53436198722648
 21
210.9030851700028
 31
0.0
  0
LINE
  5
30C5
  8
0
 10
42.53436198722648
 20
210.9030851700028
 30
0.0
 11
42.53436198722648
 21
210.5691012700028
 31
0.0
  0
LINE
  5
30C6
  8
0
 10
45.20509698722648
 20
210.5691012700028
 30
0.0
 11
45.53908183722649
 21
210.5691012700028
 31
0.0
  0
LINE
  5
30C7
  8
0
 10
45.53908183722649
 20
210.5691012700028
 30
0.0
 11
45.53908183722649
 21
210.9030851700028
 31
0.0
  0
LINE
  5
30C8
  8
0
 10
45.53908183722649
 20
210.9030851700028
 30
0.0
 11
45.20509698722648
 21
210.9030851700028
 31
0.0
  0
LINE
  5
30C9
  8
0
 10
45.20509698722648
 20
210.9030851700028
 30
0.0
 11
45.20509698722648
 21
210.5691012700028
 31
0.0
  0
LINE
  5
30CA
  8
0
 10
45.87266198722648
 20
210.5691012700028
 30
0.0
 11
46.2066458872265
 21
210.5691012700028
 31
0.0
  0
LINE
  5
30CB
  8
0
 10
46.2066458872265
 20
210.5691012700028
 30
0.0
 11
46.2066458872265
 21
210.9030851700028
 31
0.0
  0
LINE
  5
30CC
  8
0
 10
46.2066458872265
 20
210.9030851700028
 30
0.0
 11
45.87266198722648
 21
210.9030851700028
 31
0.0
  0
LINE
  5
30CD
  8
0
 10
45.87266198722648
 20
210.9030851700028
 30
0.0
 11
45.87266198722648
 21
210.5691012700028
 31
0.0
  0
LINE
  5
30CE
  8
0
 10
46.54032198722649
 20
210.5691012700028
 30
0.0
 11
46.87430588722648
 21
210.5691012700028
 31
0.0
  0
LINE
  5
30CF
  8
0
 10
46.87430588722648
 20
210.5691012700028
 30
0.0
 11
46.87430588722648
 21
210.9030851700028
 31
0.0
  0
LINE
  5
30D0
  8
0
 10
46.87430588722648
 20
210.9030851700028
 30
0.0
 11
46.54032198722649
 21
210.9030851700028
 31
0.0
  0
LINE
  5
30D1
  8
0
 10
46.54032198722649
 20
210.9030851700028
 30
0.0
 11
46.54032198722649
 21
210.5691012700028
 31
0.0
  0
LINE
  5
30D2
  8
0
 10
47.20750698722648
 20
210.5691012700028
 30
0.0
 11
47.5414908872265
 21
210.5691012700028
 31
0.0
  0
LINE
  5
30D3
  8
0
 10
47.5414908872265
 20
210.5691012700028
 30
0.0
 11
47.5414908872265
 21
210.9030851700028
 31
0.0
  0
LINE
  5
30D4
  8
0
 10
47.5414908872265
 20
210.9030851700028
 30
0.0
 11
47.20750698722648
 21
210.9030851700028
 31
0.0
  0
LINE
  5
30D5
  8
0
 10
47.20750698722648
 20
210.9030851700028
 30
0.0
 11
47.20750698722648
 21
210.5691012700028
 31
0.0
  0
LINE
  5
30D6
  8
0
 10
47.87507198722648
 20
210.5691012700028
 30
0.0
 11
48.20905683722648
 21
210.5691012700028
 31
0.0
  0
LINE
  5
30D7
  8
0
 10
48.20905683722648
 20
210.5691012700028
 30
0.0
 11
48.20905683722648
 21
210.9030851700028
 31
0.0
  0
LINE
  5
30D8
  8
0
 10
48.20905683722648
 20
210.9030851700028
 30
0.0
 11
47.87507198722648
 21
210.9030851700028
 31
0.0
  0
LINE
  5
30D9
  8
0
 10
47.87507198722648
 20
210.9030851700028
 30
0.0
 11
47.87507198722648
 21
210.5691012700028
 31
0.0
  0
LINE
  5
30DA
  8
0
 10
48.54273198722649
 20
210.5691012700028
 30
0.0
 11
48.87671683722647
 21
210.5691012700028
 31
0.0
  0
LINE
  5
30DB
  8
0
 10
48.87671683722647
 20
210.5691012700028
 30
0.0
 11
48.87671683722647
 21
210.9030851700028
 31
0.0
  0
LINE
  5
30DC
  8
0
 10
48.87671683722647
 20
210.9030851700028
 30
0.0
 11
48.54273198722649
 21
210.9030851700028
 31
0.0
  0
LINE
  5
30DD
  8
0
 10
48.54273198722649
 20
210.9030851700028
 30
0.0
 11
48.54273198722649
 21
210.5691012700028
 31
0.0
  0
LINE
  5
30DE
  8
0
 10
49.20991698722648
 20
210.5691012700028
 30
0.0
 11
49.54427233722649
 21
210.5691012700028
 31
0.0
  0
LINE
  5
30DF
  8
0
 10
49.54427233722649
 20
210.5691012700028
 30
0.0
 11
49.54427233722649
 21
210.9030851700028
 31
0.0
  0
LINE
  5
30E0
  8
0
 10
49.54427233722649
 20
210.9030851700028
 30
0.0
 11
49.20991698722648
 21
210.9030851700028
 31
0.0
  0
LINE
  5
30E1
  8
0
 10
49.20991698722648
 20
210.9030851700028
 30
0.0
 11
49.20991698722648
 21
210.5691012700028
 31
0.0
  0
LINE
  5
30E2
  8
0
 10
49.87748198722647
 20
210.5691012700028
 30
0.0
 11
50.2114658872265
 21
210.5691012700028
 31
0.0
  0
LINE
  5
30E3
  8
0
 10
50.2114658872265
 20
210.5691012700028
 30
0.0
 11
50.2114658872265
 21
210.9030851700028
 31
0.0
  0
LINE
  5
30E4
  8
0
 10
50.2114658872265
 20
210.9030851700028
 30
0.0
 11
49.87748198722647
 21
210.9030851700028
 31
0.0
  0
LINE
  5
30E5
  8
0
 10
49.87748198722647
 20
210.9030851700028
 30
0.0
 11
49.87748198722647
 21
210.5691012700028
 31
0.0
  0
LINE
  5
30E6
  8
0
 10
50.54590198722647
 20
210.5691012700028
 30
0.0
 11
50.87988683722648
 21
210.5691012700028
 31
0.0
  0
LINE
  5
30E7
  8
0
 10
50.87988683722648
 20
210.5691012700028
 30
0.0
 11
50.87988683722648
 21
210.9030851700028
 31
0.0
  0
LINE
  5
30E8
  8
0
 10
50.87988683722648
 20
210.9030851700028
 30
0.0
 11
50.54590198722647
 21
210.9030851700028
 31
0.0
  0
LINE
  5
30E9
  8
0
 10
50.54590198722647
 20
210.9030851700028
 30
0.0
 11
50.54590198722647
 21
210.5691012700028
 31
0.0
  0
LINE
  5
30EA
  8
0
 10
51.21308698722649
 20
210.5691012700028
 30
0.0
 11
53.54986848722649
 21
210.5691012700028
 31
0.0
  0
LINE
  5
30EB
  8
0
 10
53.21549698722649
 20
210.9030851700028
 30
0.0
 11
51.54707088722648
 21
210.9030851700028
 31
0.0
  0
LINE
  5
30EC
  8
0
 10
45.20509698722648
 20
210.2359362700028
 30
0.0
 11
45.53908183722649
 21
210.2359362700028
 31
0.0
  0
LINE
  5
30ED
  8
0
 10
45.53908183722649
 20
210.2359362700028
 30
0.0
 11
45.53908183722649
 21
210.5699201700027
 31
0.0
  0
LINE
  5
30EE
  8
0
 10
45.53908183722649
 20
210.5699201700027
 30
0.0
 11
45.20509698722648
 21
210.5699201700027
 31
0.0
  0
LINE
  5
30EF
  8
0
 10
45.20509698722648
 20
210.5699201700027
 30
0.0
 11
45.20509698722648
 21
210.2359362700028
 31
0.0
  0
LINE
  5
30F0
  8
0
 10
46.54032198722649
 20
210.2359362700028
 30
0.0
 11
46.87430588722648
 21
210.2359362700028
 31
0.0
  0
LINE
  5
30F1
  8
0
 10
46.87430588722648
 20
210.2359362700028
 30
0.0
 11
46.87430588722648
 21
210.5699201700027
 31
0.0
  0
LINE
  5
30F2
  8
0
 10
46.87430588722648
 20
210.5699201700027
 30
0.0
 11
46.54032198722649
 21
210.5699201700027
 31
0.0
  0
LINE
  5
30F3
  8
0
 10
46.54032198722649
 20
210.5699201700027
 30
0.0
 11
46.54032198722649
 21
210.2359362700028
 31
0.0
  0
LINE
  5
30F4
  8
0
 10
47.20750698722648
 20
210.2359362700028
 30
0.0
 11
47.5414908872265
 21
210.2359362700028
 31
0.0
  0
LINE
  5
30F5
  8
0
 10
47.5414908872265
 20
210.2359362700028
 30
0.0
 11
47.5414908872265
 21
210.5699201700027
 31
0.0
  0
LINE
  5
30F6
  8
0
 10
47.5414908872265
 20
210.5699201700027
 30
0.0
 11
47.20750698722648
 21
210.5699201700027
 31
0.0
  0
LINE
  5
30F7
  8
0
 10
47.20750698722648
 20
210.5699201700027
 30
0.0
 11
47.20750698722648
 21
210.2359362700028
 31
0.0
  0
LINE
  5
30F8
  8
0
 10
49.87748198722647
 20
210.2359362700028
 30
0.0
 11
50.2114658872265
 21
210.2359362700028
 31
0.0
  0
LINE
  5
30F9
  8
0
 10
50.2114658872265
 20
210.2359362700028
 30
0.0
 11
50.2114658872265
 21
210.5699201700027
 31
0.0
  0
LINE
  5
30FA
  8
0
 10
50.2114658872265
 20
210.5699201700027
 30
0.0
 11
49.87748198722647
 21
210.5699201700027
 31
0.0
  0
LINE
  5
30FB
  8
0
 10
49.87748198722647
 20
210.5699201700027
 30
0.0
 11
49.87748198722647
 21
210.2359362700028
 31
0.0
  0
LINE
  5
30FC
  8
0
 10
50.54590198722647
 20
210.2359362700028
 30
0.0
 11
50.87988683722648
 21
210.2359362700028
 31
0.0
  0
LINE
  5
30FD
  8
0
 10
50.87988683722648
 20
210.2359362700028
 30
0.0
 11
50.87988683722648
 21
210.5699201700027
 31
0.0
  0
LINE
  5
30FE
  8
0
 10
50.87988683722648
 20
210.5699201700027
 30
0.0
 11
50.54590198722647
 21
210.5699201700027
 31
0.0
  0
LINE
  5
30FF
  8
0
 10
50.54590198722647
 20
210.5699201700027
 30
0.0
 11
50.54590198722647
 21
210.2359362700028
 31
0.0
  0
LINE
  5
3100
  8
0
 10
42.53436198722648
 20
209.9015362700028
 30
0.0
 11
42.86871733722649
 21
209.9015362700028
 31
0.0
  0
LINE
  5
3101
  8
0
 10
42.86871733722649
 20
209.9015362700028
 30
0.0
 11
42.86871733722649
 21
210.2358916200028
 31
0.0
  0
LINE
  5
3102
  8
0
 10
42.86871733722649
 20
210.2358916200028
 30
0.0
 11
42.53436198722648
 21
210.2358916200028
 31
0.0
  0
LINE
  5
3103
  8
0
 10
42.53436198722648
 20
210.2358916200028
 30
0.0
 11
42.53436198722648
 21
209.9015362700028
 31
0.0
  0
LINE
  5
3104
  8
0
 10
44.53743698722647
 20
209.9015362700028
 30
0.0
 11
44.87142088722646
 21
209.9015362700028
 31
0.0
  0
LINE
  5
3105
  8
0
 10
44.87142088722646
 20
209.9015362700028
 30
0.0
 11
44.87142088722646
 21
210.2358916200028
 31
0.0
  0
LINE
  5
3106
  8
0
 10
44.87142088722646
 20
210.2358916200028
 30
0.0
 11
44.53743698722647
 21
210.2358916200028
 31
0.0
  0
LINE
  5
3107
  8
0
 10
44.53743698722647
 20
210.2358916200028
 30
0.0
 11
44.53743698722647
 21
209.9015362700028
 31
0.0
  0
LINE
  5
3108
  8
0
 10
45.20509698722648
 20
209.9015362700028
 30
0.0
 11
46.20668198722649
 21
209.9015362700028
 31
0.0
  0
LINE
  5
3109
  8
0
 10
46.20668198722649
 20
209.9015362700028
 30
0.0
 11
46.20668198722649
 21
210.2358916200028
 31
0.0
  0
LINE
  5
310A
  8
0
 10
46.20668198722649
 20
210.2358916200028
 30
0.0
 11
45.20509698722648
 21
210.2358916200028
 31
0.0
  0
LINE
  5
310B
  8
0
 10
45.20509698722648
 20
210.2358916200028
 30
0.0
 11
45.20509698722648
 21
209.9015362700028
 31
0.0
  0
LINE
  5
310C
  8
0
 10
46.87348698722647
 20
209.9015362700028
 30
0.0
 11
48.54266548722649
 21
209.9015362700028
 31
0.0
  0
LINE
  5
310D
  8
0
 10
48.54266548722649
 20
209.9015362700028
 30
0.0
 11
48.54266548722649
 21
210.2358916200028
 31
0.0
  0
LINE
  5
310E
  8
0
 10
48.54266548722649
 20
210.2358916200028
 30
0.0
 11
46.87348698722647
 21
210.2358916200028
 31
0.0
  0
LINE
  5
310F
  8
0
 10
46.87348698722647
 20
210.2358916200028
 30
0.0
 11
46.87348698722647
 21
209.9015362700028
 31
0.0
  0
LINE
  5
3110
  8
0
 10
49.87748198722647
 20
209.9015362700028
 30
0.0
 11
50.2114658872265
 21
209.9015362700028
 31
0.0
  0
LINE
  5
3111
  8
0
 10
50.2114658872265
 20
209.9015362700028
 30
0.0
 11
50.2114658872265
 21
210.2358916200028
 31
0.0
  0
LINE
  5
3112
  8
0
 10
50.2114658872265
 20
210.2358916200028
 30
0.0
 11
49.87748198722647
 21
210.2358916200028
 31
0.0
  0
LINE
  5
3113
  8
0
 10
49.87748198722647
 20
210.2358916200028
 30
0.0
 11
49.87748198722647
 21
209.9015362700028
 31
0.0
  0
LINE
  5
3114
  8
0
 10
50.54590198722647
 20
209.9015362700028
 30
0.0
 11
51.54711648722648
 21
209.9015362700028
 31
0.0
  0
LINE
  5
3115
  8
0
 10
51.54711648722648
 20
209.9015362700028
 30
0.0
 11
51.54711648722648
 21
210.2358916200028
 31
0.0
  0
LINE
  5
3116
  8
0
 10
51.54711648722648
 20
210.2358916200028
 30
0.0
 11
50.54590198722647
 21
210.2358916200028
 31
0.0
  0
LINE
  5
3117
  8
0
 10
50.54590198722647
 20
210.2358916200028
 30
0.0
 11
50.54590198722647
 21
209.9015362700028
 31
0.0
  0
LINE
  5
3118
  8
0
 10
52.21391198722648
 20
209.9015362700028
 30
0.0
 11
53.21549698722649
 21
209.9015362700028
 31
0.0
  0
LINE
  5
3119
  8
0
 10
53.21549698722649
 20
209.9015362700028
 30
0.0
 11
53.21549698722649
 21
210.2358916200028
 31
0.0
  0
LINE
  5
311A
  8
0
 10
53.21549698722649
 20
210.2358916200028
 30
0.0
 11
52.21391198722648
 21
210.2358916200028
 31
0.0
  0
LINE
  5
311B
  8
0
 10
52.21391198722648
 20
210.2358916200028
 30
0.0
 11
52.21391198722648
 21
209.9015362700028
 31
0.0
  0
LINE
  5
311C
  8
0
 10
42.53436198722648
 20
209.5682762700028
 30
0.0
 11
42.86871733722649
 21
209.5682762700028
 31
0.0
  0
LINE
  5
311D
  8
0
 10
42.86871733722649
 20
209.5682762700028
 30
0.0
 11
42.86871733722649
 21
209.9022611200027
 31
0.0
  0
LINE
  5
311E
  8
0
 10
42.86871733722649
 20
209.9022611200027
 30
0.0
 11
42.53436198722648
 21
209.9022611200027
 31
0.0
  0
LINE
  5
311F
  8
0
 10
42.53436198722648
 20
209.9022611200027
 30
0.0
 11
42.53436198722648
 21
209.5682762700028
 31
0.0
  0
LINE
  5
3120
  8
0
 10
44.20351198722648
 20
209.5682762700028
 30
0.0
 11
44.53749683722648
 21
209.5682762700028
 31
0.0
  0
LINE
  5
3121
  8
0
 10
44.53749683722648
 20
209.5682762700028
 30
0.0
 11
44.53749683722648
 21
209.9022611200027
 31
0.0
  0
LINE
  5
3122
  8
0
 10
44.53749683722648
 20
209.9022611200027
 30
0.0
 11
44.20351198722648
 21
209.9022611200027
 31
0.0
  0
LINE
  5
3123
  8
0
 10
44.20351198722648
 20
209.9022611200027
 30
0.0
 11
44.20351198722648
 21
209.5682762700028
 31
0.0
  0
LINE
  5
3124
  8
0
 10
45.20509698722648
 20
209.5682762700028
 30
0.0
 11
45.53908183722649
 21
209.5682762700028
 31
0.0
  0
LINE
  5
3125
  8
0
 10
45.53908183722649
 20
209.5682762700028
 30
0.0
 11
45.53908183722649
 21
209.9022611200027
 31
0.0
  0
LINE
  5
3126
  8
0
 10
45.53908183722649
 20
209.9022611200027
 30
0.0
 11
45.20509698722648
 21
209.9022611200027
 31
0.0
  0
LINE
  5
3127
  8
0
 10
45.20509698722648
 20
209.9022611200027
 30
0.0
 11
45.20509698722648
 21
209.5682762700028
 31
0.0
  0
LINE
  5
3128
  8
0
 10
45.87266198722648
 20
209.5682762700028
 30
0.0
 11
46.87387648722648
 21
209.5682762700028
 31
0.0
  0
LINE
  5
3129
  8
0
 10
46.87387648722648
 20
209.5682762700028
 30
0.0
 11
46.87387648722648
 21
209.9022611200027
 31
0.0
  0
LINE
  5
312A
  8
0
 10
46.87387648722648
 20
209.9022611200027
 30
0.0
 11
45.87266198722648
 21
209.9022611200027
 31
0.0
  0
LINE
  5
312B
  8
0
 10
45.87266198722648
 20
209.9022611200027
 30
0.0
 11
45.87266198722648
 21
209.5682762700028
 31
0.0
  0
LINE
  5
312C
  8
0
 10
47.54152698722649
 20
209.5682762700028
 30
0.0
 11
47.8758823372265
 21
209.5682762700028
 31
0.0
  0
LINE
  5
312D
  8
0
 10
47.8758823372265
 20
209.5682762700028
 30
0.0
 11
47.8758823372265
 21
209.9022611200027
 31
0.0
  0
LINE
  5
312E
  8
0
 10
47.8758823372265
 20
209.9022611200027
 30
0.0
 11
47.54152698722649
 21
209.9022611200027
 31
0.0
  0
LINE
  5
312F
  8
0
 10
47.54152698722649
 20
209.9022611200027
 30
0.0
 11
47.54152698722649
 21
209.5682762700028
 31
0.0
  0
LINE
  5
3130
  8
0
 10
48.54273198722649
 20
209.5682762700028
 30
0.0
 11
49.2099587872265
 21
209.5682762700028
 31
0.0
  0
LINE
  5
3131
  8
0
 10
49.2099587872265
 20
209.5682762700028
 30
0.0
 11
49.2099587872265
 21
209.9022611200027
 31
0.0
  0
LINE
  5
3132
  8
0
 10
49.2099587872265
 20
209.9022611200027
 30
0.0
 11
48.54273198722649
 21
209.9022611200027
 31
0.0
  0
LINE
  5
3133
  8
0
 10
48.54273198722649
 20
209.9022611200027
 30
0.0
 11
48.54273198722649
 21
209.5682762700028
 31
0.0
  0
LINE
  5
3134
  8
0
 10
49.54431698722647
 20
209.5682762700028
 30
0.0
 11
50.54590198722647
 21
209.5682762700028
 31
0.0
  0
LINE
  5
3135
  8
0
 10
50.54590198722647
 20
209.5682762700028
 30
0.0
 11
50.54590198722647
 21
209.9022611200027
 31
0.0
  0
LINE
  5
3136
  8
0
 10
50.54590198722647
 20
209.9022611200027
 30
0.0
 11
49.54431698722647
 21
209.9022611200027
 31
0.0
  0
LINE
  5
3137
  8
0
 10
49.54431698722647
 20
209.9022611200027
 30
0.0
 11
49.54431698722647
 21
209.5682762700028
 31
0.0
  0
LINE
  5
3138
  8
0
 10
51.88065198722649
 20
209.5682762700028
 30
0.0
 11
52.88223698722646
 21
209.5682762700028
 31
0.0
  0
LINE
  5
3139
  8
0
 10
52.88223698722646
 20
209.5682762700028
 30
0.0
 11
52.88223698722646
 21
209.9022611200027
 31
0.0
  0
LINE
  5
313A
  8
0
 10
52.88223698722646
 20
209.9022611200027
 30
0.0
 11
51.88065198722649
 21
209.9022611200027
 31
0.0
  0
LINE
  5
313B
  8
0
 10
51.88065198722649
 20
209.9022611200027
 30
0.0
 11
51.88065198722649
 21
209.5682762700028
 31
0.0
  0
LINE
  5
313C
  8
0
 10
43.20192698722647
 20
209.2343512700027
 30
0.0
 11
43.53628328722647
 21
209.2343512700027
 31
0.0
  0
LINE
  5
313D
  8
0
 10
43.53628328722647
 20
209.2343512700027
 30
0.0
 11
43.53628328722647
 21
209.5683351700028
 31
0.0
  0
LINE
  5
313E
  8
0
 10
43.53628328722647
 20
209.5683351700028
 30
0.0
 11
43.20192698722647
 21
209.5683351700028
 31
0.0
  0
LINE
  5
313F
  8
0
 10
43.20192698722647
 20
209.5683351700028
 30
0.0
 11
43.20192698722647
 21
209.2343512700027
 31
0.0
  0
LINE
  5
3140
  8
0
 10
43.8694919872265
 20
209.2343512700027
 30
0.0
 11
45.20468848722646
 21
209.2343512700027
 31
0.0
  0
LINE
  5
3141
  8
0
 10
45.20468848722646
 20
209.2343512700027
 30
0.0
 11
45.20468848722646
 21
209.5683351700028
 31
0.0
  0
LINE
  5
3142
  8
0
 10
45.20468848722646
 20
209.5683351700028
 30
0.0
 11
43.8694919872265
 21
209.5683351700028
 31
0.0
  0
LINE
  5
3143
  8
0
 10
43.8694919872265
 20
209.5683351700028
 30
0.0
 11
43.8694919872265
 21
209.2343512700027
 31
0.0
  0
LINE
  5
3144
  8
0
 10
45.53873698722646
 20
209.2343512700027
 30
0.0
 11
46.20596378722649
 21
209.2343512700027
 31
0.0
  0
LINE
  5
3145
  8
0
 10
46.20596378722649
 20
209.2343512700027
 30
0.0
 11
46.20596378722649
 21
209.5683351700028
 31
0.0
  0
LINE
  5
3146
  8
0
 10
46.20596378722649
 20
209.5683351700028
 30
0.0
 11
45.53873698722646
 21
209.5683351700028
 31
0.0
  0
LINE
  5
3147
  8
0
 10
45.53873698722646
 20
209.5683351700028
 30
0.0
 11
45.53873698722646
 21
209.2343512700027
 31
0.0
  0
LINE
  5
3148
  8
0
 10
46.54032198722649
 20
209.2343512700027
 30
0.0
 11
46.87430588722648
 21
209.2343512700027
 31
0.0
  0
LINE
  5
3149
  8
0
 10
46.87430588722648
 20
209.2343512700027
 30
0.0
 11
46.87430588722648
 21
209.5683351700028
 31
0.0
  0
LINE
  5
314A
  8
0
 10
46.87430588722648
 20
209.5683351700028
 30
0.0
 11
46.54032198722649
 21
209.5683351700028
 31
0.0
  0
LINE
  5
314B
  8
0
 10
46.54032198722649
 20
209.5683351700028
 30
0.0
 11
46.54032198722649
 21
209.2343512700027
 31
0.0
  0
LINE
  5
314C
  8
0
 10
47.54152698722649
 20
209.2343512700027
 30
0.0
 11
47.8758823372265
 21
209.2343512700027
 31
0.0
  0
LINE
  5
314D
  8
0
 10
47.8758823372265
 20
209.2343512700027
 30
0.0
 11
47.8758823372265
 21
209.5683351700028
 31
0.0
  0
LINE
  5
314E
  8
0
 10
47.8758823372265
 20
209.5683351700028
 30
0.0
 11
47.54152698722649
 21
209.5683351700028
 31
0.0
  0
LINE
  5
314F
  8
0
 10
47.54152698722649
 20
209.5683351700028
 30
0.0
 11
47.54152698722649
 21
209.2343512700027
 31
0.0
  0
LINE
  5
3150
  8
0
 10
48.54273198722649
 20
209.2343512700027
 30
0.0
 11
48.87671683722647
 21
209.2343512700027
 31
0.0
  0
LINE
  5
3151
  8
0
 10
48.87671683722647
 20
209.2343512700027
 30
0.0
 11
48.87671683722647
 21
209.5683351700028
 31
0.0
  0
LINE
  5
3152
  8
0
 10
48.87671683722647
 20
209.5683351700028
 30
0.0
 11
48.54273198722649
 21
209.5683351700028
 31
0.0
  0
LINE
  5
3153
  8
0
 10
48.54273198722649
 20
209.5683351700028
 30
0.0
 11
48.54273198722649
 21
209.2343512700027
 31
0.0
  0
LINE
  5
3154
  8
0
 10
49.20991698722648
 20
209.2343512700027
 30
0.0
 11
49.54427233722649
 21
209.2343512700027
 31
0.0
  0
LINE
  5
3155
  8
0
 10
49.54427233722649
 20
209.2343512700027
 30
0.0
 11
49.54427233722649
 21
209.5683351700028
 31
0.0
  0
LINE
  5
3156
  8
0
 10
49.54427233722649
 20
209.5683351700028
 30
0.0
 11
49.20991698722648
 21
209.5683351700028
 31
0.0
  0
LINE
  5
3157
  8
0
 10
49.20991698722648
 20
209.5683351700028
 30
0.0
 11
49.20991698722648
 21
209.2343512700027
 31
0.0
  0
LINE
  5
3158
  8
0
 10
49.87748198722647
 20
209.2343512700027
 30
0.0
 11
50.2114658872265
 21
209.2343512700027
 31
0.0
  0
LINE
  5
3159
  8
0
 10
50.2114658872265
 20
209.2343512700027
 30
0.0
 11
50.2114658872265
 21
209.5683351700028
 31
0.0
  0
LINE
  5
315A
  8
0
 10
50.2114658872265
 20
209.5683351700028
 30
0.0
 11
49.87748198722647
 21
209.5683351700028
 31
0.0
  0
LINE
  5
315B
  8
0
 10
49.87748198722647
 20
209.5683351700028
 30
0.0
 11
49.87748198722647
 21
209.2343512700027
 31
0.0
  0
LINE
  5
315C
  8
0
 10
50.54590198722647
 20
209.2343512700027
 30
0.0
 11
51.54711648722648
 21
209.2343512700027
 31
0.0
  0
LINE
  5
315D
  8
0
 10
51.54711648722648
 20
209.2343512700027
 30
0.0
 11
51.54711648722648
 21
209.5683351700028
 31
0.0
  0
LINE
  5
315E
  8
0
 10
51.54711648722648
 20
209.5683351700028
 30
0.0
 11
50.54590198722647
 21
209.5683351700028
 31
0.0
  0
LINE
  5
315F
  8
0
 10
50.54590198722647
 20
209.5683351700028
 30
0.0
 11
50.54590198722647
 21
209.2343512700027
 31
0.0
  0
LINE
  5
3160
  8
0
 10
51.88065198722649
 20
209.2343512700027
 30
0.0
 11
52.21463683722646
 21
209.2343512700027
 31
0.0
  0
LINE
  5
3161
  8
0
 10
52.21463683722646
 20
209.2343512700027
 30
0.0
 11
52.21463683722646
 21
209.5683351700028
 31
0.0
  0
LINE
  5
3162
  8
0
 10
52.21463683722646
 20
209.5683351700028
 30
0.0
 11
51.88065198722649
 21
209.5683351700028
 31
0.0
  0
LINE
  5
3163
  8
0
 10
51.88065198722649
 20
209.5683351700028
 30
0.0
 11
51.88065198722649
 21
209.2343512700027
 31
0.0
  0
LINE
  5
3164
  8
0
 10
52.54831198722647
 20
209.2343512700027
 30
0.0
 11
53.21553783722649
 21
209.2343512700027
 31
0.0
  0
LINE
  5
3165
  8
0
 10
53.21553783722649
 20
209.2343512700027
 30
0.0
 11
53.21553783722649
 21
209.5683351700028
 31
0.0
  0
LINE
  5
3166
  8
0
 10
53.21553783722649
 20
209.5683351700028
 30
0.0
 11
52.54831198722647
 21
209.5683351700028
 31
0.0
  0
LINE
  5
3167
  8
0
 10
52.54831198722647
 20
209.5683351700028
 30
0.0
 11
52.54831198722647
 21
209.2343512700027
 31
0.0
  0
LINE
  5
3168
  8
0
 10
42.53436198722648
 20
208.8999512700028
 30
0.0
 11
43.20195928722646
 21
208.8999512700028
 31
0.0
  0
LINE
  5
3169
  8
0
 10
43.20195928722646
 20
208.8999512700028
 30
0.0
 11
43.20195928722646
 21
209.2343066200028
 31
0.0
  0
LINE
  5
316A
  8
0
 10
43.20195928722646
 20
209.2343066200028
 30
0.0
 11
42.53436198722648
 21
209.2343066200028
 31
0.0
  0
LINE
  5
316B
  8
0
 10
42.53436198722648
 20
209.2343066200028
 30
0.0
 11
42.53436198722648
 21
208.8999512700028
 31
0.0
  0
LINE
  5
316C
  8
0
 10
43.53585198722649
 20
208.8999512700028
 30
0.0
 11
44.20344928722648
 21
208.8999512700028
 31
0.0
  0
LINE
  5
316D
  8
0
 10
44.20344928722648
 20
208.8999512700028
 30
0.0
 11
44.20344928722648
 21
209.2343066200028
 31
0.0
  0
LINE
  5
316E
  8
0
 10
44.20344928722648
 20
209.2343066200028
 30
0.0
 11
43.53585198722649
 21
209.2343066200028
 31
0.0
  0
LINE
  5
316F
  8
0
 10
43.53585198722649
 20
209.2343066200028
 30
0.0
 11
43.53585198722649
 21
208.8999512700028
 31
0.0
  0
LINE
  5
3170
  8
0
 10
44.87107698722647
 20
208.8999512700028
 30
0.0
 11
45.20506088722647
 21
208.8999512700028
 31
0.0
  0
LINE
  5
3171
  8
0
 10
45.20506088722647
 20
208.8999512700028
 30
0.0
 11
45.20506088722647
 21
209.2343066200028
 31
0.0
  0
LINE
  5
3172
  8
0
 10
45.20506088722647
 20
209.2343066200028
 30
0.0
 11
44.87107698722647
 21
209.2343066200028
 31
0.0
  0
LINE
  5
3173
  8
0
 10
44.87107698722647
 20
209.2343066200028
 30
0.0
 11
44.87107698722647
 21
208.8999512700028
 31
0.0
  0
LINE
  5
3174
  8
0
 10
45.87266198722648
 20
208.8999512700028
 30
0.0
 11
46.53988783722647
 21
208.8999512700028
 31
0.0
  0
LINE
  5
3175
  8
0
 10
46.53988783722647
 20
208.8999512700028
 30
0.0
 11
46.53988783722647
 21
209.2343066200028
 31
0.0
  0
LINE
  5
3176
  8
0
 10
46.53988783722647
 20
209.2343066200028
 30
0.0
 11
45.87266198722648
 21
209.2343066200028
 31
0.0
  0
LINE
  5
3177
  8
0
 10
45.87266198722648
 20
209.2343066200028
 30
0.0
 11
45.87266198722648
 21
208.8999512700028
 31
0.0
  0
LINE
  5
3178
  8
0
 10
47.20750698722648
 20
208.8999512700028
 30
0.0
 11
47.87510428722649
 21
208.8999512700028
 31
0.0
  0
LINE
  5
3179
  8
0
 10
47.87510428722649
 20
208.8999512700028
 30
0.0
 11
47.87510428722649
 21
209.2343066200028
 31
0.0
  0
LINE
  5
317A
  8
0
 10
47.87510428722649
 20
209.2343066200028
 30
0.0
 11
47.20750698722648
 21
209.2343066200028
 31
0.0
  0
LINE
  5
317B
  8
0
 10
47.20750698722648
 20
209.2343066200028
 30
0.0
 11
47.20750698722648
 21
208.8999512700028
 31
0.0
  0
LINE
  5
317C
  8
0
 10
48.87665698722648
 20
208.8999512700028
 30
0.0
 11
49.54425428722647
 21
208.8999512700028
 31
0.0
  0
LINE
  5
317D
  8
0
 10
49.54425428722647
 20
208.8999512700028
 30
0.0
 11
49.54425428722647
 21
209.2343066200028
 31
0.0
  0
LINE
  5
317E
  8
0
 10
49.54425428722647
 20
209.2343066200028
 30
0.0
 11
48.87665698722648
 21
209.2343066200028
 31
0.0
  0
LINE
  5
317F
  8
0
 10
48.87665698722648
 20
209.2343066200028
 30
0.0
 11
48.87665698722648
 21
208.8999512700028
 31
0.0
  0
LINE
  5
3180
  8
0
 10
49.87748198722647
 20
208.8999512700028
 30
0.0
 11
50.54507928722649
 21
208.8999512700028
 31
0.0
  0
LINE
  5
3181
  8
0
 10
50.54507928722649
 20
208.8999512700028
 30
0.0
 11
50.54507928722649
 21
209.2343066200028
 31
0.0
  0
LINE
  5
3182
  8
0
 10
50.54507928722649
 20
209.2343066200028
 30
0.0
 11
49.87748198722647
 21
209.2343066200028
 31
0.0
  0
LINE
  5
3183
  8
0
 10
49.87748198722647
 20
209.2343066200028
 30
0.0
 11
49.87748198722647
 21
208.8999512700028
 31
0.0
  0
LINE
  5
3184
  8
0
 10
50.87906698722648
 20
208.8999512700028
 30
0.0
 11
51.21305183722649
 21
208.8999512700028
 31
0.0
  0
LINE
  5
3185
  8
0
 10
51.21305183722649
 20
208.8999512700028
 30
0.0
 11
51.21305183722649
 21
209.2343066200028
 31
0.0
  0
LINE
  5
3186
  8
0
 10
51.21305183722649
 20
209.2343066200028
 30
0.0
 11
50.87906698722648
 21
209.2343066200028
 31
0.0
  0
LINE
  5
3187
  8
0
 10
50.87906698722648
 20
209.2343066200028
 30
0.0
 11
50.87906698722648
 21
208.8999512700028
 31
0.0
  0
LINE
  5
3188
  8
0
 10
51.54672698722646
 20
208.8999512700028
 30
0.0
 11
53.54914648722649
 21
208.8999512700028
 31
0.0
  0
LINE
  5
3189
  8
0
 10
53.54914648722649
 20
208.8999512700028
 30
0.0
 11
53.54914648722649
 21
209.2343066200028
 31
0.0
  0
LINE
  5
318A
  8
0
 10
53.54914648722649
 20
209.2343066200028
 30
0.0
 11
51.54672698722646
 21
209.2343066200028
 31
0.0
  0
LINE
  5
318B
  8
0
 10
51.54672698722646
 20
209.2343066200028
 30
0.0
 11
51.54672698722646
 21
208.8999512700028
 31
0.0
  0
LINE
  5
318C
  8
0
 10
42.86866698722648
 20
208.5666912700028
 30
0.0
 11
43.20265183722648
 21
208.5666912700028
 31
0.0
  0
LINE
  5
318D
  8
0
 10
43.20265183722648
 20
208.5666912700028
 30
0.0
 11
43.20265183722648
 21
208.9006761200028
 31
0.0
  0
LINE
  5
318E
  8
0
 10
43.20265183722648
 20
208.9006761200028
 30
0.0
 11
42.86866698722648
 21
208.9006761200028
 31
0.0
  0
LINE
  5
318F
  8
0
 10
42.86866698722648
 20
208.9006761200028
 30
0.0
 11
42.86866698722648
 21
208.5666912700028
 31
0.0
  0
LINE
  5
3190
  8
0
 10
43.53585198722649
 20
208.5666912700028
 30
0.0
 11
43.86983588722649
 21
208.5666912700028
 31
0.0
  0
LINE
  5
3191
  8
0
 10
43.86983588722649
 20
208.5666912700028
 30
0.0
 11
43.86983588722649
 21
208.9006761200028
 31
0.0
  0
LINE
  5
3192
  8
0
 10
43.86983588722649
 20
208.9006761200028
 30
0.0
 11
43.53585198722649
 21
208.9006761200028
 31
0.0
  0
LINE
  5
3193
  8
0
 10
43.53585198722649
 20
208.9006761200028
 30
0.0
 11
43.53585198722649
 21
208.5666912700028
 31
0.0
  0
LINE
  5
3194
  8
0
 10
44.53743698722647
 20
208.5666912700028
 30
0.0
 11
45.53902198722648
 21
208.5666912700028
 31
0.0
  0
LINE
  5
3195
  8
0
 10
45.53902198722648
 20
208.5666912700028
 30
0.0
 11
45.53902198722648
 21
208.9006761200028
 31
0.0
  0
LINE
  5
3196
  8
0
 10
45.53902198722648
 20
208.9006761200028
 30
0.0
 11
44.53743698722647
 21
208.9006761200028
 31
0.0
  0
LINE
  5
3197
  8
0
 10
44.53743698722647
 20
208.9006761200028
 30
0.0
 11
44.53743698722647
 21
208.5666912700028
 31
0.0
  0
LINE
  5
3198
  8
0
 10
46.87348698722647
 20
208.5666912700028
 30
0.0
 11
47.5410852372265
 21
208.5666912700028
 31
0.0
  0
LINE
  5
3199
  8
0
 10
47.5410852372265
 20
208.5666912700028
 30
0.0
 11
47.5410852372265
 21
208.9006761200028
 31
0.0
  0
LINE
  5
319A
  8
0
 10
47.5410852372265
 20
208.9006761200028
 30
0.0
 11
46.87348698722647
 21
208.9006761200028
 31
0.0
  0
LINE
  5
319B
  8
0
 10
46.87348698722647
 20
208.9006761200028
 30
0.0
 11
46.87348698722647
 21
208.5666912700028
 31
0.0
  0
LINE
  5
319C
  8
0
 10
47.87507198722648
 20
208.5666912700028
 30
0.0
 11
48.87665698722648
 21
208.5666912700028
 31
0.0
  0
LINE
  5
319D
  8
0
 10
48.87665698722648
 20
208.5666912700028
 30
0.0
 11
48.87665698722648
 21
208.9006761200028
 31
0.0
  0
LINE
  5
319E
  8
0
 10
48.87665698722648
 20
208.9006761200028
 30
0.0
 11
47.87507198722648
 21
208.9006761200028
 31
0.0
  0
LINE
  5
319F
  8
0
 10
47.87507198722648
 20
208.9006761200028
 30
0.0
 11
47.87507198722648
 21
208.5666912700028
 31
0.0
  0
LINE
  5
31A0
  8
0
 10
49.20991698722648
 20
208.5666912700028
 30
0.0
 11
50.21150198722648
 21
208.5666912700028
 31
0.0
  0
LINE
  5
31A1
  8
0
 10
50.21150198722648
 20
208.5666912700028
 30
0.0
 11
50.21150198722648
 21
208.9006761200028
 31
0.0
  0
LINE
  5
31A2
  8
0
 10
50.21150198722648
 20
208.9006761200028
 30
0.0
 11
49.20991698722648
 21
208.9006761200028
 31
0.0
  0
LINE
  5
31A3
  8
0
 10
49.20991698722648
 20
208.9006761200028
 30
0.0
 11
49.20991698722648
 21
208.5666912700028
 31
0.0
  0
LINE
  5
31A4
  8
0
 10
50.54590198722647
 20
208.5666912700028
 30
0.0
 11
50.87988683722648
 21
208.5666912700028
 31
0.0
  0
LINE
  5
31A5
  8
0
 10
50.87988683722648
 20
208.5666912700028
 30
0.0
 11
50.87988683722648
 21
208.9006761200028
 31
0.0
  0
LINE
  5
31A6
  8
0
 10
50.87988683722648
 20
208.9006761200028
 30
0.0
 11
50.54590198722647
 21
208.9006761200028
 31
0.0
  0
LINE
  5
31A7
  8
0
 10
50.54590198722647
 20
208.9006761200028
 30
0.0
 11
50.54590198722647
 21
208.5666912700028
 31
0.0
  0
LINE
  5
31A8
  8
0
 10
51.21308698722649
 20
208.5666912700028
 30
0.0
 11
51.88068428722647
 21
208.5666912700028
 31
0.0
  0
LINE
  5
31A9
  8
0
 10
51.88068428722647
 20
208.5666912700028
 30
0.0
 11
51.88068428722647
 21
208.9006761200028
 31
0.0
  0
LINE
  5
31AA
  8
0
 10
51.88068428722647
 20
208.9006761200028
 30
0.0
 11
51.21308698722649
 21
208.9006761200028
 31
0.0
  0
LINE
  5
31AB
  8
0
 10
51.21308698722649
 20
208.9006761200028
 30
0.0
 11
51.21308698722649
 21
208.5666912700028
 31
0.0
  0
LINE
  5
31AC
  8
0
 10
42.53436198722648
 20
208.2327662700028
 30
0.0
 11
43.20195928722646
 21
208.2327662700028
 31
0.0
  0
LINE
  5
31AD
  8
0
 10
43.20195928722646
 20
208.2327662700028
 30
0.0
 11
43.20195928722646
 21
208.5667501700028
 31
0.0
  0
LINE
  5
31AE
  8
0
 10
43.20195928722646
 20
208.5667501700028
 30
0.0
 11
42.53436198722648
 21
208.5667501700028
 31
0.0
  0
LINE
  5
31AF
  8
0
 10
42.53436198722648
 20
208.5667501700028
 30
0.0
 11
42.53436198722648
 21
208.2327662700028
 31
0.0
  0
LINE
  5
31B0
  8
0
 10
43.53585198722649
 20
208.2327662700028
 30
0.0
 11
44.20344928722648
 21
208.2327662700028
 31
0.0
  0
LINE
  5
31B1
  8
0
 10
44.20344928722648
 20
208.2327662700028
 30
0.0
 11
44.20344928722648
 21
208.5667501700028
 31
0.0
  0
LINE
  5
31B2
  8
0
 10
44.20344928722648
 20
208.5667501700028
 30
0.0
 11
43.53585198722649
 21
208.5667501700028
 31
0.0
  0
LINE
  5
31B3
  8
0
 10
43.53585198722649
 20
208.5667501700028
 30
0.0
 11
43.53585198722649
 21
208.2327662700028
 31
0.0
  0
LINE
  5
31B4
  8
0
 10
44.87107698722647
 20
208.2327662700028
 30
0.0
 11
45.53867428722646
 21
208.2327662700028
 31
0.0
  0
LINE
  5
31B5
  8
0
 10
45.53867428722646
 20
208.2327662700028
 30
0.0
 11
45.53867428722646
 21
208.5667501700028
 31
0.0
  0
LINE
  5
31B6
  8
0
 10
45.53867428722646
 20
208.5667501700028
 30
0.0
 11
44.87107698722647
 21
208.5667501700028
 31
0.0
  0
LINE
  5
31B7
  8
0
 10
44.87107698722647
 20
208.5667501700028
 30
0.0
 11
44.87107698722647
 21
208.2327662700028
 31
0.0
  0
LINE
  5
31B8
  8
0
 10
46.20592198722647
 20
208.2327662700028
 30
0.0
 11
46.87351928722649
 21
208.2327662700028
 31
0.0
  0
LINE
  5
31B9
  8
0
 10
46.87351928722649
 20
208.2327662700028
 30
0.0
 11
46.87351928722649
 21
208.5667501700028
 31
0.0
  0
LINE
  5
31BA
  8
0
 10
46.87351928722649
 20
208.5667501700028
 30
0.0
 11
46.20592198722647
 21
208.5667501700028
 31
0.0
  0
LINE
  5
31BB
  8
0
 10
46.20592198722647
 20
208.5667501700028
 30
0.0
 11
46.20592198722647
 21
208.2327662700028
 31
0.0
  0
LINE
  5
31BC
  8
0
 10
47.20750698722648
 20
208.2327662700028
 30
0.0
 11
47.5414908872265
 21
208.2327662700028
 31
0.0
  0
LINE
  5
31BD
  8
0
 10
47.5414908872265
 20
208.2327662700028
 30
0.0
 11
47.5414908872265
 21
208.5667501700028
 31
0.0
  0
LINE
  5
31BE
  8
0
 10
47.5414908872265
 20
208.5667501700028
 30
0.0
 11
47.20750698722648
 21
208.5667501700028
 31
0.0
  0
LINE
  5
31BF
  8
0
 10
47.20750698722648
 20
208.5667501700028
 30
0.0
 11
47.20750698722648
 21
208.2327662700028
 31
0.0
  0
LINE
  5
31C0
  8
0
 10
47.87507198722648
 20
208.2327662700028
 30
0.0
 11
48.54266928722649
 21
208.2327662700028
 31
0.0
  0
LINE
  5
31C1
  8
0
 10
48.54266928722649
 20
208.2327662700028
 30
0.0
 11
48.54266928722649
 21
208.5667501700028
 31
0.0
  0
LINE
  5
31C2
  8
0
 10
48.54266928722649
 20
208.5667501700028
 30
0.0
 11
47.87507198722648
 21
208.5667501700028
 31
0.0
  0
LINE
  5
31C3
  8
0
 10
47.87507198722648
 20
208.5667501700028
 30
0.0
 11
47.87507198722648
 21
208.2327662700028
 31
0.0
  0
LINE
  5
31C4
  8
0
 10
49.20991698722648
 20
208.2327662700028
 30
0.0
 11
49.87751523722648
 21
208.2327662700028
 31
0.0
  0
LINE
  5
31C5
  8
0
 10
49.87751523722648
 20
208.2327662700028
 30
0.0
 11
49.87751523722648
 21
208.5667501700028
 31
0.0
  0
LINE
  5
31C6
  8
0
 10
49.87751523722648
 20
208.5667501700028
 30
0.0
 11
49.20991698722648
 21
208.5667501700028
 31
0.0
  0
LINE
  5
31C7
  8
0
 10
49.20991698722648
 20
208.5667501700028
 30
0.0
 11
49.20991698722648
 21
208.2327662700028
 31
0.0
  0
LINE
  5
31C8
  8
0
 10
50.21150198722648
 20
208.2327662700028
 30
0.0
 11
50.54585733722649
 21
208.2327662700028
 31
0.0
  0
LINE
  5
31C9
  8
0
 10
50.54585733722649
 20
208.2327662700028
 30
0.0
 11
50.54585733722649
 21
208.5667501700028
 31
0.0
  0
LINE
  5
31CA
  8
0
 10
50.54585733722649
 20
208.5667501700028
 30
0.0
 11
50.21150198722648
 21
208.5667501700028
 31
0.0
  0
LINE
  5
31CB
  8
0
 10
50.21150198722648
 20
208.5667501700028
 30
0.0
 11
50.21150198722648
 21
208.2327662700028
 31
0.0
  0
LINE
  5
31CC
  8
0
 10
51.21308698722649
 20
208.2327662700028
 30
0.0
 11
51.54707088722648
 21
208.2327662700028
 31
0.0
  0
LINE
  5
31CD
  8
0
 10
51.54707088722648
 20
208.2327662700028
 30
0.0
 11
51.54707088722648
 21
208.5667501700028
 31
0.0
  0
LINE
  5
31CE
  8
0
 10
51.54707088722648
 20
208.5667501700028
 30
0.0
 11
51.21308698722649
 21
208.5667501700028
 31
0.0
  0
LINE
  5
31CF
  8
0
 10
51.21308698722649
 20
208.5667501700028
 30
0.0
 11
51.21308698722649
 21
208.2327662700028
 31
0.0
  0
LINE
  5
31D0
  8
0
 10
52.21391198722648
 20
208.2327662700028
 30
0.0
 11
53.54910848722648
 21
208.2327662700028
 31
0.0
  0
LINE
  5
31D1
  8
0
 10
53.54910848722648
 20
208.2327662700028
 30
0.0
 11
53.54910848722648
 21
208.5667501700028
 31
0.0
  0
LINE
  5
31D2
  8
0
 10
53.54910848722648
 20
208.5667501700028
 30
0.0
 11
52.21391198722648
 21
208.5667501700028
 31
0.0
  0
LINE
  5
31D3
  8
0
 10
52.21391198722648
 20
208.5667501700028
 30
0.0
 11
52.21391198722648
 21
208.2327662700028
 31
0.0
  0
LINE
  5
31D4
  8
0
 10
42.86866698722648
 20
207.8991262700028
 30
0.0
 11
46.20665348722648
 21
207.8991262700028
 31
0.0
  0
LINE
  5
31D5
  8
0
 10
46.20665348722648
 20
207.8991262700028
 30
0.0
 11
46.20665348722648
 21
208.2331111200027
 31
0.0
  0
LINE
  5
31D6
  8
0
 10
46.20665348722648
 20
208.2331111200027
 30
0.0
 11
42.86866698722648
 21
208.2331111200027
 31
0.0
  0
LINE
  5
31D7
  8
0
 10
42.86866698722648
 20
208.2331111200027
 30
0.0
 11
42.86866698722648
 21
207.8991262700028
 31
0.0
  0
LINE
  5
31D8
  8
0
 10
46.87348698722647
 20
207.8991262700028
 30
0.0
 11
47.20747183722648
 21
207.8991262700028
 31
0.0
  0
LINE
  5
31D9
  8
0
 10
47.20747183722648
 20
207.8991262700028
 30
0.0
 11
47.20747183722648
 21
208.2331111200027
 31
0.0
  0
LINE
  5
31DA
  8
0
 10
47.20747183722648
 20
208.2331111200027
 30
0.0
 11
46.87348698722647
 21
208.2331111200027
 31
0.0
  0
LINE
  5
31DB
  8
0
 10
46.87348698722647
 20
208.2331111200027
 30
0.0
 11
46.87348698722647
 21
207.8991262700028
 31
0.0
  0
LINE
  5
31DC
  8
0
 10
48.20909198722649
 20
207.8991262700028
 30
0.0
 11
48.54307588722648
 21
207.8991262700028
 31
0.0
  0
LINE
  5
31DD
  8
0
 10
48.54307588722648
 20
207.8991262700028
 30
0.0
 11
48.54307588722648
 21
208.2331111200027
 31
0.0
  0
LINE
  5
31DE
  8
0
 10
48.54307588722648
 20
208.2331111200027
 30
0.0
 11
48.20909198722649
 21
208.2331111200027
 31
0.0
  0
LINE
  5
31DF
  8
0
 10
48.20909198722649
 20
208.2331111200027
 30
0.0
 11
48.20909198722649
 21
207.8991262700028
 31
0.0
  0
LINE
  5
31E0
  8
0
 10
48.87665698722648
 20
207.8991262700028
 30
0.0
 11
49.21064088722648
 21
207.8991262700028
 31
0.0
  0
LINE
  5
31E1
  8
0
 10
49.21064088722648
 20
207.8991262700028
 30
0.0
 11
49.21064088722648
 21
208.2331111200027
 31
0.0
  0
LINE
  5
31E2
  8
0
 10
49.21064088722648
 20
208.2331111200027
 30
0.0
 11
48.87665698722648
 21
208.2331111200027
 31
0.0
  0
LINE
  5
31E3
  8
0
 10
48.87665698722648
 20
208.2331111200027
 30
0.0
 11
48.87665698722648
 21
207.8991262700028
 31
0.0
  0
LINE
  5
31E4
  8
0
 10
50.87906698722648
 20
207.8991262700028
 30
0.0
 11
51.54666523722648
 21
207.8991262700028
 31
0.0
  0
LINE
  5
31E5
  8
0
 10
51.54666523722648
 20
207.8991262700028
 30
0.0
 11
51.54666523722648
 21
208.2331111200027
 31
0.0
  0
LINE
  5
31E6
  8
0
 10
51.54666523722648
 20
208.2331111200027
 30
0.0
 11
50.87906698722648
 21
208.2331111200027
 31
0.0
  0
LINE
  5
31E7
  8
0
 10
50.87906698722648
 20
208.2331111200027
 30
0.0
 11
50.87906698722648
 21
207.8991262700028
 31
0.0
  0
LINE
  5
31E8
  8
0
 10
51.88065198722649
 20
207.8991262700028
 30
0.0
 11
52.21463683722646
 21
207.8991262700028
 31
0.0
  0
LINE
  5
31E9
  8
0
 10
52.21463683722646
 20
207.8991262700028
 30
0.0
 11
52.21463683722646
 21
208.2331111200027
 31
0.0
  0
LINE
  5
31EA
  8
0
 10
52.21463683722646
 20
208.2331111200027
 30
0.0
 11
51.88065198722649
 21
208.2331111200027
 31
0.0
  0
LINE
  5
31EB
  8
0
 10
51.88065198722649
 20
208.2331111200027
 30
0.0
 11
51.88065198722649
 21
207.8991262700028
 31
0.0
  0
LINE
  5
31EC
  8
0
 10
52.54831198722647
 20
207.8991262700028
 30
0.0
 11
53.21553783722649
 21
207.8991262700028
 31
0.0
  0
LINE
  5
31ED
  8
0
 10
53.21553783722649
 20
207.8991262700028
 30
0.0
 11
53.21553783722649
 21
208.2331111200027
 31
0.0
  0
LINE
  5
31EE
  8
0
 10
53.21553783722649
 20
208.2331111200027
 30
0.0
 11
52.54831198722647
 21
208.2331111200027
 31
0.0
  0
LINE
  5
31EF
  8
0
 10
52.54831198722647
 20
208.2331111200027
 30
0.0
 11
52.54831198722647
 21
207.8991262700028
 31
0.0
  0
LINE
  5
31F0
  8
0
 10
42.53436198722648
 20
207.5651062700028
 30
0.0
 11
43.20195928722646
 21
207.5651062700028
 31
0.0
  0
LINE
  5
31F1
  8
0
 10
43.20195928722646
 20
207.5651062700028
 30
0.0
 11
43.20195928722646
 21
207.8991262700028
 31
0.0
  0
LINE
  5
31F2
  8
0
 10
43.20195928722646
 20
207.8991262700028
 30
0.0
 11
42.53436198722648
 21
207.8991262700028
 31
0.0
  0
LINE
  5
31F3
  8
0
 10
42.53436198722648
 20
207.8991262700028
 30
0.0
 11
42.53436198722648
 21
207.5651062700028
 31
0.0
  0
LINE
  5
31F4
  8
0
 10
43.53585198722649
 20
207.5651062700028
 30
0.0
 11
44.20344928722648
 21
207.5651062700028
 31
0.0
  0
LINE
  5
31F5
  8
0
 10
44.20344928722648
 20
207.5651062700028
 30
0.0
 11
44.20344928722648
 21
207.8991262700028
 31
0.0
  0
LINE
  5
31F6
  8
0
 10
44.20344928722648
 20
207.8991262700028
 30
0.0
 11
43.53585198722649
 21
207.8991262700028
 31
0.0
  0
LINE
  5
31F7
  8
0
 10
43.53585198722649
 20
207.8991262700028
 30
0.0
 11
43.53585198722649
 21
207.5651062700028
 31
0.0
  0
LINE
  5
31F8
  8
0
 10
45.53873698722646
 20
207.5651062700028
 30
0.0
 11
45.87272183722646
 21
207.5651062700028
 31
0.0
  0
LINE
  5
31F9
  8
0
 10
45.87272183722646
 20
207.5651062700028
 30
0.0
 11
45.87272183722646
 21
207.8991262700028
 31
0.0
  0
LINE
  5
31FA
  8
0
 10
45.87272183722646
 20
207.8991262700028
 30
0.0
 11
45.53873698722646
 21
207.8991262700028
 31
0.0
  0
LINE
  5
31FB
  8
0
 10
45.53873698722646
 20
207.8991262700028
 30
0.0
 11
45.53873698722646
 21
207.5651062700028
 31
0.0
  0
LINE
  5
31FC
  8
0
 10
46.54032198722649
 20
207.5651062700028
 30
0.0
 11
46.87430588722648
 21
207.5651062700028
 31
0.0
  0
LINE
  5
31FD
  8
0
 10
46.87430588722648
 20
207.5651062700028
 30
0.0
 11
46.87430588722648
 21
207.8991262700028
 31
0.0
  0
LINE
  5
31FE
  8
0
 10
46.87430588722648
 20
207.8991262700028
 30
0.0
 11
46.54032198722649
 21
207.8991262700028
 31
0.0
  0
LINE
  5
31FF
  8
0
 10
46.54032198722649
 20
207.8991262700028
 30
0.0
 11
46.54032198722649
 21
207.5651062700028
 31
0.0
  0
LINE
  5
3200
  8
0
 10
47.20750698722648
 20
207.5651062700028
 30
0.0
 11
47.87510428722649
 21
207.5651062700028
 31
0.0
  0
LINE
  5
3201
  8
0
 10
47.87510428722649
 20
207.5651062700028
 30
0.0
 11
47.87510428722649
 21
207.8991262700028
 31
0.0
  0
LINE
  5
3202
  8
0
 10
47.87510428722649
 20
207.8991262700028
 30
0.0
 11
47.20750698722648
 21
207.8991262700028
 31
0.0
  0
LINE
  5
3203
  8
0
 10
47.20750698722648
 20
207.8991262700028
 30
0.0
 11
47.20750698722648
 21
207.5651062700028
 31
0.0
  0
LINE
  5
3204
  8
0
 10
48.54273198722649
 20
207.5651062700028
 30
0.0
 11
49.2099587872265
 21
207.5651062700028
 31
0.0
  0
LINE
  5
3205
  8
0
 10
49.2099587872265
 20
207.5651062700028
 30
0.0
 11
49.2099587872265
 21
207.8991262700028
 31
0.0
  0
LINE
  5
3206
  8
0
 10
49.2099587872265
 20
207.8991262700028
 30
0.0
 11
48.54273198722649
 21
207.8991262700028
 31
0.0
  0
LINE
  5
3207
  8
0
 10
48.54273198722649
 20
207.8991262700028
 30
0.0
 11
48.54273198722649
 21
207.5651062700028
 31
0.0
  0
LINE
  5
3208
  8
0
 10
50.87906698722648
 20
207.5651062700028
 30
0.0
 11
51.21308698722649
 21
207.5651062700028
 31
0.0
  0
LINE
  5
3209
  8
0
 10
51.21308698722649
 20
207.5651062700028
 30
0.0
 11
51.21308698722649
 21
207.8991262700028
 31
0.0
  0
LINE
  5
320A
  8
0
 10
51.21308698722649
 20
207.8991262700028
 30
0.0
 11
50.87910213722648
 21
207.8991262700028
 31
0.0
  0
LINE
  5
320B
  8
0
 10
50.87910213722648
 20
207.8991262700028
 30
0.0
 11
50.87906698722648
 21
207.5651062700028
 31
0.0
  0
LINE
  5
320C
  8
0
 10
51.88065198722649
 20
207.5651062700028
 30
0.0
 11
52.88223698722646
 21
207.5651062700028
 31
0.0
  0
LINE
  5
320D
  8
0
 10
52.88223698722646
 20
207.5651062700028
 30
0.0
 11
52.88223698722646
 21
207.8991262700028
 31
0.0
  0
LINE
  5
320E
  8
0
 10
52.88223698722646
 20
207.8991262700028
 30
0.0
 11
51.88065198722649
 21
207.8991262700028
 31
0.0
  0
LINE
  5
320F
  8
0
 10
51.88065198722649
 20
207.8991262700028
 30
0.0
 11
51.88065198722649
 21
207.5651062700028
 31
0.0
  0
LINE
  5
3210
  8
0
 10
53.21549698722649
 20
207.5651062700028
 30
0.0
 11
53.54985328722648
 21
207.5651062700028
 31
0.0
  0
LINE
  5
3211
  8
0
 10
53.54985328722648
 20
207.5651062700028
 30
0.0
 11
53.54985328722648
 21
207.8991262700028
 31
0.0
  0
LINE
  5
3212
  8
0
 10
53.54985328722648
 20
207.8991262700028
 30
0.0
 11
53.21549698722649
 21
207.8991262700028
 31
0.0
  0
LINE
  5
3213
  8
0
 10
53.21549698722649
 20
207.8991262700028
 30
0.0
 11
53.21549698722649
 21
207.5651062700028
 31
0.0
  0
LINE
  5
3214
  8
0
 10
42.86866698722648
 20
207.2315612700028
 30
0.0
 11
43.20265183722648
 21
207.2315612700028
 31
0.0
  0
LINE
  5
3215
  8
0
 10
43.20265183722648
 20
207.2315612700028
 30
0.0
 11
43.20265183722648
 21
207.5659166200028
 31
0.0
  0
LINE
  5
3216
  8
0
 10
43.20265183722648
 20
207.5659166200028
 30
0.0
 11
42.86866698722648
 21
207.5659166200028
 31
0.0
  0
LINE
  5
3217
  8
0
 10
42.86866698722648
 20
207.5659166200028
 30
0.0
 11
42.86866698722648
 21
207.2315612700028
 31
0.0
  0
LINE
  5
3218
  8
0
 10
44.53743698722647
 20
207.2315612700028
 30
0.0
 11
44.87142088722646
 21
207.2315612700028
 31
0.0
  0
LINE
  5
3219
  8
0
 10
44.87142088722646
 20
207.2315612700028
 30
0.0
 11
44.87142088722646
 21
207.5659166200028
 31
0.0
  0
LINE
  5
321A
  8
0
 10
44.87142088722646
 20
207.5659166200028
 30
0.0
 11
44.53743698722647
 21
207.5659166200028
 31
0.0
  0
LINE
  5
321B
  8
0
 10
44.53743698722647
 20
207.5659166200028
 30
0.0
 11
44.53743698722647
 21
207.2315612700028
 31
0.0
  0
LINE
  5
321C
  8
0
 10
45.53873698722646
 20
207.2315612700028
 30
0.0
 11
46.20596378722649
 21
207.2315612700028
 31
0.0
  0
LINE
  5
321D
  8
0
 10
46.20596378722649
 20
207.2315612700028
 30
0.0
 11
46.20596378722649
 21
207.5659166200028
 31
0.0
  0
LINE
  5
321E
  8
0
 10
46.20596378722649
 20
207.5659166200028
 30
0.0
 11
45.53873698722646
 21
207.5659166200028
 31
0.0
  0
LINE
  5
321F
  8
0
 10
45.53873698722646
 20
207.5659166200028
 30
0.0
 11
45.53873698722646
 21
207.2315612700028
 31
0.0
  0
LINE
  5
3220
  8
0
 10
46.54032198722649
 20
207.2315612700028
 30
0.0
 11
47.20754878722647
 21
207.2315612700028
 31
0.0
  0
LINE
  5
3221
  8
0
 10
47.20754878722647
 20
207.2315612700028
 30
0.0
 11
47.20754878722647
 21
207.5659166200028
 31
0.0
  0
LINE
  5
3222
  8
0
 10
47.20754878722647
 20
207.5659166200028
 30
0.0
 11
46.54032198722649
 21
207.5659166200028
 31
0.0
  0
LINE
  5
3223
  8
0
 10
46.54032198722649
 20
207.5659166200028
 30
0.0
 11
46.54032198722649
 21
207.2315612700028
 31
0.0
  0
LINE
  5
3224
  8
0
 10
48.20909198722649
 20
207.2315612700028
 30
0.0
 11
49.21067698722649
 21
207.2315612700028
 31
0.0
  0
LINE
  5
3225
  8
0
 10
49.21067698722649
 20
207.2315612700028
 30
0.0
 11
49.21067698722649
 21
207.5659166200028
 31
0.0
  0
LINE
  5
3226
  8
0
 10
49.21067698722649
 20
207.5659166200028
 30
0.0
 11
48.20909198722649
 21
207.5659166200028
 31
0.0
  0
LINE
  5
3227
  8
0
 10
48.20909198722649
 20
207.5659166200028
 30
0.0
 11
48.20909198722649
 21
207.2315612700028
 31
0.0
  0
LINE
  5
3228
  8
0
 10
49.87748198722647
 20
207.2315612700028
 30
0.0
 11
50.2114658872265
 21
207.2315612700028
 31
0.0
  0
LINE
  5
3229
  8
0
 10
50.2114658872265
 20
207.2315612700028
 30
0.0
 11
50.2114658872265
 21
207.5659166200028
 31
0.0
  0
LINE
  5
322A
  8
0
 10
50.2114658872265
 20
207.5659166200028
 30
0.0
 11
49.87748198722647
 21
207.5659166200028
 31
0.0
  0
LINE
  5
322B
  8
0
 10
49.87748198722647
 20
207.5659166200028
 30
0.0
 11
49.87748198722647
 21
207.2315612700028
 31
0.0
  0
LINE
  5
322C
  8
0
 10
50.54590198722647
 20
207.2315612700028
 30
0.0
 11
51.21312878722648
 21
207.2315612700028
 31
0.0
  0
LINE
  5
322D
  8
0
 10
51.21312878722648
 20
207.2315612700028
 30
0.0
 11
51.21312878722648
 21
207.5659166200028
 31
0.0
  0
LINE
  5
322E
  8
0
 10
51.21312878722648
 20
207.5659166200028
 30
0.0
 11
50.54590198722647
 21
207.5659166200028
 31
0.0
  0
LINE
  5
322F
  8
0
 10
50.54590198722647
 20
207.5659166200028
 30
0.0
 11
50.54590198722647
 21
207.2315612700028
 31
0.0
  0
LINE
  5
3230
  8
0
 10
51.54672698722646
 20
207.2315612700028
 30
0.0
 11
52.54831198722647
 21
207.2315612700028
 31
0.0
  0
LINE
  5
3231
  8
0
 10
52.54831198722647
 20
207.2315612700028
 30
0.0
 11
52.54831198722647
 21
207.5659166200028
 31
0.0
  0
LINE
  5
3232
  8
0
 10
52.54831198722647
 20
207.5659166200028
 30
0.0
 11
51.54672698722646
 21
207.5659166200028
 31
0.0
  0
LINE
  5
3233
  8
0
 10
51.54672698722646
 20
207.5659166200028
 30
0.0
 11
51.54672698722646
 21
207.2315612700028
 31
0.0
  0
LINE
  5
3234
  8
0
 10
53.21549698722649
 20
207.2315612700028
 30
0.0
 11
53.54985328722648
 21
207.2315612700028
 31
0.0
  0
LINE
  5
3235
  8
0
 10
53.54985328722648
 20
207.2315612700028
 30
0.0
 11
53.54985328722648
 21
207.5659166200028
 31
0.0
  0
LINE
  5
3236
  8
0
 10
53.54985328722648
 20
207.5659166200028
 30
0.0
 11
53.21549698722649
 21
207.5659166200028
 31
0.0
  0
LINE
  5
3237
  8
0
 10
53.21549698722649
 20
207.5659166200028
 30
0.0
 11
53.21549698722649
 21
207.2315612700028
 31
0.0
  0
LINE
  5
3238
  8
0
 10
42.86866698722648
 20
206.8975412700028
 30
0.0
 11
43.53589378722648
 21
206.8975412700028
 31
0.0
  0
LINE
  5
3239
  8
0
 10
43.53589378722648
 20
206.8975412700028
 30
0.0
 11
43.53589378722648
 21
207.2315261200028
 31
0.0
  0
LINE
  5
323A
  8
0
 10
43.53589378722648
 20
207.2315261200028
 30
0.0
 11
42.86866698722648
 21
207.2315261200028
 31
0.0
  0
LINE
  5
323B
  8
0
 10
42.86866698722648
 20
207.2315261200028
 30
0.0
 11
42.86866698722648
 21
206.8975412700028
 31
0.0
  0
LINE
  5
323C
  8
0
 10
43.8694919872265
 20
206.8975412700028
 30
0.0
 11
44.20347588722649
 21
206.8975412700028
 31
0.0
  0
LINE
  5
323D
  8
0
 10
44.20347588722649
 20
206.8975412700028
 30
0.0
 11
44.20347588722649
 21
207.2315261200028
 31
0.0
  0
LINE
  5
323E
  8
0
 10
44.20347588722649
 20
207.2315261200028
 30
0.0
 11
43.8694919872265
 21
207.2315261200028
 31
0.0
  0
LINE
  5
323F
  8
0
 10
43.8694919872265
 20
207.2315261200028
 30
0.0
 11
43.8694919872265
 21
206.8975412700028
 31
0.0
  0
LINE
  5
3240
  8
0
 10
46.20592198722647
 20
206.8975412700028
 30
0.0
 11
46.5399058872265
 21
206.8975412700028
 31
0.0
  0
LINE
  5
3241
  8
0
 10
46.5399058872265
 20
206.8975412700028
 30
0.0
 11
46.5399058872265
 21
207.2315261200028
 31
0.0
  0
LINE
  5
3242
  8
0
 10
46.5399058872265
 20
207.2315261200028
 30
0.0
 11
46.20592198722647
 21
207.2315261200028
 31
0.0
  0
LINE
  5
3243
  8
0
 10
46.20592198722647
 20
207.2315261200028
 30
0.0
 11
46.20592198722647
 21
206.8975412700028
 31
0.0
  0
LINE
  5
3244
  8
0
 10
46.87348698722647
 20
206.8975412700028
 30
0.0
 11
49.87749148722648
 21
206.8975412700028
 31
0.0
  0
LINE
  5
3245
  8
0
 10
49.87749148722648
 20
206.8975412700028
 30
0.0
 11
49.87749148722648
 21
207.2315261200028
 31
0.0
  0
LINE
  5
3246
  8
0
 10
49.87749148722648
 20
207.2315261200028
 30
0.0
 11
46.87348698722647
 21
207.2315261200028
 31
0.0
  0
LINE
  5
3247
  8
0
 10
46.87348698722647
 20
207.2315261200028
 30
0.0
 11
46.87348698722647
 21
206.8975412700028
 31
0.0
  0
LINE
  5
3248
  8
0
 10
50.21150198722648
 20
206.8975412700028
 30
0.0
 11
51.54669848722648
 21
206.8975412700028
 31
0.0
  0
LINE
  5
3249
  8
0
 10
51.54669848722648
 20
206.8975412700028
 30
0.0
 11
51.54669848722648
 21
207.2315261200028
 31
0.0
  0
LINE
  5
324A
  8
0
 10
51.54669848722648
 20
207.2315261200028
 30
0.0
 11
50.21150198722648
 21
207.2315261200028
 31
0.0
  0
LINE
  5
324B
  8
0
 10
50.21150198722648
 20
207.2315261200028
 30
0.0
 11
50.21150198722648
 21
206.8975412700028
 31
0.0
  0
LINE
  5
324C
  8
0
 10
52.21391198722648
 20
206.8975412700028
 30
0.0
 11
52.88150928722646
 21
206.8975412700028
 31
0.0
  0
LINE
  5
324D
  8
0
 10
52.88150928722646
 20
206.8975412700028
 30
0.0
 11
52.88150928722646
 21
207.2315261200028
 31
0.0
  0
LINE
  5
324E
  8
0
 10
52.88150928722646
 20
207.2315261200028
 30
0.0
 11
52.21391198722648
 21
207.2315261200028
 31
0.0
  0
LINE
  5
324F
  8
0
 10
52.21391198722648
 20
207.2315261200028
 30
0.0
 11
52.21391198722648
 21
206.8975412700028
 31
0.0
  0
LINE
  5
3250
  8
0
 10
53.21549698722649
 20
206.8975412700028
 30
0.0
 11
53.54985328722648
 21
206.8975412700028
 31
0.0
  0
LINE
  5
3251
  8
0
 10
53.54985328722648
 20
206.8975412700028
 30
0.0
 11
53.54985328722648
 21
207.2315261200028
 31
0.0
  0
LINE
  5
3252
  8
0
 10
53.54985328722648
 20
207.2315261200028
 30
0.0
 11
53.21549698722649
 21
207.2315261200028
 31
0.0
  0
LINE
  5
3253
  8
0
 10
53.21549698722649
 20
207.2315261200028
 30
0.0
 11
53.21549698722649
 21
206.8975412700028
 31
0.0
  0
LINE
  5
3254
  8
0
 10
43.20192698722647
 20
206.5642812700028
 30
0.0
 11
43.53628328722647
 21
206.5642812700028
 31
0.0
  0
LINE
  5
3255
  8
0
 10
43.53628328722647
 20
206.5642812700028
 30
0.0
 11
43.53628328722647
 21
206.8982651700028
 31
0.0
  0
LINE
  5
3256
  8
0
 10
43.53628328722647
 20
206.8982651700028
 30
0.0
 11
43.20192698722647
 21
206.8982651700028
 31
0.0
  0
LINE
  5
3257
  8
0
 10
43.20192698722647
 20
206.8982651700028
 30
0.0
 11
43.20192698722647
 21
206.5642812700028
 31
0.0
  0
LINE
  5
3258
  8
0
 10
43.8694919872265
 20
206.5642812700028
 30
0.0
 11
44.20347588722649
 21
206.5642812700028
 31
0.0
  0
LINE
  5
3259
  8
0
 10
44.20347588722649
 20
206.5642812700028
 30
0.0
 11
44.20347588722649
 21
206.8982651700028
 31
0.0
  0
LINE
  5
325A
  8
0
 10
44.20347588722649
 20
206.8982651700028
 30
0.0
 11
43.8694919872265
 21
206.8982651700028
 31
0.0
  0
LINE
  5
325B
  8
0
 10
43.8694919872265
 20
206.8982651700028
 30
0.0
 11
43.8694919872265
 21
206.5642812700028
 31
0.0
  0
LINE
  5
325C
  8
0
 10
44.53743698722647
 20
206.5642812700028
 30
0.0
 11
46.54022698722648
 21
206.5642812700028
 31
0.0
  0
LINE
  5
325D
  8
0
 10
46.54022698722648
 20
206.5642812700028
 30
0.0
 11
46.54022698722648
 21
206.8982651700028
 31
0.0
  0
LINE
  5
325E
  8
0
 10
46.54022698722648
 20
206.8982651700028
 30
0.0
 11
44.53743698722647
 21
206.8982651700028
 31
0.0
  0
LINE
  5
325F
  8
0
 10
44.53743698722647
 20
206.8982651700028
 30
0.0
 11
44.53743698722647
 21
206.5642812700028
 31
0.0
  0
LINE
  5
3260
  8
0
 10
46.87348698722647
 20
206.5642812700028
 30
0.0
 11
47.20747183722648
 21
206.5642812700028
 31
0.0
  0
LINE
  5
3261
  8
0
 10
47.20747183722648
 20
206.5642812700028
 30
0.0
 11
47.20747183722648
 21
206.8982651700028
 31
0.0
  0
LINE
  5
3262
  8
0
 10
47.20747183722648
 20
206.8982651700028
 30
0.0
 11
46.87348698722647
 21
206.8982651700028
 31
0.0
  0
LINE
  5
3263
  8
0
 10
46.87348698722647
 20
206.8982651700028
 30
0.0
 11
46.87348698722647
 21
206.5642812700028
 31
0.0
  0
LINE
  5
3264
  8
0
 10
47.54152698722649
 20
206.5642812700028
 30
0.0
 11
48.20912523722646
 21
206.5642812700028
 31
0.0
  0
LINE
  5
3265
  8
0
 10
48.20912523722646
 20
206.5642812700028
 30
0.0
 11
48.20912523722646
 21
206.8982651700028
 31
0.0
  0
LINE
  5
3266
  8
0
 10
48.20912523722646
 20
206.8982651700028
 30
0.0
 11
47.54152698722649
 21
206.8982651700028
 31
0.0
  0
LINE
  5
3267
  8
0
 10
47.54152698722649
 20
206.8982651700028
 30
0.0
 11
47.54152698722649
 21
206.5642812700028
 31
0.0
  0
LINE
  5
3268
  8
0
 10
48.87665698722648
 20
206.5642812700028
 30
0.0
 11
49.21064088722648
 21
206.5642812700028
 31
0.0
  0
LINE
  5
3269
  8
0
 10
49.21064088722648
 20
206.5642812700028
 30
0.0
 11
49.21064088722648
 21
206.8982651700028
 31
0.0
  0
LINE
  5
326A
  8
0
 10
49.21064088722648
 20
206.8982651700028
 30
0.0
 11
48.87665698722648
 21
206.8982651700028
 31
0.0
  0
LINE
  5
326B
  8
0
 10
48.87665698722648
 20
206.8982651700028
 30
0.0
 11
48.87665698722648
 21
206.5642812700028
 31
0.0
  0
LINE
  5
326C
  8
0
 10
50.21150198722648
 20
206.5642812700028
 30
0.0
 11
50.54585733722649
 21
206.5642812700028
 31
0.0
  0
LINE
  5
326D
  8
0
 10
50.54585733722649
 20
206.5642812700028
 30
0.0
 11
50.54585733722649
 21
206.8982651700028
 31
0.0
  0
LINE
  5
326E
  8
0
 10
50.54585733722649
 20
206.8982651700028
 30
0.0
 11
50.21150198722648
 21
206.8982651700028
 31
0.0
  0
LINE
  5
326F
  8
0
 10
50.21150198722648
 20
206.8982651700028
 30
0.0
 11
50.21150198722648
 21
206.5642812700028
 31
0.0
  0
LINE
  5
3270
  8
0
 10
51.54672698722646
 20
206.5642812700028
 30
0.0
 11
51.88071088722648
 21
206.5642812700028
 31
0.0
  0
LINE
  5
3271
  8
0
 10
51.88071088722648
 20
206.5642812700028
 30
0.0
 11
51.88071088722648
 21
206.8982651700028
 31
0.0
  0
LINE
  5
3272
  8
0
 10
51.88071088722648
 20
206.8982651700028
 30
0.0
 11
51.54672698722646
 21
206.8982651700028
 31
0.0
  0
LINE
  5
3273
  8
0
 10
51.54672698722646
 20
206.8982651700028
 30
0.0
 11
51.54672698722646
 21
206.5642812700028
 31
0.0
  0
LINE
  5
3274
  8
0
 10
52.21391198722648
 20
206.5642812700028
 30
0.0
 11
52.88150928722646
 21
206.5642812700028
 31
0.0
  0
LINE
  5
3275
  8
0
 10
52.88150928722646
 20
206.5642812700028
 30
0.0
 11
52.88150928722646
 21
206.8982651700028
 31
0.0
  0
LINE
  5
3276
  8
0
 10
52.88150928722646
 20
206.8982651700028
 30
0.0
 11
52.21391198722648
 21
206.8982651700028
 31
0.0
  0
LINE
  5
3277
  8
0
 10
52.21391198722648
 20
206.8982651700028
 30
0.0
 11
52.21391198722648
 21
206.5642812700028
 31
0.0
  0
LINE
  5
3278
  8
0
 10
53.21549698722649
 20
206.5642812700028
 30
0.0
 11
53.54985328722648
 21
206.5642812700028
 31
0.0
  0
LINE
  5
3279
  8
0
 10
53.54985328722648
 20
206.5642812700028
 30
0.0
 11
53.54985328722648
 21
206.8982651700028
 31
0.0
  0
LINE
  5
327A
  8
0
 10
53.54985328722648
 20
206.8982651700028
 30
0.0
 11
53.21549698722649
 21
206.8982651700028
 31
0.0
  0
LINE
  5
327B
  8
0
 10
53.21549698722649
 20
206.8982651700028
 30
0.0
 11
53.21549698722649
 21
206.5642812700028
 31
0.0
  0
LINE
  5
327C
  8
0
 10
42.86866698722648
 20
206.2303562700028
 30
0.0
 11
43.20265183722648
 21
206.2303562700028
 31
0.0
  0
LINE
  5
327D
  8
0
 10
43.20265183722648
 20
206.2303562700028
 30
0.0
 11
43.20265183722648
 21
206.5643411200028
 31
0.0
  0
LINE
  5
327E
  8
0
 10
43.20265183722648
 20
206.5643411200028
 30
0.0
 11
42.86866698722648
 21
206.5643411200028
 31
0.0
  0
LINE
  5
327F
  8
0
 10
42.86866698722648
 20
206.5643411200028
 30
0.0
 11
42.86866698722648
 21
206.2303562700028
 31
0.0
  0
LINE
  5
3280
  8
0
 10
43.53585198722649
 20
206.2303562700028
 30
0.0
 11
44.53743698722647
 21
206.2303562700028
 31
0.0
  0
LINE
  5
3281
  8
0
 10
44.53743698722647
 20
206.2303562700028
 30
0.0
 11
44.53743698722647
 21
206.5643411200028
 31
0.0
  0
LINE
  5
3282
  8
0
 10
44.53743698722647
 20
206.5643411200028
 30
0.0
 11
43.53585198722649
 21
206.5643411200028
 31
0.0
  0
LINE
  5
3283
  8
0
 10
43.53585198722649
 20
206.5643411200028
 30
0.0
 11
43.53585198722649
 21
206.2303562700028
 31
0.0
  0
LINE
  5
3284
  8
0
 10
44.87107698722647
 20
206.2303562700028
 30
0.0
 11
45.53867428722646
 21
206.2303562700028
 31
0.0
  0
LINE
  5
3285
  8
0
 10
45.53867428722646
 20
206.2303562700028
 30
0.0
 11
45.53867428722646
 21
206.5643411200028
 31
0.0
  0
LINE
  5
3286
  8
0
 10
45.53867428722646
 20
206.5643411200028
 30
0.0
 11
44.87107698722647
 21
206.5643411200028
 31
0.0
  0
LINE
  5
3287
  8
0
 10
44.87107698722647
 20
206.5643411200028
 30
0.0
 11
44.87107698722647
 21
206.2303562700028
 31
0.0
  0
LINE
  5
3288
  8
0
 10
45.87266198722648
 20
206.2303562700028
 30
0.0
 11
46.2066458872265
 21
206.2303562700028
 31
0.0
  0
LINE
  5
3289
  8
0
 10
46.2066458872265
 20
206.2303562700028
 30
0.0
 11
46.2066458872265
 21
206.5643411200028
 31
0.0
  0
LINE
  5
328A
  8
0
 10
46.2066458872265
 20
206.5643411200028
 30
0.0
 11
45.87266198722648
 21
206.5643411200028
 31
0.0
  0
LINE
  5
328B
  8
0
 10
45.87266198722648
 20
206.5643411200028
 30
0.0
 11
45.87266198722648
 21
206.2303562700028
 31
0.0
  0
LINE
  5
328C
  8
0
 10
47.54152698722649
 20
206.2303562700028
 30
0.0
 11
49.87830848722649
 21
206.2303562700028
 31
0.0
  0
LINE
  5
328D
  8
0
 10
49.87830848722649
 20
206.2303562700028
 30
0.0
 11
49.87830848722649
 21
206.5643411200028
 31
0.0
  0
LINE
  5
328E
  8
0
 10
49.87830848722649
 20
206.5643411200028
 30
0.0
 11
47.54152698722649
 21
206.5643411200028
 31
0.0
  0
LINE
  5
328F
  8
0
 10
47.54152698722649
 20
206.5643411200028
 30
0.0
 11
47.54152698722649
 21
206.2303562700028
 31
0.0
  0
LINE
  5
3290
  8
0
 10
50.21150198722648
 20
206.2303562700028
 30
0.0
 11
50.54585733722649
 21
206.2303562700028
 31
0.0
  0
LINE
  5
3291
  8
0
 10
50.54585733722649
 20
206.2303562700028
 30
0.0
 11
50.54585733722649
 21
206.5643411200028
 31
0.0
  0
LINE
  5
3292
  8
0
 10
50.54585733722649
 20
206.5643411200028
 30
0.0
 11
50.21150198722648
 21
206.5643411200028
 31
0.0
  0
LINE
  5
3293
  8
0
 10
50.21150198722648
 20
206.5643411200028
 30
0.0
 11
50.21150198722648
 21
206.2303562700028
 31
0.0
  0
LINE
  5
3294
  8
0
 10
50.87906698722648
 20
206.2303562700028
 30
0.0
 11
51.21305183722649
 21
206.2303562700028
 31
0.0
  0
LINE
  5
3295
  8
0
 10
51.21305183722649
 20
206.2303562700028
 30
0.0
 11
51.21305183722649
 21
206.5643411200028
 31
0.0
  0
LINE
  5
3296
  8
0
 10
51.21305183722649
 20
206.5643411200028
 30
0.0
 11
50.87906698722648
 21
206.5643411200028
 31
0.0
  0
LINE
  5
3297
  8
0
 10
50.87906698722648
 20
206.5643411200028
 30
0.0
 11
50.87906698722648
 21
206.2303562700028
 31
0.0
  0
LINE
  5
3298
  8
0
 10
51.88065198722649
 20
206.2303562700028
 30
0.0
 11
52.88223698722646
 21
206.2303562700028
 31
0.0
  0
LINE
  5
3299
  8
0
 10
52.88223698722646
 20
206.2303562700028
 30
0.0
 11
52.88223698722646
 21
206.5643411200028
 31
0.0
  0
LINE
  5
329A
  8
0
 10
52.88223698722646
 20
206.5643411200028
 30
0.0
 11
51.88065198722649
 21
206.5643411200028
 31
0.0
  0
LINE
  5
329B
  8
0
 10
51.88065198722649
 20
206.5643411200028
 30
0.0
 11
51.88065198722649
 21
206.2303562700028
 31
0.0
  0
LINE
  5
329C
  8
0
 10
53.21549698722649
 20
206.2303562700028
 30
0.0
 11
53.54985328722648
 21
206.2303562700028
 31
0.0
  0
LINE
  5
329D
  8
0
 10
53.54985328722648
 20
206.2303562700028
 30
0.0
 11
53.54985328722648
 21
206.5643411200028
 31
0.0
  0
LINE
  5
329E
  8
0
 10
53.54985328722648
 20
206.5643411200028
 30
0.0
 11
53.21549698722649
 21
206.5643411200028
 31
0.0
  0
LINE
  5
329F
  8
0
 10
53.21549698722649
 20
206.5643411200028
 30
0.0
 11
53.21549698722649
 21
206.2303562700028
 31
0.0
  0
LINE
  5
32A0
  8
0
 10
42.53436198722648
 20
205.8959562700028
 30
0.0
 11
43.86955848722647
 21
205.8959562700028
 31
0.0
  0
LINE
  5
32A1
  8
0
 10
43.86955848722647
 20
205.8959562700028
 30
0.0
 11
43.86955848722647
 21
206.2303116200028
 31
0.0
  0
LINE
  5
32A2
  8
0
 10
43.86955848722647
 20
206.2303116200028
 30
0.0
 11
42.53436198722648
 21
206.2303116200028
 31
0.0
  0
LINE
  5
32A3
  8
0
 10
42.53436198722648
 20
206.2303116200028
 30
0.0
 11
42.53436198722648
 21
205.8959562700028
 31
0.0
  0
LINE
  5
32A4
  8
0
 10
44.53743698722647
 20
205.8959562700028
 30
0.0
 11
44.87142088722646
 21
205.8959562700028
 31
0.0
  0
LINE
  5
32A5
  8
0
 10
44.87142088722646
 20
205.8959562700028
 30
0.0
 11
44.87142088722646
 21
206.2303116200028
 31
0.0
  0
LINE
  5
32A6
  8
0
 10
44.87142088722646
 20
206.2303116200028
 30
0.0
 11
44.53743698722647
 21
206.2303116200028
 31
0.0
  0
LINE
  5
32A7
  8
0
 10
44.53743698722647
 20
206.2303116200028
 30
0.0
 11
44.53743698722647
 21
205.8959562700028
 31
0.0
  0
LINE
  5
32A8
  8
0
 10
45.20509698722648
 20
205.8959562700028
 30
0.0
 11
45.53908183722649
 21
205.8959562700028
 31
0.0
  0
LINE
  5
32A9
  8
0
 10
45.53908183722649
 20
205.8959562700028
 30
0.0
 11
45.53908183722649
 21
206.2303116200028
 31
0.0
  0
LINE
  5
32AA
  8
0
 10
45.53908183722649
 20
206.2303116200028
 30
0.0
 11
45.20509698722648
 21
206.2303116200028
 31
0.0
  0
LINE
  5
32AB
  8
0
 10
45.20509698722648
 20
206.2303116200028
 30
0.0
 11
45.20509698722648
 21
205.8959562700028
 31
0.0
  0
LINE
  5
32AC
  8
0
 10
45.87266198722648
 20
205.8959562700028
 30
0.0
 11
46.2066458872265
 21
205.8959562700028
 31
0.0
  0
LINE
  5
32AD
  8
0
 10
46.2066458872265
 20
205.8959562700028
 30
0.0
 11
46.2066458872265
 21
206.2303116200028
 31
0.0
  0
LINE
  5
32AE
  8
0
 10
46.2066458872265
 20
206.2303116200028
 30
0.0
 11
45.87266198722648
 21
206.2303116200028
 31
0.0
  0
LINE
  5
32AF
  8
0
 10
45.87266198722648
 20
206.2303116200028
 30
0.0
 11
45.87266198722648
 21
205.8959562700028
 31
0.0
  0
LINE
  5
32B0
  8
0
 10
46.54032198722649
 20
205.8959562700028
 30
0.0
 11
47.54153648722649
 21
205.8959562700028
 31
0.0
  0
LINE
  5
32B1
  8
0
 10
47.54153648722649
 20
205.8959562700028
 30
0.0
 11
47.54153648722649
 21
206.2303116200028
 31
0.0
  0
LINE
  5
32B2
  8
0
 10
47.54153648722649
 20
206.2303116200028
 30
0.0
 11
46.54032198722649
 21
206.2303116200028
 31
0.0
  0
LINE
  5
32B3
  8
0
 10
46.54032198722649
 20
206.2303116200028
 30
0.0
 11
46.54032198722649
 21
205.8959562700028
 31
0.0
  0
LINE
  5
32B4
  8
0
 10
47.87507198722648
 20
205.8959562700028
 30
0.0
 11
48.20905683722648
 21
205.8959562700028
 31
0.0
  0
LINE
  5
32B5
  8
0
 10
48.20905683722648
 20
205.8959562700028
 30
0.0
 11
48.20905683722648
 21
206.2303116200028
 31
0.0
  0
LINE
  5
32B6
  8
0
 10
48.20905683722648
 20
206.2303116200028
 30
0.0
 11
47.87507198722648
 21
206.2303116200028
 31
0.0
  0
LINE
  5
32B7
  8
0
 10
47.87507198722648
 20
206.2303116200028
 30
0.0
 11
47.87507198722648
 21
205.8959562700028
 31
0.0
  0
LINE
  5
32B8
  8
0
 10
49.20991698722648
 20
205.8959562700028
 30
0.0
 11
50.21150198722648
 21
205.8959562700028
 31
0.0
  0
LINE
  5
32B9
  8
0
 10
50.21150198722648
 20
205.8959562700028
 30
0.0
 11
50.21150198722648
 21
206.2303116200028
 31
0.0
  0
LINE
  5
32BA
  8
0
 10
50.21150198722648
 20
206.2303116200028
 30
0.0
 11
49.20991698722648
 21
206.2303116200028
 31
0.0
  0
LINE
  5
32BB
  8
0
 10
49.20991698722648
 20
206.2303116200028
 30
0.0
 11
49.20991698722648
 21
205.8959562700028
 31
0.0
  0
LINE
  5
32BC
  8
0
 10
50.87906698722648
 20
205.8959562700028
 30
0.0
 11
51.21305183722649
 21
205.8959562700028
 31
0.0
  0
LINE
  5
32BD
  8
0
 10
51.21305183722649
 20
205.8959562700028
 30
0.0
 11
51.21305183722649
 21
206.2303116200028
 31
0.0
  0
LINE
  5
32BE
  8
0
 10
51.21305183722649
 20
206.2303116200028
 30
0.0
 11
50.87906698722648
 21
206.2303116200028
 31
0.0
  0
LINE
  5
32BF
  8
0
 10
50.87906698722648
 20
206.2303116200028
 30
0.0
 11
50.87906698722648
 21
205.8959562700028
 31
0.0
  0
LINE
  5
32C0
  8
0
 10
51.88065198722649
 20
205.8959562700028
 30
0.0
 11
52.54787878722649
 21
205.8959562700028
 31
0.0
  0
LINE
  5
32C1
  8
0
 10
52.54787878722649
 20
205.8959562700028
 30
0.0
 11
52.54787878722649
 21
206.2303116200028
 31
0.0
  0
LINE
  5
32C2
  8
0
 10
52.54787878722649
 20
206.2303116200028
 30
0.0
 11
51.88065198722649
 21
206.2303116200028
 31
0.0
  0
LINE
  5
32C3
  8
0
 10
51.88065198722649
 20
206.2303116200028
 30
0.0
 11
51.88065198722649
 21
205.8959562700028
 31
0.0
  0
LINE
  5
32C4
  8
0
 10
42.53436198722648
 20
205.5626962700028
 30
0.0
 11
43.20195928722646
 21
205.5626962700028
 31
0.0
  0
LINE
  5
32C5
  8
0
 10
43.20195928722646
 20
205.5626962700028
 30
0.0
 11
43.20195928722646
 21
205.8966811200028
 31
0.0
  0
LINE
  5
32C6
  8
0
 10
43.20195928722646
 20
205.8966811200028
 30
0.0
 11
42.53436198722648
 21
205.8966811200028
 31
0.0
  0
LINE
  5
32C7
  8
0
 10
42.53436198722648
 20
205.8966811200028
 30
0.0
 11
42.53436198722648
 21
205.5626962700028
 31
0.0
  0
LINE
  5
32C8
  8
0
 10
43.53585198722649
 20
205.5626962700028
 30
0.0
 11
43.86983588722649
 21
205.5626962700028
 31
0.0
  0
LINE
  5
32C9
  8
0
 10
43.86983588722649
 20
205.5626962700028
 30
0.0
 11
43.86983588722649
 21
205.8966811200028
 31
0.0
  0
LINE
  5
32CA
  8
0
 10
43.86983588722649
 20
205.8966811200028
 30
0.0
 11
43.53585198722649
 21
205.8966811200028
 31
0.0
  0
LINE
  5
32CB
  8
0
 10
43.53585198722649
 20
205.8966811200028
 30
0.0
 11
43.53585198722649
 21
205.5626962700028
 31
0.0
  0
LINE
  5
32CC
  8
0
 10
44.20351198722648
 20
205.5626962700028
 30
0.0
 11
44.53749683722648
 21
205.5626962700028
 31
0.0
  0
LINE
  5
32CD
  8
0
 10
44.53749683722648
 20
205.5626962700028
 30
0.0
 11
44.53749683722648
 21
205.8966811200028
 31
0.0
  0
LINE
  5
32CE
  8
0
 10
44.53749683722648
 20
205.8966811200028
 30
0.0
 11
44.20351198722648
 21
205.8966811200028
 31
0.0
  0
LINE
  5
32CF
  8
0
 10
44.20351198722648
 20
205.8966811200028
 30
0.0
 11
44.20351198722648
 21
205.5626962700028
 31
0.0
  0
LINE
  5
32D0
  8
0
 10
45.20509698722648
 20
205.5626962700028
 30
0.0
 11
45.53908183722649
 21
205.5626962700028
 31
0.0
  0
LINE
  5
32D1
  8
0
 10
45.53908183722649
 20
205.5626962700028
 30
0.0
 11
45.53908183722649
 21
205.8966811200028
 31
0.0
  0
LINE
  5
32D2
  8
0
 10
45.53908183722649
 20
205.8966811200028
 30
0.0
 11
45.20509698722648
 21
205.8966811200028
 31
0.0
  0
LINE
  5
32D3
  8
0
 10
45.20509698722648
 20
205.8966811200028
 30
0.0
 11
45.20509698722648
 21
205.5626962700028
 31
0.0
  0
LINE
  5
32D4
  8
0
 10
45.87266198722648
 20
205.5626962700028
 30
0.0
 11
46.87387648722648
 21
205.5626962700028
 31
0.0
  0
LINE
  5
32D5
  8
0
 10
46.87387648722648
 20
205.5626962700028
 30
0.0
 11
46.87387648722648
 21
205.8966811200028
 31
0.0
  0
LINE
  5
32D6
  8
0
 10
46.87387648722648
 20
205.8966811200028
 30
0.0
 11
45.87266198722648
 21
205.8966811200028
 31
0.0
  0
LINE
  5
32D7
  8
0
 10
45.87266198722648
 20
205.8966811200028
 30
0.0
 11
45.87266198722648
 21
205.5626962700028
 31
0.0
  0
LINE
  5
32D8
  8
0
 10
47.20750698722648
 20
205.5626962700028
 30
0.0
 11
47.5414908872265
 21
205.5626962700028
 31
0.0
  0
LINE
  5
32D9
  8
0
 10
47.5414908872265
 20
205.5626962700028
 30
0.0
 11
47.5414908872265
 21
205.8966811200028
 31
0.0
  0
LINE
  5
32DA
  8
0
 10
47.5414908872265
 20
205.8966811200028
 30
0.0
 11
47.20750698722648
 21
205.8966811200028
 31
0.0
  0
LINE
  5
32DB
  8
0
 10
47.20750698722648
 20
205.8966811200028
 30
0.0
 11
47.20750698722648
 21
205.5626962700028
 31
0.0
  0
LINE
  5
32DC
  8
0
 10
47.87507198722648
 20
205.5626962700028
 30
0.0
 11
48.87665698722648
 21
205.5626962700028
 31
0.0
  0
LINE
  5
32DD
  8
0
 10
48.87665698722648
 20
205.5626962700028
 30
0.0
 11
48.87665698722648
 21
205.8966811200028
 31
0.0
  0
LINE
  5
32DE
  8
0
 10
48.87665698722648
 20
205.8966811200028
 30
0.0
 11
47.87507198722648
 21
205.8966811200028
 31
0.0
  0
LINE
  5
32DF
  8
0
 10
47.87507198722648
 20
205.8966811200028
 30
0.0
 11
47.87507198722648
 21
205.5626962700028
 31
0.0
  0
LINE
  5
32E0
  8
0
 10
49.20991698722648
 20
205.5626962700028
 30
0.0
 11
49.54427233722649
 21
205.5626962700028
 31
0.0
  0
LINE
  5
32E1
  8
0
 10
49.54427233722649
 20
205.5626962700028
 30
0.0
 11
49.54427233722649
 21
205.8966811200028
 31
0.0
  0
LINE
  5
32E2
  8
0
 10
49.54427233722649
 20
205.8966811200028
 30
0.0
 11
49.20991698722648
 21
205.8966811200028
 31
0.0
  0
LINE
  5
32E3
  8
0
 10
49.20991698722648
 20
205.8966811200028
 30
0.0
 11
49.20991698722648
 21
205.5626962700028
 31
0.0
  0
LINE
  5
32E4
  8
0
 10
49.87748198722647
 20
205.5626962700028
 30
0.0
 11
50.54507928722649
 21
205.5626962700028
 31
0.0
  0
LINE
  5
32E5
  8
0
 10
50.54507928722649
 20
205.5626962700028
 30
0.0
 11
50.54507928722649
 21
205.8966811200028
 31
0.0
  0
LINE
  5
32E6
  8
0
 10
50.54507928722649
 20
205.8966811200028
 30
0.0
 11
49.87748198722647
 21
205.8966811200028
 31
0.0
  0
LINE
  5
32E7
  8
0
 10
49.87748198722647
 20
205.8966811200028
 30
0.0
 11
49.87748198722647
 21
205.5626962700028
 31
0.0
  0
LINE
  5
32E8
  8
0
 10
51.54672698722646
 20
205.5626962700028
 30
0.0
 11
52.88155298722648
 21
205.5626962700028
 31
0.0
  0
LINE
  5
32E9
  8
0
 10
52.88155298722648
 20
205.5626962700028
 30
0.0
 11
52.88155298722648
 21
205.8966811200028
 31
0.0
  0
LINE
  5
32EA
  8
0
 10
52.88155298722648
 20
205.8966811200028
 30
0.0
 11
51.54672698722646
 21
205.8966811200028
 31
0.0
  0
LINE
  5
32EB
  8
0
 10
51.54672698722646
 20
205.8966811200028
 30
0.0
 11
51.54672698722646
 21
205.5626962700028
 31
0.0
  0
LINE
  5
32EC
  8
0
 10
42.53436198722648
 20
205.2287712700028
 30
0.0
 11
42.86871733722649
 21
205.2287712700028
 31
0.0
  0
LINE
  5
32ED
  8
0
 10
42.86871733722649
 20
205.2287712700028
 30
0.0
 11
42.86871733722649
 21
205.5627551700028
 31
0.0
  0
LINE
  5
32EE
  8
0
 10
42.86871733722649
 20
205.5627551700028
 30
0.0
 11
42.53436198722648
 21
205.5627551700028
 31
0.0
  0
LINE
  5
32EF
  8
0
 10
42.53436198722648
 20
205.5627551700028
 30
0.0
 11
42.53436198722648
 21
205.2287712700028
 31
0.0
  0
LINE
  5
32F0
  8
0
 10
43.20192698722647
 20
205.2287712700028
 30
0.0
 11
43.53628328722647
 21
205.2287712700028
 31
0.0
  0
LINE
  5
32F1
  8
0
 10
43.53628328722647
 20
205.2287712700028
 30
0.0
 11
43.53628328722647
 21
205.5627551700028
 31
0.0
  0
LINE
  5
32F2
  8
0
 10
43.53628328722647
 20
205.5627551700028
 30
0.0
 11
43.20192698722647
 21
205.5627551700028
 31
0.0
  0
LINE
  5
32F3
  8
0
 10
43.20192698722647
 20
205.5627551700028
 30
0.0
 11
43.20192698722647
 21
205.2287712700028
 31
0.0
  0
LINE
  5
32F4
  8
0
 10
43.8694919872265
 20
205.2287712700028
 30
0.0
 11
44.87107698722647
 21
205.2287712700028
 31
0.0
  0
LINE
  5
32F5
  8
0
 10
44.87107698722647
 20
205.2287712700028
 30
0.0
 11
44.87107698722647
 21
205.5627551700028
 31
0.0
  0
LINE
  5
32F6
  8
0
 10
44.87107698722647
 20
205.5627551700028
 30
0.0
 11
43.8694919872265
 21
205.5627551700028
 31
0.0
  0
LINE
  5
32F7
  8
0
 10
43.8694919872265
 20
205.5627551700028
 30
0.0
 11
43.8694919872265
 21
205.2287712700028
 31
0.0
  0
LINE
  5
32F8
  8
0
 10
45.53873698722646
 20
205.2287712700028
 30
0.0
 11
45.87272183722646
 21
205.2287712700028
 31
0.0
  0
LINE
  5
32F9
  8
0
 10
45.87272183722646
 20
205.2287712700028
 30
0.0
 11
45.87272183722646
 21
205.5627551700028
 31
0.0
  0
LINE
  5
32FA
  8
0
 10
45.87272183722646
 20
205.5627551700028
 30
0.0
 11
45.53873698722646
 21
205.5627551700028
 31
0.0
  0
LINE
  5
32FB
  8
0
 10
45.53873698722646
 20
205.5627551700028
 30
0.0
 11
45.53873698722646
 21
205.2287712700028
 31
0.0
  0
LINE
  5
32FC
  8
0
 10
46.20592198722647
 20
205.2287712700028
 30
0.0
 11
46.5399058872265
 21
205.2287712700028
 31
0.0
  0
LINE
  5
32FD
  8
0
 10
46.5399058872265
 20
205.2287712700028
 30
0.0
 11
46.5399058872265
 21
205.5627551700028
 31
0.0
  0
LINE
  5
32FE
  8
0
 10
46.5399058872265
 20
205.5627551700028
 30
0.0
 11
46.20592198722647
 21
205.5627551700028
 31
0.0
  0
LINE
  5
32FF
  8
0
 10
46.20592198722647
 20
205.5627551700028
 30
0.0
 11
46.20592198722647
 21
205.2287712700028
 31
0.0
  0
LINE
  5
3300
  8
0
 10
47.54152698722649
 20
205.2287712700028
 30
0.0
 11
48.54311198722647
 21
205.2287712700028
 31
0.0
  0
LINE
  5
3301
  8
0
 10
48.54311198722647
 20
205.2287712700028
 30
0.0
 11
48.54311198722647
 21
205.5627551700028
 31
0.0
  0
LINE
  5
3302
  8
0
 10
48.54311198722647
 20
205.5627551700028
 30
0.0
 11
47.54152698722649
 21
205.5627551700028
 31
0.0
  0
LINE
  5
3303
  8
0
 10
47.54152698722649
 20
205.5627551700028
 30
0.0
 11
47.54152698722649
 21
205.2287712700028
 31
0.0
  0
LINE
  5
3304
  8
0
 10
49.20991698722648
 20
205.2287712700028
 30
0.0
 11
49.87751523722648
 21
205.2287712700028
 31
0.0
  0
LINE
  5
3305
  8
0
 10
49.87751523722648
 20
205.2287712700028
 30
0.0
 11
49.87751523722648
 21
205.5627551700028
 31
0.0
  0
LINE
  5
3306
  8
0
 10
49.87751523722648
 20
205.5627551700028
 30
0.0
 11
49.20991698722648
 21
205.5627551700028
 31
0.0
  0
LINE
  5
3307
  8
0
 10
49.20991698722648
 20
205.5627551700028
 30
0.0
 11
49.20991698722648
 21
205.2287712700028
 31
0.0
  0
LINE
  5
3308
  8
0
 10
50.54590198722647
 20
205.2287712700028
 30
0.0
 11
51.21312878722648
 21
205.2287712700028
 31
0.0
  0
LINE
  5
3309
  8
0
 10
51.21312878722648
 20
205.2287712700028
 30
0.0
 11
51.21312878722648
 21
205.5627551700028
 31
0.0
  0
LINE
  5
330A
  8
0
 10
51.21312878722648
 20
205.5627551700028
 30
0.0
 11
50.54590198722647
 21
205.5627551700028
 31
0.0
  0
LINE
  5
330B
  8
0
 10
50.54590198722647
 20
205.5627551700028
 30
0.0
 11
50.54590198722647
 21
205.2287712700028
 31
0.0
  0
LINE
  5
330C
  8
0
 10
51.54672698722646
 20
205.2287712700028
 30
0.0
 11
51.88071088722648
 21
205.2287712700028
 31
0.0
  0
LINE
  5
330D
  8
0
 10
51.88071088722648
 20
205.2287712700028
 30
0.0
 11
51.88071088722648
 21
205.5627551700028
 31
0.0
  0
LINE
  5
330E
  8
0
 10
51.88071088722648
 20
205.5627551700028
 30
0.0
 11
51.54672698722646
 21
205.5627551700028
 31
0.0
  0
LINE
  5
330F
  8
0
 10
51.54672698722646
 20
205.5627551700028
 30
0.0
 11
51.54672698722646
 21
205.2287712700028
 31
0.0
  0
LINE
  5
3310
  8
0
 10
52.21391198722648
 20
205.2287712700028
 30
0.0
 11
53.21549698722649
 21
205.2287712700028
 31
0.0
  0
LINE
  5
3311
  8
0
 10
53.21549698722649
 20
205.2287712700028
 30
0.0
 11
53.21549698722649
 21
205.5627551700028
 31
0.0
  0
LINE
  5
3312
  8
0
 10
53.21549698722649
 20
205.5627551700028
 30
0.0
 11
52.21391198722648
 21
205.5627551700028
 31
0.0
  0
LINE
  5
3313
  8
0
 10
52.21391198722648
 20
205.5627551700028
 30
0.0
 11
52.21391198722648
 21
205.2287712700028
 31
0.0
  0
LINE
  5
3314
  8
0
 10
42.53436198722648
 20
204.8951312700028
 30
0.0
 11
42.86871733722649
 21
204.8951312700028
 31
0.0
  0
LINE
  5
3315
  8
0
 10
42.86871733722649
 20
204.8951312700028
 30
0.0
 11
42.86871733722649
 21
205.2291151700028
 31
0.0
  0
LINE
  5
3316
  8
0
 10
42.86871733722649
 20
205.2291151700028
 30
0.0
 11
42.53436198722648
 21
205.2291151700028
 31
0.0
  0
LINE
  5
3317
  8
0
 10
42.53436198722648
 20
205.2291151700028
 30
0.0
 11
42.53436198722648
 21
204.8951312700028
 31
0.0
  0
LINE
  5
3318
  8
0
 10
43.8694919872265
 20
204.8951312700028
 30
0.0
 11
44.53708928722648
 21
204.8951312700028
 31
0.0
  0
LINE
  5
3319
  8
0
 10
44.53708928722648
 20
204.8951312700028
 30
0.0
 11
44.53708928722648
 21
205.2291151700028
 31
0.0
  0
LINE
  5
331A
  8
0
 10
44.53708928722648
 20
205.2291151700028
 30
0.0
 11
43.8694919872265
 21
205.2291151700028
 31
0.0
  0
LINE
  5
331B
  8
0
 10
43.8694919872265
 20
205.2291151700028
 30
0.0
 11
43.8694919872265
 21
204.8951312700028
 31
0.0
  0
LINE
  5
331C
  8
0
 10
44.87107698722647
 20
204.8951312700028
 30
0.0
 11
46.87349648722648
 21
204.8951312700028
 31
0.0
  0
LINE
  5
331D
  8
0
 10
46.87349648722648
 20
204.8951312700028
 30
0.0
 11
46.87349648722648
 21
205.2291151700028
 31
0.0
  0
LINE
  5
331E
  8
0
 10
46.87349648722648
 20
205.2291151700028
 30
0.0
 11
44.87107698722647
 21
205.2291151700028
 31
0.0
  0
LINE
  5
331F
  8
0
 10
44.87107698722647
 20
205.2291151700028
 30
0.0
 11
44.87107698722647
 21
204.8951312700028
 31
0.0
  0
LINE
  5
3320
  8
0
 10
48.54273198722649
 20
204.8951312700028
 30
0.0
 11
48.87671683722647
 21
204.8951312700028
 31
0.0
  0
LINE
  5
3321
  8
0
 10
48.87671683722647
 20
204.8951312700028
 30
0.0
 11
48.87671683722647
 21
205.2291151700028
 31
0.0
  0
LINE
  5
3322
  8
0
 10
48.87671683722647
 20
205.2291151700028
 30
0.0
 11
48.54273198722649
 21
205.2291151700028
 31
0.0
  0
LINE
  5
3323
  8
0
 10
48.54273198722649
 20
205.2291151700028
 30
0.0
 11
48.54273198722649
 21
204.8951312700028
 31
0.0
  0
LINE
  5
3324
  8
0
 10
49.87748198722647
 20
204.8951312700028
 30
0.0
 11
50.54507928722649
 21
204.8951312700028
 31
0.0
  0
LINE
  5
3325
  8
0
 10
50.54507928722649
 20
204.8951312700028
 30
0.0
 11
50.54507928722649
 21
205.2291151700028
 31
0.0
  0
LINE
  5
3326
  8
0
 10
50.54507928722649
 20
205.2291151700028
 30
0.0
 11
49.87748198722647
 21
205.2291151700028
 31
0.0
  0
LINE
  5
3327
  8
0
 10
49.87748198722647
 20
205.2291151700028
 30
0.0
 11
49.87748198722647
 21
204.8951312700028
 31
0.0
  0
LINE
  5
3328
  8
0
 10
50.87906698722648
 20
204.8951312700028
 30
0.0
 11
51.88065198722649
 21
204.8951312700028
 31
0.0
  0
LINE
  5
3329
  8
0
 10
51.88065198722649
 20
204.8951312700028
 30
0.0
 11
51.88065198722649
 21
205.2291151700028
 31
0.0
  0
LINE
  5
332A
  8
0
 10
51.88065198722649
 20
205.2291151700028
 30
0.0
 11
50.87906698722648
 21
205.2291151700028
 31
0.0
  0
LINE
  5
332B
  8
0
 10
50.87906698722648
 20
205.2291151700028
 30
0.0
 11
50.87906698722648
 21
204.8951312700028
 31
0.0
  0
LINE
  5
332C
  8
0
 10
52.21391198722648
 20
204.8951312700028
 30
0.0
 11
52.88150928722646
 21
204.8951312700028
 31
0.0
  0
LINE
  5
332D
  8
0
 10
52.88150928722646
 20
204.8951312700028
 30
0.0
 11
52.88150928722646
 21
205.2291151700028
 31
0.0
  0
LINE
  5
332E
  8
0
 10
52.88150928722646
 20
205.2291151700028
 30
0.0
 11
52.21391198722648
 21
205.2291151700028
 31
0.0
  0
LINE
  5
332F
  8
0
 10
52.21391198722648
 20
205.2291151700028
 30
0.0
 11
52.21391198722648
 21
204.8951312700028
 31
0.0
  0
LINE
  5
3330
  8
0
 10
53.21549698722649
 20
204.8951312700028
 30
0.0
 11
53.54985328722648
 21
204.8951312700028
 31
0.0
  0
LINE
  5
3331
  8
0
 10
53.54985328722648
 20
204.8951312700028
 30
0.0
 11
53.54985328722648
 21
205.2291151700028
 31
0.0
  0
LINE
  5
3332
  8
0
 10
53.54985328722648
 20
205.2291151700028
 30
0.0
 11
53.21549698722649
 21
205.2291151700028
 31
0.0
  0
LINE
  5
3333
  8
0
 10
53.21549698722649
 20
205.2291151700028
 30
0.0
 11
53.21549698722649
 21
204.8951312700028
 31
0.0
  0
LINE
  5
3334
  8
0
 10
42.53436198722648
 20
204.5611112700028
 30
0.0
 11
43.20195928722646
 21
204.5611112700028
 31
0.0
  0
LINE
  5
3335
  8
0
 10
43.20195928722646
 20
204.5611112700028
 30
0.0
 11
43.20195928722646
 21
204.8950961200028
 31
0.0
  0
LINE
  5
3336
  8
0
 10
43.20195928722646
 20
204.8950961200028
 30
0.0
 11
42.53436198722648
 21
204.8950961200028
 31
0.0
  0
LINE
  5
3337
  8
0
 10
42.53436198722648
 20
204.8950961200028
 30
0.0
 11
42.53436198722648
 21
204.5611112700028
 31
0.0
  0
LINE
  5
3338
  8
0
 10
43.53585198722649
 20
204.5611112700028
 30
0.0
 11
43.86983588722649
 21
204.5611112700028
 31
0.0
  0
LINE
  5
3339
  8
0
 10
43.86983588722649
 20
204.5611112700028
 30
0.0
 11
43.86983588722649
 21
204.8950961200028
 31
0.0
  0
LINE
  5
333A
  8
0
 10
43.86983588722649
 20
204.8950961200028
 30
0.0
 11
43.53585198722649
 21
204.8950961200028
 31
0.0
  0
LINE
  5
333B
  8
0
 10
43.53585198722649
 20
204.8950961200028
 30
0.0
 11
43.53585198722649
 21
204.5611112700028
 31
0.0
  0
LINE
  5
333C
  8
0
 10
44.20351198722648
 20
204.5611112700028
 30
0.0
 11
46.20593148722648
 21
204.5611112700028
 31
0.0
  0
LINE
  5
333D
  8
0
 10
46.20593148722648
 20
204.5611112700028
 30
0.0
 11
46.20593148722648
 21
204.8950961200028
 31
0.0
  0
LINE
  5
333E
  8
0
 10
46.20593148722648
 20
204.8950961200028
 30
0.0
 11
44.20351198722648
 21
204.8950961200028
 31
0.0
  0
LINE
  5
333F
  8
0
 10
44.20351198722648
 20
204.8950961200028
 30
0.0
 11
44.20351198722648
 21
204.5611112700028
 31
0.0
  0
LINE
  5
3340
  8
0
 10
47.54152698722649
 20
204.5611112700028
 30
0.0
 11
48.20912523722646
 21
204.5611112700028
 31
0.0
  0
LINE
  5
3341
  8
0
 10
48.20912523722646
 20
204.5611112700028
 30
0.0
 11
48.20912523722646
 21
204.8950961200028
 31
0.0
  0
LINE
  5
3342
  8
0
 10
48.20912523722646
 20
204.8950961200028
 30
0.0
 11
47.54152698722649
 21
204.8950961200028
 31
0.0
  0
LINE
  5
3343
  8
0
 10
47.54152698722649
 20
204.8950961200028
 30
0.0
 11
47.54152698722649
 21
204.5611112700028
 31
0.0
  0
LINE
  5
3344
  8
0
 10
48.87665698722648
 20
204.5611112700028
 30
0.0
 11
49.54425428722647
 21
204.5611112700028
 31
0.0
  0
LINE
  5
3345
  8
0
 10
49.54425428722647
 20
204.5611112700028
 30
0.0
 11
49.54425428722647
 21
204.8950961200028
 31
0.0
  0
LINE
  5
3346
  8
0
 10
49.54425428722647
 20
204.8950961200028
 30
0.0
 11
48.87665698722648
 21
204.8950961200028
 31
0.0
  0
LINE
  5
3347
  8
0
 10
48.87665698722648
 20
204.8950961200028
 30
0.0
 11
48.87665698722648
 21
204.5611112700028
 31
0.0
  0
LINE
  5
3348
  8
0
 10
50.54590198722647
 20
204.5611112700028
 30
0.0
 11
52.54832148722647
 21
204.5611112700028
 31
0.0
  0
LINE
  5
3349
  8
0
 10
52.54832148722647
 20
204.5611112700028
 30
0.0
 11
52.54832148722647
 21
204.8950961200028
 31
0.0
  0
LINE
  5
334A
  8
0
 10
52.54832148722647
 20
204.8950961200028
 30
0.0
 11
50.54590198722647
 21
204.8950961200028
 31
0.0
  0
LINE
  5
334B
  8
0
 10
50.54590198722647
 20
204.8950961200028
 30
0.0
 11
50.54590198722647
 21
204.5611112700028
 31
0.0
  0
LINE
  5
334C
  8
0
 10
45.20509698722648
 20
204.2275662700028
 30
0.0
 11
45.53908183722649
 21
204.2275662700028
 31
0.0
  0
LINE
  5
334D
  8
0
 10
45.53908183722649
 20
204.2275662700028
 30
0.0
 11
45.53908183722649
 21
204.5615511200028
 31
0.0
  0
LINE
  5
334E
  8
0
 10
45.53908183722649
 20
204.5615511200028
 30
0.0
 11
45.20509698722648
 21
204.5615511200028
 31
0.0
  0
LINE
  5
334F
  8
0
 10
45.20509698722648
 20
204.5615511200028
 30
0.0
 11
45.20509698722648
 21
204.2275662700028
 31
0.0
  0
LINE
  5
3350
  8
0
 10
46.20592198722647
 20
204.2275662700028
 30
0.0
 11
46.5399058872265
 21
204.2275662700028
 31
0.0
  0
LINE
  5
3351
  8
0
 10
46.5399058872265
 20
204.2275662700028
 30
0.0
 11
46.5399058872265
 21
204.5615511200028
 31
0.0
  0
LINE
  5
3352
  8
0
 10
46.5399058872265
 20
204.5615511200028
 30
0.0
 11
46.20592198722647
 21
204.5615511200028
 31
0.0
  0
LINE
  5
3353
  8
0
 10
46.20592198722647
 20
204.5615511200028
 30
0.0
 11
46.20592198722647
 21
204.2275662700028
 31
0.0
  0
LINE
  5
3354
  8
0
 10
46.87348698722647
 20
204.2275662700028
 30
0.0
 11
47.20747183722648
 21
204.2275662700028
 31
0.0
  0
LINE
  5
3355
  8
0
 10
47.20747183722648
 20
204.2275662700028
 30
0.0
 11
47.20747183722648
 21
204.5615511200028
 31
0.0
  0
LINE
  5
3356
  8
0
 10
47.20747183722648
 20
204.5615511200028
 30
0.0
 11
46.87348698722647
 21
204.5615511200028
 31
0.0
  0
LINE
  5
3357
  8
0
 10
46.87348698722647
 20
204.5615511200028
 30
0.0
 11
46.87348698722647
 21
204.2275662700028
 31
0.0
  0
LINE
  5
3358
  8
0
 10
47.54152698722649
 20
204.2275662700028
 30
0.0
 11
47.8758823372265
 21
204.2275662700028
 31
0.0
  0
LINE
  5
3359
  8
0
 10
47.8758823372265
 20
204.2275662700028
 30
0.0
 11
47.8758823372265
 21
204.5615511200028
 31
0.0
  0
LINE
  5
335A
  8
0
 10
47.8758823372265
 20
204.5615511200028
 30
0.0
 11
47.54152698722649
 21
204.5615511200028
 31
0.0
  0
LINE
  5
335B
  8
0
 10
47.54152698722649
 20
204.5615511200028
 30
0.0
 11
47.54152698722649
 21
204.2275662700028
 31
0.0
  0
LINE
  5
335C
  8
0
 10
48.54273198722649
 20
204.2275662700028
 30
0.0
 11
49.54394648722649
 21
204.2275662700028
 31
0.0
  0
LINE
  5
335D
  8
0
 10
49.54394648722649
 20
204.2275662700028
 30
0.0
 11
49.54394648722649
 21
204.5615511200028
 31
0.0
  0
LINE
  5
335E
  8
0
 10
49.54394648722649
 20
204.5615511200028
 30
0.0
 11
48.54273198722649
 21
204.5615511200028
 31
0.0
  0
LINE
  5
335F
  8
0
 10
48.54273198722649
 20
204.5615511200028
 30
0.0
 11
48.54273198722649
 21
204.2275662700028
 31
0.0
  0
LINE
  5
3360
  8
0
 10
49.87748198722647
 20
204.2275662700028
 30
0.0
 11
50.87906698722648
 21
204.2275662700028
 31
0.0
  0
LINE
  5
3361
  8
0
 10
50.87906698722648
 20
204.2275662700028
 30
0.0
 11
50.87906698722648
 21
204.5615511200028
 31
0.0
  0
LINE
  5
3362
  8
0
 10
50.87906698722648
 20
204.5615511200028
 30
0.0
 11
49.87748198722647
 21
204.5615511200028
 31
0.0
  0
LINE
  5
3363
  8
0
 10
49.87748198722647
 20
204.5615511200028
 30
0.0
 11
49.87748198722647
 21
204.2275662700028
 31
0.0
  0
LINE
  5
3364
  8
0
 10
51.88065198722649
 20
204.2275662700028
 30
0.0
 11
52.21463683722646
 21
204.2275662700028
 31
0.0
  0
LINE
  5
3365
  8
0
 10
52.21463683722646
 20
204.2275662700028
 30
0.0
 11
52.21463683722646
 21
204.5615511200028
 31
0.0
  0
LINE
  5
3366
  8
0
 10
52.21463683722646
 20
204.5615511200028
 30
0.0
 11
51.88065198722649
 21
204.5615511200028
 31
0.0
  0
LINE
  5
3367
  8
0
 10
51.88065198722649
 20
204.5615511200028
 30
0.0
 11
51.88065198722649
 21
204.2275662700028
 31
0.0
  0
LINE
  5
3368
  8
0
 10
52.54831198722647
 20
204.2275662700028
 30
0.0
 11
53.54989698722648
 21
204.2275662700028
 31
0.0
  0
LINE
  5
3369
  8
0
 10
53.54989698722648
 20
204.2275662700028
 30
0.0
 11
53.54989698722648
 21
204.5615511200028
 31
0.0
  0
LINE
  5
336A
  8
0
 10
53.54989698722648
 20
204.5615511200028
 30
0.0
 11
52.54831198722647
 21
204.5615511200028
 31
0.0
  0
LINE
  5
336B
  8
0
 10
52.54831198722647
 20
204.5615511200028
 30
0.0
 11
52.54831198722647
 21
204.2275662700028
 31
0.0
  0
LINE
  5
336C
  8
0
 10
42.53436198722648
 20
203.8935462700028
 30
0.0
 11
44.8711434872265
 21
203.8935462700028
 31
0.0
  0
LINE
  5
336D
  8
0
 10
44.8711434872265
 20
203.8935462700028
 30
0.0
 11
44.8711434872265
 21
204.2275301700028
 31
0.0
  0
LINE
  5
336E
  8
0
 10
44.8711434872265
 20
204.2275301700028
 30
0.0
 11
42.53436198722648
 21
204.2275301700028
 31
0.0
  0
LINE
  5
336F
  8
0
 10
42.53436198722648
 20
204.2275301700028
 30
0.0
 11
42.53436198722648
 21
203.8935462700028
 31
0.0
  0
LINE
  5
3370
  8
0
 10
46.20592198722647
 20
203.8935462700028
 30
0.0
 11
47.20750698722648
 21
203.8935462700028
 31
0.0
  0
LINE
  5
3371
  8
0
 10
47.20750698722648
 20
203.8935462700028
 30
0.0
 11
47.20750698722648
 21
204.2275301700028
 31
0.0
  0
LINE
  5
3372
  8
0
 10
47.20750698722648
 20
204.2275301700028
 30
0.0
 11
46.20592198722647
 21
204.2275301700028
 31
0.0
  0
LINE
  5
3373
  8
0
 10
46.20592198722647
 20
204.2275301700028
 30
0.0
 11
46.20592198722647
 21
203.8935462700028
 31
0.0
  0
LINE
  5
3374
  8
0
 10
47.54152698722649
 20
203.8935462700028
 30
0.0
 11
48.20912523722646
 21
203.8935462700028
 31
0.0
  0
LINE
  5
3375
  8
0
 10
48.20912523722646
 20
203.8935462700028
 30
0.0
 11
48.20912523722646
 21
204.2275301700028
 31
0.0
  0
LINE
  5
3376
  8
0
 10
48.20912523722646
 20
204.2275301700028
 30
0.0
 11
47.54152698722649
 21
204.2275301700028
 31
0.0
  0
LINE
  5
3377
  8
0
 10
47.54152698722649
 20
204.2275301700028
 30
0.0
 11
47.54152698722649
 21
203.8935462700028
 31
0.0
  0
LINE
  5
3378
  8
0
 10
48.54273198722649
 20
203.8935462700028
 30
0.0
 11
48.87671683722647
 21
203.8935462700028
 31
0.0
  0
LINE
  5
3379
  8
0
 10
48.87671683722647
 20
203.8935462700028
 30
0.0
 11
48.87671683722647
 21
204.2275301700028
 31
0.0
  0
LINE
  5
337A
  8
0
 10
48.87671683722647
 20
204.2275301700028
 30
0.0
 11
48.54273198722649
 21
204.2275301700028
 31
0.0
  0
LINE
  5
337B
  8
0
 10
48.54273198722649
 20
204.2275301700028
 30
0.0
 11
48.54273198722649
 21
203.8935462700028
 31
0.0
  0
LINE
  5
337C
  8
0
 10
49.20991698722648
 20
203.8935462700028
 30
0.0
 11
49.87751523722648
 21
203.8935462700028
 31
0.0
  0
LINE
  5
337D
  8
0
 10
49.87751523722648
 20
203.8935462700028
 30
0.0
 11
49.87751523722648
 21
204.2275301700028
 31
0.0
  0
LINE
  5
337E
  8
0
 10
49.87751523722648
 20
204.2275301700028
 30
0.0
 11
49.20991698722648
 21
204.2275301700028
 31
0.0
  0
LINE
  5
337F
  8
0
 10
49.20991698722648
 20
204.2275301700028
 30
0.0
 11
49.20991698722648
 21
203.8935462700028
 31
0.0
  0
LINE
  5
3380
  8
0
 10
50.21150198722648
 20
203.8935462700028
 30
0.0
 11
50.87909928722647
 21
203.8935462700028
 31
0.0
  0
LINE
  5
3381
  8
0
 10
50.87909928722647
 20
203.8935462700028
 30
0.0
 11
50.87909928722647
 21
204.2275301700028
 31
0.0
  0
LINE
  5
3382
  8
0
 10
50.87909928722647
 20
204.2275301700028
 30
0.0
 11
50.21150198722648
 21
204.2275301700028
 31
0.0
  0
LINE
  5
3383
  8
0
 10
50.21150198722648
 20
204.2275301700028
 30
0.0
 11
50.21150198722648
 21
203.8935462700028
 31
0.0
  0
LINE
  5
3384
  8
0
 10
51.21308698722649
 20
203.8935462700028
 30
0.0
 11
51.54707088722648
 21
203.8935462700028
 31
0.0
  0
LINE
  5
3385
  8
0
 10
51.54707088722648
 20
203.8935462700028
 30
0.0
 11
51.54707088722648
 21
204.2275301700028
 31
0.0
  0
LINE
  5
3386
  8
0
 10
51.54707088722648
 20
204.2275301700028
 30
0.0
 11
51.21308698722649
 21
204.2275301700028
 31
0.0
  0
LINE
  5
3387
  8
0
 10
51.21308698722649
 20
204.2275301700028
 30
0.0
 11
51.21308698722649
 21
203.8935462700028
 31
0.0
  0
LINE
  5
3388
  8
0
 10
51.88065198722649
 20
203.8935462700028
 30
0.0
 11
52.21463683722646
 21
203.8935462700028
 31
0.0
  0
LINE
  5
3389
  8
0
 10
52.21463683722646
 20
203.8935462700028
 30
0.0
 11
52.21463683722646
 21
204.2275301700028
 31
0.0
  0
LINE
  5
338A
  8
0
 10
52.21463683722646
 20
204.2275301700028
 30
0.0
 11
51.88065198722649
 21
204.2275301700028
 31
0.0
  0
LINE
  5
338B
  8
0
 10
51.88065198722649
 20
204.2275301700028
 30
0.0
 11
51.88065198722649
 21
203.8935462700028
 31
0.0
  0
LINE
  5
338C
  8
0
 10
52.54831198722647
 20
203.8935462700028
 30
0.0
 11
53.21553783722649
 21
203.8935462700028
 31
0.0
  0
LINE
  5
338D
  8
0
 10
53.21553783722649
 20
203.8935462700028
 30
0.0
 11
53.21553783722649
 21
204.2275301700028
 31
0.0
  0
LINE
  5
338E
  8
0
 10
53.21553783722649
 20
204.2275301700028
 30
0.0
 11
52.54831198722647
 21
204.2275301700028
 31
0.0
  0
LINE
  5
338F
  8
0
 10
52.54831198722647
 20
204.2275301700028
 30
0.0
 11
52.54831198722647
 21
203.8935462700028
 31
0.0
  0
LINE
  5
3390
  8
0
 10
42.53436198722648
 20
203.5602862700028
 30
0.0
 11
42.86871733722649
 21
203.5602862700028
 31
0.0
  0
LINE
  5
3391
  8
0
 10
42.86871733722649
 20
203.5602862700028
 30
0.0
 11
42.86871733722649
 21
203.8942701700028
 31
0.0
  0
LINE
  5
3392
  8
0
 10
42.86871733722649
 20
203.8942701700028
 30
0.0
 11
42.53436198722648
 21
203.8942701700028
 31
0.0
  0
LINE
  5
3393
  8
0
 10
42.53436198722648
 20
203.8942701700028
 30
0.0
 11
42.53436198722648
 21
203.5602862700028
 31
0.0
  0
LINE
  5
3394
  8
0
 10
44.53743698722647
 20
203.5602862700028
 30
0.0
 11
44.87142088722646
 21
203.5602862700028
 31
0.0
  0
LINE
  5
3395
  8
0
 10
44.87142088722646
 20
203.5602862700028
 30
0.0
 11
44.87142088722646
 21
203.8942701700028
 31
0.0
  0
LINE
  5
3396
  8
0
 10
44.87142088722646
 20
203.8942701700028
 30
0.0
 11
44.53743698722647
 21
203.8942701700028
 31
0.0
  0
LINE
  5
3397
  8
0
 10
44.53743698722647
 20
203.8942701700028
 30
0.0
 11
44.53743698722647
 21
203.5602862700028
 31
0.0
  0
LINE
  5
3398
  8
0
 10
45.53873698722646
 20
203.5602862700028
 30
0.0
 11
46.53995148722646
 21
203.5602862700028
 31
0.0
  0
LINE
  5
3399
  8
0
 10
46.53995148722646
 20
203.5602862700028
 30
0.0
 11
46.53995148722646
 21
203.8942701700028
 31
0.0
  0
LINE
  5
339A
  8
0
 10
46.53995148722646
 20
203.8942701700028
 30
0.0
 11
45.53873698722646
 21
203.8942701700028
 31
0.0
  0
LINE
  5
339B
  8
0
 10
45.53873698722646
 20
203.8942701700028
 30
0.0
 11
45.53873698722646
 21
203.5602862700028
 31
0.0
  0
LINE
  5
339C
  8
0
 10
47.54152698722649
 20
203.5602862700028
 30
0.0
 11
47.8758823372265
 21
203.5602862700028
 31
0.0
  0
LINE
  5
339D
  8
0
 10
47.8758823372265
 20
203.5602862700028
 30
0.0
 11
47.8758823372265
 21
203.8942701700028
 31
0.0
  0
LINE
  5
339E
  8
0
 10
47.8758823372265
 20
203.8942701700028
 30
0.0
 11
47.54152698722649
 21
203.8942701700028
 31
0.0
  0
LINE
  5
339F
  8
0
 10
47.54152698722649
 20
203.8942701700028
 30
0.0
 11
47.54152698722649
 21
203.5602862700028
 31
0.0
  0
LINE
  5
33A0
  8
0
 10
49.20991698722648
 20
203.5602862700028
 30
0.0
 11
49.54427233722649
 21
203.5602862700028
 31
0.0
  0
LINE
  5
33A1
  8
0
 10
49.54427233722649
 20
203.5602862700028
 30
0.0
 11
49.54427233722649
 21
203.8942701700028
 31
0.0
  0
LINE
  5
33A2
  8
0
 10
49.54427233722649
 20
203.8942701700028
 30
0.0
 11
49.20991698722648
 21
203.8942701700028
 31
0.0
  0
LINE
  5
33A3
  8
0
 10
49.20991698722648
 20
203.8942701700028
 30
0.0
 11
49.20991698722648
 21
203.5602862700028
 31
0.0
  0
LINE
  5
33A4
  8
0
 10
50.21150198722648
 20
203.5602862700028
 30
0.0
 11
50.87909928722647
 21
203.5602862700028
 31
0.0
  0
LINE
  5
33A5
  8
0
 10
50.87909928722647
 20
203.5602862700028
 30
0.0
 11
50.87909928722647
 21
203.8942701700028
 31
0.0
  0
LINE
  5
33A6
  8
0
 10
50.87909928722647
 20
203.8942701700028
 30
0.0
 11
50.21150198722648
 21
203.8942701700028
 31
0.0
  0
LINE
  5
33A7
  8
0
 10
50.21150198722648
 20
203.8942701700028
 30
0.0
 11
50.21150198722648
 21
203.5602862700028
 31
0.0
  0
LINE
  5
33A8
  8
0
 10
51.88065198722649
 20
203.5602862700028
 30
0.0
 11
52.88223698722646
 21
203.5602862700028
 31
0.0
  0
LINE
  5
33A9
  8
0
 10
52.88223698722646
 20
203.5602862700028
 30
0.0
 11
52.88223698722646
 21
203.8942701700028
 31
0.0
  0
LINE
  5
33AA
  8
0
 10
52.88223698722646
 20
203.8942701700028
 30
0.0
 11
51.88065198722649
 21
203.8942701700028
 31
0.0
  0
LINE
  5
33AB
  8
0
 10
51.88065198722649
 20
203.8942701700028
 30
0.0
 11
51.88065198722649
 21
203.5602862700028
 31
0.0
  0
LINE
  5
33AC
  8
0
 10
53.21549698722649
 20
203.5602862700028
 30
0.0
 11
53.54985328722648
 21
203.5602862700028
 31
0.0
  0
LINE
  5
33AD
  8
0
 10
53.54985328722648
 20
203.5602862700028
 30
0.0
 11
53.54985328722648
 21
203.8942701700028
 31
0.0
  0
LINE
  5
33AE
  8
0
 10
53.54985328722648
 20
203.8942701700028
 30
0.0
 11
53.21549698722649
 21
203.8942701700028
 31
0.0
  0
LINE
  5
33AF
  8
0
 10
53.21549698722649
 20
203.8942701700028
 30
0.0
 11
53.21549698722649
 21
203.5602862700028
 31
0.0
  0
LINE
  5
33B0
  8
0
 10
42.53436198722648
 20
203.2262662700028
 30
0.0
 11
42.86871733722649
 21
203.2262662700028
 31
0.0
  0
LINE
  5
33B1
  8
0
 10
42.86871733722649
 20
203.2262662700028
 30
0.0
 11
42.86871733722649
 21
203.5602511200028
 31
0.0
  0
LINE
  5
33B2
  8
0
 10
42.86871733722649
 20
203.5602511200028
 30
0.0
 11
42.53436198722648
 21
203.5602511200028
 31
0.0
  0
LINE
  5
33B3
  8
0
 10
42.53436198722648
 20
203.5602511200028
 30
0.0
 11
42.53436198722648
 21
203.2262662700028
 31
0.0
  0
LINE
  5
33B4
  8
0
 10
43.20192698722647
 20
203.2262662700028
 30
0.0
 11
44.20351198722648
 21
203.2262662700028
 31
0.0
  0
LINE
  5
33B5
  8
0
 10
44.20351198722648
 20
203.2262662700028
 30
0.0
 11
44.20351198722648
 21
203.5602511200028
 31
0.0
  0
LINE
  5
33B6
  8
0
 10
44.20351198722648
 20
203.5602511200028
 30
0.0
 11
43.20192698722647
 21
203.5602511200028
 31
0.0
  0
LINE
  5
33B7
  8
0
 10
43.20192698722647
 20
203.5602511200028
 30
0.0
 11
43.20192698722647
 21
203.2262662700028
 31
0.0
  0
LINE
  5
33B8
  8
0
 10
44.53743698722647
 20
203.2262662700028
 30
0.0
 11
44.87142088722646
 21
203.2262662700028
 31
0.0
  0
LINE
  5
33B9
  8
0
 10
44.87142088722646
 20
203.2262662700028
 30
0.0
 11
44.87142088722646
 21
203.5602511200028
 31
0.0
  0
LINE
  5
33BA
  8
0
 10
44.87142088722646
 20
203.5602511200028
 30
0.0
 11
44.53743698722647
 21
203.5602511200028
 31
0.0
  0
LINE
  5
33BB
  8
0
 10
44.53743698722647
 20
203.5602511200028
 30
0.0
 11
44.53743698722647
 21
203.2262662700028
 31
0.0
  0
LINE
  5
33BC
  8
0
 10
45.87266198722648
 20
203.2262662700028
 30
0.0
 11
46.53988783722647
 21
203.2262662700028
 31
0.0
  0
LINE
  5
33BD
  8
0
 10
46.53988783722647
 20
203.2262662700028
 30
0.0
 11
46.53988783722647
 21
203.5602511200028
 31
0.0
  0
LINE
  5
33BE
  8
0
 10
46.53988783722647
 20
203.5602511200028
 30
0.0
 11
45.87266198722648
 21
203.5602511200028
 31
0.0
  0
LINE
  5
33BF
  8
0
 10
45.87266198722648
 20
203.5602511200028
 30
0.0
 11
45.87266198722648
 21
203.2262662700028
 31
0.0
  0
LINE
  5
33C0
  8
0
 10
46.87348698722647
 20
203.2262662700028
 30
0.0
 11
47.5410852372265
 21
203.2262662700028
 31
0.0
  0
LINE
  5
33C1
  8
0
 10
47.5410852372265
 20
203.2262662700028
 30
0.0
 11
47.5410852372265
 21
203.5602511200028
 31
0.0
  0
LINE
  5
33C2
  8
0
 10
47.5410852372265
 20
203.5602511200028
 30
0.0
 11
46.87348698722647
 21
203.5602511200028
 31
0.0
  0
LINE
  5
33C3
  8
0
 10
46.87348698722647
 20
203.5602511200028
 30
0.0
 11
46.87348698722647
 21
203.2262662700028
 31
0.0
  0
LINE
  5
33C4
  8
0
 10
48.54273198722649
 20
203.2262662700028
 30
0.0
 11
49.2099587872265
 21
203.2262662700028
 31
0.0
  0
LINE
  5
33C5
  8
0
 10
49.2099587872265
 20
203.2262662700028
 30
0.0
 11
49.2099587872265
 21
203.5602511200028
 31
0.0
  0
LINE
  5
33C6
  8
0
 10
49.2099587872265
 20
203.5602511200028
 30
0.0
 11
48.54273198722649
 21
203.5602511200028
 31
0.0
  0
LINE
  5
33C7
  8
0
 10
48.54273198722649
 20
203.5602511200028
 30
0.0
 11
48.54273198722649
 21
203.2262662700028
 31
0.0
  0
LINE
  5
33C8
  8
0
 10
49.54431698722647
 20
203.2262662700028
 30
0.0
 11
49.87830183722647
 21
203.2262662700028
 31
0.0
  0
LINE
  5
33C9
  8
0
 10
49.87830183722647
 20
203.2262662700028
 30
0.0
 11
49.87830183722647
 21
203.5602511200028
 31
0.0
  0
LINE
  5
33CA
  8
0
 10
49.87830183722647
 20
203.5602511200028
 30
0.0
 11
49.54431698722647
 21
203.5602511200028
 31
0.0
  0
LINE
  5
33CB
  8
0
 10
49.54431698722647
 20
203.5602511200028
 30
0.0
 11
49.54431698722647
 21
203.2262662700028
 31
0.0
  0
LINE
  5
33CC
  8
0
 10
50.54590198722647
 20
203.2262662700028
 30
0.0
 11
52.54832148722647
 21
203.2262662700028
 31
0.0
  0
LINE
  5
33CD
  8
0
 10
52.54832148722647
 20
203.2262662700028
 30
0.0
 11
52.54832148722647
 21
203.5602511200028
 31
0.0
  0
LINE
  5
33CE
  8
0
 10
52.54832148722647
 20
203.5602511200028
 30
0.0
 11
50.54590198722647
 21
203.5602511200028
 31
0.0
  0
LINE
  5
33CF
  8
0
 10
50.54590198722647
 20
203.5602511200028
 30
0.0
 11
50.54590198722647
 21
203.2262662700028
 31
0.0
  0
LINE
  5
33D0
  8
0
 10
42.53436198722648
 20
202.8919612700028
 30
0.0
 11
42.86871733722649
 21
202.8919612700028
 31
0.0
  0
LINE
  5
33D1
  8
0
 10
42.86871733722649
 20
202.8919612700028
 30
0.0
 11
42.86871733722649
 21
203.2263166200028
 31
0.0
  0
LINE
  5
33D2
  8
0
 10
42.86871733722649
 20
203.2263166200028
 30
0.0
 11
42.53436198722648
 21
203.2263166200028
 31
0.0
  0
LINE
  5
33D3
  8
0
 10
42.53436198722648
 20
203.2263166200028
 30
0.0
 11
42.53436198722648
 21
202.8919612700028
 31
0.0
  0
LINE
  5
33D4
  8
0
 10
43.20192698722647
 20
202.8919612700028
 30
0.0
 11
44.20351198722648
 21
202.8919612700028
 31
0.0
  0
LINE
  5
33D5
  8
0
 10
44.20351198722648
 20
202.8919612700028
 30
0.0
 11
44.20351198722648
 21
203.2263166200028
 31
0.0
  0
LINE
  5
33D6
  8
0
 10
44.20351198722648
 20
203.2263166200028
 30
0.0
 11
43.20192698722647
 21
203.2263166200028
 31
0.0
  0
LINE
  5
33D7
  8
0
 10
43.20192698722647
 20
203.2263166200028
 30
0.0
 11
43.20192698722647
 21
202.8919612700028
 31
0.0
  0
LINE
  5
33D8
  8
0
 10
44.53743698722647
 20
202.8919612700028
 30
0.0
 11
44.87142088722646
 21
202.8919612700028
 31
0.0
  0
LINE
  5
33D9
  8
0
 10
44.87142088722646
 20
202.8919612700028
 30
0.0
 11
44.87142088722646
 21
203.2263166200028
 31
0.0
  0
LINE
  5
33DA
  8
0
 10
44.87142088722646
 20
203.2263166200028
 30
0.0
 11
44.53743698722647
 21
203.2263166200028
 31
0.0
  0
LINE
  5
33DB
  8
0
 10
44.53743698722647
 20
203.2263166200028
 30
0.0
 11
44.53743698722647
 21
202.8919612700028
 31
0.0
  0
LINE
  5
33DC
  8
0
 10
45.53873698722646
 20
202.8919612700028
 30
0.0
 11
46.87356298722648
 21
202.8919612700028
 31
0.0
  0
LINE
  5
33DD
  8
0
 10
46.87356298722648
 20
202.8919612700028
 30
0.0
 11
46.87356298722648
 21
203.2263166200028
 31
0.0
  0
LINE
  5
33DE
  8
0
 10
46.87356298722648
 20
203.2263166200028
 30
0.0
 11
45.53873698722646
 21
203.2263166200028
 31
0.0
  0
LINE
  5
33DF
  8
0
 10
45.53873698722646
 20
203.2263166200028
 30
0.0
 11
45.53873698722646
 21
202.8919612700028
 31
0.0
  0
LINE
  5
33E0
  8
0
 10
47.20750698722648
 20
202.8919612700028
 30
0.0
 11
47.5414908872265
 21
202.8919612700028
 31
0.0
  0
LINE
  5
33E1
  8
0
 10
47.5414908872265
 20
202.8919612700028
 30
0.0
 11
47.5414908872265
 21
203.2263166200028
 31
0.0
  0
LINE
  5
33E2
  8
0
 10
47.5414908872265
 20
203.2263166200028
 30
0.0
 11
47.20750698722648
 21
203.2263166200028
 31
0.0
  0
LINE
  5
33E3
  8
0
 10
47.20750698722648
 20
203.2263166200028
 30
0.0
 11
47.20750698722648
 21
202.8919612700028
 31
0.0
  0
LINE
  5
33E4
  8
0
 10
47.87507198722648
 20
202.8919612700028
 30
0.0
 11
48.20905683722648
 21
202.8919612700028
 31
0.0
  0
LINE
  5
33E5
  8
0
 10
48.20905683722648
 20
202.8919612700028
 30
0.0
 11
48.20905683722648
 21
203.2263166200028
 31
0.0
  0
LINE
  5
33E6
  8
0
 10
48.20905683722648
 20
203.2263166200028
 30
0.0
 11
47.87507198722648
 21
203.2263166200028
 31
0.0
  0
LINE
  5
33E7
  8
0
 10
47.87507198722648
 20
203.2263166200028
 30
0.0
 11
47.87507198722648
 21
202.8919612700028
 31
0.0
  0
LINE
  5
33E8
  8
0
 10
49.20991698722648
 20
202.8919612700028
 30
0.0
 11
49.54427233722649
 21
202.8919612700028
 31
0.0
  0
LINE
  5
33E9
  8
0
 10
49.54427233722649
 20
202.8919612700028
 30
0.0
 11
49.54427233722649
 21
203.2263166200028
 31
0.0
  0
LINE
  5
33EA
  8
0
 10
49.54427233722649
 20
203.2263166200028
 30
0.0
 11
49.20991698722648
 21
203.2263166200028
 31
0.0
  0
LINE
  5
33EB
  8
0
 10
49.20991698722648
 20
203.2263166200028
 30
0.0
 11
49.20991698722648
 21
202.8919612700028
 31
0.0
  0
LINE
  5
33EC
  8
0
 10
49.87748198722647
 20
202.8919612700028
 30
0.0
 11
50.54507928722649
 21
202.8919612700028
 31
0.0
  0
LINE
  5
33ED
  8
0
 10
50.54507928722649
 20
202.8919612700028
 30
0.0
 11
50.54507928722649
 21
203.2263166200028
 31
0.0
  0
LINE
  5
33EE
  8
0
 10
50.54507928722649
 20
203.2263166200028
 30
0.0
 11
49.87748198722647
 21
203.2263166200028
 31
0.0
  0
LINE
  5
33EF
  8
0
 10
49.87748198722647
 20
203.2263166200028
 30
0.0
 11
49.87748198722647
 21
202.8919612700028
 31
0.0
  0
LINE
  5
33F0
  8
0
 10
50.87906698722648
 20
202.8919612700028
 30
0.0
 11
51.21305183722649
 21
202.8919612700028
 31
0.0
  0
LINE
  5
33F1
  8
0
 10
51.21305183722649
 20
202.8919612700028
 30
0.0
 11
51.21305183722649
 21
203.2263166200028
 31
0.0
  0
LINE
  5
33F2
  8
0
 10
51.21305183722649
 20
203.2263166200028
 30
0.0
 11
50.87906698722648
 21
203.2263166200028
 31
0.0
  0
LINE
  5
33F3
  8
0
 10
50.87906698722648
 20
203.2263166200028
 30
0.0
 11
50.87906698722648
 21
202.8919612700028
 31
0.0
  0
LINE
  5
33F4
  8
0
 10
51.54672698722646
 20
202.8919612700028
 30
0.0
 11
52.2139537872265
 21
202.8919612700028
 31
0.0
  0
LINE
  5
33F5
  8
0
 10
52.2139537872265
 20
202.8919612700028
 30
0.0
 11
52.2139537872265
 21
203.2263166200028
 31
0.0
  0
LINE
  5
33F6
  8
0
 10
52.2139537872265
 20
203.2263166200028
 30
0.0
 11
51.54672698722646
 21
203.2263166200028
 31
0.0
  0
LINE
  5
33F7
  8
0
 10
51.54672698722646
 20
203.2263166200028
 30
0.0
 11
51.54672698722646
 21
202.8919612700028
 31
0.0
  0
LINE
  5
33F8
  8
0
 10
52.54831198722647
 20
202.8919612700028
 30
0.0
 11
52.88229588722646
 21
202.8919612700028
 31
0.0
  0
LINE
  5
33F9
  8
0
 10
52.88229588722646
 20
202.8919612700028
 30
0.0
 11
52.88229588722646
 21
203.2263166200028
 31
0.0
  0
LINE
  5
33FA
  8
0
 10
52.88229588722646
 20
203.2263166200028
 30
0.0
 11
52.54831198722647
 21
203.2263166200028
 31
0.0
  0
LINE
  5
33FB
  8
0
 10
52.54831198722647
 20
203.2263166200028
 30
0.0
 11
52.54831198722647
 21
202.8919612700028
 31
0.0
  0
LINE
  5
33FC
  8
0
 10
53.21549698722649
 20
202.8919612700028
 30
0.0
 11
53.54985328722648
 21
202.8919612700028
 31
0.0
  0
LINE
  5
33FD
  8
0
 10
53.54985328722648
 20
202.8919612700028
 30
0.0
 11
53.54985328722648
 21
203.2263166200028
 31
0.0
  0
LINE
  5
33FE
  8
0
 10
53.54985328722648
 20
203.2263166200028
 30
0.0
 11
53.21549698722649
 21
203.2263166200028
 31
0.0
  0
LINE
  5
33FF
  8
0
 10
53.21549698722649
 20
203.2263166200028
 30
0.0
 11
53.21549698722649
 21
202.8919612700028
 31
0.0
  0
LINE
  5
3400
  8
0
 10
42.53436198722648
 20
202.5587012700028
 30
0.0
 11
42.86871733722649
 21
202.5587012700028
 31
0.0
  0
LINE
  5
3401
  8
0
 10
42.86871733722649
 20
202.5587012700028
 30
0.0
 11
42.86871733722649
 21
202.8926851700027
 31
0.0
  0
LINE
  5
3402
  8
0
 10
42.86871733722649
 20
202.8926851700027
 30
0.0
 11
42.53436198722648
 21
202.8926851700027
 31
0.0
  0
LINE
  5
3403
  8
0
 10
42.53436198722648
 20
202.8926851700027
 30
0.0
 11
42.53436198722648
 21
202.5587012700028
 31
0.0
  0
LINE
  5
3404
  8
0
 10
43.20192698722647
 20
202.5587012700028
 30
0.0
 11
44.20351198722648
 21
202.5587012700028
 31
0.0
  0
LINE
  5
3405
  8
0
 10
44.20351198722648
 20
202.5587012700028
 30
0.0
 11
44.20351198722648
 21
202.8926851700027
 31
0.0
  0
LINE
  5
3406
  8
0
 10
44.20351198722648
 20
202.8926851700027
 30
0.0
 11
43.20192698722647
 21
202.8926851700027
 31
0.0
  0
LINE
  5
3407
  8
0
 10
43.20192698722647
 20
202.8926851700027
 30
0.0
 11
43.20192698722647
 21
202.5587012700028
 31
0.0
  0
LINE
  5
3408
  8
0
 10
44.53743698722647
 20
202.5587012700028
 30
0.0
 11
44.87142088722646
 21
202.5587012700028
 31
0.0
  0
LINE
  5
3409
  8
0
 10
44.87142088722646
 20
202.5587012700028
 30
0.0
 11
44.87142088722646
 21
202.8926851700027
 31
0.0
  0
LINE
  5
340A
  8
0
 10
44.87142088722646
 20
202.8926851700027
 30
0.0
 11
44.53743698722647
 21
202.8926851700027
 31
0.0
  0
LINE
  5
340B
  8
0
 10
44.53743698722647
 20
202.8926851700027
 30
0.0
 11
44.53743698722647
 21
202.5587012700028
 31
0.0
  0
LINE
  5
340C
  8
0
 10
45.87266198722648
 20
202.5587012700028
 30
0.0
 11
47.20748798722647
 21
202.5587012700028
 31
0.0
  0
LINE
  5
340D
  8
0
 10
47.20748798722647
 20
202.5587012700028
 30
0.0
 11
47.20748798722647
 21
202.8926851700027
 31
0.0
  0
LINE
  5
340E
  8
0
 10
47.20748798722647
 20
202.8926851700027
 30
0.0
 11
45.87266198722648
 21
202.8926851700027
 31
0.0
  0
LINE
  5
340F
  8
0
 10
45.87266198722648
 20
202.8926851700027
 30
0.0
 11
45.87266198722648
 21
202.5587012700028
 31
0.0
  0
LINE
  5
3410
  8
0
 10
47.87507198722648
 20
202.5587012700028
 30
0.0
 11
48.20905683722648
 21
202.5587012700028
 31
0.0
  0
LINE
  5
3411
  8
0
 10
48.20905683722648
 20
202.5587012700028
 30
0.0
 11
48.20905683722648
 21
202.8926851700027
 31
0.0
  0
LINE
  5
3412
  8
0
 10
48.20905683722648
 20
202.8926851700027
 30
0.0
 11
47.87507198722648
 21
202.8926851700027
 31
0.0
  0
LINE
  5
3413
  8
0
 10
47.87507198722648
 20
202.8926851700027
 30
0.0
 11
47.87507198722648
 21
202.5587012700028
 31
0.0
  0
LINE
  5
3414
  8
0
 10
48.54273198722649
 20
202.5587012700028
 30
0.0
 11
48.87671683722647
 21
202.5587012700028
 31
0.0
  0
LINE
  5
3415
  8
0
 10
48.87671683722647
 20
202.5587012700028
 30
0.0
 11
48.87671683722647
 21
202.8926851700027
 31
0.0
  0
LINE
  5
3416
  8
0
 10
48.87671683722647
 20
202.8926851700027
 30
0.0
 11
48.54273198722649
 21
202.8926851700027
 31
0.0
  0
LINE
  5
3417
  8
0
 10
48.54273198722649
 20
202.8926851700027
 30
0.0
 11
48.54273198722649
 21
202.5587012700028
 31
0.0
  0
LINE
  5
3418
  8
0
 10
49.20991698722648
 20
202.5587012700028
 30
0.0
 11
49.54427233722649
 21
202.5587012700028
 31
0.0
  0
LINE
  5
3419
  8
0
 10
49.54427233722649
 20
202.5587012700028
 30
0.0
 11
49.54427233722649
 21
202.8926851700027
 31
0.0
  0
LINE
  5
341A
  8
0
 10
49.54427233722649
 20
202.8926851700027
 30
0.0
 11
49.20991698722648
 21
202.8926851700027
 31
0.0
  0
LINE
  5
341B
  8
0
 10
49.20991698722648
 20
202.8926851700027
 30
0.0
 11
49.20991698722648
 21
202.5587012700028
 31
0.0
  0
LINE
  5
341C
  8
0
 10
49.87748198722647
 20
202.5587012700028
 30
0.0
 11
50.2114658872265
 21
202.5587012700028
 31
0.0
  0
LINE
  5
341D
  8
0
 10
50.2114658872265
 20
202.5587012700028
 30
0.0
 11
50.2114658872265
 21
202.8926851700027
 31
0.0
  0
LINE
  5
341E
  8
0
 10
50.2114658872265
 20
202.8926851700027
 30
0.0
 11
49.87748198722647
 21
202.8926851700027
 31
0.0
  0
LINE
  5
341F
  8
0
 10
49.87748198722647
 20
202.8926851700027
 30
0.0
 11
49.87748198722647
 21
202.5587012700028
 31
0.0
  0
LINE
  5
3420
  8
0
 10
50.54590198722647
 20
202.5587012700028
 30
0.0
 11
50.87988683722648
 21
202.5587012700028
 31
0.0
  0
LINE
  5
3421
  8
0
 10
50.87988683722648
 20
202.5587012700028
 30
0.0
 11
50.87988683722648
 21
202.8926851700027
 31
0.0
  0
LINE
  5
3422
  8
0
 10
50.87988683722648
 20
202.8926851700027
 30
0.0
 11
50.54590198722647
 21
202.8926851700027
 31
0.0
  0
LINE
  5
3423
  8
0
 10
50.54590198722647
 20
202.8926851700027
 30
0.0
 11
50.54590198722647
 21
202.5587012700028
 31
0.0
  0
LINE
  5
3424
  8
0
 10
51.54672698722646
 20
202.5587012700028
 30
0.0
 11
52.2139537872265
 21
202.5587012700028
 31
0.0
  0
LINE
  5
3425
  8
0
 10
52.2139537872265
 20
202.5587012700028
 30
0.0
 11
52.2139537872265
 21
202.8926851700027
 31
0.0
  0
LINE
  5
3426
  8
0
 10
52.2139537872265
 20
202.8926851700027
 30
0.0
 11
51.54672698722646
 21
202.8926851700027
 31
0.0
  0
LINE
  5
3427
  8
0
 10
51.54672698722646
 20
202.8926851700027
 30
0.0
 11
51.54672698722646
 21
202.5587012700028
 31
0.0
  0
LINE
  5
3428
  8
0
 10
52.88157198722649
 20
202.5587012700028
 30
0.0
 11
53.54916928722648
 21
202.5587012700028
 31
0.0
  0
LINE
  5
3429
  8
0
 10
53.54916928722648
 20
202.5587012700028
 30
0.0
 11
53.54916928722648
 21
202.8926851700027
 31
0.0
  0
LINE
  5
342A
  8
0
 10
53.54916928722648
 20
202.8926851700027
 30
0.0
 11
52.88157198722649
 21
202.8926851700027
 31
0.0
  0
LINE
  5
342B
  8
0
 10
52.88157198722649
 20
202.8926851700027
 30
0.0
 11
52.88157198722649
 21
202.5587012700028
 31
0.0
  0
LINE
  5
342C
  8
0
 10
42.53436198722648
 20
202.2247762700028
 30
0.0
 11
42.86871733722649
 21
202.2247762700028
 31
0.0
  0
LINE
  5
342D
  8
0
 10
42.86871733722649
 20
202.2247762700028
 30
0.0
 11
42.86871733722649
 21
202.5587611200028
 31
0.0
  0
LINE
  5
342E
  8
0
 10
42.86871733722649
 20
202.5587611200028
 30
0.0
 11
42.53436198722648
 21
202.5587611200028
 31
0.0
  0
LINE
  5
342F
  8
0
 10
42.53436198722648
 20
202.5587611200028
 30
0.0
 11
42.53436198722648
 21
202.2247762700028
 31
0.0
  0
LINE
  5
3430
  8
0
 10
44.53743698722647
 20
202.2247762700028
 30
0.0
 11
44.87142088722646
 21
202.2247762700028
 31
0.0
  0
LINE
  5
3431
  8
0
 10
44.87142088722646
 20
202.2247762700028
 30
0.0
 11
44.87142088722646
 21
202.5587611200028
 31
0.0
  0
LINE
  5
3432
  8
0
 10
44.87142088722646
 20
202.5587611200028
 30
0.0
 11
44.53743698722647
 21
202.5587611200028
 31
0.0
  0
LINE
  5
3433
  8
0
 10
44.53743698722647
 20
202.5587611200028
 30
0.0
 11
44.53743698722647
 21
202.2247762700028
 31
0.0
  0
LINE
  5
3434
  8
0
 10
45.87266198722648
 20
202.2247762700028
 30
0.0
 11
46.53988783722647
 21
202.2247762700028
 31
0.0
  0
LINE
  5
3435
  8
0
 10
46.53988783722647
 20
202.2247762700028
 30
0.0
 11
46.53988783722647
 21
202.5587611200028
 31
0.0
  0
LINE
  5
3436
  8
0
 10
46.53988783722647
 20
202.5587611200028
 30
0.0
 11
45.87266198722648
 21
202.5587611200028
 31
0.0
  0
LINE
  5
3437
  8
0
 10
45.87266198722648
 20
202.5587611200028
 30
0.0
 11
45.87266198722648
 21
202.2247762700028
 31
0.0
  0
LINE
  5
3438
  8
0
 10
47.20750698722648
 20
202.2247762700028
 30
0.0
 11
48.20909198722649
 21
202.2247762700028
 31
0.0
  0
LINE
  5
3439
  8
0
 10
48.20909198722649
 20
202.2247762700028
 30
0.0
 11
48.20909198722649
 21
202.5587611200028
 31
0.0
  0
LINE
  5
343A
  8
0
 10
48.20909198722649
 20
202.5587611200028
 30
0.0
 11
47.20750698722648
 21
202.5587611200028
 31
0.0
  0
LINE
  5
343B
  8
0
 10
47.20750698722648
 20
202.5587611200028
 30
0.0
 11
47.20750698722648
 21
202.2247762700028
 31
0.0
  0
LINE
  5
343C
  8
0
 10
48.87665698722648
 20
202.2247762700028
 30
0.0
 11
49.54425428722647
 21
202.2247762700028
 31
0.0
  0
LINE
  5
343D
  8
0
 10
49.54425428722647
 20
202.2247762700028
 30
0.0
 11
49.54425428722647
 21
202.5587611200028
 31
0.0
  0
LINE
  5
343E
  8
0
 10
49.54425428722647
 20
202.5587611200028
 30
0.0
 11
48.87665698722648
 21
202.5587611200028
 31
0.0
  0
LINE
  5
343F
  8
0
 10
48.87665698722648
 20
202.5587611200028
 30
0.0
 11
48.87665698722648
 21
202.2247762700028
 31
0.0
  0
LINE
  5
3440
  8
0
 10
51.54672698722646
 20
202.2247762700028
 30
0.0
 11
52.88155298722648
 21
202.2247762700028
 31
0.0
  0
LINE
  5
3441
  8
0
 10
52.88155298722648
 20
202.2247762700028
 30
0.0
 11
52.88155298722648
 21
202.5587611200028
 31
0.0
  0
LINE
  5
3442
  8
0
 10
52.88155298722648
 20
202.5587611200028
 30
0.0
 11
51.54672698722646
 21
202.5587611200028
 31
0.0
  0
LINE
  5
3443
  8
0
 10
51.54672698722646
 20
202.5587611200028
 30
0.0
 11
51.54672698722646
 21
202.2247762700028
 31
0.0
  0
LINE
  5
3444
  8
0
 10
42.53436198722648
 20
201.8911362700028
 30
0.0
 11
44.8711434872265
 21
201.8911362700028
 31
0.0
  0
LINE
  5
3445
  8
0
 10
44.8711434872265
 20
201.8911362700028
 30
0.0
 11
44.8711434872265
 21
202.2251211200028
 31
0.0
  0
LINE
  5
3446
  8
0
 10
44.8711434872265
 20
202.2251211200028
 30
0.0
 11
42.53436198722648
 21
202.2251211200028
 31
0.0
  0
LINE
  5
3447
  8
0
 10
42.53436198722648
 20
202.2251211200028
 30
0.0
 11
42.53436198722648
 21
201.8911362700028
 31
0.0
  0
LINE
  5
3448
  8
0
 10
45.20509698722648
 20
201.8911362700028
 30
0.0
 11
45.53908183722649
 21
201.8911362700028
 31
0.0
  0
LINE
  5
3449
  8
0
 10
45.53908183722649
 20
201.8911362700028
 30
0.0
 11
45.53908183722649
 21
202.2251211200028
 31
0.0
  0
LINE
  5
344A
  8
0
 10
45.53908183722649
 20
202.2251211200028
 30
0.0
 11
45.20509698722648
 21
202.2251211200028
 31
0.0
  0
LINE
  5
344B
  8
0
 10
45.20509698722648
 20
202.2251211200028
 30
0.0
 11
45.20509698722648
 21
201.8911362700028
 31
0.0
  0
LINE
  5
344C
  8
0
 10
46.20592198722647
 20
201.8911362700028
 30
0.0
 11
46.5399058872265
 21
201.8911362700028
 31
0.0
  0
LINE
  5
344D
  8
0
 10
46.5399058872265
 20
201.8911362700028
 30
0.0
 11
46.5399058872265
 21
202.2251211200028
 31
0.0
  0
LINE
  5
344E
  8
0
 10
46.5399058872265
 20
202.2251211200028
 30
0.0
 11
46.20592198722647
 21
202.2251211200028
 31
0.0
  0
LINE
  5
344F
  8
0
 10
46.20592198722647
 20
202.2251211200028
 30
0.0
 11
46.20592198722647
 21
201.8911362700028
 31
0.0
  0
LINE
  5
3450
  8
0
 10
47.20750698722648
 20
201.8911362700028
 30
0.0
 11
47.5414908872265
 21
201.8911362700028
 31
0.0
  0
LINE
  5
3451
  8
0
 10
47.5414908872265
 20
201.8911362700028
 30
0.0
 11
47.5414908872265
 21
202.2251211200028
 31
0.0
  0
LINE
  5
3452
  8
0
 10
47.5414908872265
 20
202.2251211200028
 30
0.0
 11
47.20750698722648
 21
202.2251211200028
 31
0.0
  0
LINE
  5
3453
  8
0
 10
47.20750698722648
 20
202.2251211200028
 30
0.0
 11
47.20750698722648
 21
201.8911362700028
 31
0.0
  0
LINE
  5
3454
  8
0
 10
48.20909198722649
 20
201.8911362700028
 30
0.0
 11
48.54307588722648
 21
201.8911362700028
 31
0.0
  0
LINE
  5
3455
  8
0
 10
48.54307588722648
 20
201.8911362700028
 30
0.0
 11
48.54307588722648
 21
202.2251211200028
 31
0.0
  0
LINE
  5
3456
  8
0
 10
48.54307588722648
 20
202.2251211200028
 30
0.0
 11
48.20909198722649
 21
202.2251211200028
 31
0.0
  0
LINE
  5
3457
  8
0
 10
48.20909198722649
 20
202.2251211200028
 30
0.0
 11
48.20909198722649
 21
201.8911362700028
 31
0.0
  0
LINE
  5
3458
  8
0
 10
48.87665698722648
 20
201.8911362700028
 30
0.0
 11
49.21064088722648
 21
201.8911362700028
 31
0.0
  0
LINE
  5
3459
  8
0
 10
49.21064088722648
 20
201.8911362700028
 30
0.0
 11
49.21064088722648
 21
202.2251211200028
 31
0.0
  0
LINE
  5
345A
  8
0
 10
49.21064088722648
 20
202.2251211200028
 30
0.0
 11
48.87665698722648
 21
202.2251211200028
 31
0.0
  0
LINE
  5
345B
  8
0
 10
48.87665698722648
 20
202.2251211200028
 30
0.0
 11
48.87665698722648
 21
201.8911362700028
 31
0.0
  0
LINE
  5
345C
  8
0
 10
49.87748198722647
 20
201.8911362700028
 30
0.0
 11
51.21230798722647
 21
201.8911362700028
 31
0.0
  0
LINE
  5
345D
  8
0
 10
51.21230798722647
 20
201.8911362700028
 30
0.0
 11
51.21230798722647
 21
202.2251211200028
 31
0.0
  0
LINE
  5
345E
  8
0
 10
51.21230798722647
 20
202.2251211200028
 30
0.0
 11
49.87748198722647
 21
202.2251211200028
 31
0.0
  0
LINE
  5
345F
  8
0
 10
49.87748198722647
 20
202.2251211200028
 30
0.0
 11
49.87748198722647
 21
201.8911362700028
 31
0.0
  0
LINE
  5
3460
  8
0
 10
51.54672698722646
 20
201.8911362700028
 30
0.0
 11
51.88071088722648
 21
201.8911362700028
 31
0.0
  0
LINE
  5
3461
  8
0
 10
51.88071088722648
 20
201.8911362700028
 30
0.0
 11
51.88071088722648
 21
202.2251211200028
 31
0.0
  0
LINE
  5
3462
  8
0
 10
51.88071088722648
 20
202.2251211200028
 30
0.0
 11
51.54672698722646
 21
202.2251211200028
 31
0.0
  0
LINE
  5
3463
  8
0
 10
51.54672698722646
 20
202.2251211200028
 30
0.0
 11
51.54672698722646
 21
201.8911362700028
 31
0.0
  0
LINE
  5
3464
  8
0
 10
52.21391198722648
 20
201.8911362700028
 30
0.0
 11
52.54826733722649
 21
201.8911362700028
 31
0.0
  0
LINE
  5
3465
  8
0
 10
52.54826733722649
 20
201.8911362700028
 30
0.0
 11
52.54826733722649
 21
202.2251211200028
 31
0.0
  0
LINE
  5
3466
  8
0
 10
52.54826733722649
 20
202.2251211200028
 30
0.0
 11
52.21391198722648
 21
202.2251211200028
 31
0.0
  0
LINE
  5
3467
  8
0
 10
52.21391198722648
 20
202.2251211200028
 30
0.0
 11
52.21391198722648
 21
201.8911362700028
 31
0.0
  0
LINE
  5
3468
  8
0
 10
52.88157198722649
 20
201.8911362700028
 30
0.0
 11
53.21555588722649
 21
201.8911362700028
 31
0.0
  0
LINE
  5
3469
  8
0
 10
53.21555588722649
 20
201.8911362700028
 30
0.0
 11
53.21555588722649
 21
202.2251211200028
 31
0.0
  0
LINE
  5
346A
  8
0
 10
53.21555588722649
 20
202.2251211200028
 30
0.0
 11
52.88157198722649
 21
202.2251211200028
 31
0.0
  0
LINE
  5
346B
  8
0
 10
52.88157198722649
 20
202.2251211200028
 30
0.0
 11
52.88157198722649
 21
201.8911362700028
 31
0.0
  0
CIRCLE
  5
3641
  8
0
 10
63.52185159276132
 20
209.891136270003
 30
0.0
 40
1.5
  0
TEXT
  5
3642
  8
0
 10
44.47301841907156
 20
198.5567190563592
 30
0.0
 40
1.3
  1
冬期以外(凍結の心配がない期間)や長期間使用しないときは電源をOFFにしてください
  0
POLYLINE
  5
3643
  8
0
 66
     1
 10
0.0
 20
0.0
 30
0.0
 70
     1
  0
VERTEX
  5
4C63
  8
0
 10
42.75218472878782
 20
200.4403705977997
 30
0.0
  0
VERTEX
  5
4C64
  8
0
 10
41.53974916348966
 20
198.3403705977994
 30
0.0
 42
0.5773502691896262
  0
VERTEX
  5
4C65
  8
0
 10
41.62635170386807
 20
198.1903705977997
 30
0.0
  0
VERTEX
  5
4C66
  8
0
 10
44.0512228344644
 20
198.1903705977997
 30
0.0
 42
0.577350269189628
  0
VERTEX
  5
4C67
  8
0
 10
44.13782537484281
 20
198.3403705977994
 30
0.0
  0
VERTEX
  5
4C68
  8
0
 10
42.92538980954464
 20
200.4403705977997
 30
0.0
 42
0.577350269189626
  0
SEQEND
  5
4C84
  8
0
  0
POLYLINE
  5
3644
  8
0
 66
     1
 10
0.0
 20
0.0
 30
0.0
 70
     1
  0
VERTEX
  5
4C69
  8
0
 10
42.79548599967234
 20
200.3153705977997
 30
0.0
  0
VERTEX
  5
4C6A
  8
0
 10
41.66965297408956
 20
198.3653705978108
 30
0.0
 42
0.577350269275458
  0
VERTEX
  5
4C6B
  8
0
 10
41.7129542442724
 20
198.2903705977992
 30
0.0
  0
VERTEX
  5
4C6C
  8
0
 10
43.96462029411191
 20
198.2903705977992
 30
0.0
 42
0.5773502691037941
  0
VERTEX
  5
4C6D
  8
0
 10
44.00792156430748
 20
198.3653705977881
 30
0.0
  0
VERTEX
  5
4C6E
  8
0
 10
42.88208854005074
 20
200.3153705977997
 30
0.0
 42
0.5773502691896244
  0
SEQEND
  5
4C85
  8
0
  0
CIRCLE
  5
3645
  8
0
 10
42.83878726916623
 20
198.5903705977994
 30
0.0
 40
0.1
  0
LINE
  5
3646
  8
0
 10
42.73878726916632
 20
199.5903705977994
 30
0.0
 11
42.78922974704233
 21
198.8337334296588
 31
0.0
  0
LINE
  5
3647
  8
0
 10
42.9387872691666
 20
199.5903705977994
 30
0.0
 11
42.88834479129014
 21
198.833733429657
 31
0.0
  0
ARC
  5
3648
  8
0
 10
42.83878726916623
 20
199.5903705977994
 30
0.0
 40
0.1
 50
0.0
 51
180.0
  0
ARC
  5
3649
  8
0
 10
42.83878726916623
 20
198.8403705977994
 30
0.0
 40
0.05
 50
187.6281496673324
 51
352.3718503305627
  0
CIRCLE
  5
364D
  8
0
 10
82.52185159276138
 20
213.891136270003
 30
0.0
 40
1.5
  0
CIRCLE
  5
364E
  8
0
 10
82.52185159276138
 20
205.891136270003
 30
0.0
 40
1.5
  0
POLYLINE
  5
364F
  8
0
 66
     1
 10
0.0
 20
0.0
 30
0.0
 70
     1
  0
VERTEX
  5
4C6F
  8
0
 10
77.47346513217605
 20
206.2010027188034
 30
0.0
  0
VERTEX
  5
4C70
  8
0
 10
77.20511291573445
 20
206.0460694944033
 30
0.0
  0
VERTEX
  5
4C71
  8
0
 10
77.20511291573445
 20
205.736203045603
 30
0.0
  0
VERTEX
  5
4C72
  8
0
 10
77.47346513217605
 20
205.5812698212029
 30
0.0
  0
VERTEX
  5
4C73
  8
0
 10
77.74181734861764
 20
205.736203045603
 30
0.0
  0
VERTEX
  5
4C74
  8
0
 10
77.74181734861764
 20
206.0460694944033
 30
0.0
  0
SEQEND
  5
4C86
  8
0
  0
POLYLINE
  5
3650
  8
0
 66
     1
 10
0.0
 20
0.0
 30
0.0
  0
VERTEX
  5
4C75
  8
0
 10
77.32346513217595
 20
206.4986531053924
 30
0.0
  0
VERTEX
  5
4C76
  8
0
 10
77.02234011950242
 20
206.3247984982655
 30
0.0
  0
SEQEND
  5
4C87
  8
0
  0
LINE
  5
3651
  8
0
 10
77.32346513217595
 20
202.7911362700031
 30
0.0
 11
77.32346513217595
 21
203.3375828794098
 31
0.0
1001
GENIUS_GENODEF_13
1002
{
1000
HIER
1070
     0
1002
}
1002
{
1000
MANEDIT
1070
     0
1002
}
1002
{
1000
NOSEL
1070
     0
1002
}
1002
{
1000
BEHIND
1070
     0
1002
}
1002
{
1000
OTHER
1070
     0
1002
}
1002
{
1000
REACTOR
1002
}
1001
GENIUS_GENOBJ-N-CEN_13
1002
{
1000
OWNER
1000
GEN
1002
}
1001
GENIUS_GENCEN_19
1002
{
1040
3.0
1002
}
  0
LINE
  5
3652
  8
0
 10
77.62346513217614
 20
202.7911362700031
 30
0.0
 11
77.62346513217614
 21
203.3375828794098
 31
0.0
1001
GENIUS_GENODEF_13
1002
{
1000
HIER
1070
     0
1002
}
1002
{
1000
MANEDIT
1070
     0
1002
}
1002
{
1000
NOSEL
1070
     0
1002
}
1002
{
1000
BEHIND
1070
     0
1002
}
1002
{
1000
OTHER
1070
     0
1002
}
1002
{
1000
REACTOR
1002
}
1001
GENIUS_GENOBJ-N-CEN_13
1002
{
1000
OWNER
1000
GEN
1002
}
1001
GENIUS_GENCEN_19
1002
{
1040
3.0
1002
}
  0
LINE
  5
3653
  8
0
 10
77.62346513217614
 20
206.8911362700032
 30
0.0
 11
78.269291937123
 21
207.5369630749502
 31
0.0
  0
LINE
  5
3654
  8
0
 10
77.62346513217614
 20
207.3911362700032
 30
0.0
 11
78.019291937123
 21
207.7869630749502
 31
0.0
  0
ARC
  5
3655
  8
0
 10
77.47346513217605
 20
208.9911362700031
 30
0.0
 40
0.1499999999999773
 50
0.0
 51
180.0
  0
ARC
  5
3656
  8
0
 10
78.144291937123
 20
207.6619630749502
 30
0.0
 40
0.1767766952966168
 50
315.0000000000326
 51
135.0000000000065
  0
LINE
  5
3657
  8
0
 10
77.32346513217595
 20
206.8911362700032
 30
0.0
 11
76.67763832722909
 21
207.5369630749502
 31
0.0
  0
LINE
  5
3658
  8
0
 10
77.32346513217595
 20
207.3911362700032
 30
0.0
 11
76.92763832722909
 21
207.7869630749502
 31
0.0
  0
ARC
  5
3659
  8
0
 10
76.80263832722909
 20
207.6619630749502
 30
0.0
 40
0.1767766952966168
 50
44.99999999999348
 51
224.9999999999674
  0
LINE
  5
365A
  8
0
 10
77.62346513217614
 20
208.0911362700031
 30
0.0
 11
78.02225102939752
 21
208.4899221672245
 31
0.0
  0
LINE
  5
365B
  8
0
 10
77.62346513217614
 20
208.4446896605964
 30
0.0
 11
77.84547433410086
 21
208.6666988625211
 31
0.0
  0
ARC
  5
365C
  8
0
 10
77.93386268174896
 20
208.578310514873
 30
0.0
 40
0.1249999999999206
 50
314.9999999998987
 51
134.9999999999355
  0
LINE
  5
365D
  8
0
 10
79.30372102050188
 20
204.6612324594356
 30
0.0
 11
79.44968678955576
 21
204.1164807931602
 31
0.0
  0
LINE
  5
365E
  8
0
 10
79.60990723834976
 20
204.4844557641389
 30
0.0
 11
79.69116824612803
 21
204.1811855544359
 31
0.0
  0
ARC
  5
365F
  8
0
 10
80.03082506741504
 20
204.9462651213387
 30
0.0
 40
0.1249999999999206
 50
285.0000000000046
 51
105.0000000000046
  0
LINE
  5
3660
  8
0
 10
77.62346513217614
 20
204.8911362700032
 30
0.0
 11
77.62346513217614
 21
205.2836194346139
 31
0.0
1001
GENIUS_GENODEF_13
1002
{
1000
HIER
1070
     0
1002
}
1002
{
1000
MANEDIT
1070
     0
1002
}
1002
{
1000
NOSEL
1070
     0
1002
}
1002
{
1000
BEHIND
1070
     0
1002
}
1002
{
1000
OTHER
1070
     0
1002
}
1002
{
1000
REACTOR
1002
}
1001
GENIUS_GENOBJ-N-CEN_13
1002
{
1000
OWNER
1000
GEN
1002
}
1001
GENIUS_GENCEN_19
1002
{
1040
3.0
1002
}
  0
LINE
  5
3661
  8
0
 10
79.75990723834963
 20
204.7442633852743
 30
0.0
 11
80.06317744805284
 21
204.8255243930526
 31
0.0
  0
ARC
  5
3662
  8
0
 10
79.57042751784212
 20
204.148833173798
 30
0.0
 40
0.1249999999999206
 50
194.9999999999509
 51
14.99999999999198
  0
LINE
  5
3663
  8
0
 10
79.45372102050175
 20
204.9210400805709
 30
0.0
 11
79.99847268677723
 21
205.0670058496249
 31
0.0
  0
LINE
  5
3664
  8
0
 10
77.62346513217614
 20
203.6911362700032
 30
0.0
 11
77.62346513217614
 21
204.3911362700032
 31
0.0
1001
GENIUS_GENODEF_13
1002
{
1000
HIER
1070
     0
1002
}
1002
{
1000
MANEDIT
1070
     0
1002
}
1002
{
1000
NOSEL
1070
     0
1002
}
1002
{
1000
BEHIND
1070
     0
1002
}
1002
{
1000
OTHER
1070
     0
1002
}
1002
{
1000
REACTOR
1002
}
1001
GENIUS_GENOBJ-N-CEN_13
1002
{
1000
OWNER
1000
GEN
1002
}
1001
GENIUS_GENCEN_19
1002
{
1040
3.0
1002
}
  0
LINE
  5
3665
  8
0
 10
77.32346513217595
 20
203.6911362700032
 30
0.0
 11
77.32346513217595
 21
204.3911362700032
 31
0.0
1001
GENIUS_GENODEF_13
1002
{
1000
HIER
1070
     0
1002
}
1002
{
1000
MANEDIT
1070
     0
1002
}
1002
{
1000
NOSEL
1070
     0
1002
}
1002
{
1000
BEHIND
1070
     0
1002
}
1002
{
1000
OTHER
1070
     0
1002
}
1002
{
1000
REACTOR
1002
}
1001
GENIUS_GENOBJ-N-CEN_13
1002
{
1000
OWNER
1000
GEN
1002
}
1001
GENIUS_GENCEN_19
1002
{
1040
3.0
1002
}
  0
LINE
  5
3666
  8
0
 10
77.32346513217595
 20
208.4446896605964
 30
0.0
 11
77.32346513217595
 21
208.9911362700031
 31
0.0
1001
GENIUS_GENODEF_13
1002
{
1000
HIER
1070
     0
1002
}
1002
{
1000
MANEDIT
1070
     0
1002
}
1002
{
1000
NOSEL
1070
     0
1002
}
1002
{
1000
BEHIND
1070
     0
1002
}
1002
{
1000
OTHER
1070
     0
1002
}
1002
{
1000
REACTOR
1002
}
1001
GENIUS_GENOBJ-N-CEN_13
1002
{
1000
OWNER
1000
GEN
1002
}
1001
GENIUS_GENCEN_19
1002
{
1040
3.0
1002
}
  0
LINE
  5
3667
  8
0
 10
77.62346513217614
 20
208.4446896605964
 30
0.0
 11
77.62346513217614
 21
208.9911362700031
 31
0.0
1001
GENIUS_GENODEF_13
1002
{
1000
HIER
1070
     0
1002
}
1002
{
1000
MANEDIT
1070
     0
1002
}
1002
{
1000
NOSEL
1070
     0
1002
}
1002
{
1000
BEHIND
1070
     0
1002
}
1002
{
1000
OTHER
1070
     0
1002
}
1002
{
1000
REACTOR
1002
}
1001
GENIUS_GENOBJ-N-CEN_13
1002
{
1000
OWNER
1000
GEN
1002
}
1001
GENIUS_GENCEN_19
1002
{
1040
3.0
1002
}
  0
ARC
  5
3668
  8
0
 10
77.01306758260313
 20
208.578310514873
 30
0.0
 40
0.1249999999999206
 50
45.00000000006448
 51
224.999999999954
  0
LINE
  5
3669
  8
0
 10
77.32346513217595
 20
208.4446896605964
 30
0.0
 11
77.10145593025123
 21
208.6666988625211
 31
0.0
  0
LINE
  5
366A
  8
0
 10
77.32346513217595
 20
208.0911362700031
 30
0.0
 11
76.92467923495457
 21
208.4899221672245
 31
0.0
  0
LINE
  5
366B
  8
0
 10
77.62346513217614
 20
207.3911362700032
 30
0.0
 11
77.62346513217614
 21
208.0911362700031
 31
0.0
1001
GENIUS_GENODEF_13
1002
{
1000
HIER
1070
     0
1002
}
1002
{
1000
MANEDIT
1070
     0
1002
}
1002
{
1000
NOSEL
1070
     0
1002
}
1002
{
1000
BEHIND
1070
     0
1002
}
1002
{
1000
OTHER
1070
     0
1002
}
1002
{
1000
REACTOR
1002
}
1001
GENIUS_GENOBJ-N-CEN_13
1002
{
1000
OWNER
1000
GEN
1002
}
1001
GENIUS_GENCEN_19
1002
{
1040
3.0
1002
}
  0
LINE
  5
366C
  8
0
 10
77.32346513217595
 20
207.3911362700032
 30
0.0
 11
77.32346513217595
 21
208.0911362700031
 31
0.0
1001
GENIUS_GENODEF_13
1002
{
1000
HIER
1070
     0
1002
}
1002
{
1000
MANEDIT
1070
     0
1002
}
1002
{
1000
NOSEL
1070
     0
1002
}
1002
{
1000
BEHIND
1070
     0
1002
}
1002
{
1000
OTHER
1070
     0
1002
}
1002
{
1000
REACTOR
1002
}
1001
GENIUS_GENOBJ-N-CEN_13
1002
{
1000
OWNER
1000
GEN
1002
}
1001
GENIUS_GENCEN_19
1002
{
1040
3.0
1002
}
  0
LINE
  5
366D
  8
0
 10
77.62346513217614
 20
203.3375828794098
 30
0.0
 11
77.84547433410086
 21
203.1155736774851
 31
0.0
  0
LINE
  5
366E
  8
0
 10
77.32346513217595
 20
204.3911362700032
 30
0.0
 11
76.92763832722909
 21
203.9953094650561
 31
0.0
  0
ARC
  5
366F
  8
0
 10
77.47346513217605
 20
202.7911362700031
 30
0.0
 40
0.1499999999999773
 50
180.0
 51
0.0
  0
ARC
  5
3670
  8
0
 10
78.144291937123
 20
204.1203094650561
 30
0.0
 40
0.1767766952966168
 50
224.9999999999935
 51
44.99999999999348
  0
ARC
  5
3671
  8
0
 10
76.80263832722909
 20
204.1203094650561
 30
0.0
 40
0.1767766952966168
 50
135.0000000000065
 51
315.0000000000065
  0
LINE
  5
3672
  8
0
 10
77.62346513217614
 20
204.3911362700032
 30
0.0
 11
78.019291937123
 21
203.9953094650561
 31
0.0
  0
LINE
  5
3673
  8
0
 10
77.32346513217595
 20
204.8911362700032
 30
0.0
 11
76.67763832722909
 21
204.2453094650561
 31
0.0
  0
ARC
  5
3674
  8
0
 10
77.93386268174896
 20
203.2039620251333
 30
0.0
 40
0.1249999999999206
 50
225.0000000000645
 51
44.99999999995394
  0
LINE
  5
3675
  8
0
 10
77.32346513217595
 20
203.6911362700032
 30
0.0
 11
76.92467923495457
 21
203.2923503727818
 31
0.0
  0
LINE
  5
3676
  8
0
 10
77.62346513217614
 20
203.6911362700032
 30
0.0
 11
78.02225102939752
 21
203.2923503727818
 31
0.0
  0
LINE
  5
3677
  8
0
 10
77.62346513217614
 20
204.8911362700032
 30
0.0
 11
78.269291937123
 21
204.2453094650561
 31
0.0
  0
ARC
  5
3678
  8
0
 10
77.01306758260313
 20
203.2039620251333
 30
0.0
 40
0.1249999999999206
 50
134.9999999998987
 51
314.9999999998987
  0
LINE
  5
3679
  8
0
 10
77.32346513217595
 20
203.3375828794098
 30
0.0
 11
77.10145593025123
 21
203.1155736774851
 31
0.0
  0
LINE
  5
367A
  8
0
 10
78.6975032378528
 20
206.7710400805708
 30
0.0
 11
78.84238590396222
 21
207.3117495516272
 31
0.0
  0
ARC
  5
367B
  8
0
 10
78.67163272848921
 20
207.3575027271004
 30
0.0
 40
0.1767766952966168
 50
344.9999999999747
 51
164.9999999999747
  0
LINE
  5
367C
  8
0
 10
75.33702302600233
 20
204.4844557641389
 30
0.0
 11
74.86378638044431
 21
204.2112324594355
 31
0.0
1001
GENIUS_GENODEF_13
1002
{
1000
HIER
1070
     0
1002
}
1002
{
1000
MANEDIT
1070
     0
1002
}
1002
{
1000
NOSEL
1070
     0
1002
}
1002
{
1000
BEHIND
1070
     0
1002
}
1002
{
1000
OTHER
1070
     0
1002
}
1002
{
1000
REACTOR
1002
}
1001
GENIUS_GENOBJ-N-CEN_13
1002
{
1000
OWNER
1000
GEN
1002
}
1001
GENIUS_GENCEN_19
1002
{
1040
3.0
1002
}
  0
LINE
  5
367D
  8
0
 10
78.4144905359604
 20
206.2612324594355
 30
0.0
 11
79.29670635796316
 21
206.0248434423799
 31
0.0
  0
LINE
  5
367E
  8
0
 10
79.45372102050175
 20
206.8612324594355
 30
0.0
 11
79.99847268677723
 21
206.7152666903815
 31
0.0
  0
LINE
  5
367F
  8
0
 10
79.75990723834963
 20
207.0380091547322
 30
0.0
 11
80.06317744805284
 21
206.9567481469538
 31
0.0
  0
ARC
  5
3680
  8
0
 10
80.03082506741504
 20
206.8360074186678
 30
0.0
 40
0.1249999999999206
 50
254.9999999999954
 51
74.99999999999544
  0
LINE
  5
3681
  8
0
 10
79.30372102050188
 20
207.1210400805709
 30
0.0
 11
79.44968678955576
 21
207.6657917468462
 31
0.0
  0
LINE
  5
3682
  8
0
 10
76.09942702649943
 20
205.2710400805708
 30
0.0
 11
75.49320924385034
 21
204.9210400805708
 31
0.0
1001
GENIUS_GENODEF_13
1002
{
1000
HIER
1070
     0
1002
}
1002
{
1000
MANEDIT
1070
     0
1002
}
1002
{
1000
NOSEL
1070
     0
1002
}
1002
{
1000
BEHIND
1070
     0
1002
}
1002
{
1000
OTHER
1070
     0
1002
}
1002
{
1000
REACTOR
1002
}
1001
GENIUS_GENOBJ-N-CEN_13
1002
{
1000
OWNER
1000
GEN
1002
}
1001
GENIUS_GENCEN_19
1002
{
1040
3.0
1002
}
  0
ARC
  5
3683
  8
0
 10
76.27529753586288
 20
204.424769812906
 30
0.0
 40
0.1767766952966168
 50
164.9999999999747
 51
345.0000000000127
  0
LINE
  5
3684
  8
0
 10
76.09942702649943
 20
205.2710400805708
 30
0.0
 11
75.55871755544291
 21
205.4159227466803
 31
0.0
  0
ARC
  5
3685
  8
0
 10
80.15814388390783
 20
207.4411362700032
 30
0.0
 40
0.1499999999999773
 50
300.0000000000254
 51
120.0000000000254
  0
LINE
  5
3686
  8
0
 10
78.4144905359604
 20
206.2612324594355
 30
0.0
 11
78.07459014484976
 21
206.06499087713
 31
0.0
1001
GENIUS_GENODEF_13
1002
{
1000
HIER
1070
     0
1002
}
1002
{
1000
MANEDIT
1070
     0
1002
}
1002
{
1000
NOSEL
1070
     0
1002
}
1002
{
1000
BEHIND
1070
     0
1002
}
1002
{
1000
OTHER
1070
     0
1002
}
1002
{
1000
REACTOR
1002
}
1001
GENIUS_GENOBJ-N-CEN_13
1002
{
1000
OWNER
1000
GEN
1002
}
1001
GENIUS_GENCEN_19
1002
{
1040
3.0
1002
}
  0
LINE
  5
3687
  8
0
 10
78.26449053596053
 20
206.5210400805708
 30
0.0
 11
77.9245901448499
 21
206.3247984982654
 31
0.0
1001
GENIUS_GENODEF_13
1002
{
1000
HIER
1070
     0
1002
}
1002
{
1000
MANEDIT
1070
     0
1002
}
1002
{
1000
NOSEL
1070
     0
1002
}
1002
{
1000
BEHIND
1070
     0
1002
}
1002
{
1000
OTHER
1070
     0
1002
}
1002
{
1000
REACTOR
1002
}
1001
GENIUS_GENOBJ-N-CEN_13
1002
{
1000
OWNER
1000
GEN
1002
}
1001
GENIUS_GENCEN_19
1002
{
1040
3.0
1002
}
  0
LINE
  5
3688
  8
0
 10
76.24942702649929
 20
205.0112324594355
 30
0.0
 11
76.10454436038987
 21
204.4705229883791
 31
0.0
  0
LINE
  5
3689
  8
0
 10
76.68243972839156
 20
205.2612324594355
 30
0.0
 11
76.44605071133611
 21
204.379016637433
 31
0.0
  0
LINE
  5
368A
  8
0
 10
80.23314388390787
 20
207.3112324594356
 30
0.0
 11
79.75990723834963
 21
207.0380091547322
 31
0.0
1001
GENIUS_GENODEF_13
1002
{
1000
HIER
1070
     0
1002
}
1002
{
1000
MANEDIT
1070
     0
1002
}
1002
{
1000
NOSEL
1070
     0
1002
}
1002
{
1000
BEHIND
1070
     0
1002
}
1002
{
1000
OTHER
1070
     0
1002
}
1002
{
1000
REACTOR
1002
}
1001
GENIUS_GENOBJ-N-CEN_13
1002
{
1000
OWNER
1000
GEN
1002
}
1001
GENIUS_GENCEN_19
1002
{
1040
3.0
1002
}
  0
ARC
  5
368B
  8
0
 10
74.78878638044426
 20
204.3411362700031
 30
0.0
 40
0.1499999999999773
 50
120.0000000000254
 51
300.0000000000254
  0
ARC
  5
368C
  8
0
 10
75.60447073091592
 20
205.5866759221533
 30
0.0
 40
0.1767766952966168
 50
75.0000000000127
 51
255.0000000000127
  0
LINE
  5
368D
  8
0
 10
80.08314388390778
 20
207.5710400805709
 30
0.0
 11
79.60990723834976
 21
207.2978167758675
 31
0.0
1001
GENIUS_GENODEF_13
1002
{
1000
HIER
1070
     0
1002
}
1002
{
1000
MANEDIT
1070
     0
1002
}
1002
{
1000
NOSEL
1070
     0
1002
}
1002
{
1000
BEHIND
1070
     0
1002
}
1002
{
1000
OTHER
1070
     0
1002
}
1002
{
1000
REACTOR
1002
}
1001
GENIUS_GENOBJ-N-CEN_13
1002
{
1000
OWNER
1000
GEN
1002
}
1001
GENIUS_GENCEN_19
1002
{
1040
3.0
1002
}
  0
LINE
  5
368E
  8
0
 10
79.30372102050188
 20
207.1210400805709
 30
0.0
 11
78.6975032378528
 21
206.7710400805708
 31
0.0
1001
GENIUS_GENODEF_13
1002
{
1000
HIER
1070
     0
1002
}
1002
{
1000
MANEDIT
1070
     0
1002
}
1002
{
1000
NOSEL
1070
     0
1002
}
1002
{
1000
BEHIND
1070
     0
1002
}
1002
{
1000
OTHER
1070
     0
1002
}
1002
{
1000
REACTOR
1002
}
1001
GENIUS_GENOBJ-N-CEN_13
1002
{
1000
OWNER
1000
GEN
1002
}
1001
GENIUS_GENCEN_19
1002
{
1040
3.0
1002
}
  0
LINE
  5
368F
  8
0
 10
75.18702302600246
 20
204.7442633852743
 30
0.0
 11
74.71378638044422
 21
204.4710400805709
 31
0.0
1001
GENIUS_GENODEF_13
1002
{
1000
HIER
1070
     0
1002
}
1002
{
1000
MANEDIT
1070
     0
1002
}
1002
{
1000
NOSEL
1070
     0
1002
}
1002
{
1000
BEHIND
1070
     0
1002
}
1002
{
1000
OTHER
1070
     0
1002
}
1002
{
1000
REACTOR
1002
}
1001
GENIUS_GENOBJ-N-CEN_13
1002
{
1000
OWNER
1000
GEN
1002
}
1001
GENIUS_GENCEN_19
1002
{
1040
3.0
1002
}
  0
LINE
  5
3690
  8
0
 10
79.45372102050175
 20
206.8612324594355
 30
0.0
 11
78.84750323785266
 21
206.5112324594355
 31
0.0
1001
GENIUS_GENODEF_13
1002
{
1000
HIER
1070
     0
1002
}
1002
{
1000
MANEDIT
1070
     0
1002
}
1002
{
1000
NOSEL
1070
     0
1002
}
1002
{
1000
BEHIND
1070
     0
1002
}
1002
{
1000
OTHER
1070
     0
1002
}
1002
{
1000
REACTOR
1002
}
1001
GENIUS_GENOBJ-N-CEN_13
1002
{
1000
OWNER
1000
GEN
1002
}
1001
GENIUS_GENCEN_19
1002
{
1040
3.0
1002
}
  0
LINE
  5
3691
  8
0
 10
75.64320924385021
 20
204.6612324594355
 30
0.0
 11
75.49724347479633
 21
204.1164807931601
 31
0.0
  0
LINE
  5
3692
  8
0
 10
75.33702302600233
 20
204.4844557641389
 30
0.0
 11
75.25576201822406
 21
204.1811855544358
 31
0.0
  0
ARC
  5
3693
  8
0
 10
75.37650274650997
 20
204.1488331737979
 30
0.0
 40
0.1249999999999206
 50
165.000000000008
 51
345.0000000001028
  0
LINE
  5
3694
  8
0
 10
75.49320924385034
 20
204.9210400805708
 30
0.0
 11
74.94845757757486
 21
205.0670058496248
 31
0.0
  0
LINE
  5
3695
  8
0
 10
75.18702302600246
 20
204.7442633852743
 30
0.0
 11
74.88375281629925
 21
204.8255243930525
 31
0.0
  0
LINE
  5
3696
  8
0
 10
76.24942702649929
 20
205.0112324594355
 30
0.0
 11
75.64320924385021
 21
204.6612324594355
 31
0.0
1001
GENIUS_GENODEF_13
1002
{
1000
HIER
1070
     0
1002
}
1002
{
1000
MANEDIT
1070
     0
1002
}
1002
{
1000
NOSEL
1070
     0
1002
}
1002
{
1000
BEHIND
1070
     0
1002
}
1002
{
1000
OTHER
1070
     0
1002
}
1002
{
1000
REACTOR
1002
}
1001
GENIUS_GENOBJ-N-CEN_13
1002
{
1000
OWNER
1000
GEN
1002
}
1001
GENIUS_GENCEN_19
1002
{
1040
3.0
1002
}
  0
LINE
  5
3697
  8
0
 10
76.5324397283917
 20
205.5210400805708
 30
0.0
 11
75.65022390638893
 21
205.7574290976264
 31
0.0
  0
ARC
  5
3698
  8
0
 10
74.91610519693705
 20
204.9462651213385
 30
0.0
 40
0.1249999999999206
 50
74.99999999999544
 51
254.9999999999954
  0
LINE
  5
3699
  8
0
 10
78.84750323785266
 20
206.5112324594355
 30
0.0
 11
79.38821270890918
 21
206.3663497933261
 31
0.0
  0
ARC
  5
369A
  8
0
 10
79.34245953343617
 20
206.1955966178531
 30
0.0
 40
0.1767766952966168
 50
255.0000000000127
 51
75.0000000000127
  0
LINE
  5
369B
  8
0
 10
78.26449053596053
 20
206.5210400805708
 30
0.0
 11
78.5008795530162
 21
207.4032559025734
 31
0.0
  0
LINE
  5
369C
  8
0
 10
77.32346513217595
 20
204.8911362700032
 30
0.0
 11
77.32346513217595
 21
205.2836194346139
 31
0.0
1001
GENIUS_GENODEF_13
1002
{
1000
HIER
1070
     0
1002
}
1002
{
1000
MANEDIT
1070
     0
1002
}
1002
{
1000
NOSEL
1070
     0
1002
}
1002
{
1000
BEHIND
1070
     0
1002
}
1002
{
1000
OTHER
1070
     0
1002
}
1002
{
1000
REACTOR
1002
}
1001
GENIUS_GENOBJ-N-CEN_13
1002
{
1000
OWNER
1000
GEN
1002
}
1001
GENIUS_GENCEN_19
1002
{
1040
3.0
1002
}
  0
LINE
  5
369D
  8
0
 10
79.60990723834976
 20
207.2978167758675
 30
0.0
 11
79.69116824612803
 21
207.6010869855705
 31
0.0
  0
ARC
  5
369E
  8
0
 10
79.57042751784212
 20
207.6334393662084
 30
0.0
 40
0.1249999999999206
 50
345.000000000008
 51
165.0000000001028
  0
LINE
  5
369F
  8
0
 10
75.33702302600233
 20
207.2978167758675
 30
0.0
 11
75.25576201822406
 21
207.6010869855706
 31
0.0
  0
LINE
  5
36A0
  8
0
 10
75.49320924385034
 20
206.8612324594355
 30
0.0
 11
74.94845757757486
 21
206.7152666903815
 31
0.0
  0
LINE
  5
36A1
  8
0
 10
75.18702302600246
 20
207.0380091547322
 30
0.0
 11
74.88375281629925
 21
206.9567481469539
 31
0.0
  0
LINE
  5
36A2
  8
0
 10
79.30372102050188
 20
204.6612324594356
 30
0.0
 11
78.6975032378528
 21
205.0112324594356
 31
0.0
1001
GENIUS_GENODEF_13
1002
{
1000
HIER
1070
     0
1002
}
1002
{
1000
MANEDIT
1070
     0
1002
}
1002
{
1000
NOSEL
1070
     0
1002
}
1002
{
1000
BEHIND
1070
     0
1002
}
1002
{
1000
OTHER
1070
     0
1002
}
1002
{
1000
REACTOR
1002
}
1001
GENIUS_GENOBJ-N-CEN_13
1002
{
1000
OWNER
1000
GEN
1002
}
1001
GENIUS_GENCEN_19
1002
{
1040
3.0
1002
}
  0
LINE
  5
36A3
  8
0
 10
79.45372102050175
 20
204.9210400805709
 30
0.0
 11
78.84750323785266
 21
205.2710400805709
 31
0.0
1001
GENIUS_GENODEF_13
1002
{
1000
HIER
1070
     0
1002
}
1002
{
1000
MANEDIT
1070
     0
1002
}
1002
{
1000
NOSEL
1070
     0
1002
}
1002
{
1000
BEHIND
1070
     0
1002
}
1002
{
1000
OTHER
1070
     0
1002
}
1002
{
1000
REACTOR
1002
}
1001
GENIUS_GENOBJ-N-CEN_13
1002
{
1000
OWNER
1000
GEN
1002
}
1001
GENIUS_GENCEN_19
1002
{
1040
3.0
1002
}
  0
ARC
  5
36A4
  8
0
 10
75.37650274650997
 20
207.6334393662084
 30
0.0
 40
0.1249999999999206
 50
14.99999999995087
 51
194.9999999999509
  0
ARC
  5
36A5
  8
0
 10
74.91610519693705
 20
206.8360074186678
 30
0.0
 40
0.1249999999999206
 50
105.0000000000046
 51
285.0000000000046
  0
LINE
  5
36A6
  8
0
 10
78.26449053596053
 20
205.2612324594356
 30
0.0
 11
77.9245901448499
 21
205.4574740417409
 31
0.0
1001
GENIUS_GENODEF_13
1002
{
1000
HIER
1070
     0
1002
}
1002
{
1000
MANEDIT
1070
     0
1002
}
1002
{
1000
NOSEL
1070
     0
1002
}
1002
{
1000
BEHIND
1070
     0
1002
}
1002
{
1000
OTHER
1070
     0
1002
}
1002
{
1000
REACTOR
1002
}
1001
GENIUS_GENOBJ-N-CEN_13
1002
{
1000
OWNER
1000
GEN
1002
}
1001
GENIUS_GENCEN_19
1002
{
1040
3.0
1002
}
  0
LINE
  5
36A7
  8
0
 10
75.33702302600233
 20
207.2978167758675
 30
0.0
 11
74.86378638044431
 21
207.5710400805709
 31
0.0
1001
GENIUS_GENODEF_13
1002
{
1000
HIER
1070
     0
1002
}
1002
{
1000
MANEDIT
1070
     0
1002
}
1002
{
1000
NOSEL
1070
     0
1002
}
1002
{
1000
BEHIND
1070
     0
1002
}
1002
{
1000
OTHER
1070
     0
1002
}
1002
{
1000
REACTOR
1002
}
1001
GENIUS_GENOBJ-N-CEN_13
1002
{
1000
OWNER
1000
GEN
1002
}
1001
GENIUS_GENCEN_19
1002
{
1040
3.0
1002
}
  0
LINE
  5
36A8
  8
0
 10
76.24942702649929
 20
206.7710400805709
 30
0.0
 11
76.10454436038987
 21
207.3117495516273
 31
0.0
  0
LINE
  5
36A9
  8
0
 10
78.4144905359604
 20
205.5210400805709
 30
0.0
 11
79.29670635796316
 21
205.7574290976264
 31
0.0
  0
ARC
  5
36AA
  8
0
 10
76.27529753586288
 20
207.3575027271004
 30
0.0
 40
0.1767766952966168
 50
15.00000000002528
 51
194.9999999999873
  0
LINE
  5
36AB
  8
0
 10
80.08314388390778
 20
204.2112324594355
 30
0.0
 11
79.60990723834976
 21
204.4844557641389
 31
0.0
1001
GENIUS_GENODEF_13
1002
{
1000
HIER
1070
     0
1002
}
1002
{
1000
MANEDIT
1070
     0
1002
}
1002
{
1000
NOSEL
1070
     0
1002
}
1002
{
1000
BEHIND
1070
     0
1002
}
1002
{
1000
OTHER
1070
     0
1002
}
1002
{
1000
REACTOR
1002
}
1001
GENIUS_GENOBJ-N-CEN_13
1002
{
1000
OWNER
1000
GEN
1002
}
1001
GENIUS_GENCEN_19
1002
{
1040
3.0
1002
}
  0
LINE
  5
36AC
  8
0
 10
76.5324397283917
 20
206.2612324594356
 30
0.0
 11
75.65022390638893
 21
206.02484344238
 31
0.0
  0
LINE
  5
36AD
  8
0
 10
78.4144905359604
 20
205.5210400805709
 30
0.0
 11
78.07459014484976
 21
205.7172816628763
 31
0.0
1001
GENIUS_GENODEF_13
1002
{
1000
HIER
1070
     0
1002
}
1002
{
1000
MANEDIT
1070
     0
1002
}
1002
{
1000
NOSEL
1070
     0
1002
}
1002
{
1000
BEHIND
1070
     0
1002
}
1002
{
1000
OTHER
1070
     0
1002
}
1002
{
1000
REACTOR
1002
}
1001
GENIUS_GENOBJ-N-CEN_13
1002
{
1000
OWNER
1000
GEN
1002
}
1001
GENIUS_GENCEN_19
1002
{
1040
3.0
1002
}
  0
LINE
  5
36AE
  8
0
 10
80.23314388390787
 20
204.4710400805709
 30
0.0
 11
79.75990723834963
 21
204.7442633852743
 31
0.0
1001
GENIUS_GENODEF_13
1002
{
1000
HIER
1070
     0
1002
}
1002
{
1000
MANEDIT
1070
     0
1002
}
1002
{
1000
NOSEL
1070
     0
1002
}
1002
{
1000
BEHIND
1070
     0
1002
}
1002
{
1000
OTHER
1070
     0
1002
}
1002
{
1000
REACTOR
1002
}
1001
GENIUS_GENOBJ-N-CEN_13
1002
{
1000
OWNER
1000
GEN
1002
}
1001
GENIUS_GENCEN_19
1002
{
1040
3.0
1002
}
  0
LINE
  5
36AF
  8
0
 10
75.64320924385021
 20
207.1210400805709
 30
0.0
 11
75.49724347479633
 21
207.6657917468462
 31
0.0
  0
ARC
  5
36B0
  8
0
 10
75.60447073091592
 20
206.1955966178531
 30
0.0
 40
0.1767766952966168
 50
104.9999999999873
 51
284.9999999999873
  0
ARC
  5
36B1
  8
0
 10
74.78878638044426
 20
207.4411362700033
 30
0.0
 40
0.1499999999999773
 50
59.99999999997465
 51
239.9999999999746
  0
LINE
  5
36B2
  8
0
 10
78.84750323785266
 20
205.2710400805709
 30
0.0
 11
79.38821270890918
 21
205.4159227466803
 31
0.0
  0
LINE
  5
36B3
  8
0
 10
76.24942702649929
 20
206.7710400805709
 30
0.0
 11
75.64320924385021
 21
207.1210400805709
 31
0.0
1001
GENIUS_GENODEF_13
1002
{
1000
HIER
1070
     0
1002
}
1002
{
1000
MANEDIT
1070
     0
1002
}
1002
{
1000
NOSEL
1070
     0
1002
}
1002
{
1000
BEHIND
1070
     0
1002
}
1002
{
1000
OTHER
1070
     0
1002
}
1002
{
1000
REACTOR
1002
}
1001
GENIUS_GENOBJ-N-CEN_13
1002
{
1000
OWNER
1000
GEN
1002
}
1001
GENIUS_GENCEN_19
1002
{
1040
3.0
1002
}
  0
ARC
  5
36B4
  8
0
 10
80.15814388390783
 20
204.3411362700033
 30
0.0
 40
0.1499999999999773
 50
239.9999999999746
 51
59.99999999997465
  0
ARC
  5
36B5
  8
0
 10
79.34245953343617
 20
205.5866759221534
 30
0.0
 40
0.1767766952966168
 50
284.9999999999873
 51
104.9999999999873
  0
LINE
  5
36B6
  8
0
 10
78.26449053596053
 20
205.2612324594356
 30
0.0
 11
78.5008795530162
 21
204.379016637433
 31
0.0
  0
LINE
  5
36B7
  8
0
 10
75.18702302600246
 20
207.0380091547322
 30
0.0
 11
74.71378638044422
 21
207.3112324594356
 31
0.0
1001
GENIUS_GENODEF_13
1002
{
1000
HIER
1070
     0
1002
}
1002
{
1000
MANEDIT
1070
     0
1002
}
1002
{
1000
NOSEL
1070
     0
1002
}
1002
{
1000
BEHIND
1070
     0
1002
}
1002
{
1000
OTHER
1070
     0
1002
}
1002
{
1000
REACTOR
1002
}
1001
GENIUS_GENOBJ-N-CEN_13
1002
{
1000
OWNER
1000
GEN
1002
}
1001
GENIUS_GENCEN_19
1002
{
1040
3.0
1002
}
  0
LINE
  5
36B8
  8
0
 10
78.6975032378528
 20
205.0112324594356
 30
0.0
 11
78.84238590396222
 21
204.4705229883791
 31
0.0
  0
LINE
  5
36B9
  8
0
 10
76.09942702649943
 20
206.5112324594356
 30
0.0
 11
75.55871755544291
 21
206.3663497933262
 31
0.0
  0
LINE
  5
36BA
  8
0
 10
76.68243972839156
 20
206.5210400805709
 30
0.0
 11
76.44605071133611
 21
207.4032559025735
 31
0.0
  0
ARC
  5
36BB
  8
0
 10
78.67163272848921
 20
204.4247698129061
 30
0.0
 40
0.1767766952966168
 50
195.0000000000253
 51
14.99999999998731
  0
LINE
  5
36BC
  8
0
 10
76.09942702649943
 20
206.5112324594356
 30
0.0
 11
75.49320924385034
 21
206.8612324594355
 31
0.0
1001
GENIUS_GENODEF_13
1002
{
1000
HIER
1070
     0
1002
}
1002
{
1000
MANEDIT
1070
     0
1002
}
1002
{
1000
NOSEL
1070
     0
1002
}
1002
{
1000
BEHIND
1070
     0
1002
}
1002
{
1000
OTHER
1070
     0
1002
}
1002
{
1000
REACTOR
1002
}
1001
GENIUS_GENOBJ-N-CEN_13
1002
{
1000
OWNER
1000
GEN
1002
}
1001
GENIUS_GENCEN_19
1002
{
1040
3.0
1002
}
  0
POLYLINE
  5
36BD
  8
0
 66
     1
 10
0.0
 20
0.0
 30
0.0
  0
VERTEX
  5
4C77
  8
0
 10
77.9245901448499
 20
206.3247984982654
 30
0.0
  0
VERTEX
  5
4C78
  8
0
 10
77.62346513217614
 20
206.4986531053924
 30
0.0
  0
SEQEND
  5
4C88
  8
0
  0
POLYLINE
  5
36BE
  8
0
 66
     1
 10
0.0
 20
0.0
 30
0.0
  0
VERTEX
  5
4C79
  8
0
 10
77.02234011950219
 20
205.4574740417408
 30
0.0
  0
VERTEX
  5
4C7A
  8
0
 10
77.32346513217595
 20
205.2836194346139
 30
0.0
  0
SEQEND
  5
4C89
  8
0
  0
POLYLINE
  5
36BF
  8
0
 66
     1
 10
0.0
 20
0.0
 30
0.0
  0
VERTEX
  5
4C7B
  8
0
 10
77.62346513217614
 20
205.2836194346139
 30
0.0
  0
VERTEX
  5
4C7C
  8
0
 10
77.9245901448499
 20
205.4574740417409
 30
0.0
  0
SEQEND
  5
4C8A
  8
0
  0
POLYLINE
  5
36C0
  8
0
 66
     1
 10
0.0
 20
0.0
 30
0.0
  0
VERTEX
  5
4C7D
  8
0
 10
78.07459014484976
 20
205.7172816628763
 30
0.0
  0
VERTEX
  5
4C7E
  8
0
 10
78.07459014484976
 20
206.06499087713
 30
0.0
  0
SEQEND
  5
4C8B
  8
0
  0
POLYLINE
  5
36C1
  8
0
 66
     1
 10
0.0
 20
0.0
 30
0.0
  0
VERTEX
  5
4C7F
  8
0
 10
76.87234011950233
 20
206.0649908771302
 30
0.0
  0
VERTEX
  5
4C80
  8
0
 10
76.87234011950233
 20
205.7172816628762
 30
0.0
  0
SEQEND
  5
4C8C
  8
0
  0
LINE
  5
36C2
  8
0
 10
76.87234011950233
 20
206.0649908771302
 30
0.0
 11
76.5324397283917
 21
206.2612324594356
 31
0.0
1001
GENIUS_GENODEF_13
1002
{
1000
HIER
1070
     0
1002
}
1002
{
1000
MANEDIT
1070
     0
1002
}
1002
{
1000
NOSEL
1070
     0
1002
}
1002
{
1000
BEHIND
1070
     0
1002
}
1002
{
1000
OTHER
1070
     0
1002
}
1002
{
1000
REACTOR
1002
}
1001
GENIUS_GENOBJ-N-CEN_13
1002
{
1000
OWNER
1000
GEN
1002
}
1001
GENIUS_GENCEN_19
1002
{
1040
3.0
1002
}
  0
LINE
  5
36C3
  8
0
 10
77.02234011950219
 20
205.4574740417408
 30
0.0
 11
76.68243972839156
 21
205.2612324594355
 31
0.0
1001
GENIUS_GENODEF_13
1002
{
1000
HIER
1070
     0
1002
}
1002
{
1000
MANEDIT
1070
     0
1002
}
1002
{
1000
NOSEL
1070
     0
1002
}
1002
{
1000
BEHIND
1070
     0
1002
}
1002
{
1000
OTHER
1070
     0
1002
}
1002
{
1000
REACTOR
1002
}
1001
GENIUS_GENOBJ-N-CEN_13
1002
{
1000
OWNER
1000
GEN
1002
}
1001
GENIUS_GENCEN_19
1002
{
1040
3.0
1002
}
  0
LINE
  5
36C4
  8
0
 10
77.62346513217614
 20
206.4986531053924
 30
0.0
 11
77.62346513217614
 21
206.8911362700032
 31
0.0
1001
GENIUS_GENODEF_13
1002
{
1000
HIER
1070
     0
1002
}
1002
{
1000
MANEDIT
1070
     0
1002
}
1002
{
1000
NOSEL
1070
     0
1002
}
1002
{
1000
BEHIND
1070
     0
1002
}
1002
{
1000
OTHER
1070
     0
1002
}
1002
{
1000
REACTOR
1002
}
1001
GENIUS_GENOBJ-N-CEN_13
1002
{
1000
OWNER
1000
GEN
1002
}
1001
GENIUS_GENCEN_19
1002
{
1040
3.0
1002
}
  0
LINE
  5
36C5
  8
0
 10
76.87234011950233
 20
205.7172816628762
 30
0.0
 11
76.5324397283917
 21
205.5210400805708
 31
0.0
1001
GENIUS_GENODEF_13
1002
{
1000
HIER
1070
     0
1002
}
1002
{
1000
MANEDIT
1070
     0
1002
}
1002
{
1000
NOSEL
1070
     0
1002
}
1002
{
1000
BEHIND
1070
     0
1002
}
1002
{
1000
OTHER
1070
     0
1002
}
1002
{
1000
REACTOR
1002
}
1001
GENIUS_GENOBJ-N-CEN_13
1002
{
1000
OWNER
1000
GEN
1002
}
1001
GENIUS_GENCEN_19
1002
{
1040
3.0
1002
}
  0
LINE
  5
36C6
  8
0
 10
77.02234011950242
 20
206.3247984982655
 30
0.0
 11
76.68243972839156
 21
206.5210400805709
 31
0.0
1001
GENIUS_GENODEF_13
1002
{
1000
HIER
1070
     0
1002
}
1002
{
1000
MANEDIT
1070
     0
1002
}
1002
{
1000
NOSEL
1070
     0
1002
}
1002
{
1000
BEHIND
1070
     0
1002
}
1002
{
1000
OTHER
1070
     0
1002
}
1002
{
1000
REACTOR
1002
}
1001
GENIUS_GENOBJ-N-CEN_13
1002
{
1000
OWNER
1000
GEN
1002
}
1001
GENIUS_GENCEN_19
1002
{
1040
3.0
1002
}
  0
LINE
  5
36C7
  8
0
 10
77.32346513217595
 20
206.4986531053924
 30
0.0
 11
77.32346513217595
 21
206.8911362700032
 31
0.0
1001
GENIUS_GENODEF_13
1002
{
1000
HIER
1070
     0
1002
}
1002
{
1000
MANEDIT
1070
     0
1002
}
1002
{
1000
NOSEL
1070
     0
1002
}
1002
{
1000
BEHIND
1070
     0
1002
}
1002
{
1000
OTHER
1070
     0
1002
}
1002
{
1000
REACTOR
1002
}
1001
GENIUS_GENOBJ-N-CEN_13
1002
{
1000
OWNER
1000
GEN
1002
}
1001
GENIUS_GENCEN_19
1002
{
1040
3.0
1002
}
  0
POINT
  5
36C8
  8
0
 10
77.47346513217605
 20
205.8911362700032
 30
0.0
  0
ARC
  5
4A4F
  8
0
 10
57.65746901629376
 20
237.9020914956461
 30
0.0
 40
2.818784487207035
 50
42.10643774613698
 51
72.54963860556842
  0
ARC
  5
4A50
  8
0
 10
57.66203586108384
 20
237.8940184650372
 30
0.0
 40
2.825124600724308
 50
72.68709389380226
 51
114.8350808121767
  0
ARC
  5
4A51
  8
0
 10
57.66886064054776
 20
237.8951235512723
 30
0.0
 40
2.82699601279636
 50
114.9700164788594
 51
159.7658782060649
  0
ARC
  5
4A52
  8
0
 10
57.6702334659121
 20
237.9019402368705
 30
0.0
 40
2.825934871198894
 50
159.9051839004258
 51
208.1033156220126
  0
ARC
  5
4A53
  8
0
 10
57.66700331075309
 20
237.9059759101547
 30
0.0
 40
2.824991178843034
 50
208.2063768521148
 51
252.9917058831044
  0
ARC
  5
4A54
  8
0
 10
57.66113285920841
 20
237.8985074809183
 30
0.0
 40
2.816134321775382
 50
253.061472818479
 51
303.6104044070925
  0
ARC
  5
4A55
  8
0
 10
57.65197275224088
 20
237.9078113586306
 30
0.0
 40
2.828954381084524
 50
303.6606050060736
 51
336.6888212394869
  0
ARC
  5
4A56
  8
0
 10
57.6730174830501
 20
237.8962000942435
 30
0.0
 40
2.805033656979198
 50
336.7365264644543
 51
352.0115546408769
  0
ARC
  5
4A57
  8
0
 10
60.88196056544552
 20
237.4395123198012
 30
0.0
 40
0.4362831274249897
 50
124.9417661979972
 51
171.1843733476083
  0
ARC
  5
4A58
  8
0
 10
60.95858270196861
 20
237.3812910034436
 30
0.0
 40
0.5287156028486799
 50
68.49894250647111
 51
128.1363643025125
  0
ARC
  5
4A59
  8
0
 10
60.95743981099496
 20
237.3781526040216
 30
0.0
 40
0.5320545012467646
 50
21.17868457593833
 51
68.50830305575766
  0
ARC
  5
4A5A
  8
0
 10
60.90062314054759
 20
237.3654657811655
 30
0.0
 40
0.589681274627146
 50
351.3677592453841
 51
20.33365155063771
  0
ARC
  5
4A5B
  8
0
 10
57.68343249312156
 20
237.8923712411114
 30
0.0
 40
3.849700154783129
 50
329.2955579547433
 51
350.8012500119637
  0
ARC
  5
4A5C
  8
0
 10
57.66066396052014
 20
237.9020138808745
 30
0.0
 40
3.874201887614873
 50
272.110292872708
 51
329.3448789643532
  0
ARC
  5
4A5D
  8
0
 10
57.65755038598456
 20
237.8871204130526
 30
0.0
 40
3.859434907830362
 50
228.1538869054162
 51
272.1646262877287
  0
ARC
  5
4A5E
  8
0
 10
57.65899930550934
 20
237.9001832887907
 30
0.0
 40
3.870140110233152
 50
191.6688789272142
 51
228.2669244735644
  0
ARC
  5
4A5F
  8
0
 10
54.43289311226854
 20
239.2068393856968
 30
0.0
 40
2.164208178393929
 50
198.7239634759426
 51
254.8927875963117
  0
ARC
  5
4A60
  8
0
 10
52.35567420496798
 20
239.787606166592
 30
0.0
 40
1.275794832121307
 50
159.5889286416731
 51
271.2373210171072
  0
ARC
  5
4A61
  8
0
 10
52.35550907629411
 20
239.7874611460521
 30
0.0
 40
1.27569066216106
 50
56.35876753652607
 51
159.5802376694622
  0
ARC
  5
4A62
  8
0
 10
52.35508392220871
 20
239.7872864095602
 30
0.0
 40
1.27607169163755
 50
300.8474340774547
 51
56.34722155661635
  0
ARC
  5
4A63
  8
0
 10
54.43268597258395
 20
239.2057650429764
 30
0.0
 40
1.513270340059136
 50
199.8575424768324
 51
244.87020540992
  0
ARC
  5
4A64
  8
0
 10
57.65322468117998
 20
237.9057736786128
 30
0.0
 40
3.863814594731709
 50
128.8924189419203
 51
181.0387416655356
  0
ARC
  5
4A65
  8
0
 10
57.65981791090309
 20
237.9092492700553
 30
0.0
 40
3.865255996170545
 50
64.08752047055647
 51
129.0008345454506
  0
ARC
  5
4A66
  8
0
 10
57.63602564698837
 20
237.8813352334237
 30
0.0
 40
3.900771647075106
 50
41.93148962721774
 51
63.95236016528539
  0
ARC
  5
4A67
  8
0
 10
60.13292037922861
 20
240.1416108209403
 30
0.0
 40
0.5329691384397407
 50
326.9391245431079
 51
40.534822208359
  0
ARC
  5
4A68
  8
0
 10
60.13436758377819
 20
240.1420787958313
 30
0.0
 40
0.532012855346209
 50
288.8262582044642
 51
326.8118599153606
  0
ARC
  5
4A69
  8
0
 10
60.13889878239408
 20
240.1199636986923
 30
0.0
 40
0.5096266244015553
 50
220.0392534532336
 51
289.1464231932406
  0
ARC
  5
4A6A
  8
0
 10
52.35555441773687
 20
239.7874950974253
 30
0.0
 40
0.5333610920542913
 50
358.2903179254245
 51
182.8871640299837
  0
ARC
  5
4A6B
  8
0
 10
52.35555669541014
 20
239.7872734439683
 30
0.0
 40
0.533352248318835
 50
182.8633706346232
 51
358.3141113207853
  0
ARC
  5
4A6C
  8
0
 10
56.41441952728323
 20
238.367776832937
 30
0.0
 40
0.6197235851139764
 50
269.9860909562865
 51
92.215844524471
  0
ARC
  5
4A6D
  8
0
 10
56.41454285113991
 20
238.3677792029592
 30
0.0
 40
0.619725997344469
 50
92.22724608009439
 51
269.9746892990941
  0
ARC
  5
4A6E
  8
0
 10
58.91025071915527
 20
238.3677698894349
 30
0.0
 40
0.6197167624590886
 50
269.9616101028838
 51
89.98977670141758
  0
ARC
  5
4A6F
  8
0
 10
58.90991589087906
 20
238.3677700314792
 30
0.0
 40
0.6197167706109338
 50
89.95882022246083
 51
269.9925665818405
  0
ARC
  5
4A70
  8
0
 10
57.66213124023702
 20
238.3884323049971
 30
0.0
 40
1.621966970399848
 50
233.6417470358301
 51
306.8838773871489
  0
ARC
  5
4A71
  8
0
 10
58.78581495103037
 20
236.8818313823182
 30
0.0
 40
0.2575808481740123
 50
48.75225273408076
 51
125.6665677964269
  0
ARC
  5
4A72
  8
0
 10
58.7854322118429
 20
236.8815695259129
 30
0.0
 40
0.2580301008803177
 50
350.2089239138045
 51
48.72668974043751
  0
ARC
  5
4A73
  8
0
 10
58.78227931515414
 20
236.8818129154592
 30
0.0
 40
0.2611786316846578
 50
302.772289192969
 51
350.2739298216642
  0
ARC
  5
4A74
  8
0
 10
57.65846150505965
 20
238.3944656030781
 30
0.0
 40
2.145096291517153
 50
279.580629416799
 51
306.1433603622952
  0
ARC
  5
4A75
  8
0
 10
57.66204490385651
 20
238.3876029978723
 30
0.0
 40
2.137734336466047
 50
255.4417152635179
 51
279.516539242629
  0
ARC
  5
4A76
  8
0
 10
57.66299456259033
 20
238.3854033398218
 30
0.0
 40
2.135844522087935
 50
232.8702473643657
 51
255.4022254017398
  0
ARC
  5
4A77
  8
0
 10
56.53944427631563
 20
236.8814617303099
 30
0.0
 40
0.25887643170293
 50
155.1529278431574
 51
230.204809200586
  0
ARC
  5
4A78
  8
0
 10
56.53824277974948
 20
236.8819013041922
 30
0.0
 40
0.2576014684421306
 50
103.7622011258944
 51
155.1293551933689
  0
ARC
  5
4A79
  8
0
 10
56.53856804342703
 20
236.8821414920211
 30
0.0
 40
0.2574458242313935
 50
51.0020224878708
 51
103.845228473221
  0
ARC
  5
4A7A
  8
0
 10
49.67809064750813
 20
234.8564000173184
 30
0.0
 40
0.9091768622367206
 50
133.2229596717334
 51
270.1894734199499
  0
ARC
  5
4A7B
  8
0
 10
49.67851599511528
 20
234.8560163283234
 30
0.0
 40
0.9087918676904274
 50
270.1627370543735
 51
50.19893912908837
  0
ARC
  5
4A7C
  8
0
 10
49.65783751832709
 20
241.252486483944
 30
0.0
 40
0.6024320394943272
 50
2.835526177207598
 51
174.3732816204281
  0
ARC
  5
4A7D
  8
0
 10
49.65787348470545
 20
241.2524083949787
 30
0.0
 40
0.2295028634559424
 50
358.9188453068387
 51
179.9730971000858
  0
ARC
  5
4A7E
  8
0
 10
46.78492787284532
 20
235.9457516378573
 30
0.0
 40
0.0873768611613766
 50
87.47256260673397
 51
234.0891406317379
  0
ARC
  5
4A7F
  8
0
 10
48.1960076458293
 20
235.9466651185612
 30
0.0
 40
0.0863646317370953
 50
317.9031549580178
 51
87.18148688827209
  0
ARC
  5
4A80
  8
0
 10
47.49016425175031
 20
235.2405667494094
 30
0.0
 40
0.086253216996548
 50
226.0322552542272
 51
315.2107938570683
  0
LINE
  5
4A81
  8
0
 10
49.42837064654896
 20
241.252516156709
 30
0.0
 11
49.42837064654896
 21
237.7288052192088
 31
0.0
  0
LINE
  5
4A82
  8
0
 10
49.42837064654896
 20
237.7288052192088
 30
0.0
 11
49.88733549029939
 21
237.7288052192088
 31
0.0
  0
LINE
  5
4A83
  8
0
 10
49.88733549029939
 20
237.7288052192088
 30
0.0
 11
49.88733549029939
 21
241.2480779996984
 31
0.0
  0
LINE
  5
4A84
  8
0
 10
50.25953197383069
 20
241.2822882359985
 30
0.0
 11
50.26025541217405
 21
235.5542153754585
 31
0.0
  0
LINE
  5
4A85
  8
0
 10
49.0554507246743
 20
235.5189119744332
 30
0.0
 11
49.0554507246743
 21
237.4994106879584
 31
0.0
  0
LINE
  5
4A86
  8
0
 10
49.0554507246743
 20
237.4994106879584
 30
0.0
 11
46.59222806842399
 21
237.4994106879584
 31
0.0
  0
LINE
  5
4A87
  8
0
 10
46.59222806842399
 20
237.4994106879584
 30
0.0
 11
46.59222806842399
 21
237.7287212756023
 31
0.0
  0
LINE
  5
4A88
  8
0
 10
46.59222806842399
 20
237.7287212756023
 30
0.0
 11
49.0554507246743
 21
237.7288052192088
 31
0.0
  0
LINE
  5
4A89
  8
0
 10
49.0554507246743
 20
237.7288052192088
 30
0.0
 11
49.05830812498505
 21
241.3115531304394
 31
0.0
  0
LINE
  5
4A8A
  8
0
 10
46.73367908291561
 20
235.8749824539058
 30
0.0
 11
47.43028267116389
 21
235.1784876567233
 31
0.0
  0
LINE
  5
4A8B
  8
0
 10
47.55137845904937
 20
235.1798013129591
 30
0.0
 11
48.2600913042881
 21
235.8887674991489
 31
0.0
  0
LINE
  5
4A8C
  8
0
 10
48.20025441035864
 20
236.0329252751001
 30
0.0
 11
47.81909330279905
 21
236.0330435004588
 31
0.0
  0
LINE
  5
4A8D
  8
0
 10
47.81909330279905
 20
236.0330435004588
 30
0.0
 11
47.81909330279905
 21
237.0471735697234
 31
0.0
  0
LINE
  5
4A8E
  8
0
 10
47.81909330279905
 20
237.0471735697234
 30
0.0
 11
47.16114408404928
 21
237.0473013129584
 31
0.0
  0
LINE
  5
4A8F
  8
0
 10
47.16114408404928
 20
237.0473013129584
 30
0.0
 11
47.16114408404928
 21
236.0330435004588
 31
0.0
  0
LINE
  5
4A90
  8
0
 10
47.16114408404928
 20
236.0330435004588
 30
0.0
 11
46.78878100014236
 21
236.0330435004588
 31
0.0
  0
LINE
  5
4A91
  8
0
 10
48.38809720904919
 20
239.6239028754588
 30
0.0
 11
48.18735502154914
 21
239.7397427192089
 31
0.0
  0
LINE
  5
4A92
  8
0
 10
48.18735502154914
 20
239.7397427192089
 30
0.0
 11
47.69103666217416
 21
239.4532192817086
 31
0.0
  0
LINE
  5
4A93
  8
0
 10
47.69103666217416
 20
239.4532192817086
 30
0.0
 11
47.6909487715493
 21
240.026441937959
 31
0.0
  0
LINE
  5
4A94
  8
0
 10
47.6909487715493
 20
240.026441937959
 30
0.0
 11
47.49020658404925
 21
240.1422817817087
 31
0.0
  0
LINE
  5
4A95
  8
0
 10
47.49020658404925
 20
240.1422817817087
 30
0.0
 11
47.28937650592434
 21
240.026441937959
 31
0.0
  0
LINE
  5
4A96
  8
0
 10
47.28937650592434
 20
240.026441937959
 30
0.0
 11
47.28937650592434
 21
239.4532192817086
 31
0.0
  0
LINE
  5
4A97
  8
0
 10
47.28937650592434
 20
239.4532192817086
 30
0.0
 11
46.79297025592405
 21
239.7397427192089
 31
0.0
  0
LINE
  5
4A98
  8
0
 10
46.79297025592405
 20
239.7397427192089
 30
0.0
 11
46.59222806842399
 21
239.6239028754588
 31
0.0
  0
LINE
  5
4A99
  8
0
 10
46.59222806842399
 20
239.6239028754588
 30
0.0
 11
46.59222806842399
 21
239.3920474067089
 31
0.0
  0
LINE
  5
4A9A
  8
0
 10
46.59222806842399
 20
239.3920474067089
 30
0.0
 11
47.08863431842428
 21
239.1055239692085
 31
0.0
  0
LINE
  5
4A9B
  8
0
 10
47.08863431842428
 20
239.1055239692085
 30
0.0
 11
46.59222806842399
 21
238.8188247504585
 31
0.0
  0
LINE
  5
4A9C
  8
0
 10
46.59222806842399
 20
238.8188247504585
 30
0.0
 11
46.59222806842399
 21
238.5869692817085
 31
0.0
  0
LINE
  5
4A9D
  8
0
 10
46.59222806842399
 20
238.5869692817085
 30
0.0
 11
46.79297025592405
 21
238.4711294379584
 31
0.0
  0
LINE
  5
4A9E
  8
0
 10
46.79297025592405
 20
238.4711294379584
 30
0.0
 11
47.28937650592434
 21
238.7576528754588
 31
0.0
  0
LINE
  5
4A9F
  8
0
 10
47.28937650592434
 20
238.7576528754588
 30
0.0
 11
47.28946439654919
 21
238.1844302192088
 31
0.0
  0
LINE
  5
4AA0
  8
0
 10
47.28946439654919
 20
238.1844302192088
 30
0.0
 11
47.49020658404925
 21
238.0685903754587
 31
0.0
  0
LINE
  5
4AA1
  8
0
 10
47.49020658404925
 20
238.0685903754587
 30
0.0
 11
47.69103666217416
 21
238.1844302192088
 31
0.0
  0
LINE
  5
4AA2
  8
0
 10
47.69103666217416
 20
238.1844302192088
 30
0.0
 11
47.6909487715493
 21
238.7576528754588
 31
0.0
  0
LINE
  5
4AA3
  8
0
 10
47.6909487715493
 20
238.7576528754588
 30
0.0
 11
48.18735502154914
 21
238.4711294379584
 31
0.0
  0
LINE
  5
4AA4
  8
0
 10
48.18735502154914
 20
238.4711294379584
 30
0.0
 11
48.38809720904919
 21
238.5869692817085
 31
0.0
  0
LINE
  5
4AA5
  8
0
 10
48.38809720904919
 20
238.5869692817085
 30
0.0
 11
48.38809720904919
 21
238.8188247504585
 31
0.0
  0
LINE
  5
4AA6
  8
0
 10
48.38809720904919
 20
238.8188247504585
 30
0.0
 11
47.89177884967421
 21
239.1055239692085
 31
0.0
  0
LINE
  5
4AA7
  8
0
 10
47.89177884967421
 20
239.1055239692085
 30
0.0
 11
48.38809720904919
 21
239.3920474067089
 31
0.0
  0
LINE
  5
4AA8
  8
0
 10
48.38809720904919
 20
239.3920474067089
 30
0.0
 11
48.38809720904919
 21
239.6239028754588
 31
0.0
  0
ARC
  5
4AA9
  8
0
 10
43.12195478708367
 20
230.2040444927605
 30
0.0
 40
0.3670849884844836
 50
88.43595018400158
 51
181.5907611346589
  0
ARC
  5
4AAA
  8
0
 10
43.11635377227552
 20
230.1781494181704
 30
0.0
 40
0.3616836161732613
 50
177.5113831094955
 51
272.4752596742406
  0
ARC
  5
4AAB
  8
0
 10
47.84987530444289
 20
228.8144635001163
 30
0.0
 40
1.757421872517575
 50
58.63205765538173
 51
91.8262466779124
  0
ARC
  5
4AAC
  8
0
 10
48.03109981520703
 20
229.15398917394
 30
0.0
 40
1.373363550070809
 50
357.3646905701011
 51
57.7143254106955
  0
ARC
  5
4AAD
  8
0
 10
47.37222150099021
 20
229.1492406359239
 30
0.0
 40
2.031628876196131
 50
312.3580077297274
 51
358.3528725601312
  0
ARC
  5
4AAE
  8
0
 10
46.53428259649786
 20
230.2834003115174
 30
0.0
 40
3.437343882281632
 50
279.6428930056556
 51
309.9410387066553
  0
ARC
  5
4AAF
  8
0
 10
45.82932603886917
 20
233.063804567243
 30
0.0
 40
6.30072093565917
 50
275.4117803201627
 51
281.7281302859268
  0
ARC
  5
4AB0
  8
0
 10
46.41897313966314
 20
226.6870089836857
 30
0.0
 40
0.104260725704256
 50
87.47523003474419
 51
163.719913901522
  0
ARC
  5
4AB1
  8
0
 10
46.6171237840131
 20
226.6564071862459
 30
0.0
 40
0.3041729537229
 50
168.6561978748443
 51
200.0889648778405
  0
ARC
  5
4AB2
  8
0
 10
46.25954925444671
 20
225.9016441229751
 30
0.0
 40
0.2537512839947012
 50
261.337232024561
 51
20.62119432797163
  0
ARC
  5
4AB3
  8
0
 10
45.89215582039026
 20
227.3439461614111
 30
0.0
 40
1.693196324176135
 50
200.711939446208
 51
269.6171287198746
  0
ARC
  5
4AB4
  8
0
 10
44.01206817150472
 20
228.558943671624
 30
0.0
 40
0.2418104089398966
 50
78.56434552526864
 51
205.2442294015781
  0
ARC
  5
4AB5
  8
0
 10
45.20962626165607
 20
228.2511766206358
 30
0.0
 40
0.5454708950328662
 50
22.03436718337198
 51
87.10976279916872
  0
ARC
  5
4AB6
  8
0
 10
46.42806731645197
 20
228.0722198414668
 30
0.0
 40
0.5575982287956304
 50
198.5615711856645
 51
231.4697421334256
  0
ARC
  5
4AB7
  8
0
 10
46.27522352434923
 20
227.9079720521945
 30
0.0
 40
0.3343453227859988
 50
234.4274826077679
 51
282.9237961332876
  0
ARC
  5
4AB8
  8
0
 10
45.9641165333037
 20
228.9255396532353
 30
0.0
 40
1.397765155718417
 50
286.0259576150778
 51
322.772333141376
  0
ARC
  5
4AB9
  8
0
 10
45.45649809226563
 20
229.3733428326815
 30
0.0
 40
2.073453716718684
 50
321.4055578566588
 51
357.0055140470178
  0
ARC
  5
4ABA
  8
0
 10
46.98166101339643
 20
229.3036545650756
 30
0.0
 40
0.5468257340680802
 50
355.949160792519
 51
43.98614270712318
  0
ARC
  5
4ABB
  8
0
 10
46.98970115444689
 20
229.2031052007011
 30
0.0
 40
0.6158215084356161
 50
51.25619189844189
 51
94.75943482914283
  0
ARC
  5
4ABC
  8
0
 10
50.95033060708238
 20
228.1107977044558
 30
0.0
 40
0.9170993127764647
 50
90.00286747961164
 51
268.2497146487439
  0
ARC
  5
4ABD
  8
0
 10
50.95025402573552
 20
228.1107988723428
 30
0.0
 40
0.9170981442542538
 50
268.2544990708286
 51
89.9980830575269
  0
ARC
  5
4ABE
  8
0
 10
53.00544288092314
 20
230.1893383547609
 30
0.0
 40
0.3770840596473977
 50
89.98842136809311
 51
178.6192995487076
  0
ARC
  5
4ABF
  8
0
 10
54.1734858640545
 20
230.1893383341406
 30
0.0
 40
0.3770841082509337
 50
1.380703407345221
 51
90.02492579868603
  0
ARC
  5
4AC0
  8
0
 10
54.17356316724522
 20
227.6231634337481
 30
0.0
 40
0.3768973543141036
 50
269.9633102497762
 51
0.0233356470828619
  0
ARC
  5
4AC1
  8
0
 10
53.00536554733367
 20
227.6231634012434
 30
0.0
 40
0.3768972758079303
 50
179.9766594067293
 51
270.0233405932977
  0
ARC
  5
4AC2
  8
0
 10
56.67348138063872
 20
230.189970172695
 30
0.0
 40
0.3765533069000618
 50
91.32755171042551
 51
178.7135156246362
  0
ARC
  5
4AC3
  8
0
 10
57.84184129374268
 20
230.1892529476475
 30
0.0
 40
0.3772853742403397
 50
1.392937584176968
 51
88.57968746194352
  0
ARC
  5
4AC4
  8
0
 10
55.35469610331688
 20
227.3334150909448
 30
0.0
 40
0.9424222807007966
 50
270.259616029871
 51
359.1847732707226
  0
ARC
  5
4AC5
  8
0
 10
55.08760404498662
 20
226.0185659613961
 30
0.0
 40
0.3724651062386549
 50
89.29017710179583
 51
270.7098228982042
  0
ARC
  5
4AC6
  8
0
 10
56.02877657737011
 20
227.7815154006753
 30
0.0
 40
2.135678174171317
 50
269.052185615305
 51
304.9431031995391
  0
ARC
  5
4AC7
  8
0
 10
55.98387637645669
 20
227.8864444386103
 30
0.0
 40
2.247528607778139
 50
304.349268769131
 51
342.0336073987818
  0
ARC
  5
4AC8
  8
0
 10
55.96984566801929
 20
227.8474206272894
 30
0.0
 40
2.249219839620582
 50
343.0895187182535
 51
0.3832968636579526
  0
ARC
  5
4AC9
  8
0
 10
59.44662856806193
 20
230.2030386176465
 30
0.0
 40
0.3724661917305334
 50
89.27682506750826
 51
270.7231749324918
  0
ARC
  5
4ACA
  8
0
 10
59.21691674985981
 20
228.5260854926461
 30
0.0
 40
0.3541906372867973
 50
86.29944766479187
 51
273.7005523352082
  0
ARC
  5
4ACB
  8
0
 10
60.42079314574055
 20
229.2378784300179
 30
0.0
 40
0.358803858625055
 50
267.0887535299613
 51
356.4733133196504
  0
ARC
  5
4ACC
  8
0
 10
60.4414007800583
 20
229.4931598824771
 30
0.0
 40
0.3396690833730922
 50
354.8685998202262
 51
96.56439594170106
  0
ARC
  5
4ACD
  8
0
 10
64.74309232623638
 20
230.2030386176465
 30
0.0
 40
0.3724651062386495
 50
269.2901771018636
 51
90.7098228981364
  0
ARC
  5
4ACE
  8
0
 10
63.07886164108311
 20
229.453704849675
 30
0.0
 40
0.3768972758071489
 50
89.9766594065813
 51
180.0233405934893
  0
ARC
  5
4ACF
  8
0
 10
63.03670587449979
 20
229.2116209207249
 30
0.0
 40
0.3347676534002981
 50
179.2835006658344
 51
277.260691921098
  0
ARC
  5
4AD0
  8
0
 10
63.06765195233456
 20
227.8065108745473
 30
0.0
 40
0.3662987656052747
 50
88.22229995736467
 51
176.6896381244136
  0
ARC
  5
4AD1
  8
0
 10
63.61358516569899
 20
227.2567673821571
 30
0.0
 40
0.9125541393853733
 50
182.5916258786893
 51
271.6600393676824
  0
ARC
  5
4AD2
  8
0
 10
64.76529648926066
 20
225.9953628363963
 30
0.0
 40
0.3502616083451314
 50
265.608746066266
 51
94.39125393373403
  0
ARC
  5
4AD3
  8
0
 10
62.96167516080706
 20
227.8729619743561
 30
0.0
 40
2.227259321723195
 50
225.0349285396399
 51
271.1216669202528
  0
ARC
  5
4AD4
  8
0
 10
62.7074571106902
 20
227.7024378593898
 30
0.0
 40
1.927871578424823
 50
179.3527648258316
 51
226.7994771726991
  0
ARC
  5
4AD5
  8
0
 10
60.60007797962209
 20
227.9573485821021
 30
0.0
 40
0.1798521029892861
 50
357.1558279388273
 51
48.65700890603938
  0
ARC
  5
4AD6
  8
0
 10
60.52983576839907
 20
227.8613056341731
 30
0.0
 40
0.2985497565163959
 50
50.7122642471508
 51
78.58034235835163
  0
ARC
  5
4AD7
  8
0
 10
60.41502939208013
 20
227.3581845571973
 30
0.0
 40
0.8145440850389851
 50
77.67158325143023
 51
90.87644874463625
  0
ARC
  5
4AD8
  8
0
 10
64.94826808204536
 20
228.5523490683128
 30
0.0
 40
0.3797198155434018
 50
270.2659772238895
 51
356.0405792706867
  0
ARC
  5
4AD9
  8
0
 10
64.9616616076567
 20
228.5141049215297
 30
0.0
 40
0.365617762344841
 50
1.884695911899235
 51
91.82296525308817
  0
LINE
  5
4ADA
  8
0
 10
43.13197416217417
 20
230.5709927192087
 30
0.0
 11
47.79386869342443
 21
230.5709927192087
 31
0.0
  0
LINE
  5
4ADB
  8
0
 10
46.93860502154939
 20
229.8168032660841
 30
0.0
 11
43.13197416217417
 21
229.8168032660841
 31
0.0
  0
LINE
  5
4ADC
  8
0
 10
44.06001127154923
 20
228.7959536567085
 30
0.0
 11
45.23713041217388
 21
228.7959536567085
 31
0.0
  0
LINE
  5
4ADD
  8
0
 10
45.71525541217443
 20
228.4558169379587
 30
0.0
 11
45.8994741621741
 21
227.8947231879587
 31
0.0
  0
LINE
  5
4ADE
  8
0
 10
43.79335111529917
 20
228.4558169379587
 30
0.0
 11
44.30839017779954
 21
226.7451138129589
 31
0.0
  0
LINE
  5
4ADF
  8
0
 10
45.88084134967403
 20
225.6507876410841
 30
0.0
 11
46.22132963092417
 21
225.6507876410841
 31
0.0
  0
LINE
  5
4AE0
  8
0
 10
46.49704252154925
 20
225.9910122504588
 30
0.0
 11
46.33145658404919
 21
226.5519302192087
 31
0.0
  0
LINE
  5
4AE1
  8
0
 10
52.62846830279886
 20
230.1984243598334
 30
0.0
 11
52.62846830279886
 21
227.6233169379587
 31
0.0
  0
LINE
  5
4AE2
  8
0
 10
53.00551908404896
 20
227.2462661567087
 30
0.0
 11
54.17332181842403
 21
227.2462661567087
 31
0.0
  0
LINE
  5
4AE3
  8
0
 10
54.55046049029943
 20
227.6233169379587
 30
0.0
 11
54.55046049029943
 21
230.1984243598334
 31
0.0
  0
LINE
  5
4AE4
  8
0
 10
54.17332181842403
 20
230.5664224067085
 30
0.0
 11
53.00551908404896
 21
230.5664224067085
 31
0.0
  0
LINE
  5
4AE5
  8
0
 10
56.29702299029896
 20
230.1984243598334
 30
0.0
 11
56.29702299029896
 21
227.3200063910834
 31
0.0
  0
LINE
  5
4AE6
  8
0
 10
55.35896634967412
 20
226.3910024848336
 30
0.0
 11
55.09221830279921
 21
226.3910024848336
 31
0.0
  0
LINE
  5
4AE7
  8
0
 10
55.09221830279921
 20
225.6461294379586
 30
0.0
 11
55.99344877154954
 21
225.6461294379586
 31
0.0
  0
LINE
  5
4AE8
  8
0
 10
58.21901517779906
 20
227.8624673285839
 30
0.0
 11
58.21901517779906
 21
230.1984243598334
 31
0.0
  0
LINE
  5
4AE9
  8
0
 10
57.85119291217416
 20
230.5664224067085
 30
0.0
 11
56.66475736529947
 21
230.5664224067085
 31
0.0
  0
LINE
  5
4AEA
  8
0
 10
59.45132963092419
 20
230.575475141084
 30
0.0
 11
64.73847806842423
 21
230.575475141084
 31
0.0
  0
LINE
  5
4AEB
  8
0
 10
64.73847806842423
 20
229.830602094209
 30
0.0
 11
63.07901517779919
 21
229.830602094209
 31
0.0
  0
LINE
  5
4AEC
  8
0
 10
62.7019643965491
 20
229.4535513129584
 30
0.0
 11
62.7019643965491
 21
229.2158071723337
 31
0.0
  0
LINE
  5
4AED
  8
0
 10
63.07901517779919
 20
228.8795376410834
 30
0.0
 11
64.95003080279912
 21
228.8795376410834
 31
0.0
  0
LINE
  5
4AEE
  8
0
 10
64.95003080279912
 20
228.1726333442087
 30
0.0
 11
63.07901517779919
 21
228.1726333442087
 31
0.0
  0
LINE
  5
4AEF
  8
0
 10
62.7019643965491
 20
227.8276626410837
 30
0.0
 11
62.7019643965491
 21
227.2155044379587
 31
0.0
  0
LINE
  5
4AF0
  8
0
 10
63.64002103717439
 20
226.3445962348341
 30
0.0
 11
64.73847806842423
 21
226.3445962348341
 31
0.0
  0
LINE
  5
4AF1
  8
0
 10
64.73847806842423
 20
225.6461294379586
 30
0.0
 11
63.00527494342396
 21
225.6461294379586
 31
0.0
  0
LINE
  5
4AF2
  8
0
 10
60.77970853717443
 20
227.7242153754586
 30
0.0
 11
60.77970853717443
 21
227.9484243598334
 31
0.0
  0
LINE
  5
4AF3
  8
0
 10
60.40256986529903
 20
228.1726333442087
 30
0.0
 11
59.2397768965493
 21
228.1726333442087
 31
0.0
  0
LINE
  5
4AF4
  8
0
 10
59.2397768965493
 20
228.8795376410834
 30
0.0
 11
60.40256986529903
 21
228.8795376410834
 31
0.0
  0
LINE
  5
4AF5
  8
0
 10
60.77891752154937
 20
229.2158071723337
 30
0.0
 11
60.77970853717443
 21
229.4627798285836
 31
0.0
  0
LINE
  5
4AF6
  8
0
 10
60.40256986529903
 20
229.830602094209
 30
0.0
 11
59.45132963092419
 21
229.830602094209
 31
0.0
  0
LINE
  5
4AFA
  8
0
 10
44.90033353717399
 20
232.4509731879588
 30
0.0
 11
44.01843900592439
 21
232.4509731879588
 31
0.0
  0
LINE
  5
4AFB
  8
0
 10
44.01843900592439
 20
232.4509731879588
 30
0.0
 11
44.01843900592439
 21
232.6163833442087
 31
0.0
  0
LINE
  5
4AFC
  8
0
 10
44.01843900592439
 20
232.6163833442087
 30
0.0
 11
45.09386869342416
 21
232.6163833442087
 31
0.0
  0
LINE
  5
4AFD
  8
0
 10
45.09386869342416
 20
232.6163833442087
 30
0.0
 11
45.09386869342416
 21
232.4509731879588
 31
0.0
  0
LINE
  5
4AFE
  8
0
 10
44.47476713092419
 20
232.030592328584
 30
0.0
 11
44.3240347090491
 21
232.2360806098339
 31
0.0
  0
LINE
  5
4AFF
  8
0
 10
44.3240347090491
 20
232.2360806098339
 30
0.0
 11
44.17057767779943
 21
232.1334243598338
 31
0.0
  0
LINE
  5
4B00
  8
0
 10
44.5708315840493
 20
231.5636294379591
 30
0.0
 11
44.72824369342425
 21
231.6623306098335
 31
0.0
  0
LINE
  5
4B01
  8
0
 10
44.72824369342425
 20
231.6623306098335
 30
0.0
 11
44.58014799029888
 21
231.881178266084
 31
0.0
  0
ARC
  5
4B02
  8
0
 10
34.35775182455328
 20
224.8149024842409
 30
0.0
 40
12.24141795992888
 50
33.45643062216233
 51
36.71601240395388
  0
ARC
  5
4B03
  8
0
 10
44.0717387448492
 20
232.8641906016555
 30
0.0
 40
0.9259146617534648
 50
295.8028544447351
 51
333.4947229782729
  0
ARC
  5
4B04
  8
0
 10
44.14461293910705
 20
232.7903316469819
 30
0.0
 40
1.008092580477948
 50
295.5970136290768
 51
340.3280553328837
  0
LINE
  5
4B05
  8
0
 10
45.86774564654888
 20
232.1560122504587
 30
0.0
 11
45.86774564654888
 21
231.579625531709
 31
0.0
  0
LINE
  5
4B06
  8
0
 10
45.86774564654888
 20
231.579625531709
 30
0.0
 11
46.0598745527991
 21
231.579625531709
 31
0.0
  0
LINE
  5
4B07
  8
0
 10
46.0598745527991
 20
231.579625531709
 30
0.0
 11
46.0598745527991
 21
232.248121625459
 31
0.0
  0
LINE
  5
4B08
  8
0
 10
46.44545072467417
 20
232.5283169379589
 30
0.0
 11
46.33602689654936
 21
232.6537368598337
 31
0.0
  0
LINE
  5
4B09
  8
0
 10
45.33802884967417
 20
232.1800942817089
 30
0.0
 11
45.36606595904914
 21
232.0160024848336
 31
0.0
  0
ARC
  5
4B0A
  8
0
 10
45.09474539729399
 20
233.9809566754298
 30
0.0
 40
1.817221010036674
 50
277.6936667564453
 51
313.0836814663463
  0
ARC
  5
4B0B
  8
0
 10
45.27396205279749
 20
233.7350070704316
 30
0.0
 40
1.681810567258462
 50
297.8592692614836
 51
314.1519780416261
  0
ARC
  5
4B0C
  8
0
 10
45.08145436047099
 20
234.0046243373909
 30
0.0
 40
2.008885420952019
 50
278.1448623061171
 51
293.0420589932963
  0
LINE
  5
4B0D
  8
0
 10
47.17529447467405
 20
232.2468032660835
 30
0.0
 11
47.17529447467405
 21
232.2774770942086
 31
0.0
  0
LINE
  5
4B0E
  8
0
 10
47.17529447467405
 20
232.2774770942086
 30
0.0
 11
46.66025541217414
 21
232.2774770942086
 31
0.0
  0
LINE
  5
4B0F
  8
0
 10
46.66025541217414
 20
232.2774770942086
 30
0.0
 11
46.66025541217414
 21
232.4469302192091
 31
0.0
  0
LINE
  5
4B10
  8
0
 10
46.66025541217414
 20
232.4469302192091
 30
0.0
 11
47.17529447467405
 21
232.4469302192091
 31
0.0
  0
LINE
  5
4B11
  8
0
 10
47.17529447467405
 20
232.4469302192091
 30
0.0
 11
47.17529447467405
 21
232.696363812959
 31
0.0
  0
LINE
  5
4B12
  8
0
 10
47.17529447467405
 20
232.696363812959
 30
0.0
 11
47.36206205279905
 21
232.696363812959
 31
0.0
  0
LINE
  5
4B13
  8
0
 10
47.36206205279905
 20
232.696363812959
 30
0.0
 11
47.36206205279905
 21
232.4469302192091
 31
0.0
  0
LINE
  5
4B14
  8
0
 10
47.36206205279905
 20
232.4469302192091
 30
0.0
 11
47.78903470904925
 21
232.4469302192091
 31
0.0
  0
LINE
  5
4B15
  8
0
 10
47.78903470904925
 20
232.4469302192091
 30
0.0
 11
47.78903470904925
 21
232.2774770942086
 31
0.0
  0
LINE
  5
4B16
  8
0
 10
47.78903470904925
 20
232.2774770942086
 30
0.0
 11
47.36206205279905
 21
232.2774770942086
 31
0.0
  0
LINE
  5
4B17
  8
0
 10
47.36206205279905
 20
232.2774770942086
 30
0.0
 11
47.36206205279905
 21
232.2468032660835
 31
0.0
  0
LINE
  5
4B18
  8
0
 10
46.82970853717416
 20
231.5835806098338
 30
0.0
 11
46.77363431842423
 21
231.7490786567085
 31
0.0
  0
ARC
  5
4B19
  8
0
 10
46.40236595510976
 20
232.2322977343752
 30
0.0
 40
0.7730646200712835
 50
342.2910204567376
 51
1.075142363624668
  0
ARC
  5
4B1A
  8
0
 10
46.84883452808674
 20
232.0961127714912
 30
0.0
 40
0.3063876798952075
 50
304.2370088981655
 51
341.1546735930867
  0
ARC
  5
4B1B
  8
0
 10
46.67686578165879
 20
232.3784817005788
 30
0.0
 40
0.6367985092080606
 50
278.7405863986831
 51
302.7346045229096
  0
ARC
  5
4B1C
  8
0
 10
46.70441475244647
 20
232.35943727702
 30
0.0
 40
0.7859084555523594
 50
279.1735470624589
 51
305.341491502271
  0
ARC
  5
4B1D
  8
0
 10
46.8535947899577
 20
232.1064541334256
 30
0.0
 40
0.4938678410143298
 50
308.2022886499791
 51
350.7296062183709
  0
ARC
  5
4B1E
  8
0
 10
46.30947299409075
 20
232.2365963541192
 30
0.0
 40
1.05263854554364
 50
348.5089467324644
 51
0.5555773579710395
  0
LINE
  5
4B1F
  8
0
 10
48.78712064654928
 20
232.4602895942088
 30
0.0
 11
48.13198392779896
 21
232.4602895942088
 31
0.0
  0
LINE
  5
4B20
  8
0
 10
48.13198392779896
 20
232.4602895942088
 30
0.0
 11
48.13198392779896
 21
232.6243813910841
 31
0.0
  0
LINE
  5
4B21
  8
0
 10
48.13198392779896
 20
232.6243813910841
 30
0.0
 11
48.98584134967405
 21
232.6243813910841
 31
0.0
  0
LINE
  5
4B22
  8
0
 10
48.98584134967405
 20
232.6243813910841
 30
0.0
 11
48.98584134967405
 21
232.4602895942088
 31
0.0
  0
LINE
  5
4B23
  8
0
 10
49.10062650592454
 20
231.7156802192088
 30
0.0
 11
48.9778433027991
 21
231.5943032660838
 31
0.0
  0
LINE
  5
4B24
  8
0
 10
48.0945425215491
 20
231.6023013129587
 30
0.0
 11
48.01447416217388
 21
231.7490786567085
 31
0.0
  0
ARC
  5
4B25
  8
0
 10
47.31555077397638
 20
233.283676108637
 30
0.0
 40
1.686263099876902
 50
294.4866134087321
 51
330.7717068869536
  0
ARC
  5
4B26
  8
0
 10
47.24978421645628
 20
233.4126733885644
 30
0.0
 40
1.997764662355422
 50
295.0147624386646
 51
312.8436054073338
  0
ARC
  5
4B27
  8
0
 10
41.3753111772059
 20
224.0177754785412
 30
0.0
 40
10.73323194737177
 50
44.9018425798288
 51
47.63246263973684
  0
ARC
  5
4B28
  8
0
 10
42.14617436577083
 20
224.7138588745838
 30
0.0
 40
9.868632464113261
 50
45.19446774917372
 51
48.1761240722527
  0
ARC
  5
4B29
  8
0
 10
47.61264365866055
 20
233.0846661972755
 30
0.0
 40
1.508482032064661
 50
317.6232793949247
 51
335.5492736743402
  0
LINE
  5
4B2A
  8
0
 10
49.64765775592423
 20
232.6590981879589
 30
0.0
 11
49.47284330279899
 21
232.6790493598336
 31
0.0
  0
LINE
  5
4B2B
  8
0
 10
49.47284330279899
 20
231.5742642035838
 30
0.0
 11
49.64765775592423
 21
231.5943032660838
 31
0.0
  0
ARC
  5
4B2C
  8
0
 10
51.8239921797217
 20
232.1267007270213
 30
0.0
 40
2.24050855401593
 50
166.2536808747336
 51
193.7463191252664
  0
ARC
  5
4B2D
  8
0
 10
51.72626853823903
 20
232.1266567817087
 30
0.0
 40
2.320142851654927
 50
166.2264222050919
 51
193.7735777949081
  0
LINE
  5
4B2E
  8
0
 10
49.85578275592434
 20
232.4202114692088
 30
0.0
 11
49.85578275592434
 21
232.5763052192086
 31
0.0
  0
LINE
  5
4B2F
  8
0
 10
49.85578275592434
 20
232.5763052192086
 30
0.0
 11
50.42953275592436
 21
232.5763052192086
 31
0.0
  0
LINE
  5
4B30
  8
0
 10
50.42953275592436
 20
232.5763052192086
 30
0.0
 11
50.42953275592436
 21
232.4202114692088
 31
0.0
  0
LINE
  5
4B31
  8
0
 10
50.42953275592436
 20
232.4202114692088
 30
0.0
 11
49.85578275592434
 21
232.4202114692088
 31
0.0
  0
LINE
  5
4B32
  8
0
 10
50.03595853717388
 20
232.0827114692087
 30
0.0
 11
49.91045072467386
 21
232.1828188910839
 31
0.0
  0
LINE
  5
4B33
  8
0
 10
50.44148588092412
 20
231.8238735785834
 30
0.0
 11
50.46556791217427
 21
231.6690981879591
 31
0.0
  0
ARC
  5
4B34
  8
0
 10
50.27005895323344
 20
231.7648570639985
 30
0.0
 40
0.5513711698559726
 50
130.7082202384051
 51
157.7036254793856
  0
ARC
  5
4B35
  8
0
 10
49.96061401023908
 20
231.8917187371518
 30
0.0
 40
0.2169312572480087
 50
157.6967650917134
 51
205.3984993647007
  0
ARC
  5
4B36
  8
0
 10
50.02698408057302
 20
231.946016073032
 30
0.0
 40
0.3008800009813904
 50
209.3210192654109
 51
257.5935048122127
  0
ARC
  5
4B37
  8
0
 10
50.15961076894365
 20
232.4579992862094
 30
0.0
 40
0.8296316180790294
 50
256.2444659394047
 51
275.2215523672214
  0
ARC
  5
4B38
  8
0
 10
50.15723980870462
 20
232.8439021216938
 30
0.0
 40
1.214590672657983
 50
273.6760364924774
 51
284.7056607611158
  0
ARC
  5
4B39
  8
0
 10
50.14567974560487
 20
233.066537688201
 30
0.0
 40
1.277386143272562
 50
270.1640623199845
 51
283.3896060448879
  0
ARC
  5
4B3A
  8
0
 10
50.12692186703487
 20
232.1592062150328
 30
0.0
 40
0.3707277183708511
 50
242.6706422703818
 51
273.4664302047631
  0
ARC
  5
4B3B
  8
0
 10
50.00639728876976
 20
231.9008927715645
 30
0.0
 40
0.0866823147437489
 50
154.885456063077
 51
235.0327799996337
  0
ARC
  5
4B3C
  8
0
 10
50.3454455951231
 20
231.7393745716059
 30
0.0
 40
0.4622363727478137
 50
132.0317914832216
 51
154.5946083240108
  0
LINE
  5
4B3D
  8
0
 10
50.90185697467405
 20
232.3976235785839
 30
0.0
 11
50.71640775592414
 21
232.3976235785839
 31
0.0
  0
LINE
  5
4B3E
  8
0
 10
50.71640775592414
 20
232.3976235785839
 30
0.0
 11
50.71640775592414
 21
232.5496743598341
 31
0.0
  0
LINE
  5
4B3F
  8
0
 10
50.71640775592414
 20
232.5496743598341
 30
0.0
 11
50.94457181842427
 21
232.5496743598341
 31
0.0
  0
LINE
  5
4B40
  8
0
 10
50.9912417402993
 20
232.7378481879585
 30
0.0
 11
51.15137845904928
 21
232.7164907660834
 31
0.0
  0
LINE
  5
4B41
  8
0
 10
51.11130033404925
 20
232.5496743598341
 30
0.0
 11
51.33419095904947
 21
232.5496743598341
 31
0.0
  0
LINE
  5
4B42
  8
0
 10
51.33419095904947
 20
232.5496743598341
 30
0.0
 11
51.33419095904947
 21
232.3976235785839
 31
0.0
  0
LINE
  5
4B43
  8
0
 10
51.33419095904947
 20
232.3976235785839
 30
0.0
 11
51.07131009967406
 21
232.3976235785839
 31
0.0
  0
LINE
  5
4B44
  8
0
 10
50.84042142779936
 20
231.7291274848338
 30
0.0
 11
50.68573392779899
 21
231.7811587348341
 31
0.0
  0
LINE
  5
4B45
  8
0
 10
51.46892728717421
 20
232.5496743598341
 30
0.0
 11
51.46892728717421
 21
232.0479946723334
 31
0.0
  0
LINE
  5
4B46
  8
0
 10
51.63838041217423
 20
232.3934927192084
 30
0.0
 11
51.63838041217423
 21
231.9652017035841
 31
0.0
  0
LINE
  5
4B47
  8
0
 10
51.88790189654947
 20
232.5229556098337
 30
0.0
 11
51.86786283404899
 21
232.3708169379587
 31
0.0
  0
LINE
  5
4B48
  8
0
 10
51.89449369342447
 20
231.7650747504584
 30
0.0
 11
51.78911283404886
 21
231.647740766084
 31
0.0
  0
LINE
  5
4B49
  8
0
 10
51.78911283404886
 20
231.647740766084
 30
0.0
 11
51.63038236529928
 21
231.7798403754585
 31
0.0
  0
ARC
  5
4B4A
  8
0
 10
42.92107503663419
 20
234.6394958163554
 30
0.0
 40
8.291191369612257
 50
345.4009556896892
 51
346.7407469548673
  0
ARC
  5
4B4B
  8
0
 10
44.37677798867253
 20
234.339098305334
 30
0.0
 40
6.807788178855744
 50
337.9301136346511
 51
343.4301309136032
  0
ARC
  5
4B4C
  8
0
 10
45.15534402838608
 20
234.0667900201056
 30
0.0
 40
6.146931849803847
 50
337.647891114247
 51
344.2437969395151
  0
ARC
  5
4B4D
  8
0
 10
48.22944958263236
 20
233.3302699998171
 30
0.0
 40
2.985698127172701
 50
344.84418349645
 51
348.1369498948575
  0
ARC
  5
4B4E
  8
0
 10
51.49143441157298
 20
229.6042935393517
 30
0.0
 40
2.945466813310544
 50
82.26435931630415
 51
90.4378171164357
  0
ARC
  5
4B4F
  8
0
 10
51.58569678687599
 20
230.6877895285087
 30
0.0
 40
1.706516609687102
 50
80.48265313058977
 51
88.23088210500052
  0
ARC
  5
4B50
  8
0
 10
50.67110998206041
 20
230.4633889586302
 30
0.0
 40
1.786352038619028
 50
46.77616557053237
 51
57.21568665312829
  0
ARC
  5
4B51
  8
0
 10
51.40024934312316
 20
231.8102664552216
 30
0.0
 40
0.2321356375605922
 50
300.4982959066407
 51
352.4685567395022
  0
ARC
  5
4B52
  8
0
 10
51.32984495782662
 20
232.0140076628752
 30
0.0
 40
0.4454740180557357
 50
260.8493170262725
 51
294.9930070723726
  0
ARC
  5
4B53
  8
0
 10
51.2732894928838
 20
231.8483553604
 30
0.0
 40
0.274524516799522
 50
210.6191600754496
 51
267.0164240300838
  0
ARC
  5
4B54
  8
0
 10
51.27264519402127
 20
231.8216997768578
 30
0.0
 40
0.2613734309622749
 50
147.2334581988937
 51
205.6564160796894
  0
ARC
  5
4B55
  8
0
 10
51.27761373680238
 20
231.7829361429528
 30
0.0
 40
0.2880874616600608
 50
91.03111037244075
 51
141.2747978514573
  0
ARC
  5
4B56
  8
0
 10
51.3202385490649
 20
231.6282267104795
 30
0.0
 40
0.4453240198322287
 50
70.49501453936286
 51
96.16302987731919
  0
ARC
  5
4B57
  8
0
 10
51.32305862059096
 20
231.6381934842063
 30
0.0
 40
0.2902930385304879
 50
59.83528150937065
 51
103.2201440558065
  0
ARC
  5
4B58
  8
0
 10
51.27815708736009
 20
231.8243268258394
 30
0.0
 40
0.0988304488869036
 50
102.5568170755534
 51
180.262765637224
  0
ARC
  5
4B59
  8
0
 10
51.28045160824396
 20
231.8211071013841
 30
0.0
 40
0.1011617650333014
 50
178.4329333203434
 51
256.0701828760614
  0
ARC
  5
4B5A
  8
0
 10
51.32721745769197
 20
231.9739760330214
 30
0.0
 40
0.2609345439815814
 50
254.1836782918776
 51
287.6043484841652
  0
ARC
  5
4B5B
  8
0
 10
51.37698586546003
 20
231.8044070712592
 30
0.0
 40
0.0843426031298885
 50
290.2187264653164
 51
350.7581622463877
  0
ARC
  5
4B5C
  8
0
 10
51.10226641263961
 20
231.8720571065841
 30
0.0
 40
0.3670603004158596
 50
347.2201738930308
 51
2.673168984876984
  0
LINE
  5
4B5D
  8
0
 10
52.20940580279921
 20
232.1573306098338
 30
0.0
 11
52.17741361529943
 21
232.3095571723337
 31
0.0
  0
LINE
  5
4B5E
  8
0
 10
52.36549955279906
 20
231.7638442817087
 30
0.0
 11
52.37754056842414
 21
231.6116177192088
 31
0.0
  0
ARC
  5
4B5F
  8
0
 10
52.79608019318627
 20
229.9765940715345
 30
0.0
 40
2.413600042319521
 50
93.0330778001963
 51
104.852125248309
  0
ARC
  5
4B60
  8
0
 10
52.6934276826039
 20
231.8599952435596
 30
0.0
 40
0.5274133454568837
 50
60.91960556757903
 51
92.72310713201314
  0
ARC
  5
4B61
  8
0
 10
52.79619141305923
 20
232.0883653996605
 30
0.0
 40
0.2786914630822537
 50
9.671194361807164
 51
56.55959162043377
  0
ARC
  5
4B62
  8
0
 10
52.63619194764138
 20
232.047878330096
 30
0.0
 40
0.4434101722744036
 50
333.9597813248173
 51
11.35547973601153
  0
ARC
  5
4B63
  8
0
 10
52.70757050148217
 20
232.0389247752056
 30
0.0
 40
0.3760688166287614
 50
291.9740011095572
 51
330.4090690351082
  0
ARC
  5
4B64
  8
0
 10
52.52202859308832
 20
232.4326067504144
 30
0.0
 40
0.8109562744615367
 50
277.5911083880271
 51
293.723108188724
  0
ARC
  5
4B65
  8
0
 10
52.38884557672174
 20
233.3011233789047
 30
0.0
 40
1.689543481937406
 50
269.6166218252729
 51
278.1772037059889
  0
ARC
  5
4B66
  8
0
 10
52.40409458862496
 20
232.9172540981563
 30
0.0
 40
1.154055363259622
 50
268.0835017580464
 51
287.3544714703419
  0
ARC
  5
4B67
  8
0
 10
52.68169383921048
 20
232.031531030928
 30
0.0
 40
0.2258508101221847
 50
287.1599817388457
 51
352.3121354184234
  0
ARC
  5
4B68
  8
0
 10
52.70757293224904
 20
232.0373213980953
 30
0.0
 40
0.2011894179017752
 50
349.6911030936214
 51
46.31820342358021
  0
ARC
  5
4B69
  8
0
 10
52.67569239809345
 20
231.9157940204257
 30
0.0
 40
0.3169953313446048
 50
57.39040451094959
 51
96.72424011120374
  0
ARC
  5
4B6A
  8
0
 10
52.85522731874704
 20
229.668339403018
 30
0.0
 40
2.571412580288827
 50
94.8331371896798
 51
104.5458325788215
  0
LINE
  5
4B6B
  8
0
 10
53.6103823652993
 20
232.4202114692088
 30
0.0
 11
53.42888822467421
 21
232.4202114692088
 31
0.0
  0
LINE
  5
4B6C
  8
0
 10
53.42888822467421
 20
232.4202114692088
 30
0.0
 11
53.42888822467421
 21
232.5710317817087
 31
0.0
  0
LINE
  5
4B6D
  8
0
 10
53.42888822467421
 20
232.5710317817087
 30
0.0
 11
53.64105619342399
 21
232.5710317817087
 31
0.0
  0
LINE
  5
4B6E
  8
0
 10
53.64105619342399
 20
232.5710317817087
 30
0.0
 11
53.66909330279896
 21
232.7324868598338
 31
0.0
  0
LINE
  5
4B6F
  8
0
 10
53.66909330279896
 20
232.7324868598338
 30
0.0
 11
53.83863431842428
 21
232.7177212348337
 31
0.0
  0
LINE
  5
4B70
  8
0
 10
53.83863431842428
 20
232.7177212348337
 30
0.0
 11
53.81323392779905
 21
232.5710317817087
 31
0.0
  0
LINE
  5
4B71
  8
0
 10
53.81323392779905
 20
232.5710317817087
 30
0.0
 11
54.27896634967419
 21
232.5710317817087
 31
0.0
  0
LINE
  5
4B72
  8
0
 10
54.27896634967419
 20
232.5710317817087
 30
0.0
 11
54.27896634967419
 21
232.4202114692088
 31
0.0
  0
LINE
  5
4B73
  8
0
 10
54.27896634967419
 20
232.4202114692088
 30
0.0
 11
53.7839663496743
 21
232.4202114692088
 31
0.0
  0
LINE
  5
4B74
  8
0
 10
53.55703275592396
 20
231.5689907660834
 30
0.0
 11
53.38889799029903
 21
231.6076626410839
 31
0.0
  0
LINE
  5
4B75
  8
0
 10
53.94129056842439
 20
232.1334243598338
 30
0.0
 11
53.93065580279927
 21
232.282750531709
 31
0.0
  0
LINE
  5
4B76
  8
0
 10
54.48032377154914
 20
232.313512250459
 30
0.0
 11
54.48032377154914
 21
232.164098187959
 31
0.0
  0
LINE
  5
4B77
  8
0
 10
54.08006986529927
 20
231.9626528754587
 30
0.0
 11
53.95869291217423
 21
232.0399087348341
 31
0.0
  0
LINE
  5
4B78
  8
0
 10
54.49104642779912
 20
231.7704360785837
 30
0.0
 11
54.51108549029914
 21
231.619703656709
 31
0.0
  0
ARC
  5
4B79
  8
0
 10
47.01143429323656
 20
233.7824907413683
 30
0.0
 40
6.738094721294446
 50
341.1697144444025
 51
348.3357808241415
  0
ARC
  5
4B7A
  8
0
 10
47.03051018746629
 20
233.7648078849464
 30
0.0
 40
6.886008252687487
 50
341.4047346856015
 51
348.7397953124072
  0
ARC
  5
4B7B
  8
0
 10
54.4681389586209
 20
227.6049659104343
 30
0.0
 40
4.708562105975219
 50
89.85172986605288
 51
96.5546104840504
  0
ARC
  5
4B7C
  8
0
 10
54.46915146235958
 20
227.6088599984423
 30
0.0
 40
4.555251890260736
 50
89.85947499256595
 51
96.65436322543644
  0
ARC
  5
4B7D
  8
0
 10
54.18684976006864
 20
231.7252752797984
 30
0.0
 40
0.3886512038689388
 50
125.9477923082823
 51
153.9456213275435
  0
ARC
  5
4B7E
  8
0
 10
53.9997843315893
 20
231.8312970730225
 30
0.0
 40
0.1745196541164178
 50
158.2451995748732
 51
211.937738790848
  0
ARC
  5
4B7F
  8
0
 10
54.10853448892644
 20
231.9254040928801
 30
0.0
 40
0.3173766808952333
 50
215.9728103304884
 51
258.577083270988
  0
ARC
  5
4B80
  8
0
 10
54.22195615382935
 20
232.3136885368772
 30
0.0
 40
0.7212479843673572
 50
255.8532185042184
 51
272.6578213791541
  0
ARC
  5
4B81
  8
0
 10
54.22575534681681
 20
233.1267090069061
 30
0.0
 40
1.533779128917274
 50
271.1075186277233
 51
280.7212356446165
  0
ARC
  5
4B82
  8
0
 10
54.21304546682939
 20
233.210914497426
 30
0.0
 40
1.467059170398629
 50
270.069562488666
 51
280.9233376586835
  0
ARC
  5
4B83
  8
0
 10
54.20864561637805
 20
232.11115432717
 30
0.0
 40
0.3680274217404644
 50
240.6869572496377
 51
273.2459162436438
  0
ARC
  5
4B84
  8
0
 10
54.06796597682475
 20
231.8536654286657
 30
0.0
 40
0.074711058388821
 50
182.4248820533395
 51
238.082482721021
  0
ARC
  5
4B85
  8
0
 10
54.07650813473248
 20
231.8455392329054
 30
0.0
 40
0.0833343655532817
 50
131.1757227927901
 51
176.5841957139152
  0
ARC
  5
4B86
  8
0
 10
54.53985340838989
 20
231.4101545476031
 30
0.0
 40
0.7187873877436253
 50
129.7668863169349
 51
136.1330162188044
  0
LINE
  5
4B87
  8
0
 10
54.99940580279917
 20
232.6604165473335
 30
0.0
 11
54.9807729902991
 21
232.509596234834
 31
0.0
  0
LINE
  5
4B88
  8
0
 10
55.63450345904903
 20
232.6203384223335
 30
0.0
 11
55.63450345904903
 21
232.469518109834
 31
0.0
  0
LINE
  5
4B89
  8
0
 10
55.05266752154921
 20
232.3934927192084
 30
0.0
 11
54.87934720904923
 21
232.4069399848339
 31
0.0
  0
LINE
  5
4B8A
  8
0
 10
54.87934720904923
 20
232.4069399848339
 30
0.0
 11
54.81255033404886
 21
231.9892837348337
 31
0.0
  0
LINE
  5
4B8B
  8
0
 10
54.81255033404886
 20
231.9892837348337
 30
0.0
 11
54.97145658404906
 21
231.9545669379585
 31
0.0
  0
LINE
  5
4B8C
  8
0
 10
55.0181265059241
 20
232.1373794379587
 30
0.0
 11
55.05266752154921
 21
232.3934927192084
 31
0.0
  0
LINE
  5
4B8D
  8
0
 10
54.92601713092427
 20
231.7503970160841
 30
0.0
 11
54.91406400592405
 21
231.5970278754588
 31
0.0
  0
ARC
  5
4B8E
  8
0
 10
55.43399515924197
 20
231.543120704506
 30
0.0
 40
0.725320742221686
 50
82.73839553073114
 51
124.9847424284259
  0
ARC
  5
4B8F
  8
0
 10
55.51424387789368
 20
231.9691579214148
 30
0.0
 40
0.2936885684487056
 50
25.47750666320809
 51
87.76921556057614
  0
ARC
  5
4B90
  8
0
 10
55.44638430326441
 20
231.96258449526
 30
0.0
 40
0.3585317338785675
 50
321.3543299701652
 51
21.75842031571825
  0
ARC
  5
4B91
  8
0
 10
55.37076195803655
 20
232.0944506020619
 30
0.0
 40
0.5030455772132802
 50
274.963649974099
 51
314.9898391517531
  0
ARC
  5
4B92
  8
0
 10
55.17878291725719
 20
233.5507945644141
 30
0.0
 40
1.971618719957279
 50
262.2838934043667
 51
276.8602022226234
  0
ARC
  5
4B93
  8
0
 10
55.23958882851089
 20
234.4587405868127
 30
0.0
 40
2.726435788097946
 50
263.3957068302937
 51
271.0732963894561
  0
ARC
  5
4B94
  8
0
 10
55.29777153189818
 20
232.121842790263
 30
0.0
 40
0.3891246493399197
 50
268.9526659567937
 51
311.9026700510431
  0
ARC
  5
4B95
  8
0
 10
55.42184360819239
 20
231.953297427993
 30
0.0
 40
0.1819431806139916
 50
318.2838146029565
 51
32.76134975179933
  0
ARC
  5
4B96
  8
0
 10
55.4204270888273
 20
231.9029154163708
 30
0.0
 40
0.2144715613892272
 50
43.94597849544128
 51
93.25534829105034
  0
ARC
  5
4B97
  8
0
 10
55.39829111939275
 20
231.5990258480604
 30
0.0
 40
0.518110737832
 50
88.89882867160544
 51
112.7433476052052
  0
ARC
  5
4B98
  8
0
 10
55.64190045527521
 20
230.983540367807
 30
0.0
 40
1.179994739142887
 50
112.0984440204122
 51
124.62308201549
  0
ARC
  5
4B99
  8
0
 10
55.63246947970471
 20
237.6401807683597
 30
0.0
 40
5.019842758098118
 50
262.7550085222148
 51
270.0232155551269
  0
ARC
  5
4B9A
  8
0
 10
55.63385020878054
 20
237.8105324744899
 30
0.0
 40
5.341014404604963
 50
262.9765318468747
 51
270.0070077480808
  0
LINE
  5
4B9B
  8
0
 10
56.2002554121741
 20
232.0559927192088
 30
0.0
 11
56.2002554121741
 21
232.6563735785838
 31
0.0
  0
LINE
  5
4B9C
  8
0
 10
56.2002554121741
 20
232.6563735785838
 30
0.0
 11
56.3870229902991
 21
232.6563735785838
 31
0.0
  0
LINE
  5
4B9D
  8
0
 10
56.3870229902991
 20
232.6563735785838
 30
0.0
 11
56.3870229902991
 21
232.0559927192088
 31
0.0
  0
LINE
  5
4B9E
  8
0
 10
56.3870229902991
 20
232.0559927192088
 30
0.0
 11
56.2002554121741
 21
232.0559927192088
 31
0.0
  0
LINE
  5
4B9F
  8
0
 10
56.87130033404947
 20
232.2868813910835
 30
0.0
 11
56.87130033404947
 21
232.6563735785838
 31
0.0
  0
LINE
  5
4BA0
  8
0
 10
56.87130033404947
 20
232.6563735785838
 30
0.0
 11
57.06219877154899
 21
232.6563735785838
 31
0.0
  0
LINE
  5
4BA1
  8
0
 10
57.06219877154899
 20
232.6563735785838
 30
0.0
 11
57.06219877154899
 21
232.2908364692088
 31
0.0
  0
LINE
  5
4BA2
  8
0
 10
56.36566556842399
 20
231.5663540473337
 30
0.0
 11
56.32831205279899
 21
231.7304458442085
 31
0.0
  0
LINE
  5
4BA3
  8
0
 10
57.76128080279886
 20
231.9304849067088
 30
0.0
 11
57.76128080279886
 21
232.0733071723338
 31
0.0
  0
LINE
  5
4BA4
  8
0
 10
57.76128080279886
 20
232.0733071723338
 30
0.0
 11
57.39178861529899
 21
232.0733071723338
 31
0.0
  0
LINE
  5
4BA5
  8
0
 10
57.39178861529899
 20
232.0733071723338
 30
0.0
 11
57.39178861529899
 21
232.2334438910838
 31
0.0
  0
LINE
  5
4BA6
  8
0
 10
57.39178861529899
 20
232.2334438910838
 30
0.0
 11
57.76128080279886
 21
232.2334438910838
 31
0.0
  0
LINE
  5
4BA7
  8
0
 10
57.76128080279886
 20
232.2334438910838
 30
0.0
 11
57.76128080279886
 21
232.469518109834
 31
0.0
  0
LINE
  5
4BA8
  8
0
 10
57.76128080279886
 20
232.469518109834
 30
0.0
 11
57.50771634967396
 21
232.469518109834
 31
0.0
  0
LINE
  5
4BA9
  8
0
 10
57.50771634967396
 20
232.469518109834
 30
0.0
 11
57.50771634967396
 21
232.6337856879589
 31
0.0
  0
LINE
  5
4BAA
  8
0
 10
57.50771634967396
 20
232.6337856879589
 30
0.0
 11
58.42309720904905
 21
232.6337856879589
 31
0.0
  0
LINE
  5
4BAB
  8
0
 10
58.42309720904905
 20
232.6337856879589
 30
0.0
 11
58.42309720904905
 21
232.469518109834
 31
0.0
  0
LINE
  5
4BAC
  8
0
 10
58.42309720904905
 20
232.469518109834
 30
0.0
 11
57.95613431842412
 21
232.469518109834
 31
0.0
  0
LINE
  5
4BAD
  8
0
 10
57.95613431842412
 20
232.469518109834
 30
0.0
 11
57.95613431842412
 21
232.2334438910838
 31
0.0
  0
LINE
  5
4BAE
  8
0
 10
57.95613431842412
 20
232.2334438910838
 30
0.0
 11
58.53920072467417
 21
232.2334438910838
 31
0.0
  0
LINE
  5
4BAF
  8
0
 10
58.53920072467417
 20
232.2334438910838
 30
0.0
 11
58.53920072467417
 21
232.0733071723338
 31
0.0
  0
LINE
  5
4BB0
  8
0
 10
58.53920072467417
 20
232.0733071723338
 30
0.0
 11
57.95613431842412
 21
232.0733071723338
 31
0.0
  0
LINE
  5
4BB1
  8
0
 10
57.95613431842412
 20
232.0733071723338
 30
0.0
 11
57.95613431842412
 21
231.9358462348335
 31
0.0
  0
LINE
  5
4BB2
  8
0
 10
58.43645658404921
 20
231.775709516084
 30
0.0
 11
58.44173002154912
 21
231.610387250459
 31
0.0
  0
ARC
  5
4BB3
  8
0
 10
56.06602844367202
 20
232.2696593231701
 30
0.0
 40
0.8054560304915982
 50
340.9437882329743
 51
1.225178000020281
  0
ARC
  5
4BB4
  8
0
 10
56.50330914073191
 20
232.1275822978387
 30
0.0
 40
0.345855307889423
 50
291.670576553406
 51
339.5389467977714
  0
ARC
  5
4BB5
  8
0
 10
56.22617177357239
 20
232.7816533031497
 30
0.0
 40
1.056158017710445
 50
275.5497072742331
 51
292.5397602820195
  0
ARC
  5
4BB6
  8
0
 10
56.29352039201061
 20
232.6144548045466
 30
0.0
 40
1.050580850648829
 50
273.9376978144317
 51
296.3652409231705
  0
ARC
  5
4BB7
  8
0
 10
56.5069086978061
 20
232.1494239734557
 30
0.0
 40
0.5393756653461665
 50
297.9933108679131
 51
349.2973959047169
  0
ARC
  5
4BB8
  8
0
 10
56.01233946784347
 20
232.2786580057572
 30
0.0
 40
1.049929936971548
 50
347.3794742886816
 51
0.6646064465848662
  0
ARC
  5
4BB9
  8
0
 10
58.25060798505018
 20
231.9008951906345
 30
0.0
 40
0.4902210140205808
 50
176.539526148283
 51
206.0121964930217
  0
ARC
  5
4BBA
  8
0
 10
57.99300845514853
 20
231.8380174273148
 30
0.0
 40
0.2379373016522034
 50
219.7400975832132
 51
273.8636407009152
  0
ARC
  5
4BBB
  8
0
 10
58.1465742550223
 20
235.0971656670002
 30
0.0
 40
3.499248583992225
 50
267.7474893347218
 51
274.8385522250585
  0
ARC
  5
4BBC
  8
0
 10
58.13313171811365
 20
235.2947690525418
 30
0.0
 40
3.532107868600457
 50
269.5594493554569
 51
274.926425743971
  0
ARC
  5
4BBD
  8
0
 10
58.1068483918811
 20
232.0980321915849
 30
0.0
 40
0.3352677379612373
 50
252.6101303751337
 51
269.8504673977239
  0
ARC
  5
4BBE
  8
0
 10
58.03116804987815
 20
231.8388786144864
 30
0.0
 40
0.0655496828836007
 50
188.1794661638438
 51
248.0315991587047
  0
ARC
  5
4BBF
  8
0
 10
58.41283353989324
 20
231.9258287316085
 30
0.0
 40
0.4568090730928223
 50
178.7434429434828
 51
192.1667740459251
  0
LINE
  5
4BC0
  8
0
 10
58.74864408404937
 20
232.0372720160839
 30
0.0
 11
58.74864408404937
 21
232.2160415473335
 31
0.0
  0
LINE
  5
4BC1
  8
0
 10
58.74864408404937
 20
232.2160415473335
 30
0.0
 11
59.85070463092416
 21
232.2160415473335
 31
0.0
  0
LINE
  5
4BC2
  8
0
 10
59.85070463092416
 20
232.2160415473335
 30
0.0
 11
59.85070463092416
 21
232.0372720160839
 31
0.0
  0
LINE
  5
4BC3
  8
0
 10
59.85070463092416
 20
232.0372720160839
 30
0.0
 11
58.74864408404937
 21
232.0372720160839
 31
0.0
  0
LINE
  5
4BC4
  8
0
 10
60.45644681842396
 20
232.1213833442088
 30
0.0
 11
60.45644681842396
 21
231.5756704535837
 31
0.0
  0
LINE
  5
4BC5
  8
0
 10
60.45644681842396
 20
231.5756704535837
 30
0.0
 11
60.26967924029896
 21
231.5756704535837
 31
0.0
  0
LINE
  5
4BC6
  8
0
 10
60.26967924029896
 20
231.5756704535837
 30
0.0
 11
60.26967924029896
 21
232.6778188910838
 31
0.0
  0
LINE
  5
4BC7
  8
0
 10
60.26967924029896
 20
232.6778188910838
 30
0.0
 11
60.45644681842396
 21
232.6778188910838
 31
0.0
  0
LINE
  5
4BC8
  8
0
 10
60.45644681842396
 20
232.6778188910838
 30
0.0
 11
60.45644681842396
 21
232.3041079535841
 31
0.0
  0
LINE
  5
4BC9
  8
0
 10
61.18224759967416
 20
232.0813052192087
 30
0.0
 11
61.12626127154954
 21
231.9132583442087
 31
0.0
  0
ARC
  5
4BCA
  8
0
 10
58.8610507946388
 20
225.8133725468783
 30
0.0
 40
6.683931073296139
 50
69.67895110286423
 51
76.19068882595867
  0
ARC
  5
4BCB
  8
0
 10
58.91329954185423
 20
225.9731260096002
 30
0.0
 40
6.338956678330691
 50
69.56741481783122
 51
75.91041638815857
  0
LINE
  5
4BCC
  8
0
 10
61.52379056842437
 20
231.7304458442085
 30
0.0
 11
61.52379056842437
 21
231.9065786567088
 31
0.0
  0
LINE
  5
4BCD
  8
0
 10
61.52379056842437
 20
231.9065786567088
 30
0.0
 11
61.41849759967454
 21
231.8839028754591
 31
0.0
  0
LINE
  5
4BCE
  8
0
 10
61.41849759967454
 20
231.8839028754591
 30
0.0
 11
61.40645658404947
 21
232.0399087348341
 31
0.0
  0
LINE
  5
4BCF
  8
0
 10
61.40645658404947
 20
232.0399087348341
 30
0.0
 11
61.52379056842437
 21
232.0639907660837
 31
0.0
  0
LINE
  5
4BD0
  8
0
 10
61.52379056842437
 20
232.0639907660837
 30
0.0
 11
61.52379056842437
 21
232.353590375459
 31
0.0
  0
LINE
  5
4BD1
  8
0
 10
61.52379056842437
 20
232.353590375459
 30
0.0
 11
61.40786283404896
 21
232.353590375459
 31
0.0
  0
LINE
  5
4BD2
  8
0
 10
61.40786283404896
 20
232.353590375459
 30
0.0
 11
61.40786283404896
 21
232.500279828584
 31
0.0
  0
LINE
  5
4BD3
  8
0
 10
61.40786283404896
 20
232.500279828584
 30
0.0
 11
61.52379056842437
 21
232.500279828584
 31
0.0
  0
LINE
  5
4BD4
  8
0
 10
61.52379056842437
 20
232.500279828584
 30
0.0
 11
61.52379056842437
 21
232.7310806098338
 31
0.0
  0
LINE
  5
4BD5
  8
0
 10
61.52379056842437
 20
232.7310806098338
 30
0.0
 11
61.69201322467416
 21
232.7310806098338
 31
0.0
  0
LINE
  5
4BD6
  8
0
 10
61.69201322467416
 20
232.7310806098338
 30
0.0
 11
61.69201322467416
 21
232.500279828584
 31
0.0
  0
LINE
  5
4BD7
  8
0
 10
61.69201322467416
 20
232.500279828584
 30
0.0
 11
61.80407377154916
 21
232.500279828584
 31
0.0
  0
LINE
  5
4BD8
  8
0
 10
61.80407377154916
 20
232.500279828584
 30
0.0
 11
61.80407377154916
 21
232.3695864692089
 31
0.0
  0
LINE
  5
4BD9
  8
0
 10
61.80407377154916
 20
232.3695864692089
 30
0.0
 11
62.19237455279927
 21
232.3695864692089
 31
0.0
  0
LINE
  5
4BDA
  8
0
 10
62.19237455279927
 20
232.3695864692089
 30
0.0
 11
62.19237455279927
 21
232.0866665473339
 31
0.0
  0
LINE
  5
4BDB
  8
0
 10
62.19237455279927
 20
232.0866665473339
 30
0.0
 11
62.23236478717399
 21
232.0866665473339
 31
0.0
  0
LINE
  5
4BDC
  8
0
 10
62.23236478717399
 20
232.0866665473339
 30
0.0
 11
62.23236478717399
 21
232.3695864692089
 31
0.0
  0
LINE
  5
4BDD
  8
0
 10
62.23236478717399
 20
232.3695864692089
 30
0.0
 11
62.63525541217405
 21
232.3695864692089
 31
0.0
  0
LINE
  5
4BDE
  8
0
 10
62.63525541217405
 20
232.3695864692089
 30
0.0
 11
62.63525541217405
 21
232.0532681098338
 31
0.0
  0
LINE
  5
4BDF
  8
0
 10
62.63525541217405
 20
232.0532681098338
 30
0.0
 11
62.29643705279886
 21
232.0532681098338
 31
0.0
  0
LINE
  5
4BE0
  8
0
 10
62.29643705279886
 20
232.0532681098338
 30
0.0
 11
62.29643705279886
 21
232.0039614692085
 31
0.0
  0
LINE
  5
4BE1
  8
0
 10
62.29643705279886
 20
232.0039614692085
 30
0.0
 11
62.65793119342425
 21
232.0039614692085
 31
0.0
  0
LINE
  5
4BE2
  8
0
 10
62.65793119342425
 20
232.0039614692085
 30
0.0
 11
62.65793119342425
 21
231.8665005317088
 31
0.0
  0
LINE
  5
4BE3
  8
0
 10
62.65793119342425
 20
231.8665005317088
 30
0.0
 11
62.38986478717425
 21
231.8665005317088
 31
0.0
  0
LINE
  5
4BE4
  8
0
 10
62.03223783404928
 20
231.8665005317088
 30
0.0
 11
61.75872220904921
 21
231.8665005317088
 31
0.0
  0
LINE
  5
4BE5
  8
0
 10
61.75872220904921
 20
231.8665005317088
 30
0.0
 11
61.75872220904921
 21
231.9745181098341
 31
0.0
  0
LINE
  5
4BE6
  8
0
 10
61.75872220904921
 20
231.9745181098341
 30
0.0
 11
61.69201322467416
 21
231.9532485785838
 31
0.0
  0
LINE
  5
4BE7
  8
0
 10
61.69201322467416
 20
231.9532485785838
 30
0.0
 11
61.69201322467416
 21
231.7437173285838
 31
0.0
  0
LINE
  5
4BE8
  8
0
 10
61.72005033404912
 20
231.6797329535838
 30
0.0
 11
61.79607572467421
 21
231.5449087348337
 31
0.0
  0
LINE
  5
4BE9
  8
0
 10
62.12302884967403
 20
231.7784341254591
 30
0.0
 11
62.12302884967403
 21
231.5289126410838
 31
0.0
  0
LINE
  5
4BEA
  8
0
 10
62.12302884967403
 20
231.5289126410838
 30
0.0
 11
62.29643705279886
 21
231.5289126410838
 31
0.0
  0
LINE
  5
4BEB
  8
0
 10
62.29643705279886
 20
231.5289126410838
 30
0.0
 11
62.29643705279886
 21
231.7811587348341
 31
0.0
  0
LINE
  5
4BEC
  8
0
 10
62.67928861529936
 20
231.6797329535838
 30
0.0
 11
62.59930814654899
 21
231.5449087348337
 31
0.0
  0
LINE
  5
4BED
  8
0
 10
61.86814603717403
 20
232.7177212348337
 30
0.0
 11
62.57531400592416
 21
232.7177212348337
 31
0.0
  0
LINE
  5
4BEE
  8
0
 10
62.57531400592416
 20
232.7177212348337
 30
0.0
 11
62.57531400592416
 21
232.4055337348335
 31
0.0
  0
LINE
  5
4BEF
  8
0
 10
62.57531400592416
 20
232.4055337348335
 30
0.0
 11
61.86814603717403
 21
232.4055337348335
 31
0.0
  0
LINE
  5
4BF0
  8
0
 10
61.86814603717403
 20
232.4055337348335
 30
0.0
 11
61.86814603717403
 21
232.7177212348337
 31
0.0
  0
LINE
  5
4BF1
  8
0
 10
62.03083158404934
 20
232.5829849067085
 30
0.0
 11
62.03083158404934
 21
232.5242739692088
 31
0.0
  0
LINE
  5
4BF2
  8
0
 10
62.03083158404934
 20
232.5242739692088
 30
0.0
 11
62.40577299029928
 21
232.5242739692088
 31
0.0
  0
LINE
  5
4BF3
  8
0
 10
62.40577299029928
 20
232.5242739692088
 30
0.0
 11
62.40577299029928
 21
232.5829849067085
 31
0.0
  0
LINE
  5
4BF4
  8
0
 10
62.40577299029928
 20
232.5829849067085
 30
0.0
 11
62.03083158404934
 21
232.5829849067085
 31
0.0
  0
LINE
  5
4BF5
  8
0
 10
61.69201322467416
 20
232.1080239692091
 30
0.0
 11
61.69201322467416
 21
232.353590375459
 31
0.0
  0
LINE
  5
4BF6
  8
0
 10
61.69201322467416
 20
232.353590375459
 30
0.0
 11
61.79071439654899
 21
232.353590375459
 31
0.0
  0
LINE
  5
4BF7
  8
0
 10
61.79071439654899
 20
232.353590375459
 30
0.0
 11
61.79071439654899
 21
232.1400161567088
 31
0.0
  0
LINE
  5
4BF8
  8
0
 10
61.79071439654899
 20
232.1400161567088
 30
0.0
 11
61.69201322469024
 21
232.1080239692141
 31
0.0
  0
LINE
  5
4BF9
  8
0
 10
62.12302884967403
 20
232.0039614692085
 30
0.0
 11
61.8054800215491
 21
232.0039614692085
 31
0.0
  0
LINE
  5
4BFA
  8
0
 10
61.8054800215491
 20
232.0039614692085
 30
0.0
 11
61.80275541217406
 21
232.0532681098338
 31
0.0
  0
LINE
  5
4BFB
  8
0
 10
61.80275541217406
 20
232.0532681098338
 30
0.0
 11
62.12302884967403
 21
232.0532681098338
 31
0.0
  0
LINE
  5
4BFC
  8
0
 10
62.12302884967403
 20
232.0532681098338
 30
0.0
 11
62.12302884967403
 21
232.0039614692085
 31
0.0
  0
LINE
  5
4BFD
  8
0
 10
62.05350736529908
 20
232.173414594209
 30
0.0
 11
61.93617338092417
 21
232.173414594209
 31
0.0
  0
LINE
  5
4BFE
  8
0
 10
61.93617338092417
 20
232.173414594209
 30
0.0
 11
61.93617338092417
 21
232.245397016084
 31
0.0
  0
LINE
  5
4BFF
  8
0
 10
61.93617338092417
 20
232.245397016084
 30
0.0
 11
62.05350736529908
 21
232.245397016084
 31
0.0
  0
LINE
  5
4C00
  8
0
 10
62.05350736529908
 20
232.245397016084
 30
0.0
 11
62.05350736529908
 21
232.173414594209
 31
0.0
  0
LINE
  5
4C01
  8
0
 10
62.36841947467428
 20
232.173414594209
 30
0.0
 11
62.36841947467428
 21
232.245397016084
 31
0.0
  0
LINE
  5
4C02
  8
0
 10
62.36841947467428
 20
232.245397016084
 30
0.0
 11
62.48452299029896
 21
232.245397016084
 31
0.0
  0
LINE
  5
4C03
  8
0
 10
62.48452299029896
 20
232.245397016084
 30
0.0
 11
62.48452299029896
 21
232.173414594209
 31
0.0
  0
LINE
  5
4C04
  8
0
 10
62.48452299029896
 20
232.173414594209
 30
0.0
 11
62.36841947467428
 21
232.173414594209
 31
0.0
  0
LINE
  5
4C05
  8
0
 10
61.41313627154886
 20
231.6757778754589
 30
0.0
 11
61.42122220904912
 21
231.5329556098339
 31
0.0
  0
ARC
  5
4C06
  8
0
 10
61.62534805820231
 20
233.9382242334292
 30
0.0
 40
2.272377029695415
 50
264.6414777738622
 51
266.9348152461827
  0
ARC
  5
4C07
  8
0
 10
61.50617516799238
 20
231.6914529673177
 30
0.0
 40
0.022476476334337
 50
264.035012218102
 51
306.5640674472901
  0
ARC
  5
4C08
  8
0
 10
61.50748864665267
 20
231.6820234348385
 30
0.0
 40
0.014839073681366
 50
324.4701988857918
 51
4.421974038850046
  0
ARC
  5
4C09
  8
0
 10
61.01692490316131
 20
231.722939283918
 30
0.0
 40
0.5069212474043316
 50
355.5000960438242
 51
0.8484748777876386
  0
ARC
  5
4C0A
  8
0
 10
61.63483142898474
 20
234.0666560478285
 30
0.0
 40
2.542688893344043
 50
265.1809484774698
 51
267.520801462453
  0
ARC
  5
4C0B
  8
0
 10
61.53230738655246
 20
232.273767282285
 30
0.0
 40
0.7474574208886295
 50
269.4278258300275
 51
274.7828769779775
  0
ARC
  5
4C0C
  8
0
 10
61.5819396476144
 20
231.6700939420977
 30
0.0
 40
0.1417505388387061
 50
275.136503507445
 51
297.8947651498531
  0
ARC
  5
4C0D
  8
0
 10
61.61221599954879
 20
231.6042047421027
 30
0.0
 40
0.0694715375261978
 50
301.2514755256776
 51
351.339722505815
  0
ARC
  5
4C0E
  8
0
 10
61.37097527988726
 20
231.6740146044473
 30
0.0
 40
0.3201466567477245
 50
345.4792488797709
 51
359.0668339659442
  0
ARC
  5
4C0F
  8
0
 10
59.49868524004476
 20
231.733590434488
 30
0.0
 40
2.193351363129598
 50
358.3072842196239
 51
0.2645405394405018
  0
ARC
  5
4C10
  8
0
 10
61.25337562182136
 20
232.8140925439994
 30
0.0
 40
1.226603834737866
 50
292.3622304129851
 51
309.4180965652809
  0
ARC
  5
4C11
  8
0
 10
61.1796976066083
 20
232.753526684822
 30
0.0
 40
1.356716379153855
 50
297.0209406626477
 51
314.0515009572343
  0
ARC
  5
4C12
  8
0
 10
63.25415937731835
 20
232.6966885844589
 30
0.0
 40
1.324925264474462
 50
223.7097081622026
 51
240.3793491799933
  0
ARC
  5
4C13
  8
0
 10
63.27545780459155
 20
232.9212209653983
 30
0.0
 40
1.377211017143197
 50
229.981595629291
 51
244.349432299083
  0
LINE
  5
4C14
  8
0
 10
63.23967924029921
 20
232.7044497504588
 30
0.0
 11
63.07558744342396
 21
232.7364419379591
 31
0.0
  0
LINE
  5
4C15
  8
0
 10
62.80075345904925
 20
232.1520571723339
 30
0.0
 11
62.87018705279888
 21
231.9732876410834
 31
0.0
  0
LINE
  5
4C16
  8
0
 10
62.96616361529914
 20
232.1026626410838
 30
0.0
 11
62.96616361529914
 21
231.5223208442088
 31
0.0
  0
LINE
  5
4C17
  8
0
 10
62.96616361529914
 20
231.5223208442088
 30
0.0
 11
63.14502103717405
 21
231.5223208442088
 31
0.0
  0
LINE
  5
4C18
  8
0
 10
63.14502103717405
 20
231.5223208442088
 30
0.0
 11
63.14502103717405
 21
232.388219281709
 31
0.0
  0
LINE
  5
4C19
  8
0
 10
63.15829252154936
 20
232.2187661567085
 30
0.0
 11
63.29979642779927
 21
232.1107485785841
 31
0.0
  0
LINE
  5
4C1A
  8
0
 10
63.50651517779943
 20
232.4736489692085
 30
0.0
 11
63.50651517779943
 21
231.5223208442088
 31
0.0
  0
LINE
  5
4C1B
  8
0
 10
63.50651517779943
 20
231.5223208442088
 30
0.0
 11
63.68932767779916
 21
231.5223208442088
 31
0.0
  0
LINE
  5
4C1C
  8
0
 10
63.68932767779916
 20
231.5223208442088
 30
0.0
 11
63.68932767779916
 21
231.7837954535838
 31
0.0
  0
LINE
  5
4C1D
  8
0
 10
63.68932767779916
 20
231.7837954535838
 30
0.0
 11
64.02287259967443
 21
231.7837954535838
 31
0.0
  0
LINE
  5
4C1E
  8
0
 10
64.02287259967443
 20
231.7837954535838
 30
0.0
 11
64.02287259967443
 21
231.9358462348335
 31
0.0
  0
LINE
  5
4C1F
  8
0
 10
64.02287259967443
 20
231.9358462348335
 30
0.0
 11
63.68932767779916
 21
231.9358462348335
 31
0.0
  0
LINE
  5
4C20
  8
0
 10
63.68932767779916
 20
231.9358462348335
 30
0.0
 11
63.68932767779916
 21
232.1334243598338
 31
0.0
  0
LINE
  5
4C21
  8
0
 10
63.68932767779916
 20
232.1334243598338
 30
0.0
 11
64.02287259967443
 21
232.1334243598338
 31
0.0
  0
LINE
  5
4C22
  8
0
 10
64.02287259967443
 20
232.1334243598338
 30
0.0
 11
64.02287259967443
 21
232.2801138129588
 31
0.0
  0
LINE
  5
4C23
  8
0
 10
64.02287259967443
 20
232.2801138129588
 30
0.0
 11
63.68932767779916
 21
232.2801138129588
 31
0.0
  0
LINE
  5
4C24
  8
0
 10
63.68932767779916
 20
232.2801138129588
 30
0.0
 11
63.68932767779916
 21
232.4736489692085
 31
0.0
  0
LINE
  5
4C25
  8
0
 10
63.68932767779916
 20
232.4736489692085
 30
0.0
 11
64.06295072467447
 21
232.4736489692085
 31
0.0
  0
LINE
  5
4C26
  8
0
 10
64.06295072467447
 20
232.4736489692085
 30
0.0
 11
64.06295072467447
 21
232.6203384223335
 31
0.0
  0
LINE
  5
4C27
  8
0
 10
64.06295072467447
 20
232.6203384223335
 30
0.0
 11
63.54527494342437
 21
232.6203384223335
 31
0.0
  0
LINE
  5
4C28
  8
0
 10
63.57603666217437
 20
232.7164907660834
 30
0.0
 11
63.40649564654905
 21
232.7511196723334
 31
0.0
  0
ARC
  5
4C29
  8
0
 10
61.59771796885551
 20
233.0423315134254
 30
0.0
 40
1.509194028694409
 50
335.5457096686309
 51
348.3060403035889
  0
ARC
  5
4C2A
  8
0
 10
61.88908662909935
 20
232.9260847954468
 30
0.0
 40
1.195932761560066
 50
319.667921826905
 51
334.8367065032425
  0
ARC
  5
4C2B
  8
0
 10
62.10095537483907
 20
232.6442279911676
 30
0.0
 40
1.020724413232922
 50
318.904365867073
 51
327.9560510819899
  0
ARC
  5
4C2C
  8
0
 10
61.96384317999524
 20
232.9140671438125
 30
0.0
 40
1.292941260989209
 50
336.0018785125645
 51
350.6697714262823
  0
ARC
  5
4C2D
  8
0
 10
61.43628063739277
 20
233.3456700687809
 30
0.0
 40
2.057969231116068
 50
326.7988139724893
 51
343.2077981801939
  0
ARC
  5
4C2E
  8
0
 10
61.22811004577794
 20
233.4228762461994
 30
0.0
 40
2.452256813952018
 50
327.6513795623699
 51
337.2268745923157
  0
LINE
  5
4C2F
  8
0
 10
63.48920072467399
 20
232.4736489692085
 30
0.0
 11
63.50651517779943
 21
232.4736489692085
 31
0.0
  0
LINE
  5
4C30
  8
0
 10
63.57603666217437
 20
232.7164907660834
 30
0.0
 11
63.56089993221397
 21
232.6679122694962
 31
0.0
  0
LINE
  5
4C31
  8
0
 10
63.56089993221397
 20
232.6679122694962
 30
0.0
 11
63.54527494342437
 21
232.6203384223335
 31
0.0
  0
VIEWPORT
  5
22
 67
     1
  8
0
 10
5.269134197284911
 20
5.545311567251436
 30
0.0
 40
11.13808705479925
 41
12.32365374410561
 68
     1
 69
     1
1001
GENIUS_GENSCREG_15
1000
PF
1040
1.0
1000
DF
1040
1.0
1000
MIN
1011
-0.2999093301147138
1021
-0.6165153048013714
1031
0.0
1021
-0.6165153048013714
1031
0.0
1000
MAX
1011
10.83817772468454
1021
11.70713843930424
1031
0.0
1021
11.70713843930424
1031
0.0
1000
FLAGS
1070
     4
1001
GENIUS_GENODEF_13
1002
{
1000
HIER
1070
     0
1002
}
1002
{
1000
MANEDIT
1070
     0
1002
}
1002
{
1000
NOSEL
1070
     0
1002
}
1002
{
1000
BEHIND
1070
     0
1002
}
1002
{
1000
OTHER
1070
     0
1002
}
1002
{
1000
REACTOR
1002
}
1001
GENIUS_GENOBJ-N-SDF_13
1002
{
1000
OWNER
1000
GEN
1002
}
1001
ACAD
1000
MVIEW
1002
{
1070
    16
1010
0.0
1020
0.0
1030
0.0
1020
0.0
1030
0.0
1010
0.0
1020
0.0
1030
1.0
1020
0.0
1030
1.0
1040
0.0
1040
12.32365374410561
1040
5.269134197284911
1040
5.545311567251436
1040
50.0
1040
0.0
1040
0.0
1070
     0
1070
   100
1070
     0
1070
     1
1070
     0
1070
     0
1070
     0
1070
     0
1040
0.0
1040
0.0
1040
0.0
1040
1.0
1040
1.0
1040
10.0
1040
10.0
1070
     0
1002
{
1002
}
1002
}
  0
ENDSEC
  0
EOF
