  0
SECTION
  2
HEADER
  9
$ACADVER
  1
AC1009
  9
$DWGCODEPAGE
  3
ansi_932
  9
$INSBASE
 10
0.0
 20
0.0
 30
0.0
  9
$EXTMIN
 10
-0.0000026270345188
 20
0.0000014963791273
 30
0.0
  9
$EXTMAX
 10
229.315851715696
 20
294.6851326928805
 30
0.0
  9
$LIMMIN
 10
0.0
 20
0.0
  9
$LIMMAX
 10
420.0
 20
420.0
  9
$ORTHOMODE
 70
     0
  9
$REGENMODE
 70
     1
  9
$FILLMODE
 70
     1
  9
$QTEXTMODE
 70
     0
  9
$MIRRTEXT
 70
     0
  9
$DRAGMODE
 70
     2
  9
$LTSCALE
 40
10.0
  9
$OSMODE
 70
   549
  9
$ATTMODE
 70
     1
  9
$TEXTSIZE
 40
1.0
  9
$TRACEWID
 40
1.0
  9
$TEXTSTYLE
  7
STANDARD
  9
$CLAYER
  8
0
  9
$CELTYPE
  6
BYLAYER
  9
$CECOLOR
 62
   256
  9
$DIMSCALE
 40
1.0
  9
$DIMASZ
 40
2.5
  9
$DIMEXO
 40
1.0
  9
$DIMDLI
 40
7.0
  9
$DIMRND
 40
0.0
  9
$DIMDLE
 40
0.0
  9
$DIMEXE
 40
1.0
  9
$DIMTP
 40
0.1
  9
$DIMTM
 40
0.1
  9
$DIMTXT
 40
3.0
  9
$DIMCEN
 40
0.0
  9
$DIMTSZ
 40
0.0
  9
$DIMTOL
 70
     0
  9
$DIMLIM
 70
     0
  9
$DIMTIH
 70
     0
  9
$DIMTOH
 70
     0
  9
$DIMSE1
 70
     0
  9
$DIMSE2
 70
     0
  9
$DIMTAD
 70
     3
  9
$DIMZIN
 70
     8
  9
$DIMBLK
  1
OPEN
  9
$DIMASO
 70
     1
  9
$DIMSHO
 70
     1
  9
$DIMPOST
  1

  9
$DIMAPOST
  1
"
  9
$DIMALT
 70
     0
  9
$DIMALTD
 70
     2
  9
$DIMALTF
 40
0.0393701
  9
$DIMLFAC
 40
1.0
  9
$DIMTOFL
 70
     1
  9
$DIMTVP
 40
0.0
  9
$DIMTIX
 70
     0
  9
$DIMSOXD
 70
     0
  9
$DIMSAH
 70
     0
  9
$DIMBLK1
  1

  9
$DIMBLK2
  1

  9
$DIMSTYLE
  2
AM_JIS
  9
$DIMCLRD
 70
   256
  9
$DIMCLRE
 70
   256
  9
$DIMCLRT
 70
     2
  9
$DIMTFAC
 40
0.71
  9
$DIMGAP
 40
1.0
  9
$LUNITS
 70
     2
  9
$LUPREC
 70
     2
  9
$SKETCHINC
 40
1.0
  9
$FILLETRAD
 40
2.5
  9
$AUNITS
 70
     0
  9
$AUPREC
 70
     0
  9
$MENU
  1
.
  9
$ELEVATION
 40
0.0
  9
$PELEVATION
 40
0.0
  9
$THICKNESS
 40
0.0
  9
$LIMCHECK
 70
     0
  9
$CHAMFERA
 40
2.5
  9
$CHAMFERB
 40
2.5
  9
$SKPOLY
 70
     1
  9
$TDCREATE
 40
2457177.661918021
  9
$TDUPDATE
 40
2460346.660237407
  9
$TDINDWG
 40
0.0050601505
  9
$TDUSRTIMER
 40
0.0050548032
  9
$USRTIMER
 70
     1
  9
$ANGBASE
 50
0.0
  9
$ANGDIR
 70
     0
  9
$PDMODE
 70
     0
  9
$PDSIZE
 40
0.0
  9
$PLINEWID
 40
0.0
  9
$COORDS
 70
     0
  9
$SPLFRAME
 70
     0
  9
$SPLINETYPE
 70
     6
  9
$SPLINESEGS
 70
     8
  9
$ATTDIA
 70
     1
  9
$ATTREQ
 70
     1
  9
$HANDLING
 70
     1
  9
$HANDSEED
  5
A6BA
  9
$SURFTAB1
 70
     6
  9
$SURFTAB2
 70
     6
  9
$SURFTYPE
 70
     6
  9
$SURFU
 70
     6
  9
$SURFV
 70
     6
  9
$UCSNAME
  2

  9
$UCSORG
 10
0.0
 20
0.0
 30
0.0
  9
$UCSXDIR
 10
1.0
 20
0.0
 30
0.0
  9
$UCSYDIR
 10
0.0
 20
1.0
 30
0.0
  9
$PUCSNAME
  2

  9
$PUCSORG
 10
0.0
 20
0.0
 30
0.0
  9
$PUCSXDIR
 10
1.0
 20
0.0
 30
0.0
  9
$PUCSYDIR
 10
0.0
 20
1.0
 30
0.0
  9
$USERI1
 70
     0
  9
$USERI2
 70
     0
  9
$USERI3
 70
     0
  9
$USERI4
 70
     0
  9
$USERI5
 70
     0
  9
$USERR1
 40
0.0
  9
$USERR2
 40
0.0
  9
$USERR3
 40
0.0
  9
$USERR4
 40
0.0
  9
$USERR5
 40
0.0
  9
$WORLDVIEW
 70
     1
  9
$SHADEDGE
 70
     3
  9
$SHADEDIF
 70
    70
  9
$TILEMODE
 70
     1
  9
$MAXACTVP
 70
    48
  9
$PLIMCHECK
 70
     0
  9
$PEXTMIN
 10
1.000000000000000E+20
 20
1.000000000000000E+20
 30
1.000000000000000E+20
  9
$PEXTMAX
 10
-1.000000000000000E+20
 20
-1.000000000000000E+20
 30
-1.000000000000000E+20
  9
$PLIMMIN
 10
-0.2500002402958907
 20
-0.2499999962453767
  9
$PLIMMAX
 10
10.74999951940822
 20
8.249999763458732
  9
$UNITMODE
 70
     0
  9
$VISRETAIN
 70
     1
  9
$PLINEGEN
 70
     0
  9
$PSLTSCALE
 70
     1
  0
ENDSEC
  0
SECTION
  2
TABLES
  0
TABLE
  2
VPORT
 70
     1
  0
VPORT
  2
*ACTIVE
 70
     0
 10
0.0
 20
0.0
 11
1.0
 21
1.0
 12
209.9999986864827
 22
210.0
 13
0.0
 23
0.0
 14
2.5
 24
2.5
 15
10.0
 25
10.0
 16
0.0
 26
0.0
 36
1.0
 17
0.0
 27
0.0
 37
0.0
 40
423.258971871969
 41
2.05293551491819
 42
50.0
 43
0.0
 44
0.0
 50
0.0
 51
0.0
 71
     0
 72
   100
 73
     1
 74
     3
 75
     0
 76
     0
 77
     0
 78
     0
  0
ENDTAB
  0
TABLE
  2
LTYPE
 70
    22
  0
LTYPE
  2
CONTINUOUS
 70
     0
  3
Solid line
 72
    65
 73
     0
 40
0.0
  0
LTYPE
  2
HIDDEN
 70
     0
  3
__ __ __ __ __ __ __ __ __ __ __ __ __ __ __ __
 72
    65
 73
     2
 40
0.375
 49
0.25
 49
-0.125
  0
LTYPE
  2
PHANTOM2
 70
     0
  3
___ _ _ ___ _ _ ___ _ _ ___ _ _ ___ _ _ ___ _ _
 72
    65
 73
     6
 40
1.25
 49
0.625
 49
-0.125
 49
0.125
 49
-0.125
 49
0.125
 49
-0.125
  0
LTYPE
  2
CENTER
 70
     0
  3
____ _ ____ _ ____ _ ____ _ ____ _ ____ _ ____ 
 72
    65
 73
     4
 40
2.0
 49
1.25
 49
-0.25
 49
0.25
 49
-0.25
  0
LTYPE
  2
ACJISTGB
 70
     0
  3
__ . . __ . .
 72
    65
 73
     6
 40
9.0
 49
4.0
 49
-1.0
 49
1.0
 49
-1.0
 49
1.0
 49
-1.0
  0
LTYPE
  2
ACJISTGL
 70
     0
  3
_ _ _ _ _
 72
    65
 73
     2
 40
3.0
 49
2.0
 49
-1.0
  0
LTYPE
  2
ACISOWELD
 70
     0
  3
_ _ _ _ _
 72
    65
 73
     2
 40
2.0
 49
2.0
 49
-1.0
  0
LTYPE
  2
ACISOTGB
 70
     0
  3
__ . . __ . .
 72
    65
 73
     6
 40
9.0
 49
4.0
 49
-1.0
 49
1.0
 49
-1.0
 49
1.0
 49
-1.0
  0
LTYPE
  2
ACISOTGL
 70
     0
  3
_ _ _ _ _
 72
    65
 73
     2
 40
3.0
 49
2.0
 49
-1.0
  0
LTYPE
  2
AM_ISO02W050
 70
     0
  3
__ __ __ __ __ __ __ __ __ __ __ __ __ __ __
 72
    65
 73
     2
 40
7.5
 49
6.0
 49
-1.5
  0
LTYPE
  2
AM_ISO08W050
 70
     0
  3
____ . ____ . ____ . ____ . ____ . ____ . ____
 72
    65
 73
     4
 40
18.0
 49
12.0
 49
-1.5
 49
3.0
 49
-1.5
  0
LTYPE
  2
AM_ISO09W050
 70
     0
  3
_____ . . _____ . . _____ . . ____ .. ____
 72
    65
 73
     6
 40
22.5
 49
12.0
 49
-1.5
 49
3.0
 49
-1.5
 49
3.0
 49
-1.5
  0
LTYPE
  2
AM_ISO02W050X2
 70
     0
  3
 _ _ _ _ _ _ _ _ _ _ _ _
 72
    65
 73
     2
 40
3.75
 49
3.0
 49
-0.75
  0
LTYPE
  2
AM_ISO08W050X2
 70
     0
  3
__ . __ . __ . __ . __ . __
 72
    65
 73
     4
 40
9.0
 49
6.0
 49
-0.75
 49
1.5
 49
-0.75
  0
LTYPE
  2
AMZIGZAG
 70
     0
  3
/\/-/\/-/\/-/\/-/\/-/\/
 72
    65
 73
     2
 40
11.0001
 49
0.0001
 49
-11.0
  0
LTYPE
  2
AMCONSTR
 70
     0
  3
_______________________
 72
    65
 73
     2
 40
9999.0
 49
9999.0
 49
0.0
  0
LTYPE
  2
CENTER2
 70
     0
  3
Center (.5x) ___ _ ___ _ ___ _ ___ _ ___ _ ___
 72
    65
 73
     4
 40
1.125
 49
0.75
 49
-0.125
 49
0.125
 49
-0.125
  0
LTYPE
  2
HIDDEN2
 70
     0
  3
Hidden (.5x) _ _ _ _ _ _ _ _ _ _ _ _ _ _ _ _ _
 72
    65
 73
     2
 40
0.1875
 49
0.125
 49
-0.0625
  0
LTYPE
  2
ACJISWELD
 70
     0
  3
_ _ _ _ _
 72
    65
 73
     2
 40
2.0
 49
2.0
 49
-1.0
  0
LTYPE
  2
AMZIGZAG2
 70
     0
  3
/\/-/\/-/\/-/\/-/\/-/\/
 72
    65
 73
     2
 40
0.4401
 49
0.0001
 49
-0.44
  0
LTYPE
  2
ACANSTGB
 70
     0
  3
__ . . __ . .
 72
    65
 73
     6
 40
0.35433070866
 49
0.15748031496
 49
-0.03937007874
 49
0.03937007874
 49
-0.03937007874
 49
0.03937007874
 49
-0.03937007874
  0
LTYPE
  2
ACANSTGL
 70
     0
  3
_ _ _ _ _
 72
    65
 73
     2
 40
0.11811023622
 49
0.07874015748
 49
-0.03937007874
  0
ENDTAB
  0
TABLE
  2
LAYER
 70
     5
  0
LAYER
  2
0
 70
     0
 62
     7
  6
CONTINUOUS
  0
LAYER
  2
7
 70
     0
 62
     4
  6
CENTER2
  0
LAYER
  2
10
 70
     0
 62
     2
  6
CONTINUOUS
  0
LAYER
  2
DEFPOINTS
 70
     0
 62
     7
  6
CONTINUOUS
  0
LAYER
  2
AM_0
 70
     0
 62
     7
  6
CONTINUOUS
  0
ENDTAB
  0
TABLE
  2
STYLE
 70
     8
  0
STYLE
  2
STANDARD
 70
     0
 40
0.0
 41
1.0
 50
0.0
 71
     0
 42
1.0
  3
ISOCP.SHX
  4
EXTFONT.SHX
  0
STYLE
  2
ACJISTS
 70
     0
 40
1.0
 41
1.0
 50
0.0
 71
     0
 42
3.5
  3
isocp.shx
  4
extfont.shx
  0
STYLE
  2
ACJISGDT
 70
     0
 40
0.0
 41
1.0
 50
0.0
 71
     0
 42
3.5
  3
amgdt.shx
  4
extfont.shx
  0
STYLE
  2
ACISOTS
 70
     0
 40
1.0
 41
1.0
 50
0.0
 71
     0
 42
1.0
  3
isocp.shx
  4
extfont.shx
  0
STYLE
  2
ACISOGDT
 70
     0
 40
0.0
 41
1.0
 50
0.0
 71
     0
 42
3.5
  3
amgdt.shx
  4
extfont.shx
  0
STYLE
  2

 70
     1
 40
0.0
 41
1.0
 50
0.0
 71
     0
 42
3.5
  3
ltypeshp.shx
  4

  0
STYLE
  2

 70
     1
 40
0.0
 41
1.0
 50
0.0
 71
     0
 42
4.0
  3
genltshp.shx
  4

  0
STYLE
  2
ACANSGDT
 70
     0
 40
0.0
 41
1.0
 50
0.0
 71
     0
 42
4.0
  3
amgdt.shx
  4

  0
ENDTAB
  0
TABLE
  2
VIEW
 70
     3
  0
VIEW
  2
AMDTVIEW1
 70
     0
 40
329.0721649484536
 10
210.0
 20
164.5360824742268
 41
420.0
 11
0.0
 21
0.0
 31
1.0
 12
0.0
 22
0.0
 32
0.0
 42
50.0
 43
0.0
 44
0.0
 50
0.0
 71
     0
  0
VIEW
  2
AMDTVIEW2
 70
     0
 40
329.0721649484536
 10
210.0
 20
164.5360824742268
 41
420.0
 11
0.0
 21
0.0
 31
1.0
 12
0.0
 22
0.0
 32
0.0
 42
50.0
 43
0.0
 44
0.0
 50
0.0
 71
     0
  0
VIEW
  2
AMDTVIEW3
 70
     0
 40
329.0721649484536
 10
210.0
 20
164.5360824742268
 41
420.0
 11
0.0
 21
0.0
 31
1.0
 12
0.0
 22
0.0
 32
0.0
 42
50.0
 43
0.0
 44
0.0
 50
0.0
 71
     0
  0
ENDTAB
  0
TABLE
  2
UCS
 70
     0
  0
ENDTAB
  0
TABLE
  2
APPID
 70
    67
  0
APPID
  2
ACAD
 70
     0
  0
APPID
  2
AD_DRAW
 70
     0
  0
APPID
  2
DESIGNERASSEMBLIES
 70
     0
  0
APPID
  2
MCAD_NO_VIS
 70
     0
  0
APPID
  2
ASURF_PCURVE_APPNAME
 70
     0
  0
APPID
  2
ACAD_TEMP_GRAPHIC
 70
     0
  0
APPID
  2
ACATTRIBSERVICES
 70
     0
  0
APPID
  2
ACADM_DIM_EDIT
 70
     0
  0
APPID
  2
GENIUS_GENDIM_13
 70
     0
  0
APPID
  2
GENIUS_GENDTOL_13
 70
     0
  0
APPID
  2
GENIUS_GE3DTOL_13
 70
     0
  0
APPID
  2
AMG_3D2D_5_0
 70
     0
  0
APPID
  2
AMDT_DM_ADJ
 70
     0
  0
APPID
  2
ACAD_PSEXT
 70
     0
  0
APPID
  2
ACAD_DSTYLE_DIMTEXT_FILL
 70
     0
  0
APPID
  2
ACAECLAYERSTANDARD
 70
     0
  0
APPID
  2
GENIUS_GENREC_14
 70
     0
  0
APPID
  2
GENIUS_GENODEF_13
 70
     0
  0
APPID
  2
GENIUS_GENOBJ-N-REC_13
 70
     0
  0
APPID
  2
DCO15
 70
     0
  0
APPID
  2
ACAD_DSTYLE_DIMJAG
 70
     0
  0
APPID
  2
ACAD_DSTYLE_DIMTALN
 70
     0
  0
APPID
  2
ACAD_MLEADERVER
 70
     0
  0
APPID
  2
GENIUS_GENSCREG_15
 70
     0
  0
APPID
  2
GENIUS_GENOBJ-N-SDF_13
 70
     0
  0
APPID
  2
ACAD_NAV_VCDISPLAY
 70
     0
  0
APPID
  2
ACAD_EXEMPT_FROM_CAD_STAND
 70
     0
  0
APPID
  2
ACCMTRANSPARENCY
 70
     0
  0
APPID
  2
GENIUS_GENOBJ-N-CEN_13
 70
     0
  0
APPID
  2
GENIUS_GENOBJ-N-FIL_13
 70
     0
  0
APPID
  2
GENIUS_GENCEN_19
 70
     0
  0
APPID
  2
ACAD_DSTYLE_DIMBREAK
 70
     0
  0
APPID
  2
PLOTTRANSPARENCY
 70
     0
  0
APPID
  2
ACAD_SPLINE_DATA
 70
     0
  0
APPID
  2
ACAD_SPLINE_DATA2
 70
     0
  0
APPID
  2
HC_SUPERPART
 70
     0
  0
APPID
  2
HC_SP4BLOCK
 70
     0
  0
APPID
  2
HC_XDATA_SPRING
 70
     0
  0
APPID
  2
HCCAD_FRAME
 70
     0
  0
APPID
  2
GENIUS_GENOLIS_13
 70
     0
  0
APPID
  2
GENIUS_GENOENT_13
 70
     0
  0
APPID
  2
GENIUS_GENOREF_13
 70
     0
  0
APPID
  2
GENIUS_GENOBJ-N-TIT_13
 70
     0
  0
APPID
  2
GENIUS_GENOBJ-N-ZOO_13
 70
     0
  0
APPID
  2
GENIUS_GENTITLE_13
 70
     0
  0
APPID
  2
GENIUS_GENSYMENT_13
 70
     0
  0
APPID
  2
GENIUS_GENSCSYM_13
 70
     0
  0
APPID
  2
GENIUS_GENOBJ-N-REV_13
 70
     0
  0
APPID
  2
GENIUS_GENOBJ-N-RSSYM_13
 70
     0
  0
APPID
  2
GENIUS_GENREV_15
 70
     0
  0
APPID
  2
HRA
 70
     0
  0
APPID
  2
HTIT
 70
     0
  0
APPID
  2
GENIUS_GENZOO_17
 70
     0
  0
APPID
  2
GENIUS_GENOBJ-N-CRS_13
 70
     0
  0
APPID
  2
GENIUS_GENCRS_20
 70
     0
  0
APPID
  2
GENIUS_GENOBJ-N-CRC_13
 70
     0
  0
APPID
  2
GENIUS_GENCRC_14
 70
     0
  0
APPID
  2
GENIUS_GENFIL_13
 70
     0
  0
APPID
  2
GENIUS_GENOBJ-N-CHA_13
 70
     0
  0
APPID
  2
GENIUS_GENHATCH_13
 70
     0
  0
APPID
  2
GENIUS_GENOBJ-N-HTC_13
 70
     0
  0
APPID
  2
GENIUS_GENOBJ-N-DIM_13
 70
     0
  0
APPID
  2
GENIUS_GENOBJ-N-DIMLI_13
 70
     0
  0
APPID
  2
GENIUS_GENOBJ-N-FITL_13
 70
     0
  0
APPID
  2
GENIUS_GENFITL_13
 70
     0
  0
APPID
  2
GENLAYCOLOR
 70
     0
  0
APPID
  2
ACADANNOTATIVE
 70
     0
  0
ENDTAB
  0
TABLE
  2
DIMSTYLE
 70
    23
  0
DIMSTYLE
  2
STANDARD
 70
     0
  3

  4

  5

  6

  7

 40
1.0
 41
2.5
 42
0.625
 43
3.75
 44
1.25
 45
0.0
 46
0.0
 47
0.0
 48
0.0
140
2.5
141
2.5
142
0.0
143
0.0394
144
1.0
145
0.0
146
1.0
147
0.625
 71
     0
 72
     0
 73
     0
 74
     0
 75
     0
 76
     0
 77
     1
 78
     8
170
     0
171
     4
172
     1
173
     0
174
     0
175
     0
176
     0
177
     0
178
     0
  0
DIMSTYLE
  2
AM_JIS
 70
     0
  3

  4
"
  5
OPEN
  6

  7

 40
1.0
 41
2.5
 42
1.0
 43
7.0
 44
1.0
 45
0.0
 46
0.0
 47
0.1
 48
0.1
140
3.0
141
0.0
142
0.0
143
0.0393701
144
1.0
145
0.0
146
0.71
147
1.0
 71
     0
 72
     0
 73
     0
 74
     0
 75
     0
 76
     0
 77
     3
 78
     8
170
     0
171
     2
172
     1
173
     0
174
     0
175
     0
176
   256
177
   256
178
     2
  0
DIMSTYLE
  2
AM_JIS$3
 70
     0
  3

  4
"
  5
OPEN
  6

  7

 40
1.0
 41
2.5
 42
1.0
 43
10.0
 44
1.0
 45
0.0
 46
0.0
 47
0.1
 48
0.1
140
3.0
141
0.0
142
0.0
143
0.0393701
144
1.0
145
0.0
146
0.71
147
1.0
 71
     0
 72
     0
 73
     0
 74
     0
 75
     0
 76
     0
 77
     3
 78
     8
170
     0
171
     2
172
     1
173
     0
174
     0
175
     0
176
   256
177
   256
178
     2
  0
DIMSTYLE
  2
AM_JIS$4
 70
     0
  3

  4
"
  5

  6
OPEN30
  7
OPEN
 40
1.0
 41
2.5
 42
1.0
 43
10.0
 44
1.0
 45
0.0
 46
0.0
 47
0.1
 48
0.1
140
3.0
141
0.0
142
0.0
143
0.0393701
144
1.0
145
0.0
146
0.71
147
1.0
 71
     0
 72
     0
 73
     0
 74
     0
 75
     0
 76
     0
 77
     3
 78
     8
170
     0
171
     2
172
     1
173
     1
174
     0
175
     0
176
   256
177
   256
178
     2
  0
DIMSTYLE
  2
AM_JIS$6
 70
     0
  3

  4
"
  5
OPEN30
  6
OPEN30
  7
OPEN30
 40
1.0
 41
2.5
 42
1.0
 43
10.0
 44
1.0
 45
0.0
 46
0.0
 47
0.1
 48
0.1
140
3.5
141
0.0
142
0.0
143
0.0393701
144
1.0
145
0.0
146
0.71
147
1.5
 71
     0
 72
     0
 73
     0
 74
     0
 75
     0
 76
     0
 77
     0
 78
     8
170
     0
171
     2
172
     1
173
     0
174
     0
175
     0
176
   256
177
   256
178
     2
  0
DIMSTYLE
  2
AM_JIS$7
 70
     0
  3

  4
"
  5
OPEN30
  6

  7

 40
1.0
 41
2.5
 42
1.0
 43
10.0
 44
1.0
 45
0.0
 46
0.0
 47
0.1
 48
0.1
140
3.0
141
0.0
142
0.0
143
0.0393701
144
1.0
145
0.0
146
0.71
147
1.0
 71
     0
 72
     0
 73
     0
 74
     0
 75
     0
 76
     0
 77
     3
 78
     8
170
     0
171
     2
172
     1
173
     0
174
     0
175
     0
176
   256
177
   256
178
     2
  0
DIMSTYLE
  2
AM_JIS$SF
 70
     0
  3

  4
"
  5
OPEN
  6

  7

 40
1.0
 41
2.5
 42
1.0
 43
7.0
 44
1.0
 45
0.0
 46
0.0
 47
0.1
 48
0.1
140
3.5
141
0.0
142
0.0
143
0.0393701
144
1.0
145
0.0
146
0.71
147
1.5
 71
     0
 72
     0
 73
     0
 74
     0
 75
     1
 76
     1
 77
     3
 78
     8
170
     0
171
     2
172
     1
173
     0
174
     0
175
     0
176
   256
177
   256
178
     2
  0
DIMSTYLE
  2
AM_JIS$SH
 70
     0
  3

  4
"
  5

  6
GENAXEH
  7
OPEN
 40
1.0
 41
2.5
 42
1.0
 43
7.0
 44
1.0
 45
0.0
 46
0.0
 47
0.1
 48
0.1
140
3.5
141
0.0
142
0.0
143
0.0393701
144
2.0
145
0.0
146
0.71
147
1.5
 71
     0
 72
     0
 73
     0
 74
     0
 75
     1
 76
     1
 77
     3
 78
     8
170
     0
171
     2
172
     1
173
     1
174
     0
175
     0
176
   256
177
   256
178
     2
  0
DIMSTYLE
  2
AM_ISO
 70
     0
  3

  4
"
  5

  6

  7

 40
1.0
 41
2.5
 42
1.0
 43
10.0
 44
1.0
 45
0.0
 46
0.0
 47
0.1
 48
0.1
140
3.5
141
0.0
142
0.0
143
0.0393701
144
1.0
145
0.0
146
0.71
147
1.5
 71
     0
 72
     0
 73
     0
 74
     0
 75
     0
 76
     0
 77
     1
 78
     8
170
     0
171
     2
172
     1
173
     0
174
     0
175
     0
176
   256
177
   256
178
     2
  0
DIMSTYLE
  2
AM_ISO$3
 70
     0
  3

  4
"
  5

  6

  7

 40
1.0
 41
2.5
 42
1.0
 43
10.0
 44
1.0
 45
0.0
 46
0.0
 47
0.1
 48
0.1
140
3.5
141
0.0
142
0.0
143
0.0393701
144
1.0
145
0.0
146
0.71
147
1.5
 71
     0
 72
     0
 73
     0
 74
     1
 75
     0
 76
     0
 77
     1
 78
     8
170
     0
171
     2
172
     0
173
     0
174
     0
175
     0
176
   256
177
   256
178
     2
  0
DIMSTYLE
  2
AM_ISO$4
 70
     0
  3

  4
"
  5

  6

  7

 40
1.0
 41
2.5
 42
1.0
 43
10.0
 44
1.0
 45
0.0
 46
0.0
 47
0.1
 48
0.1
140
3.5
141
0.0
142
0.0
143
0.0393701
144
1.0
145
0.0
146
0.71
147
1.5
 71
     0
 72
     0
 73
     0
 74
     1
 75
     0
 76
     0
 77
     1
 78
     8
170
     0
171
     2
172
     0
173
     0
174
     0
175
     0
176
   256
177
   256
178
     2
  0
DIMSTYLE
  2
AM_ISO$6
 70
     0
  3

  4
"
  5

  6

  7

 40
1.0
 41
2.5
 42
1.0
 43
10.0
 44
1.0
 45
0.0
 46
0.0
 47
0.1
 48
0.1
140
3.5
141
0.0
142
0.0
143
0.0393701
144
1.0
145
0.0
146
0.71
147
1.5
 71
     0
 72
     0
 73
     0
 74
     0
 75
     0
 76
     0
 77
     0
 78
     8
170
     0
171
     2
172
     1
173
     0
174
     0
175
     0
176
   256
177
   256
178
     2
  0
DIMSTYLE
  2
AM_ISO$7
 70
     0
  3

  4
"
  5

  6

  7

 40
1.0
 41
2.5
 42
1.0
 43
10.0
 44
1.0
 45
0.0
 46
0.0
 47
0.1
 48
0.1
140
5.0
141
0.0
142
0.0
143
0.0393701
144
1.0
145
0.0
146
0.71
147
1.5
 71
     0
 72
     0
 73
     0
 74
     0
 75
     0
 76
     0
 77
     1
 78
     8
170
     0
171
     2
172
     1
173
     0
174
     0
175
     0
176
   256
177
   256
178
     2
  0
DIMSTYLE
  2
AM_ISO$SF
 70
     0
  3

  4
"
  5

  6

  7

 40
1.0
 41
2.5
 42
1.0
 43
10.0
 44
1.0
 45
0.0
 46
0.0
 47
0.1
 48
0.1
140
3.5
141
0.0
142
0.0
143
0.0393701
144
1.0
145
0.0
146
0.71
147
1.5
 71
     0
 72
     0
 73
     0
 74
     0
 75
     1
 76
     1
 77
     1
 78
     8
170
     0
171
     2
172
     1
173
     0
174
     0
175
     0
176
   256
177
   256
178
     2
  0
DIMSTYLE
  2
AM_ISO$SH
 70
     0
  3

  4
"
  5

  6
GENAXEH
  7

 40
1.0
 41
2.5
 42
1.0
 43
10.0
 44
1.0
 45
0.0
 46
0.0
 47
0.1
 48
0.1
140
3.5
141
0.0
142
0.0
143
0.0393701
144
2.0
145
0.0
146
0.71
147
1.5
 71
     0
 72
     0
 73
     0
 74
     0
 75
     1
 76
     1
 77
     1
 78
     8
170
     0
171
     2
172
     1
173
     1
174
     0
175
     0
176
   256
177
   256
178
     2
  0
DIMSTYLE
  2
AM_JIS$2
 70
     0
  3

  4
"
  5
OPEN
  6

  7

 40
1.0
 41
2.5
 42
1.0
 43
7.0
 44
1.0
 45
0.0
 46
0.0
 47
0.1
 48
0.1
140
3.0
141
0.0
142
0.0
143
0.0393701
144
1.0
145
0.0
146
0.71
147
1.0
 71
     0
 72
     0
 73
     0
 74
     0
 75
     0
 76
     0
 77
     3
 78
     8
170
     0
171
     2
172
     1
173
     0
174
     0
175
     0
176
   256
177
   256
178
     2
  0
DIMSTYLE
  2
AM_JIS$0
 70
     0
  3

  4
"
  5
OPEN
  6

  7

 40
1.0
 41
2.5
 42
1.0
 43
7.0
 44
1.0
 45
0.0
 46
0.0
 47
0.1
 48
0.1
140
3.0
141
0.0
142
0.0
143
0.0393701
144
1.0
145
0.0
146
0.71
147
1.0
 71
     0
 72
     0
 73
     0
 74
     0
 75
     0
 76
     0
 77
     3
 78
     8
170
     0
171
     2
172
     1
173
     0
174
     0
175
     0
176
   256
177
   256
178
     2
  0
DIMSTYLE
  2
AM_ANSI
 70
     0
  3

  4
mm
  5

  6

  7

 40
1.0
 41
0.12
 42
0.05
 43
0.5
 44
0.1
 45
0.0
 46
0.0
 47
0.1
 48
0.1
140
0.12
141
0.0
142
0.0
143
25.4
144
1.0
145
0.0
146
0.71
147
0.06
 71
     0
 72
     0
 73
     1
 74
     1
 75
     0
 76
     0
 77
     0
 78
     7
170
     0
171
     2
172
     0
173
     0
174
     0
175
     0
176
   256
177
   256
178
     2
  0
DIMSTYLE
  2
AM_ANSI$3
 70
     0
  3

  4
mm
  5

  6

  7

 40
1.0
 41
0.12
 42
0.05
 43
0.5
 44
0.1
 45
0.0
 46
0.0
 47
0.1
 48
0.1
140
0.12
141
0.0
142
0.0
143
25.4
144
1.0
145
0.0
146
0.71
147
0.06
 71
     0
 72
     0
 73
     1
 74
     1
 75
     0
 76
     0
 77
     0
 78
     7
170
     0
171
     2
172
     0
173
     0
174
     0
175
     0
176
   256
177
   256
178
     2
  0
DIMSTYLE
  2
AM_ANSI$4
 70
     0
  3

  4
mm
  5

  6

  7

 40
1.0
 41
0.12
 42
0.05
 43
0.5
 44
0.1
 45
0.0
 46
0.0
 47
0.1
 48
0.1
140
0.12
141
0.0
142
0.0
143
25.4
144
1.0
145
0.0
146
0.71
147
0.06
 71
     0
 72
     0
 73
     1
 74
     1
 75
     0
 76
     0
 77
     0
 78
     7
170
     0
171
     2
172
     0
173
     0
174
     0
175
     0
176
   256
177
   256
178
     2
  0
DIMSTYLE
  2
AM_ANSI$7
 70
     0
  3

  4
mm
  5

  6

  7

 40
1.0
 41
0.12
 42
0.05
 43
0.5
 44
0.1
 45
0.0
 46
0.0
 47
0.1
 48
0.1
140
0.12
141
0.0
142
0.0
143
25.4
144
1.0
145
0.0
146
0.71
147
0.06
 71
     0
 72
     0
 73
     1
 74
     1
 75
     0
 76
     0
 77
     0
 78
     7
170
     0
171
     2
172
     0
173
     0
174
     0
175
     0
176
   256
177
   256
178
     2
  0
DIMSTYLE
  2
AM_ANSI$SF
 70
     0
  3

  4
mm
  5

  6

  7

 40
1.0
 41
0.12
 42
0.05
 43
0.5
 44
0.1
 45
0.0
 46
0.0
 47
0.1
 48
0.1
140
0.12
141
0.0
142
0.0
143
25.4
144
1.0
145
0.0
146
0.71
147
0.06
 71
     0
 72
     0
 73
     1
 74
     1
 75
     1
 76
     1
 77
     0
 78
     7
170
     0
171
     2
172
     0
173
     0
174
     0
175
     0
176
   256
177
   256
178
     2
  0
DIMSTYLE
  2
AM_ANSI$SH
 70
     0
  3

  4
mm
  5

  6
GENAXEH
  7

 40
1.0
 41
0.12
 42
0.05
 43
0.5
 44
0.1
 45
0.0
 46
0.0
 47
0.1
 48
0.1
140
0.12
141
0.0
142
0.0
143
25.4
144
1.0
145
0.0
146
0.71
147
0.06
 71
     0
 72
     0
 73
     1
 74
     1
 75
     1
 76
     1
 77
     0
 78
     7
170
     0
171
     2
172
     0
173
     1
174
     0
175
     0
176
   256
177
   256
178
     2
  0
ENDTAB
  0
ENDSEC
  0
SECTION
  2
BLOCKS
  0
BLOCK
  8
0
  2
$MODEL_SPACE
 70
     0
 10
0.0
 20
0.0
 30
0.0
  3
$MODEL_SPACE
  1

  0
ENDBLK
  5
1C
  8
0
  0
BLOCK
 67
     1
  8
0
  2
$PAPER_SPACE
 70
     0
 10
0.0
 20
0.0
 30
0.0
  3
$PAPER_SPACE
  1

  0
ENDBLK
  5
19
 67
     1
  8
0
  0
BLOCK
  8
0
  2
_OPEN30
 70
     0
 10
0.0
 20
0.0
 30
0.0
  3
_OPEN30
  1

  0
LINE
  5
2EF
  8
0
  6
BYBLOCK
 62
     0
 10
-1.0
 20
0.26794919
 30
0.0
 11
0.0
 21
0.0
 31
0.0
  0
LINE
  5
2F0
  8
0
  6
BYBLOCK
 62
     0
 10
0.0
 20
0.0
 30
0.0
 11
-1.0
 21
-0.26794919
 31
0.0
  0
LINE
  5
2F1
  8
0
  6
BYBLOCK
 62
     0
 10
0.0
 20
0.0
 30
0.0
 11
-1.0
 21
0.0
 31
0.0
  0
ENDBLK
  5
2F3
  8
0
  0
BLOCK
  8
0
  2
GENAXEH
 70
     0
 10
0.0
 20
0.0
 30
0.0
  3
GENAXEH
  1

  0
LINE
  5
2F5
  8
0
 10
-1.0
 20
0.0
 30
0.0
 11
1.0
 21
0.0
 31
0.0
  0
ENDBLK
  5
2F7
  8
0
  0
BLOCK
  8
0
  2
_OPEN
 70
     0
 10
0.0
 20
0.0
 30
0.0
  3
_OPEN
  1

  0
LINE
  5
597
  8
0
  6
BYBLOCK
 62
     0
 10
-1.0
 20
0.1666666666666667
 30
0.0
 11
0.0
 21
0.0
 31
0.0
  0
LINE
  5
598
  8
0
  6
BYBLOCK
 62
     0
 10
-1.0
 20
-0.1666666666666667
 30
0.0
 11
0.0
 21
0.0
 31
0.0
  0
LINE
  5
599
  8
0
  6
BYBLOCK
 62
     0
 10
0.0
 20
0.0
 30
0.0
 11
-1.0
 21
0.0
 31
0.0
  0
ENDBLK
  5
59B
  8
0
  0
BLOCK
  8
0
  2
_TAGCIRCLE
 70
     2
 10
0.0
 20
0.0
 30
0.0
  3
_TAGCIRCLE
  1

  0
CIRCLE
  5
1151
  8
0
  6
BYBLOCK
 62
     0
 10
0.0
 20
0.0
 30
0.0
 40
4.0
  0
ATTDEF
  5
1152
  8
0
 62
     0
 10
-7.1
 20
-1.5
 30
0.0
 40
3.0
  1
タグ番号
 72
     1
 11
0.0
 21
-1.5
 31
0.0
  3
タグ番号を入力
  2
タグ番号
 70
     0
  0
ENDBLK
  5
1154
  8
0
  0
BLOCK
  8
0
  2
_ACMFILLED15
 70
     0
 10
0.0
 20
0.0
 30
0.0
  3
_ACMFILLED15
  1
Acad:XRef
  0
TRACE
  5
78EA
  8
AM_0
 62
     0
 10
-1.0
 20
0.1316524975873958
 30
0.0
 11
-1.0
 21
-0.1316524975873958
 31
0.0
 12
0.0
 22
0.0
 32
0.0
 13
0.0
 23
0.0
 33
0.0
  0
ENDBLK
  5
78E8
  8
0
  0
BLOCK
  8
0
  2
_ACMOPEN30
 70
     0
 10
0.0
 20
0.0
 30
0.0
  3
_ACMOPEN30
  1
Acad:XRef
  0
LINE
  5
78F4
  8
AM_0
 62
     0
 10
-1.0
 20
0.0
 30
0.0
 11
0.0
 21
0.0
 31
0.0
  0
LINE
  5
78F5
  8
AM_0
 62
     0
 10
-1.0
 20
-0.2679491924311227
 30
0.0
 11
0.0
 21
0.0
 31
0.0
  0
LINE
  5
78F6
  8
AM_0
 62
     0
 10
-1.0
 20
0.2679491924311227
 30
0.0
 11
0.0
 21
0.0
 31
0.0
  0
ENDBLK
  5
78F3
  8
0
  0
BLOCK
  8
0
  2
_ACMFILLEDHALF
 70
     0
 10
0.0
 20
0.0
 30
0.0
  3
_ACMFILLEDHALF
  1

  0
TRACE
  5
78FF
  8
0
 62
     0
 10
-0.8
 20
0.0
 30
0.0
 11
-1.0
 21
0.166666666
 31
0.0
 12
0.0
 22
0.0
 32
0.0
 13
0.0
 23
0.0
 33
0.0
  0
LINE
  5
7900
  8
0
 62
     0
 10
-1.0
 20
0.0
 30
0.0
 11
-0.8
 21
0.0
 31
0.0
  0
ENDBLK
  5
7901
  8
0
  0
BLOCK
  8
0
  2
_ACMOPEN15
 70
     0
 10
0.0
 20
0.0
 30
0.0
  3
_ACMOPEN15
  1
Acad:XRef
  0
LINE
  5
790E
  8
AM_0
 62
     0
 10
-1.0
 20
0.0
 30
0.0
 11
0.0
 21
0.0
 31
0.0
  0
LINE
  5
790F
  8
AM_0
 62
     0
 10
-1.0
 20
-0.1316524975873958
 30
0.0
 11
0.0
 21
0.0
 31
0.0
  0
LINE
  5
7910
  8
AM_0
 62
     0
 10
-1.0
 20
0.1316524975873958
 30
0.0
 11
0.0
 21
0.0
 31
0.0
  0
ENDBLK
  5
790D
  8
0
  0
BLOCK
  8
0
  2
*X9
 70
     1
 10
0.0
 20
0.0
 30
0.0
  3
*X9
  1
Acad:XRef
  0
TEXT
  5
A68F
  8
0
 62
     7
 10
69.3571225060213
 20
206.6384425259047
 30
0.0
 40
1.9
  1
凍結
  0
TEXT
  5
A690
  8
0
 62
     7
 10
69.34302232049255
 20
203.3143237875002
 30
0.0
 40
1.9
  1
予防
  0
ENDBLK
  5
A6B0
  8
0
  0
ENDSEC
  0
SECTION
  2
ENTITIES
  0
TEXT
  5
17F0
  8
10
 10
-1.500002627034519
 20
0.0000014963791273
 30
0.0
 40
10.0
  1
2024.02.01 EV3R 3台連動 露出型
 11
-1.500002627034519
 21
0.0000014963791273
 31
0.0
 73
     1
  0
LINE
  5
45EE
  8
0
 10
25.52185159276132
 20
289.8911326928805
 30
0.0
 11
125.5218515927613
 21
289.8911326928803
 31
0.0
  0
LINE
  5
45EF
  8
0
 10
25.52185159276132
 20
169.8911326928804
 30
0.0
 11
125.5218515927613
 21
169.8911326928804
 31
0.0
  0
ARC
  5
45F0
  8
0
 10
25.52185159276132
 20
281.8911326928805
 30
0.0
 40
8.0
 50
90.0
 51
180.0
  0
LINE
  5
45F1
  8
0
 10
21.279210905642
 20
286.1337733799996
 30
0.0
 11
29.52185159276132
 21
277.8911326928805
 31
0.0
  0
LINE
  5
45F2
  8
0
 10
31.52185159276132
 20
181.8911326928804
 30
0.0
 11
119.5218515927613
 21
181.8911326928806
 31
0.0
  0
LINE
  5
45F3
  8
0
 10
31.52185159276132
 20
277.8911326928805
 30
0.0
 11
119.5218515927613
 21
277.8911326928804
 31
0.0
  0
LINE
  5
45F6
  8
0
 10
29.52185159276132
 20
275.8911326928805
 30
0.0
 11
29.52185159276132
 21
183.8911326928804
 31
0.0
  0
LINE
  5
45F8
  8
0
 10
17.52185159276132
 20
281.8911326928805
 30
0.0
 11
17.52185159276132
 21
177.8911326928804
 31
0.0
  0
LINE
  5
45F9
  8
0
 10
21.27921090564223
 20
173.6484920057611
 30
0.0
 11
29.52185159276132
 21
181.8911326928804
 31
0.0
  0
ARC
  5
45FA
  8
0
 10
25.52185159276132
 20
177.8911326928804
 30
0.0
 40
8.0
 50
180.0
 51
270.0
  0
ARC
  5
45FE
  8
0
 10
125.5218515927613
 20
281.8911326928803
 30
0.0
 40
8.0
 50
0.0
 51
90.0
  0
LINE
  5
45FF
  8
0
 10
129.7644922798806
 20
286.1337733799996
 30
0.0
 11
121.5218515927613
 21
277.8911326928803
 31
0.0
  0
LINE
  5
4601
  8
0
 10
121.5218515927613
 20
275.8911326928804
 30
0.0
 11
121.5218515927613
 21
183.8911326928806
 31
0.0
  0
LINE
  5
4602
  8
0
 10
133.5218515927613
 20
281.8911326928803
 30
0.0
 11
133.5218515927613
 21
177.8911326928804
 31
0.0
  0
LINE
  5
4603
  8
0
 10
121.5218515927613
 20
181.8911326928805
 30
0.0
 11
129.7644922798806
 21
173.648492005761
 31
0.0
  0
ARC
  5
4604
  8
0
 10
125.5218515927613
 20
177.8911326928804
 30
0.0
 40
8.0
 50
270.0
 51
0.0
  0
LINE
  5
6DF9
  8
0
 10
25.52185159276132
 20
290.5544326928805
 30
0.0
 11
125.5218515927613
 21
290.5544326928803
 31
0.0
  0
ARC
  5
6DFA
  8
0
 10
25.52185159276132
 20
281.8911326928805
 30
0.0
 40
8.6633
 50
90.0
 51
180.0
  0
LINE
  5
6DFB
  8
0
 10
16.85855159276139
 20
281.8911326928805
 30
0.0
 11
16.85855159276139
 21
177.8911326928804
 31
0.0
  0
ARC
  5
6DFC
  8
0
 10
25.52185159276132
 20
177.8911326928804
 30
0.0
 40
8.6633
 50
180.0
 51
270.0
  0
LINE
  5
6DFD
  8
0
 10
25.52185159276132
 20
169.2278326928804
 30
0.0
 11
125.5218515927613
 21
169.2278326928804
 31
0.0
  0
ARC
  5
6DFE
  8
0
 10
125.5218515927613
 20
177.8911326928804
 30
0.0
 40
8.6633
 50
270.0
 51
0.0
  0
LINE
  5
6DFF
  8
0
 10
134.1851515927613
 20
281.8911326928803
 30
0.0
 11
134.1851515927613
 21
177.8911326928804
 31
0.0
  0
ARC
  5
6E00
  8
0
 10
125.5218515927613
 20
281.8911326928803
 30
0.0
 40
8.6633
 50
0.0
 51
90.0
  0
LINE
  5
77D2
  8
0
 10
178.9776193488476
 20
280.4759181171104
 30
0.0
 11
180.2735054031282
 21
287.8252531370478
 31
0.0
  0
LINE
  5
77D3
  8
0
 10
184.0218519392138
 20
169.8911326928807
 30
0.0
 11
184.0218519392138
 21
289.8911326928807
 31
0.0
  0
LINE
  5
77D4
  8
0
 10
178.5218519392138
 20
184.5157925986582
 30
0.0
 11
178.5218519392138
 21
275.2664727871025
 31
0.0
  0
LINE
  5
77D5
  8
0
 10
178.9776193488476
 20
179.3063472686504
 30
0.0
 11
180.2735054031281
 21
171.9570122487135
 31
0.0
  0
ARC
  5
77D6
  8
0
 10
182.7355247856586
 20
172.3911326928808
 30
0.0
 40
2.5
 50
190.0000000000002
 51
270.0
  0
LINE
  5
77D7
  8
0
 10
184.0218519392138
 20
169.8911326928808
 30
0.0
 11
182.7355247856585
 21
169.8911326928808
 31
0.0
  0
ARC
  5
77D8
  8
0
 10
208.5218519392138
 20
184.5157925986582
 30
0.0
 40
30.0
 50
180.0
 51
190.0000000000002
  0
ARC
  5
77D9
  8
0
 10
208.5218519392138
 20
275.2664727871025
 30
0.0
 40
30.0
 50
169.9999999999998
 51
180.0
  0
ARC
  5
77DA
  8
0
 10
182.7355247856588
 20
287.3911326928804
 30
0.0
 40
2.5
 50
90.0
 51
169.9999999999998
  0
LINE
  5
77DB
  8
0
 10
184.0218519392072
 20
289.8911326928807
 30
0.0
 11
182.7355247856519
 21
289.8911326928807
 31
0.0
  0
ARC
  5
77DC
  8
0
 10
175.8218519392133
 20
259.6911326928806
 30
0.0
 40
1.0
 50
90.0
 51
180.0
  0
LINE
  5
77DD
  8
0
 10
175.8218519392133
 20
260.6911326928806
 30
0.0
 11
178.5218519392133
 21
260.6911326928806
 31
0.0
  0
LINE
  5
77DE
  8
0
 10
175.8218519392133
 20
253.6911326928806
 30
0.0
 11
178.5218519392133
 21
253.6911326928806
 31
0.0
  0
LINE
  5
77DF
  8
0
 10
174.8218519392133
 20
259.6911326928806
 30
0.0
 11
174.8218519392133
 21
254.6911326928806
 31
0.0
  0
ARC
  5
77E0
  8
0
 10
175.8218519392133
 20
254.6911326928806
 30
0.0
 40
1.0
 50
180.0
 51
270.0
  0
LINE
  5
77E1
  8
0
 10
125.5218523378194
 20
144.5475018568711
 30
0.0
 11
25.52185084770332
 21
144.5475018568711
 31
0.0
  0
LINE
  5
77E2
  8
0
 10
125.5218523378194
 20
140.5475020161273
 30
0.0
 11
25.52185084770332
 21
140.5475020161273
 31
0.0
  0
LINE
  5
77E3
  8
0
 10
17.52185326169143
 20
140.5475020161273
 30
0.0
 11
17.52185326169143
 21
144.5475018568711
 31
0.0
  0
LINE
  5
77E4
  8
0
 10
25.52185084770332
 20
144.5475018568711
 30
0.0
 11
17.52185326169143
 21
144.5475018568711
 31
0.0
  0
LINE
  5
77E5
  8
0
 10
25.52185084770332
 20
140.5475020161273
 30
0.0
 11
17.52185326169143
 21
140.5475020161273
 31
0.0
  0
LINE
  5
77E6
  8
0
 10
133.5218499238313
 20
140.5475020161273
 30
0.0
 11
133.5218499238313
 21
144.5475018568711
 31
0.0
  0
LINE
  5
77E7
  8
0
 10
133.5218499238313
 20
144.5475018568711
 30
0.0
 11
125.5218523378194
 21
144.5475018568711
 31
0.0
  0
LINE
  5
77E8
  8
0
 10
133.5218499238313
 20
140.5475020161273
 30
0.0
 11
125.5218523378194
 21
140.5475020161273
 31
0.0
  0
LINE
  5
77E9
  8
0
 10
18.62185325573097
 20
144.5475018568711
 30
0.0
 11
18.62185325573097
 21
145.0475018568683
 31
0.0
  0
LINE
  5
77EA
  8
0
 10
132.4218499297917
 20
144.5475018568711
 30
0.0
 11
132.4218499297917
 21
145.0475018568683
 31
0.0
  0
LINE
  5
77EB
  8
0
 10
39.02185212920318
 20
150.5475017926099
 30
0.0
 11
112.0218510563195
 21
150.5475017926099
 31
0.0
  0
LINE
  5
77EC
  8
0
 10
52.96668179090585
 20
153.747134527974
 30
0.0
 11
51.96668179090608
 21
153.747134527974
 31
0.0
  0
LINE
  5
77ED
  8
0
 10
53.96668179090608
 20
154.247134527974
 30
0.0
 11
52.96668179090608
 21
154.247134527974
 31
0.0
  0
LINE
  5
77EE
  8
0
 10
51.96668179090608
 20
154.247134527974
 30
0.0
 11
50.96668179090608
 21
154.247134527974
 31
0.0
  0
LINE
  5
77EF
  8
0
 10
51.96668179090608
 20
154.247134527974
 30
0.0
 11
51.96668179090608
 21
153.747134527974
 31
0.0
  0
LINE
  5
77F0
  8
0
 10
54.96668179090608
 20
154.247134527974
 30
0.0
 11
54.96668179090608
 21
153.747134527974
 31
0.0
  0
LINE
  5
77F1
  8
0
 10
52.96668179090608
 20
154.247134527974
 30
0.0
 11
52.96668179090585
 21
153.747134527974
 31
0.0
  0
LINE
  5
77F2
  8
0
 10
53.96668179090608
 20
154.247134527974
 30
0.0
 11
53.96668179090608
 21
153.747134527974
 31
0.0
  0
LINE
  5
77F3
  8
0
 10
54.96668179090608
 20
153.747134527974
 30
0.0
 11
53.96668179090608
 21
153.747134527974
 31
0.0
  0
LINE
  5
77F4
  8
0
 10
56.96668179090602
 20
150.5475017926099
 30
0.0
 11
56.9666817909058
 21
153.247134527974
 31
0.0
  0
ARC
  5
77F5
  8
0
 10
55.96668179090585
 20
153.247134527974
 30
0.0
 40
1.0
 50
0.0
 51
90.0
  0
LINE
  5
77F6
  8
0
 10
55.96668179090585
 20
154.247134527974
 30
0.0
 11
54.96668179090608
 21
154.247134527974
 31
0.0
  0
LINE
  5
77F7
  8
0
 10
49.96668179090608
 20
150.5475017926099
 30
0.0
 11
49.96668179090608
 21
153.247134527974
 31
0.0
  0
ARC
  5
77F8
  8
0
 10
50.96668179090608
 20
153.247134527974
 30
0.0
 40
1.0
 50
90.0
 51
180.0
  0
LINE
  5
77F9
  8
0
 10
133.5218515927611
 20
145.0475018568683
 30
0.0
 11
17.52185159276092
 21
145.0475018568683
 31
0.0
  0
ARC
  5
77FA
  8
0
 10
118.8971916869837
 20
120.5475018568683
 30
0.0
 40
30.0
 50
80.00000000000139
 51
90.0
  0
LINE
  5
77FB
  8
0
 10
118.8971916869837
 20
150.5475018568683
 30
0.0
 11
32.14651149853904
 21
150.5475018568683
 31
0.0
  0
ARC
  5
77FC
  8
0
 10
131.0218515927611
 20
146.3338290104234
 30
0.0
 40
2.5
 50
0.0
 51
80.00000000000139
  0
LINE
  5
77FD
  8
0
 10
133.5218515927611
 20
145.0475018568683
 30
0.0
 11
133.5218515927611
 21
146.3338290104234
 31
0.0
  0
LINE
  5
77FE
  8
0
 10
124.1066370169915
 20
150.0917344472344
 30
0.0
 11
131.4559720369284
 21
148.795848392954
 31
0.0
  0
ARC
  5
77FF
  8
0
 10
32.14651149853904
 20
120.5475018568683
 30
0.0
 40
30.0
 50
90.0
 51
99.99999999999861
  0
ARC
  5
7800
  8
0
 10
20.02185159276115
 20
146.3338290104234
 30
0.0
 40
2.5
 50
99.99999999999861
 51
180.0
  0
LINE
  5
7801
  8
0
 10
26.9370661685312
 20
150.0917344472344
 30
0.0
 11
19.58773114859383
 21
148.7958483929539
 31
0.0
  0
LINE
  5
7802
  8
0
 10
17.52185159276092
 20
145.0475018568749
 30
0.0
 11
17.52185159276092
 21
146.33382901043
 31
0.0
  0
LINE
  5
7803
  8
0
 10
188.5218517156959
 20
290.0161306737741
 30
0.0
 11
184.5218518749521
 21
290.0161306737741
 31
0.0
  0
LINE
  5
7804
  8
0
 10
184.5218518749521
 20
290.0161306737741
 30
0.0
 11
184.5218518749521
 21
282.0161330877622
 31
0.0
  0
LINE
  5
7805
  8
0
 10
188.5218517156959
 20
290.0161306737741
 30
0.0
 11
188.5218517156959
 21
282.0161330877622
 31
0.0
  0
LINE
  5
7806
  8
0
 10
184.5218518749521
 20
282.0161330877622
 30
0.0
 11
184.5218518749521
 21
178.016130941995
 31
0.0
  0
LINE
  5
7807
  8
0
 10
188.5218517156959
 20
282.0161330877622
 30
0.0
 11
188.5218517156959
 21
178.016130941995
 31
0.0
  0
LINE
  5
7808
  8
0
 10
188.5218517156959
 20
170.0161333559831
 30
0.0
 11
184.5218518749521
 21
170.0161333559831
 31
0.0
  0
LINE
  5
7809
  8
0
 10
184.5218518749521
 20
178.016130941995
 30
0.0
 11
184.5218518749521
 21
170.0161333559831
 31
0.0
  0
LINE
  5
780A
  8
0
 10
188.5218517156959
 20
178.016130941995
 30
0.0
 11
188.5218517156959
 21
170.0161333559831
 31
0.0
  0
LINE
  5
780B
  8
0
 10
184.5218518749521
 20
171.1161333500227
 30
0.0
 11
184.0218519392138
 21
171.1161333500227
 31
0.0
  0
LINE
  5
780C
  8
0
 10
184.5218518749521
 20
288.9161306797346
 30
0.0
 11
184.0218519392138
 21
288.9161306797346
 31
0.0
  0
LINE
  5
780D
  8
0
 10
188.5218517156959
 20
290.0161320148785
 30
0.0
 11
188.5218517156959
 21
170.0161320148787
 31
0.0
  0
LINE
  5
780E
  8
0
 10
226.5218517156961
 20
290.6794244821509
 30
0.0
 11
226.5218517156958
 21
169.3528395476064
 31
0.0
  0
LINE
  5
780F
  8
0
 10
188.5218517156959
 20
170.0161320148787
 30
0.0
 11
226.5218517156958
 21
169.3528395476064
 31
0.0
  0
LINE
  5
7810
  8
0
 10
188.5218517156959
 20
290.0161320148785
 30
0.0
 11
226.5218517156961
 21
290.6794244821509
 31
0.0
  0
LINE
  5
7811
  8
0
 10
133.5218515927615
 20
140.5475020161273
 30
0.0
 11
134.1851440600335
 21
102.5475020161273
 31
0.0
  0
LINE
  5
7812
  8
0
 10
17.52185159276127
 20
140.5475020161273
 30
0.0
 11
16.85855912548885
 21
102.5475020161274
 31
0.0
  0
ARC
  5
7813
  8
0
 10
70.0218515927611
 20
106.5475020161273
 30
0.0
 40
4.0
 50
0.0
 51
90.0
  0
ARC
  5
7814
  8
0
 10
70.0218515927611
 20
106.5475020161273
 30
0.0
 40
3.0
 50
0.0
 51
180.0
  0
LINE
  5
7815
  8
0
 10
16.85855912548885
 20
102.5475020161274
 30
0.0
 11
134.1851440600335
 21
102.5475020161273
 31
0.0
  0
LINE
  5
7816
  8
0
 10
66.0218515927611
 20
102.5475020161273
 30
0.0
 11
66.0218515927611
 21
106.5475020161273
 31
0.0
  0
LINE
  5
7817
  8
0
 10
67.0218515927611
 20
102.5475020161273
 30
0.0
 11
67.0218515927611
 21
106.5475020161273
 31
0.0
  0
LINE
  5
7818
  8
0
 10
55.52185159276115
 20
102.5475020161273
 30
0.0
 11
55.52185159276115
 21
106.5475020161273
 31
0.0
  0
LINE
  5
7819
  8
0
 10
56.5218515927611
 20
102.5475020161273
 30
0.0
 11
56.5218515927611
 21
106.5475020161273
 31
0.0
  0
LINE
  5
781A
  8
0
 10
63.5218515927611
 20
106.5475020161273
 30
0.0
 11
63.5218515927611
 21
102.5475020161273
 31
0.0
  0
LINE
  5
781B
  8
0
 10
62.5218515927611
 20
106.5475020161273
 30
0.0
 11
62.5218515927611
 21
102.5475020161273
 31
0.0
  0
ARC
  5
781C
  8
0
 10
59.5218515927611
 20
106.5475020161273
 30
0.0
 40
4.0
 50
0.0
 51
48.59037789073133
  0
ARC
  5
781D
  8
0
 10
59.5218515927611
 20
106.5475020161273
 30
0.0
 40
3.0
 50
0.0
 51
180.0
  0
LINE
  5
781E
  8
0
 10
62.16760290382581
 20
109.5475020161273
 30
0.0
 11
67.37610028169661
 21
109.5475020161273
 31
0.0
  0
ARC
  5
781F
  8
0
 10
70.0218515927611
 20
106.5475020161273
 30
0.0
 40
4.0
 50
131.4096221092687
 51
180.0
  0
ARC
  5
7820
  8
0
 10
59.5218515927611
 20
106.5475020161273
 30
0.0
 40
4.0
 50
90.0
 51
180.0
  0
LINE
  5
7821
  8
0
 10
59.5218515927611
 20
110.5475020161273
 30
0.0
 11
70.0218515927611
 21
110.5475020161273
 31
0.0
  0
LINE
  5
7822
  8
0
 10
94.5218515927611
 20
106.5475020161273
 30
0.0
 11
94.5218515927611
 21
102.5475020161273
 31
0.0
  0
LINE
  5
7823
  8
0
 10
95.5218515927611
 20
106.5475020161273
 30
0.0
 11
95.5218515927611
 21
102.5475020161273
 31
0.0
  0
LINE
  5
7824
  8
0
 10
88.5218515927611
 20
102.5475020161273
 30
0.0
 11
88.5218515927611
 21
106.5475020161273
 31
0.0
  0
LINE
  5
7825
  8
0
 10
87.5218515927611
 20
102.5475020161273
 30
0.0
 11
87.5218515927611
 21
106.5475020161273
 31
0.0
  0
LINE
  5
7826
  8
0
 10
74.0218515927611
 20
106.5475020161273
 30
0.0
 11
74.0218515927611
 21
102.5475020161273
 31
0.0
  0
LINE
  5
7827
  8
0
 10
73.0218515927611
 20
106.5475020161273
 30
0.0
 11
73.0218515927611
 21
102.5475020161273
 31
0.0
  0
LINE
  5
7828
  8
0
 10
77.0218515927611
 20
102.5475020161273
 30
0.0
 11
77.0218515927611
 21
106.5475020161273
 31
0.0
  0
LINE
  5
7829
  8
0
 10
78.0218515927611
 20
102.5475020161273
 30
0.0
 11
78.0218515927611
 21
106.5475020161273
 31
0.0
  0
LINE
  5
782A
  8
0
 10
85.0218515927611
 20
106.5475020161273
 30
0.0
 11
85.0218515927611
 21
102.5475020161273
 31
0.0
  0
LINE
  5
782B
  8
0
 10
84.0218515927611
 20
106.5475020161273
 30
0.0
 11
84.0218515927611
 21
102.5475020161273
 31
0.0
  0
LINE
  5
782C
  8
0
 10
81.0218515927611
 20
110.5475020161273
 30
0.0
 11
91.5218515927611
 21
110.5475020161273
 31
0.0
  0
ARC
  5
782D
  8
0
 10
91.5218515927611
 20
106.5475020161273
 30
0.0
 40
4.0
 50
131.4096221092687
 51
180.0
  0
LINE
  5
782E
  8
0
 10
83.66760290382558
 20
109.5475020161273
 30
0.0
 11
88.87610028169661
 21
109.5475020161273
 31
0.0
  0
ARC
  5
782F
  8
0
 10
81.0218515927611
 20
106.5475020161273
 30
0.0
 40
4.0
 50
0.0
 51
48.59037789073133
  0
ARC
  5
7830
  8
0
 10
81.0218515927611
 20
106.5475020161273
 30
0.0
 40
3.0
 50
0.0
 51
180.0
  0
ARC
  5
7831
  8
0
 10
81.0218515927611
 20
106.5475020161273
 30
0.0
 40
4.0
 50
90.0
 51
180.0
  0
ARC
  5
7832
  8
0
 10
91.5218515927611
 20
106.5475020161273
 30
0.0
 40
3.0
 50
0.0
 51
180.0
  0
ARC
  5
7833
  8
0
 10
91.5218515927611
 20
106.5475020161273
 30
0.0
 40
4.0
 50
0.0
 51
90.0
  0
LINE
  5
7834
  8
0
 10
17.52185159276127
 20
140.5475020161273
 30
0.0
 11
133.5218515927615
 21
140.5475020161273
 31
0.0
  0
LINE
  5
7835
  8
7
 10
12.72785159276123
 20
229.8911326928804
 30
0.0
 11
138.3158515927612
 21
229.8911326928802
 31
0.0
1001
GENIUS_GENOBJ-N-CEN_13
1002
{
1000
OWNER
1000
GEN
1002
}
1001
GENIUS_GENODEF_13
1002
{
1000
HIER
1070
     0
1002
}
1002
{
1000
MANEDIT
1070
     0
1002
}
1002
{
1000
NOSEL
1070
     0
1002
}
1002
{
1000
BEHIND
1070
     0
1002
}
1002
{
1000
OTHER
1070
     0
1002
}
1002
{
1000
REACTOR
1002
}
1001
GENIUS_GENCEN_19
1002
{
1040
2.794
1002
}
  0
LINE
  5
7836
  8
7
 10
75.52185159276132
 20
294.6851326928805
 30
0.0
 11
75.52185159276132
 21
165.0971326928803
 31
0.0
1001
GENIUS_GENOBJ-N-CEN_13
1002
{
1000
OWNER
1000
GEN
1002
}
1001
GENIUS_GENODEF_13
1002
{
1000
HIER
1070
     0
1002
}
1002
{
1000
MANEDIT
1070
     0
1002
}
1002
{
1000
NOSEL
1070
     0
1002
}
1002
{
1000
BEHIND
1070
     0
1002
}
1002
{
1000
OTHER
1070
     0
1002
}
1002
{
1000
REACTOR
1002
}
1001
GENIUS_GENCEN_19
1002
{
1040
2.794
1002
}
  0
LINE
  5
7837
  8
7
 10
75.52185159276132
 20
153.3415018568683
 30
0.0
 11
75.52185159276132
 21
99.75350201612736
 31
0.0
1001
GENIUS_GENOBJ-N-CEN_13
1002
{
1000
OWNER
1000
GEN
1002
}
1001
GENIUS_GENODEF_13
1002
{
1000
HIER
1070
     0
1002
}
1002
{
1000
MANEDIT
1070
     0
1002
}
1002
{
1000
NOSEL
1070
     0
1002
}
1002
{
1000
BEHIND
1070
     0
1002
}
1002
{
1000
OTHER
1070
     0
1002
}
1002
{
1000
REACTOR
1002
}
1001
GENIUS_GENCEN_19
1002
{
1040
2.794
1002
}
  0
LINE
  5
7838
  8
7
 10
175.7278519392138
 20
229.89113269288
 30
0.0
 11
229.315851715696
 21
229.8911326928799
 31
0.0
1001
GENIUS_GENODEF_13
1002
{
1000
HIER
1070
     0
1002
}
1002
{
1000
MANEDIT
1070
     0
1002
}
1002
{
1000
NOSEL
1070
     0
1002
}
1002
{
1000
BEHIND
1070
     0
1002
}
1002
{
1000
OTHER
1070
     0
1002
}
1002
{
1000
REACTOR
1002
}
1001
GENIUS_GENOBJ-N-CEN_13
1002
{
1000
OWNER
1000
GEN
1002
}
1001
GENIUS_GENCEN_19
1002
{
1040
2.794
1002
}
  0
LINE
  5
9CD7
  8
0
 10
38.27185159276132
 20
264.9911326928803
 30
0.0
 11
112.7718515927613
 21
264.9911326928803
 31
0.0
  0
LINE
  5
9CD8
  8
0
 10
38.27185159276132
 20
194.7911326928803
 30
0.0
 11
112.7718515927613
 21
194.7911326928803
 31
0.0
  0
LINE
  5
9CD9
  8
0
 10
38.27185159276132
 20
264.9911326928803
 30
0.0
 11
38.27185159276132
 21
194.7911326928803
 31
0.0
  0
LINE
  5
9CDA
  8
0
 10
112.7718515927613
 20
264.9911326928803
 30
0.0
 11
112.7718515927613
 21
194.7911326928803
 31
0.0
  0
LINE
  5
9CDB
  8
0
 10
112.0218510563195
 20
195.3911335571477
 30
0.0
 11
112.0218510563195
 21
264.391131828613
 31
0.0
  0
LINE
  5
9CDC
  8
0
 10
39.02185212920313
 20
195.3911335571477
 30
0.0
 11
112.0218510563195
 21
195.3911335571477
 31
0.0
  0
LINE
  5
9CDD
  8
0
 10
39.02185212920313
 20
264.391131828613
 30
0.0
 11
39.02185212920313
 21
195.3911335571477
 31
0.0
  0
LINE
  5
9CDE
  8
0
 10
112.0218510563195
 20
264.391131828613
 30
0.0
 11
39.02185212920313
 21
264.391131828613
 31
0.0
  0
LINE
  5
9CDF
  8
0
 10
40.52185144374971
 20
196.8911328716943
 30
0.0
 11
110.5218517417729
 21
196.8911328716943
 31
0.0
  0
LINE
  5
9CE0
  8
0
 10
110.5218517417729
 20
196.8911328716943
 30
0.0
 11
110.5218517417729
 21
262.8911325140664
 31
0.0
  0
LINE
  5
9CE1
  8
0
 10
110.5218517417729
 20
262.8911325140664
 30
0.0
 11
65.52185181627874
 21
262.8911325140664
 31
0.0
  0
LINE
  5
9CE2
  8
0
 10
40.52185144374971
 20
250.8911324097583
 30
0.0
 11
65.52185181627874
 21
250.8911324097583
 31
0.0
  0
LINE
  5
9CE3
  8
0
 10
40.52185144374971
 20
250.8911324097583
 30
0.0
 11
40.52185144374971
 21
196.8911328716943
 31
0.0
  0
LINE
  5
9CE4
  8
0
 10
47.32185106824045
 20
253.1911322279641
 30
0.0
 11
57.32185084472303
 21
253.1911322279641
 31
0.0
  0
LINE
  5
9CE5
  8
0
 10
57.32185084472303
 20
253.1911322279641
 30
0.0
 11
57.32185084472303
 21
261.1911335392663
 31
0.0
  0
LINE
  5
9CE6
  8
0
 10
57.32185084472303
 20
261.1911335392663
 30
0.0
 11
47.32185106824045
 21
261.1911335392663
 31
0.0
  0
LINE
  5
9CE7
  8
0
 10
47.32185106824045
 20
261.1911335392663
 30
0.0
 11
47.32185106824045
 21
253.1911322279641
 31
0.0
  0
LINE
  5
9CE8
  8
0
 10
65.52185181627874
 20
250.8911324097583
 30
0.0
 11
65.52185181627874
 21
262.8911325140664
 31
0.0
  0
LINE
  5
9CE9
  8
0
 10
112.5218520695985
 20
194.8911325438687
 30
0.0
 11
112.5218520695985
 21
264.8911328418919
 31
0.0
  0
LINE
  5
9CEA
  8
0
 10
38.52185111592416
 20
194.8911325438687
 30
0.0
 11
112.5218520695985
 21
194.8911325438687
 31
0.0
  0
LINE
  5
9CEB
  8
0
 10
38.52185111592416
 20
264.8911328418919
 30
0.0
 11
38.52185111592416
 21
194.8911325438687
 31
0.0
  0
LINE
  5
9CEC
  8
0
 10
112.5218520695985
 20
264.8911328418919
 30
0.0
 11
38.52185111592416
 21
264.8911328418919
 31
0.0
  0
ARC
  5
9CED
  8
0
 10
48.72185095648172
 20
259.6911322279641
 30
0.0
 40
1.0
 50
90.0
 51
180.0
  0
ARC
  5
9CEE
  8
0
 10
53.72185095648172
 20
259.6911322279641
 30
0.0
 40
1.0
 50
0.0
 51
90.0
  0
LINE
  5
9CEF
  8
0
 10
48.72185095648172
 20
260.6911322279641
 30
0.0
 11
53.72185095648172
 21
260.6911322279641
 31
0.0
  0
LINE
  5
9CF0
  8
0
 10
53.72185095648172
 20
253.6911322279642
 30
0.0
 11
48.72185095648172
 21
253.6911322279641
 31
0.0
  0
ARC
  5
9CF1
  8
0
 10
48.72185095648172
 20
254.6911322279641
 30
0.0
 40
1.0
 50
180.0
 51
270.0
  0
ARC
  5
9CF2
  8
0
 10
53.72185095648172
 20
254.6911322279642
 30
0.0
 40
1.0
 50
270.0
 51
0.0
  0
LINE
  5
9CF3
  8
0
 10
52.72185095648172
 20
253.6911322279642
 30
0.0
 11
52.72185095648172
 21
260.6911322279641
 31
0.0
  0
LINE
  5
9CF4
  8
0
 10
51.72185095648172
 20
253.6911322279641
 30
0.0
 11
51.72185095648172
 21
260.6911322279641
 31
0.0
  0
LINE
  5
9CF5
  8
0
 10
50.72185095648172
 20
253.691132227964
 30
0.0
 11
50.72185095648172
 21
260.6911322279641
 31
0.0
  0
LINE
  5
9CF6
  8
0
 10
49.72185095648172
 20
253.691132227964
 30
0.0
 11
49.72185095648172
 21
260.6911322279641
 31
0.0
  0
LINE
  5
9CF7
  8
0
 10
47.72185095648172
 20
254.6911322279641
 30
0.0
 11
47.72185095648172
 21
259.6911322279641
 31
0.0
  0
LINE
  5
9CF8
  8
0
 10
54.72185095648172
 20
259.6911322279641
 30
0.0
 11
54.72185095648172
 21
254.6911322279642
 31
0.0
  0
LINE
  5
9CF9
  8
0
 10
65.77185181627874
 20
262.6411326928804
 30
0.0
 11
110.2718515927613
 21
262.6411326928803
 31
0.0
  0
LINE
  5
9CFA
  8
0
 10
110.2718515927613
 20
262.6411326928803
 30
0.0
 11
110.2718515927613
 21
197.1411326928803
 31
0.0
  0
LINE
  5
9CFB
  8
0
 10
40.77185159276132
 20
197.1411326928805
 30
0.0
 11
40.77185159276132
 21
250.6411324097583
 31
0.0
  0
LINE
  5
9CFC
  8
0
 10
110.2718515927613
 20
197.1411326928803
 30
0.0
 11
40.77185159276132
 21
197.1411326928805
 31
0.0
  0
LINE
  5
9CFD
  8
0
  6
CONTINUOUS
 10
65.77185181627874
 20
250.6411324097583
 30
0.0
 11
65.77185181627874
 21
262.6411326928804
 31
0.0
  0
LINE
  5
9CFE
  8
0
  6
CONTINUOUS
 10
40.77185159276132
 20
250.6411324097583
 30
0.0
 11
65.77185181627874
 21
250.6411324097583
 31
0.0
  0
INSERT
  5
9CFF
  8
0
 62
     7
  2
*X9
 10
0.0
 20
0.0
 30
0.0
  0
TEXT
  5
9D00
  8
0
 62
     7
 10
69.34772238233546
 20
212.9769706644328
 30
0.0
 40
1.9
  1
給水
  0
TEXT
  5
9D01
  8
0
 62
     7
 10
89.34300187105451
 20
207.971528487562
 30
0.0
 40
4.0
  1
PUSH
 41
1.2
  0
TEXT
  5
9D02
  8
0
 62
     7
 10
49.75042238505317
 20
246.2980281783475
 30
0.0
 40
2.0
  1
電源
  0
LINE
  5
9D04
  8
0
 10
41.77185159276132
 20
217.1012408001856
 30
0.0
 11
41.77185159276132
 21
219.6387408001862
 31
0.0
  0
LINE
  5
9D05
  8
0
 10
43.87435159276129
 20
217.1012408001856
 30
0.0
 11
43.87435159276129
 21
219.6387408001862
 31
0.0
  0
LINE
  5
9D06
  8
0
 10
44.09185159276149
 20
217.1012408001856
 30
0.0
 11
44.09185159276149
 21
219.6387408001862
 31
0.0
  0
LINE
  5
9D07
  8
0
 10
41.77185159276132
 20
217.1012408001856
 30
0.0
 11
42.56935159276145
 21
217.1012408001856
 31
0.0
  0
LINE
  5
9D08
  8
0
 10
41.77185159276132
 20
219.6387408001862
 30
0.0
 11
42.56935159276145
 21
219.6387408001862
 31
0.0
  0
LINE
  5
9D09
  8
0
 10
42.56935159276145
 20
219.6387408001862
 30
0.0
 11
42.56935159276145
 21
218.7687408001861
 31
0.0
  0
LINE
  5
9D0A
  8
0
 10
43.07685159276116
 20
219.6387408001862
 30
0.0
 11
43.07685159276116
 21
218.7687408001861
 31
0.0
  0
LINE
  5
9D0B
  8
0
 10
42.56935159276145
 20
217.1012408001856
 30
0.0
 11
42.56935159276145
 21
217.9712408001855
 31
0.0
  0
LINE
  5
9D0C
  8
0
 10
43.07685159276116
 20
217.1012408001856
 30
0.0
 11
43.07685159276116
 21
217.9712408001855
 31
0.0
  0
LINE
  5
9D0D
  8
0
 10
43.07685159276116
 20
219.6387408001862
 30
0.0
 11
43.87435159276129
 21
219.6387408001862
 31
0.0
  0
LINE
  5
9D0E
  8
0
 10
43.07685159276116
 20
217.1012408001856
 30
0.0
 11
43.87435159276129
 21
217.1012408001856
 31
0.0
  0
LINE
  5
9D0F
  8
0
 10
42.56935159276145
 20
218.7687408001861
 30
0.0
 11
43.07685159276116
 21
218.7687408001861
 31
0.0
  0
LINE
  5
9D10
  8
0
 10
42.56935159276145
 20
217.9712408001855
 30
0.0
 11
43.07685159276116
 21
217.9712408001855
 31
0.0
  0
LINE
  5
9D11
  8
0
 10
44.88935159276116
 20
217.1012408001856
 30
0.0
 11
44.88935159276116
 21
219.6387408001862
 31
0.0
  0
LINE
  5
9D12
  8
0
 10
45.10685159276136
 20
217.1012408001856
 30
0.0
 11
45.10685159276136
 21
219.6387408001862
 31
0.0
  0
LINE
  5
9D13
  8
0
 10
44.09185159276149
 20
219.6387408001862
 30
0.0
 11
44.88935159276116
 21
219.6387408001862
 31
0.0
  0
LINE
  5
9D14
  8
0
 10
44.09185159276149
 20
217.1012408001856
 30
0.0
 11
44.88935159276116
 21
217.1012408001856
 31
0.0
  0
LINE
  5
9D15
  8
0
 10
47.20935159276132
 20
217.1012408001856
 30
0.0
 11
47.20935159276132
 21
217.6812408001855
 31
0.0
  0
LINE
  5
9D16
  8
0
 10
47.20935159276132
 20
219.0587408001863
 30
0.0
 11
47.20935159276132
 21
219.6387408001862
 31
0.0
  0
LINE
  5
9D17
  8
0
 10
45.10685159276136
 20
217.1012408001856
 30
0.0
 11
45.90435159276149
 21
217.1012408001856
 31
0.0
  0
LINE
  5
9D18
  8
0
 10
45.10685159276136
 20
219.6387408001862
 30
0.0
 11
45.90435159276149
 21
219.6387408001862
 31
0.0
  0
LINE
  5
9D19
  8
0
 10
45.90435159276149
 20
219.6387408001862
 30
0.0
 11
45.90435159276149
 21
218.7687408001861
 31
0.0
  0
LINE
  5
9D1A
  8
0
 10
46.4118515927612
 20
219.6387408001862
 30
0.0
 11
46.4118515927612
 21
219.0587408001863
 31
0.0
  0
LINE
  5
9D1B
  8
0
 10
45.90435159276149
 20
217.1012408001856
 30
0.0
 11
45.90435159276149
 21
217.9712408001855
 31
0.0
  0
LINE
  5
9D1C
  8
0
 10
46.4118515927612
 20
217.1012408001856
 30
0.0
 11
46.4118515927612
 21
217.6812408001855
 31
0.0
  0
ARC
  5
9D1D
  8
0
 10
46.12185159276123
 20
217.6812408001855
 30
0.0
 40
0.29
 50
0.0
 51
90.0
  0
ARC
  5
9D1E
  8
0
 10
46.12185159276123
 20
217.6812408001855
 30
0.0
 40
1.0875
 50
0.0
 51
39.29648023918966
  0
LINE
  5
9D1F
  8
0
 10
46.4118515927612
 20
219.6387408001862
 30
0.0
 11
47.20935159276132
 21
219.6387408001862
 31
0.0
  0
LINE
  5
9D20
  8
0
 10
46.4118515927612
 20
217.1012408001856
 30
0.0
 11
47.20935159276132
 21
217.1012408001856
 31
0.0
  0
LINE
  5
9D21
  8
0
 10
45.90435159276149
 20
218.7687408001861
 30
0.0
 11
46.12185159276123
 21
218.7687408001861
 31
0.0
  0
ARC
  5
9D22
  8
0
 10
46.12185159276123
 20
219.0587408001863
 30
0.0
 40
0.29
 50
270.0
 51
0.0
  0
ARC
  5
9D23
  8
0
 10
46.12185159276123
 20
219.0587408001863
 30
0.0
 40
1.0875
 50
320.7035197608187
 51
0.0
  0
LINE
  5
9D24
  8
0
 10
45.90435159276149
 20
217.9712408001855
 30
0.0
 11
46.12185159276123
 21
217.9712408001855
 31
0.0
  0
LINE
  5
9D25
  8
0
 10
47.42685159276152
 20
217.1012408001856
 30
0.0
 11
47.42685159276152
 21
218.5874908001855
 31
0.0
  0
LINE
  5
9D26
  8
0
 10
49.52935159276149
 20
217.1012408001856
 30
0.0
 11
49.52935159276149
 21
218.5874908001855
 31
0.0
  0
LINE
  5
9D27
  8
0
 10
47.42685159276152
 20
217.1012408001856
 30
0.0
 11
48.2243515927612
 21
217.1012408001856
 31
0.0
  0
LINE
  5
9D28
  8
0
 10
48.2243515927612
 20
217.1012408001856
 30
0.0
 11
48.2243515927612
 21
217.6087408001853
 31
0.0
  0
LINE
  5
9D29
  8
0
 10
48.73185159276136
 20
217.1012408001856
 30
0.0
 11
48.73185159276136
 21
217.6087408001853
 31
0.0
  0
LINE
  5
9D2A
  8
0
 10
48.73185159276136
 20
217.1012408001856
 30
0.0
 11
49.52935159276149
 21
217.1012408001856
 31
0.0
  0
LINE
  5
9D2B
  8
0
 10
48.2243515927612
 20
217.6087408001853
 30
0.0
 11
48.73185159276136
 21
217.6087408001853
 31
0.0
  0
LINE
  5
9D2C
  8
0
 10
48.2243515927612
 20
218.3337408001857
 30
0.0
 11
48.73185159276136
 21
218.3337408001857
 31
0.0
  0
ARC
  5
9D2D
  8
0
 10
48.4781015927615
 20
218.5874908001855
 30
0.0
 40
1.05125
 50
0.0
 51
180.0
  0
ARC
  5
9D2E
  8
0
 10
48.4781015927615
 20
218.5874908001855
 30
0.0
 40
0.25375
 50
0.0
 51
180.0
  0
LINE
  5
9D2F
  8
0
 10
48.2243515927612
 20
218.3337408001857
 30
0.0
 11
48.2243515927612
 21
218.5874908001855
 31
0.0
  0
LINE
  5
9D30
  8
0
 10
48.73185159276136
 20
218.5874908001855
 30
0.0
 11
48.73185159276136
 21
218.3337408001857
 31
0.0
  0
LINE
  5
9D31
  8
0
 10
49.74685159276123
 20
217.1012408001856
 30
0.0
 11
49.74685159276123
 21
219.6387408001862
 31
0.0
  0
LINE
  5
9D32
  8
0
 10
51.8493515927612
 20
217.1012408001856
 30
0.0
 11
51.8493515927612
 21
217.6812408001855
 31
0.0
  0
LINE
  5
9D33
  8
0
 10
49.74685159276123
 20
217.1012408001856
 30
0.0
 11
50.54435159276136
 21
217.1012408001856
 31
0.0
  0
LINE
  5
9D34
  8
0
 10
50.68935159276134
 20
217.8987408001857
 30
0.0
 11
50.83435159276132
 21
217.8987408001857
 31
0.0
  0
LINE
  5
9D35
  8
0
 10
50.68935159276134
 20
218.4787408001861
 30
0.0
 11
50.83435159276132
 21
218.4787408001861
 31
0.0
  0
LINE
  5
9D36
  8
0
 10
50.54435159276136
 20
217.1012408001856
 30
0.0
 11
50.54435159276136
 21
218.9137408001858
 31
0.0
  0
LINE
  5
9D37
  8
0
 10
51.05185159276152
 20
217.1012408001856
 30
0.0
 11
51.05185159276152
 21
217.6812408001855
 31
0.0
  0
ARC
  5
9D38
  8
0
 10
50.83435159276132
 20
217.6812408001855
 30
0.0
 40
0.2175
 50
0.0
 51
90.0
  0
ARC
  5
9D39
  8
0
 10
50.83435159276132
 20
217.6812408001855
 30
0.0
 40
1.015
 50
0.0
 51
30.66296328368307
  0
LINE
  5
9D3A
  8
0
 10
49.74685159276123
 20
219.6387408001862
 30
0.0
 11
50.90685159276109
 21
219.6387408001862
 31
0.0
  0
LINE
  5
9D3B
  8
0
 10
50.54435159276136
 20
218.9137408001858
 30
0.0
 11
50.83435159276132
 21
218.9137408001858
 31
0.0
  0
LINE
  5
9D3C
  8
0
 10
51.05185159276152
 20
217.1012408001856
 30
0.0
 11
51.8493515927612
 21
217.1012408001856
 31
0.0
  0
ARC
  5
9D3D
  8
0
 10
50.83435159276132
 20
218.6962408001858
 30
0.0
 40
0.2175
 50
270.0
 51
90.0
  0
ARC
  5
9D3E
  8
0
 10
50.90685159276109
 20
218.6962408001858
 30
0.0
 40
0.9425
 50
328.1493895340805
 51
90.0
  0
LINE
  5
9D3F
  8
0
 10
50.68935159276134
 20
218.4787408001861
 30
0.0
 11
50.68935159276134
 21
217.8987408001857
 31
0.0
  0
LINE
  5
9D40
  8
0
 10
52.0668515927614
 20
217.1012408001856
 30
0.0
 11
52.0668515927614
 21
219.6387408001862
 31
0.0
  0
LINE
  5
9D41
  8
0
 10
52.86435159276152
 20
217.1012408001856
 30
0.0
 11
52.86435159276152
 21
219.6387408001862
 31
0.0
  0
LINE
  5
9D42
  8
0
 10
55.76435159276116
 20
217.1374908001857
 30
0.0
 11
55.76435159276116
 21
218.5874908001855
 31
0.0
  0
LINE
  5
9D43
  8
0
 10
52.0668515927614
 20
219.6387408001862
 30
0.0
 11
52.86435159276152
 21
219.6387408001862
 31
0.0
  0
LINE
  5
9D44
  8
0
 10
52.0668515927614
 20
217.1012408001856
 30
0.0
 11
52.86435159276152
 21
217.1012408001856
 31
0.0
  0
ARC
  5
9D45
  8
0
 10
55.03935159276125
 20
218.3699908001858
 30
0.0
 40
1.305
 50
84.27518954777628
 51
281.4211862750073
  0
ARC
  5
9D46
  8
0
 10
55.03935159276125
 20
218.3699908001858
 30
0.0
 40
0.5075000000000001
 50
84.27518954777645
 51
270.0
  0
CIRCLE
  5
9D47
  8
0
 10
57.2868515927612
 20
218.3699908001858
 30
0.0
 40
1.305
  0
CIRCLE
  5
9D48
  8
0
 10
57.2868515927612
 20
218.3699908001858
 30
0.0
 40
0.5075000000000001
  0
LINE
  5
9D49
  8
0
 10
55.03935159276125
 20
217.8624908001861
 30
0.0
 11
55.03935159276125
 21
218.5874908001855
 31
0.0
  0
LINE
  5
9D4A
  8
0
 10
55.03935159276125
 20
218.5874908001855
 30
0.0
 11
55.76435159276116
 21
218.5874908001855
 31
0.0
  0
LINE
  5
9D4B
  8
0
 10
55.29776743434559
 20
217.0908323843445
 30
0.0
 11
55.76435159276116
 21
217.1374908001857
 31
0.0
  0
LINE
  5
9D4C
  8
0
 10
55.16952615635228
 20
219.6684820720062
 30
0.0
 11
55.76435159276116
 21
219.6387408001862
 31
0.0
  0
LINE
  5
9D4D
  8
0
 10
55.76435159276116
 20
219.6387408001862
 30
0.0
 11
55.76435159276116
 21
218.8412408001856
 31
0.0
  0
LINE
  5
9D4E
  8
0
 10
55.76435159276116
 20
218.8412408001856
 30
0.0
 11
55.08997503415776
 21
218.8749596281165
 31
0.0
  0
LINE
  5
9D4F
  8
0
 10
58.80935159276123
 20
217.1012408001856
 30
0.0
 11
58.80935159276123
 21
219.6387408001862
 31
0.0
  0
LINE
  5
9D50
  8
0
 10
60.9118515927612
 20
217.1012408001856
 30
0.0
 11
60.9118515927612
 21
217.6812408001855
 31
0.0
  0
LINE
  5
9D51
  8
0
 10
60.9118515927612
 20
219.0587408001863
 30
0.0
 11
60.9118515927612
 21
219.6387408001862
 31
0.0
  0
LINE
  5
9D52
  8
0
 10
58.80935159276123
 20
217.1012408001856
 30
0.0
 11
59.60685159276136
 21
217.1012408001856
 31
0.0
  0
LINE
  5
9D53
  8
0
 10
58.80935159276123
 20
219.6387408001862
 30
0.0
 11
59.60685159276136
 21
219.6387408001862
 31
0.0
  0
LINE
  5
9D54
  8
0
 10
59.60685159276136
 20
219.6387408001862
 30
0.0
 11
59.60685159276136
 21
218.7687408001861
 31
0.0
  0
LINE
  5
9D55
  8
0
 10
60.11435159276152
 20
219.6387408001862
 30
0.0
 11
60.11435159276152
 21
219.0587408001863
 31
0.0
  0
LINE
  5
9D56
  8
0
 10
59.60685159276136
 20
217.1012408001856
 30
0.0
 11
59.60685159276136
 21
217.9712408001855
 31
0.0
  0
LINE
  5
9D57
  8
0
 10
60.11435159276152
 20
217.1012408001856
 30
0.0
 11
60.11435159276152
 21
217.6812408001855
 31
0.0
  0
ARC
  5
9D58
  8
0
 10
59.8243515927611
 20
217.6812408001855
 30
0.0
 40
0.29
 50
0.0
 51
90.0
  0
ARC
  5
9D59
  8
0
 10
59.8243515927611
 20
217.6812408001855
 30
0.0
 40
1.0875
 50
0.0
 51
39.29648023918966
  0
LINE
  5
9D5A
  8
0
 10
60.11435159276152
 20
219.6387408001862
 30
0.0
 11
60.9118515927612
 21
219.6387408001862
 31
0.0
  0
LINE
  5
9D5B
  8
0
 10
60.11435159276152
 20
217.1012408001856
 30
0.0
 11
60.9118515927612
 21
217.1012408001856
 31
0.0
  0
LINE
  5
9D5C
  8
0
 10
59.60685159276136
 20
218.7687408001861
 30
0.0
 11
59.8243515927611
 21
218.7687408001861
 31
0.0
  0
ARC
  5
9D5D
  8
0
 10
59.8243515927611
 20
219.0587408001863
 30
0.0
 40
0.29
 50
270.0
 51
0.0
  0
ARC
  5
9D5E
  8
0
 10
59.8243515927611
 20
219.0587408001863
 30
0.0
 40
1.0875
 50
320.7035197608187
 51
0.0
  0
LINE
  5
9D5F
  8
0
 10
59.60685159276136
 20
217.9712408001855
 30
0.0
 11
59.8243515927611
 21
217.9712408001855
 31
0.0
  0
LINE
  5
9D60
  8
0
 10
61.1293515927614
 20
217.1012408001856
 30
0.0
 11
61.1293515927614
 21
219.6387408001862
 31
0.0
  0
LINE
  5
9D61
  8
0
 10
61.92685159276152
 20
217.1012408001856
 30
0.0
 11
61.92685159276152
 21
219.6387408001862
 31
0.0
  0
LINE
  5
9D62
  8
0
 10
61.1293515927614
 20
219.6387408001862
 30
0.0
 11
61.92685159276152
 21
219.6387408001862
 31
0.0
  0
LINE
  5
9D63
  8
0
 10
61.1293515927614
 20
217.1012408001856
 30
0.0
 11
61.92685159276152
 21
217.1012408001856
 31
0.0
  0
LINE
  5
9D64
  8
0
 10
62.14435159276127
 20
217.1012408001856
 30
0.0
 11
62.14435159276127
 21
218.5874908001855
 31
0.0
  0
LINE
  5
9D65
  8
0
 10
64.24685159276123
 20
217.1012408001856
 30
0.0
 11
64.24685159276123
 21
218.5874908001855
 31
0.0
  0
LINE
  5
9D66
  8
0
 10
62.14435159276127
 20
217.1012408001856
 30
0.0
 11
62.9418515927614
 21
217.1012408001856
 31
0.0
  0
LINE
  5
9D67
  8
0
 10
62.9418515927614
 20
217.1012408001856
 30
0.0
 11
62.9418515927614
 21
218.5874908001855
 31
0.0
  0
LINE
  5
9D68
  8
0
 10
63.4493515927611
 20
217.1012408001856
 30
0.0
 11
63.4493515927611
 21
218.5874908001855
 31
0.0
  0
LINE
  5
9D69
  8
0
 10
63.4493515927611
 20
217.1012408001856
 30
0.0
 11
64.24685159276123
 21
217.1012408001856
 31
0.0
  0
ARC
  5
9D6A
  8
0
 10
63.19560159276125
 20
218.5874908001855
 30
0.0
 40
1.05125
 50
0.0
 51
180.0
  0
ARC
  5
9D6B
  8
0
 10
63.19560159276125
 20
218.5874908001855
 30
0.0
 40
0.25375
 50
0.0
 51
180.0
  0
CIRCLE
  5
9D6C
  8
0
 10
95.52185159276138
 20
209.8911326928805
 30
0.0
 40
8.25
  0
LINE
  5
9D6D
  8
0
 10
68.27185159276092
 20
203.8911326928799
 30
0.0
 11
68.27185159276092
 21
215.8911326928803
 31
0.0
  0
ARC
  5
9D6E
  8
0
 10
70.27185159276092
 20
203.8911326928799
 30
0.0
 40
2.0
 50
180.0
 51
270.0
1001
GENIUS_GENOBJ-N-FIL_13
1002
{
1000
OWNER
1000
GEN
1002
}
1001
GENIUS_GENODEF_13
1002
{
1000
HIER
1070
     0
1002
}
1002
{
1000
MANEDIT
1070
     0
1002
}
1002
{
1000
NOSEL
1070
     0
1002
}
1002
{
1000
BEHIND
1070
     0
1002
}
1002
{
1000
OTHER
1070
     0
1002
}
1002
{
1000
REACTOR
1002
}
  0
LINE
  5
9D6F
  8
0
 10
86.27185159276002
 20
203.8911326928799
 30
0.0
 11
86.27185159276002
 21
215.8911326928794
 31
0.0
  0
ARC
  5
9D70
  8
0
 10
84.27185159276002
 20
215.8911326928794
 30
0.0
 40
2.0
 50
0.0
 51
90.0
1001
GENIUS_GENODEF_13
1002
{
1000
HIER
1070
     0
1002
}
1002
{
1000
MANEDIT
1070
     0
1002
}
1002
{
1000
NOSEL
1070
     0
1002
}
1002
{
1000
BEHIND
1070
     0
1002
}
1002
{
1000
OTHER
1070
     0
1002
}
1002
{
1000
REACTOR
1002
}
1001
GENIUS_GENOBJ-N-FIL_13
1002
{
1000
OWNER
1000
GEN
1002
}
  0
LINE
  5
9D71
  8
0
 10
86.27185159276002
 20
209.3911326928799
 30
0.0
 11
86.249631334247
 21
209.3911326928799
 31
0.0
  0
LINE
  5
9D72
  8
0
 10
84.82185159276042
 20
209.5411326928798
 30
0.0
 11
69.72185159276052
 21
209.5411326928798
 31
0.0
  0
LINE
  5
9D73
  8
0
 10
86.27185159276002
 20
210.3911326928799
 30
0.0
 11
86.249631334247
 21
210.3911326928799
 31
0.0
  0
LINE
  5
9D74
  8
0
 10
84.82185159276042
 20
210.2411326928798
 30
0.0
 11
69.72185159276052
 21
210.2411326928798
 31
0.0
  0
CIRCLE
  5
9D75
  8
0
 10
77.47346513217605
 20
213.8911326928803
 30
0.0
 40
2.0
  0
LINE
  5
9D76
  8
0
 10
84.27185159276002
 20
217.8911326928794
 30
0.0
 11
70.27185159276092
 21
217.8911326928803
 31
0.0
  0
ARC
  5
9D77
  8
0
 10
70.27185159276092
 20
215.8911326928803
 30
0.0
 40
2.0
 50
90.0
 51
180.0
1001
GENIUS_GENOBJ-N-FIL_13
1002
{
1000
OWNER
1000
GEN
1002
}
1001
GENIUS_GENODEF_13
1002
{
1000
HIER
1070
     0
1002
}
1002
{
1000
MANEDIT
1070
     0
1002
}
1002
{
1000
NOSEL
1070
     0
1002
}
1002
{
1000
BEHIND
1070
     0
1002
}
1002
{
1000
OTHER
1070
     0
1002
}
1002
{
1000
REACTOR
1002
}
  0
LINE
  5
9D78
  8
0
 10
84.27185159276002
 20
201.8911326928799
 30
0.0
 11
70.27185159276092
 21
201.8911326928799
 31
0.0
  0
ARC
  5
9D79
  8
0
 10
84.27185159276002
 20
203.8911326928799
 30
0.0
 40
2.0
 50
270.0
 51
0.0
1001
GENIUS_GENODEF_13
1002
{
1000
HIER
1070
     0
1002
}
1002
{
1000
MANEDIT
1070
     0
1002
}
1002
{
1000
NOSEL
1070
     0
1002
}
1002
{
1000
BEHIND
1070
     0
1002
}
1002
{
1000
OTHER
1070
     0
1002
}
1002
{
1000
REACTOR
1002
}
1001
GENIUS_GENOBJ-N-FIL_13
1002
{
1000
OWNER
1000
GEN
1002
}
  0
TEXT
  5
9D7A
  8
0
 10
41.65051578571123
 20
220.3458351956485
 30
0.0
 40
1.8
  1
電動水抜操作盤 EV3R
  0
CIRCLE
  5
9DAB
  8
0
 10
65.82231355532326
 20
224.3742972181609
 30
0.0
 40
1.125
  0
TEXT
  5
9DAC
  8
0
 10
65.10231355532326
 20
223.6062972181609
 30
0.0
 40
1.44
  1
Ｒ
 72
     4
 11
65.82231355532326
 21
224.3742972181609
 31
0.0
  0
LINE
  5
9DB5
  8
0
 10
55.82185095648174
 20
248.2411326928806
 30
0.0
 11
55.82185095648174
 21
246.2411326928806
 31
0.0
  0
LINE
  5
9DB6
  8
0
 10
48.82185095648174
 20
248.2411326928806
 30
0.0
 11
48.82185095648174
 21
246.2411326928806
 31
0.0
  0
ARC
  5
9DB7
  8
0
 10
49.82185095648174
 20
248.2411326928806
 30
0.0
 40
1.0
 50
90.0
 51
180.0
  0
ARC
  5
9DB8
  8
0
 10
49.82185095648174
 20
246.2411326928806
 30
0.0
 40
1.0
 50
180.0
 51
270.0
  0
ARC
  5
9DB9
  8
0
 10
54.82185095648174
 20
246.2411326928806
 30
0.0
 40
1.0
 50
270.0
 51
0.0
  0
ARC
  5
9DBA
  8
0
 10
54.82185095648174
 20
248.2411326928806
 30
0.0
 40
1.0
 50
0.0
 51
90.0
  0
LINE
  5
9DBB
  8
0
 10
49.82185095648174
 20
249.2411326928806
 30
0.0
 11
54.82185095648174
 21
249.2411326928806
 31
0.0
  0
LINE
  5
9DBC
  8
0
 10
49.82185095648174
 20
245.2411326928806
 30
0.0
 11
54.82185095648174
 21
245.2411326928806
 31
0.0
  0
TEXT
  5
9DBD
  8
0
 10
42.16043779936887
 20
246.2788568734619
 30
0.0
 40
2.0
  1
OFF
 41
1.5
  0
TEXT
  5
9DBE
  8
0
 10
57.20728694906059
 20
246.2788568734619
 30
0.0
 40
2.0
  1
ON
 41
1.5
  0
ARC
  5
9DBF
  8
0
 10
69.72185159276052
 20
209.8911326928799
 30
0.0
 40
0.3500000000000227
 50
90.0
 51
270.0
  0
ARC
  5
9DC0
  8
0
 10
84.82185159276042
 20
209.8911326928799
 30
0.0
 40
0.3500000000000227
 50
270.0
 51
90.0
  0
LINE
  5
9DC1
  8
0
 10
56.52185159276132
 20
212.8911326928805
 30
0.0
 11
64.52185159276132
 21
212.8911326928805
 31
0.0
  0
ARC
  5
9DC2
  8
0
 10
64.52185159276132
 20
210.8911326928805
 30
0.0
 40
2.0
 50
0.0
 51
90.0
  0
ARC
  5
9DC3
  8
0
 10
56.52185159276132
 20
210.8911326928805
 30
0.0
 40
2.0
 50
90.0
 51
180.0
  0
ARC
  5
9DC4
  8
0
 10
64.52185159276132
 20
203.89113269288
 30
0.0
 40
2.0
 50
270.0
 51
0.0
  0
LINE
  5
9DC5
  8
0
 10
66.52185159276132
 20
203.89113269288
 30
0.0
 11
66.52185159276132
 21
210.8911326928805
 31
0.0
  0
LINE
  5
9DC6
  8
0
 10
56.52185159276132
 20
201.89113269288
 30
0.0
 11
64.52185159276132
 21
201.89113269288
 31
0.0
  0
ARC
  5
9DC7
  8
0
 10
56.52185159276132
 20
203.89113269288
 30
0.0
 40
2.0
 50
180.0
 51
270.0
  0
LINE
  5
9DC8
  8
0
 10
54.52185159276132
 20
203.89113269288
 30
0.0
 11
54.52185159276132
 21
210.8911326928805
 31
0.0
  0
TEXT
  5
9DC9
  8
0
 10
55.65608586510838
 20
203.1068520865666
 30
0.0
 40
1.9
  1
点検
  0
ARC
  5
9DCA
  8
0
 10
64.27348778648945
 20
204.458448458303
 30
0.0
 40
0.9999999999999992
 50
233.0491207032591
 51
57.32628399712605
  0
LINE
  5
9DCB
  8
0
 10
63.67235766901888
 20
203.6592972949618
 30
0.0
 11
58.96522345740431
 21
207.2000543774447
 31
0.0
  0
LINE
  5
9DCC
  8
0
 10
59.85524330804907
 20
208.4800388069135
 30
0.0
 11
64.81334201355162
 21
205.3002069827764
 31
0.0
  0
ARC
  5
9DCD
  8
0
 10
57.40559221385206
 20
209.2339466995874
 30
0.0
 40
1.99079584716086
 50
1.683229077250413
 51
160.7903378653517
  0
ARC
  5
9DCE
  8
0
 10
60.39509753511163
 20
209.3217973313867
 30
0.0
 40
0.9999999999999992
 50
181.6832290772424
 51
237.3262839971283
1001
GENIUS_GENODEF_13
1002
{
1000
HIER
1070
     0
1002
}
1002
{
1000
MANEDIT
1070
     0
1002
}
1002
{
1000
NOSEL
1070
     0
1002
}
1002
{
1000
BEHIND
1070
     0
1002
}
1002
{
1000
OTHER
1070
     0
1002
}
1002
{
1000
REACTOR
1002
}
1001
GENIUS_GENOBJ-N-FIL_13
1002
{
1000
OWNER
1000
GEN
1002
}
  0
ARC
  5
9DCF
  8
0
 10
57.40559221385206
 20
209.2339466995874
 30
0.0
 40
1.99079584716086
 50
219.5850668351115
 51
288.692175623141
  0
ARC
  5
9DD0
  8
0
 10
58.36409333993407
 20
206.4009032141033
 30
0.0
 40
0.9999999999999992
 50
53.0491207032568
 51
108.6921756231398
1001
GENIUS_GENOBJ-N-FIL_13
1002
{
1000
OWNER
1000
GEN
1002
}
1001
GENIUS_GENODEF_13
1002
{
1000
HIER
1070
     0
1002
}
1002
{
1000
MANEDIT
1070
     0
1002
}
1002
{
1000
NOSEL
1070
     0
1002
}
1002
{
1000
BEHIND
1070
     0
1002
}
1002
{
1000
OTHER
1070
     0
1002
}
1002
{
1000
REACTOR
1002
}
  0
LINE
  5
9DD1
  8
0
 10
57.96653673907667
 20
209.3347522590639
 30
0.0
 11
57.58408236238364
 21
208.2731593390241
 31
0.0
  0
LINE
  5
9DD2
  8
0
 10
57.58408236238364
 20
208.2731593390241
 30
0.0
 11
55.87132696385379
 21
207.9653655048188
 31
0.0
  0
LINE
  5
9DD3
  8
0
 10
57.96653673907656
 20
209.3347522590646
 30
0.0
 11
57.23839749018987
 21
210.196763925089
 31
0.0
  0
LINE
  5
9DD4
  8
0
 10
57.23839749018987
 20
210.196763925089
 30
0.0
 11
55.52564209165973
 21
209.8889700908834
 31
0.0
  0
CIRCLE
  5
9DD5
  8
0
 10
64.27348778648945
 20
204.458448458303
 30
0.0
 40
0.4999999999999996
  0
LINE
  5
9DD6
  8
0
 10
42.53436198722648
 20
212.57226769288
 30
0.0
 11
44.8711434872265
 21
212.57226769288
 31
0.0
  0
LINE
  5
9DD7
  8
0
 10
44.8711434872265
 20
212.57226769288
 30
0.0
 11
44.8711434872265
 21
212.90625159288
 31
0.0
  0
LINE
  5
9DD8
  8
0
 10
44.8711434872265
 20
212.90625159288
 30
0.0
 11
42.53436198722648
 21
212.90625159288
 31
0.0
  0
LINE
  5
9DD9
  8
0
 10
42.53436198722648
 20
212.90625159288
 30
0.0
 11
42.53436198722648
 21
212.57226769288
 31
0.0
  0
LINE
  5
9DDA
  8
0
 10
45.53873698722646
 20
212.57226769288
 30
0.0
 11
46.53995148722646
 21
212.57226769288
 31
0.0
  0
LINE
  5
9DDB
  8
0
 10
46.53995148722646
 20
212.57226769288
 30
0.0
 11
46.53995148722646
 21
212.90625159288
 31
0.0
  0
LINE
  5
9DDC
  8
0
 10
46.53995148722646
 20
212.90625159288
 30
0.0
 11
45.53873698722646
 21
212.90625159288
 31
0.0
  0
LINE
  5
9DDD
  8
0
 10
45.53873698722646
 20
212.90625159288
 30
0.0
 11
45.53873698722646
 21
212.57226769288
 31
0.0
  0
LINE
  5
9DDE
  8
0
 10
47.20750698722645
 20
212.57226769288
 30
0.0
 11
47.54149088722647
 21
212.57226769288
 31
0.0
  0
LINE
  5
9DDF
  8
0
 10
47.54149088722647
 20
212.57226769288
 30
0.0
 11
47.54149088722647
 21
212.90625159288
 31
0.0
  0
LINE
  5
9DE0
  8
0
 10
47.54149088722647
 20
212.90625159288
 30
0.0
 11
47.20750698722645
 21
212.90625159288
 31
0.0
  0
LINE
  5
9DE1
  8
0
 10
47.20750698722645
 20
212.90625159288
 30
0.0
 11
47.20750698722645
 21
212.57226769288
 31
0.0
  0
LINE
  5
9DE2
  8
0
 10
47.87507198722648
 20
212.57226769288
 30
0.0
 11
48.20905683722646
 21
212.57226769288
 31
0.0
  0
LINE
  5
9DE3
  8
0
 10
48.20905683722646
 20
212.57226769288
 30
0.0
 11
48.20905683722646
 21
212.90625159288
 31
0.0
  0
LINE
  5
9DE4
  8
0
 10
48.20905683722646
 20
212.90625159288
 30
0.0
 11
47.87507198722648
 21
212.90625159288
 31
0.0
  0
LINE
  5
9DE5
  8
0
 10
47.87507198722648
 20
212.90625159288
 30
0.0
 11
47.87507198722648
 21
212.57226769288
 31
0.0
  0
LINE
  5
9DE6
  8
0
 10
48.54273198722649
 20
212.57226769288
 30
0.0
 11
48.87671683722647
 21
212.57226769288
 31
0.0
  0
LINE
  5
9DE7
  8
0
 10
48.87671683722647
 20
212.57226769288
 30
0.0
 11
48.87671683722647
 21
212.90625159288
 31
0.0
  0
LINE
  5
9DE8
  8
0
 10
48.87671683722647
 20
212.90625159288
 30
0.0
 11
48.54273198722649
 21
212.90625159288
 31
0.0
  0
LINE
  5
9DE9
  8
0
 10
48.54273198722649
 20
212.90625159288
 30
0.0
 11
48.54273198722649
 21
212.57226769288
 31
0.0
  0
LINE
  5
9DEA
  8
0
 10
49.87748198722647
 20
212.57226769288
 30
0.0
 11
50.2114658872265
 21
212.57226769288
 31
0.0
  0
LINE
  5
9DEB
  8
0
 10
50.2114658872265
 20
212.57226769288
 30
0.0
 11
50.2114658872265
 21
212.90625159288
 31
0.0
  0
LINE
  5
9DEC
  8
0
 10
50.2114658872265
 20
212.90625159288
 30
0.0
 11
49.87748198722647
 21
212.90625159288
 31
0.0
  0
LINE
  5
9DED
  8
0
 10
49.87748198722647
 20
212.90625159288
 30
0.0
 11
49.87748198722647
 21
212.57226769288
 31
0.0
  0
LINE
  5
9DEF
  8
0
 10
51.54707088722648
 20
212.57226769288
 30
0.0
 11
53.21549698722646
 21
212.57226769288
 31
0.0
  0
LINE
  5
9DF0
  8
0
 10
53.54986848722649
 20
210.56909769288
 30
0.0
 11
53.54986848722649
 21
212.90625159288
 31
0.0
  0
LINE
  5
9DF1
  8
0
 10
53.54986848722649
 20
212.90625159288
 30
0.0
 11
51.21308698722646
 21
212.90625159288
 31
0.0
  0
LINE
  5
9DF2
  8
0
 10
51.21308698722646
 20
212.90625159288
 30
0.0
 11
51.21308698722646
 21
210.56909769288
 31
0.0
  0
LINE
  5
9DF3
  8
0
 10
42.53436198722648
 20
212.23834269288
 30
0.0
 11
42.86871733722649
 21
212.23834269288
 31
0.0
  0
LINE
  5
9DF4
  8
0
 10
42.86871733722649
 20
212.23834269288
 30
0.0
 11
42.86871733722649
 21
212.57232754288
 31
0.0
  0
LINE
  5
9DF5
  8
0
 10
42.86871733722649
 20
212.57232754288
 30
0.0
 11
42.53436198722648
 21
212.57232754288
 31
0.0
  0
LINE
  5
9DF6
  8
0
 10
42.53436198722648
 20
212.57232754288
 30
0.0
 11
42.53436198722648
 21
212.23834269288
 31
0.0
  0
LINE
  5
9DF7
  8
0
 10
44.53743698722644
 20
212.23834269288
 30
0.0
 11
44.87142088722646
 21
212.23834269288
 31
0.0
  0
LINE
  5
9DF8
  8
0
 10
44.87142088722646
 20
212.23834269288
 30
0.0
 11
44.87142088722646
 21
212.57232754288
 31
0.0
  0
LINE
  5
9DF9
  8
0
 10
44.87142088722646
 20
212.57232754288
 30
0.0
 11
44.53743698722644
 21
212.57232754288
 31
0.0
  0
LINE
  5
9DFA
  8
0
 10
44.53743698722644
 20
212.57232754288
 30
0.0
 11
44.53743698722644
 21
212.23834269288
 31
0.0
  0
LINE
  5
9DFB
  8
0
 10
45.20509698722645
 20
212.23834269288
 30
0.0
 11
46.20668198722649
 21
212.23834269288
 31
0.0
  0
LINE
  5
9DFC
  8
0
 10
46.20668198722649
 20
212.23834269288
 30
0.0
 11
46.20668198722649
 21
212.57232754288
 31
0.0
  0
LINE
  5
9DFD
  8
0
 10
46.20668198722649
 20
212.57232754288
 30
0.0
 11
45.20509698722645
 21
212.57232754288
 31
0.0
  0
LINE
  5
9DFE
  8
0
 10
45.20509698722645
 20
212.57232754288
 30
0.0
 11
45.20509698722645
 21
212.23834269288
 31
0.0
  0
LINE
  5
9DFF
  8
0
 10
46.54032198722649
 20
212.23834269288
 30
0.0
 11
47.54153648722649
 21
212.23834269288
 31
0.0
  0
LINE
  5
9E00
  8
0
 10
47.54153648722649
 20
212.23834269288
 30
0.0
 11
47.54153648722649
 21
212.57232754288
 31
0.0
  0
LINE
  5
9E01
  8
0
 10
47.54153648722649
 20
212.57232754288
 30
0.0
 11
46.54032198722649
 21
212.57232754288
 31
0.0
  0
LINE
  5
9E02
  8
0
 10
46.54032198722649
 20
212.57232754288
 30
0.0
 11
46.54032198722649
 21
212.23834269288
 31
0.0
  0
LINE
  5
9E03
  8
0
 10
48.20909198722649
 20
212.23834269288
 30
0.0
 11
48.54307588722645
 21
212.23834269288
 31
0.0
  0
LINE
  5
9E04
  8
0
 10
48.54307588722645
 20
212.23834269288
 30
0.0
 11
48.54307588722645
 21
212.57232754288
 31
0.0
  0
LINE
  5
9E05
  8
0
 10
48.54307588722645
 20
212.57232754288
 30
0.0
 11
48.20909198722649
 21
212.57232754288
 31
0.0
  0
LINE
  5
9E06
  8
0
 10
48.20909198722649
 20
212.57232754288
 30
0.0
 11
48.20909198722649
 21
212.23834269288
 31
0.0
  0
LINE
  5
9E07
  8
0
 10
49.20991698722645
 20
212.23834269288
 30
0.0
 11
49.54427233722646
 21
212.23834269288
 31
0.0
  0
LINE
  5
9E08
  8
0
 10
49.54427233722646
 20
212.23834269288
 30
0.0
 11
49.54427233722646
 21
212.57232754288
 31
0.0
  0
LINE
  5
9E09
  8
0
 10
49.54427233722646
 20
212.57232754288
 30
0.0
 11
49.20991698722645
 21
212.57232754288
 31
0.0
  0
LINE
  5
9E0A
  8
0
 10
49.20991698722645
 20
212.57232754288
 30
0.0
 11
49.20991698722645
 21
212.23834269288
 31
0.0
  0
LINE
  5
9E0B
  8
0
 10
49.87748198722647
 20
212.23834269288
 30
0.0
 11
50.2114658872265
 21
212.23834269288
 31
0.0
  0
LINE
  5
9E0C
  8
0
 10
50.2114658872265
 20
212.23834269288
 30
0.0
 11
50.2114658872265
 21
212.57232754288
 31
0.0
  0
LINE
  5
9E0D
  8
0
 10
50.2114658872265
 20
212.57232754288
 30
0.0
 11
49.87748198722647
 21
212.57232754288
 31
0.0
  0
LINE
  5
9E0E
  8
0
 10
49.87748198722647
 20
212.57232754288
 30
0.0
 11
49.87748198722647
 21
212.23834269288
 31
0.0
  0
LINE
  5
9E0F
  8
0
 10
50.54590198722644
 20
212.23834269288
 30
0.0
 11
50.87988683722648
 21
212.23834269288
 31
0.0
  0
LINE
  5
9E11
  8
0
 10
50.87988683722648
 20
212.23829804288
 30
0.0
 11
50.87988683722648
 21
212.57232754288
 31
0.0
  0
LINE
  5
9E12
  8
0
 10
50.87988683722648
 20
212.57232754288
 30
0.0
 11
50.54590198722644
 21
212.57232754288
 31
0.0
  0
LINE
  5
9E13
  8
0
 10
50.54590198722644
 20
212.57232754288
 30
0.0
 11
50.54590198722644
 21
212.23829804288
 31
0.0
  0
LINE
  5
9E14
  8
0
 10
42.53436198722648
 20
211.90394269288
 30
0.0
 11
42.86871733722649
 21
211.90394269288
 31
0.0
  0
LINE
  5
9E15
  8
0
 10
42.86871733722649
 20
211.90394269288
 30
0.0
 11
42.86871733722649
 21
212.23829804288
 31
0.0
  0
LINE
  5
9E16
  8
0
 10
42.86871733722649
 20
212.23829804288
 30
0.0
 11
42.53436198722648
 21
212.23829804288
 31
0.0
  0
LINE
  5
9E17
  8
0
 10
42.53436198722648
 20
212.23829804288
 30
0.0
 11
42.53436198722648
 21
211.90394269288
 31
0.0
  0
LINE
  5
9E18
  8
0
 10
43.20192698722644
 20
211.90394269288
 30
0.0
 11
44.20351198722648
 21
211.90394269288
 31
0.0
  0
LINE
  5
9E19
  8
0
 10
44.20351198722648
 20
211.90394269288
 30
0.0
 11
44.20351198722648
 21
212.23829804288
 31
0.0
  0
LINE
  5
9E1A
  8
0
 10
44.20351198722648
 20
212.23829804288
 30
0.0
 11
43.20192698722644
 21
212.23829804288
 31
0.0
  0
LINE
  5
9E1B
  8
0
 10
43.20192698722644
 20
212.23829804288
 30
0.0
 11
43.20192698722644
 21
211.90394269288
 31
0.0
  0
LINE
  5
9E1C
  8
0
 10
44.53743698722644
 20
211.90394269288
 30
0.0
 11
44.87142088722646
 21
211.90394269288
 31
0.0
  0
LINE
  5
9E1D
  8
0
 10
44.87142088722646
 20
211.90394269288
 30
0.0
 11
44.87142088722646
 21
212.23829804288
 31
0.0
  0
LINE
  5
9E1E
  8
0
 10
44.87142088722646
 20
212.23829804288
 30
0.0
 11
44.53743698722644
 21
212.23829804288
 31
0.0
  0
LINE
  5
9E1F
  8
0
 10
44.53743698722644
 20
212.23829804288
 30
0.0
 11
44.53743698722644
 21
211.90394269288
 31
0.0
  0
LINE
  5
9E20
  8
0
 10
45.20509698722645
 20
211.90394269288
 30
0.0
 11
46.20668198722649
 21
211.90394269288
 31
0.0
  0
LINE
  5
9E21
  8
0
 10
46.20668198722649
 20
211.90394269288
 30
0.0
 11
46.20668198722649
 21
212.23829804288
 31
0.0
  0
LINE
  5
9E22
  8
0
 10
46.20668198722649
 20
212.23829804288
 30
0.0
 11
45.20509698722645
 21
212.23829804288
 31
0.0
  0
LINE
  5
9E23
  8
0
 10
45.20509698722645
 20
212.23829804288
 30
0.0
 11
45.20509698722645
 21
211.90394269288
 31
0.0
  0
LINE
  5
9E24
  8
0
 10
46.54032198722649
 20
211.90394269288
 30
0.0
 11
47.20754878722647
 21
211.90394269288
 31
0.0
  0
LINE
  5
9E25
  8
0
 10
47.20754878722647
 20
211.90394269288
 30
0.0
 11
47.20754878722647
 21
212.23829804288
 31
0.0
  0
LINE
  5
9E26
  8
0
 10
47.20754878722647
 20
212.23829804288
 30
0.0
 11
46.54032198722649
 21
212.23829804288
 31
0.0
  0
LINE
  5
9E27
  8
0
 10
46.54032198722649
 20
212.23829804288
 30
0.0
 11
46.54032198722649
 21
211.90394269288
 31
0.0
  0
LINE
  5
9E28
  8
0
 10
47.54152698722646
 20
211.90394269288
 30
0.0
 11
47.87588233722647
 21
211.90394269288
 31
0.0
  0
LINE
  5
9E29
  8
0
 10
47.87588233722647
 20
211.90394269288
 30
0.0
 11
47.87588233722647
 21
212.23829804288
 31
0.0
  0
LINE
  5
9E2A
  8
0
 10
47.87588233722647
 20
212.23829804288
 30
0.0
 11
47.54152698722646
 21
212.23829804288
 31
0.0
  0
LINE
  5
9E2B
  8
0
 10
47.54152698722646
 20
212.23829804288
 30
0.0
 11
47.54152698722646
 21
211.90394269288
 31
0.0
  0
LINE
  5
9E2C
  8
0
 10
48.20909198722649
 20
211.90394269288
 30
0.0
 11
49.21067698722646
 21
211.90394269288
 31
0.0
  0
LINE
  5
9E2D
  8
0
 10
49.21067698722646
 20
211.90394269288
 30
0.0
 11
49.21067698722646
 21
212.23829804288
 31
0.0
  0
LINE
  5
9E2E
  8
0
 10
49.21067698722646
 20
212.23829804288
 30
0.0
 11
48.20909198722649
 21
212.23829804288
 31
0.0
  0
LINE
  5
9E2F
  8
0
 10
48.20909198722649
 20
212.23829804288
 30
0.0
 11
48.20909198722649
 21
211.90394269288
 31
0.0
  0
LINE
  5
9E30
  8
0
 10
49.54431698722647
 20
211.90394269288
 30
0.0
 11
49.87830183722645
 21
211.90394269288
 31
0.0
  0
LINE
  5
9E31
  8
0
 10
49.87830183722645
 20
211.90394269288
 30
0.0
 11
49.87830183722645
 21
212.23829804288
 31
0.0
  0
LINE
  5
9E32
  8
0
 10
49.87830183722645
 20
212.23829804288
 30
0.0
 11
49.54431698722647
 21
212.23829804288
 31
0.0
  0
LINE
  5
9E33
  8
0
 10
49.54431698722647
 20
212.23829804288
 30
0.0
 11
49.54431698722647
 21
211.90394269288
 31
0.0
  0
LINE
  5
9E34
  8
0
 10
50.54590198722644
 20
211.90394269288
 30
0.0
 11
50.87988683722648
 21
211.90394269288
 31
0.0
  0
LINE
  5
9E35
  8
0
 10
50.87988683722648
 20
211.90394269288
 30
0.0
 11
50.87988683722648
 21
212.23829804288
 31
0.0
  0
LINE
  5
9E36
  8
0
 10
50.87988683722648
 20
212.23829804288
 30
0.0
 11
50.54590198722644
 21
212.23829804288
 31
0.0
  0
LINE
  5
9E37
  8
0
 10
50.54590198722644
 20
212.23829804288
 30
0.0
 11
50.54590198722644
 21
211.90394269288
 31
0.0
  0
LINE
  5
9E39
  8
0
 10
52.88223698722646
 20
211.23675769288
 30
0.0
 11
52.88223698722646
 21
212.23829804288
 31
0.0
  0
LINE
  5
9E3A
  8
0
 10
52.88223698722646
 20
212.23829804288
 30
0.0
 11
51.88065198722649
 21
212.23829804288
 31
0.0
  0
LINE
  5
9E3B
  8
0
 10
51.88065198722649
 20
212.23829804288
 30
0.0
 11
51.88065198722649
 21
211.23675769288
 31
0.0
  0
LINE
  5
9E3C
  8
0
 10
42.53436198722648
 20
211.57068269288
 30
0.0
 11
42.86871733722649
 21
211.57068269288
 31
0.0
  0
LINE
  5
9E3D
  8
0
 10
42.86871733722649
 20
211.57068269288
 30
0.0
 11
42.86871733722649
 21
211.90466659288
 31
0.0
  0
LINE
  5
9E3E
  8
0
 10
42.86871733722649
 20
211.90466659288
 30
0.0
 11
42.53436198722648
 21
211.90466659288
 31
0.0
  0
LINE
  5
9E3F
  8
0
 10
42.53436198722648
 20
211.90466659288
 30
0.0
 11
42.53436198722648
 21
211.57068269288
 31
0.0
  0
LINE
  5
9E40
  8
0
 10
43.20192698722644
 20
211.57068269288
 30
0.0
 11
44.20351198722648
 21
211.57068269288
 31
0.0
  0
LINE
  5
9E41
  8
0
 10
44.20351198722648
 20
211.57068269288
 30
0.0
 11
44.20351198722648
 21
211.90466659288
 31
0.0
  0
LINE
  5
9E42
  8
0
 10
44.20351198722648
 20
211.90466659288
 30
0.0
 11
43.20192698722644
 21
211.90466659288
 31
0.0
  0
LINE
  5
9E43
  8
0
 10
43.20192698722644
 20
211.90466659288
 30
0.0
 11
43.20192698722644
 21
211.57068269288
 31
0.0
  0
LINE
  5
9E44
  8
0
 10
44.53743698722644
 20
211.57068269288
 30
0.0
 11
44.87142088722646
 21
211.57068269288
 31
0.0
  0
LINE
  5
9E45
  8
0
 10
44.87142088722646
 20
211.57068269288
 30
0.0
 11
44.87142088722646
 21
211.90466659288
 31
0.0
  0
LINE
  5
9E46
  8
0
 10
44.87142088722646
 20
211.90466659288
 30
0.0
 11
44.53743698722644
 21
211.90466659288
 31
0.0
  0
LINE
  5
9E47
  8
0
 10
44.53743698722644
 20
211.90466659288
 30
0.0
 11
44.53743698722644
 21
211.57068269288
 31
0.0
  0
LINE
  5
9E48
  8
0
 10
45.20509698722645
 20
211.57068269288
 30
0.0
 11
45.53908183722649
 21
211.57068269288
 31
0.0
  0
LINE
  5
9E49
  8
0
 10
45.53908183722649
 20
211.57068269288
 30
0.0
 11
45.53908183722649
 21
211.90466659288
 31
0.0
  0
LINE
  5
9E4A
  8
0
 10
45.53908183722649
 20
211.90466659288
 30
0.0
 11
45.20509698722645
 21
211.90466659288
 31
0.0
  0
LINE
  5
9E4B
  8
0
 10
45.20509698722645
 20
211.90466659288
 30
0.0
 11
45.20509698722645
 21
211.57068269288
 31
0.0
  0
LINE
  5
9E4C
  8
0
 10
48.87665698722645
 20
211.57068269288
 30
0.0
 11
49.21064088722648
 21
211.57068269288
 31
0.0
  0
LINE
  5
9E4D
  8
0
 10
49.21064088722648
 20
211.57068269288
 30
0.0
 11
49.21064088722648
 21
211.90466659288
 31
0.0
  0
LINE
  5
9E4E
  8
0
 10
49.21064088722648
 20
211.90466659288
 30
0.0
 11
48.87665698722645
 21
211.90466659288
 31
0.0
  0
LINE
  5
9E4F
  8
0
 10
48.87665698722645
 20
211.90466659288
 30
0.0
 11
48.87665698722645
 21
211.57068269288
 31
0.0
  0
LINE
  5
9E50
  8
0
 10
49.54431698722647
 20
211.57068269288
 30
0.0
 11
50.87914298722649
 21
211.57068269288
 31
0.0
  0
LINE
  5
9E51
  8
0
 10
50.87914298722649
 20
211.57068269288
 30
0.0
 11
50.87914298722649
 21
211.90466659288
 31
0.0
  0
LINE
  5
9E52
  8
0
 10
50.87914298722649
 20
211.90466659288
 30
0.0
 11
49.54431698722647
 21
211.90466659288
 31
0.0
  0
LINE
  5
9E53
  8
0
 10
49.54431698722647
 20
211.90466659288
 30
0.0
 11
49.54431698722647
 21
211.57068269288
 31
0.0
  0
LINE
  5
9E54
  8
0
 10
42.53436198722648
 20
211.23675769288
 30
0.0
 11
42.86871733722649
 21
211.23675769288
 31
0.0
  0
LINE
  5
9E55
  8
0
 10
42.86871733722649
 20
211.23675769288
 30
0.0
 11
42.86871733722649
 21
211.57074254288
 31
0.0
  0
LINE
  5
9E56
  8
0
 10
42.86871733722649
 20
211.57074254288
 30
0.0
 11
42.53436198722648
 21
211.57074254288
 31
0.0
  0
LINE
  5
9E57
  8
0
 10
42.53436198722648
 20
211.57074254288
 30
0.0
 11
42.53436198722648
 21
211.23675769288
 31
0.0
  0
LINE
  5
9E58
  8
0
 10
43.20192698722644
 20
211.23675769288
 30
0.0
 11
44.20351198722648
 21
211.23675769288
 31
0.0
  0
LINE
  5
9E59
  8
0
 10
44.20351198722648
 20
211.23675769288
 30
0.0
 11
44.20351198722648
 21
211.57074254288
 31
0.0
  0
LINE
  5
9E5A
  8
0
 10
44.20351198722648
 20
211.57074254288
 30
0.0
 11
43.20192698722644
 21
211.57074254288
 31
0.0
  0
LINE
  5
9E5B
  8
0
 10
43.20192698722644
 20
211.57074254288
 30
0.0
 11
43.20192698722644
 21
211.23675769288
 31
0.0
  0
LINE
  5
9E5C
  8
0
 10
44.53743698722644
 20
211.23675769288
 30
0.0
 11
44.87142088722646
 21
211.23675769288
 31
0.0
  0
LINE
  5
9E5D
  8
0
 10
44.87142088722646
 20
211.23675769288
 30
0.0
 11
44.87142088722646
 21
211.57074254288
 31
0.0
  0
LINE
  5
9E5E
  8
0
 10
44.87142088722646
 20
211.57074254288
 30
0.0
 11
44.53743698722644
 21
211.57074254288
 31
0.0
  0
LINE
  5
9E5F
  8
0
 10
44.53743698722644
 20
211.57074254288
 30
0.0
 11
44.53743698722644
 21
211.23675769288
 31
0.0
  0
LINE
  5
9E60
  8
0
 10
45.53873698722646
 20
211.23675769288
 30
0.0
 11
45.87272183722644
 21
211.23675769288
 31
0.0
  0
LINE
  5
9E61
  8
0
 10
45.87272183722644
 20
211.23675769288
 30
0.0
 11
45.87272183722644
 21
211.57074254288
 31
0.0
  0
LINE
  5
9E62
  8
0
 10
45.87272183722644
 20
211.57074254288
 30
0.0
 11
45.53873698722646
 21
211.57074254288
 31
0.0
  0
LINE
  5
9E63
  8
0
 10
45.53873698722646
 20
211.57074254288
 30
0.0
 11
45.53873698722646
 21
211.23675769288
 31
0.0
  0
LINE
  5
9E64
  8
0
 10
46.20592198722647
 20
211.23675769288
 30
0.0
 11
47.20750698722645
 21
211.23675769288
 31
0.0
  0
LINE
  5
9E65
  8
0
 10
47.20750698722645
 20
211.23675769288
 30
0.0
 11
47.20750698722645
 21
211.57074254288
 31
0.0
  0
LINE
  5
9E66
  8
0
 10
47.20750698722645
 20
211.57074254288
 30
0.0
 11
46.20592198722647
 21
211.57074254288
 31
0.0
  0
LINE
  5
9E67
  8
0
 10
46.20592198722647
 20
211.57074254288
 30
0.0
 11
46.20592198722647
 21
211.23675769288
 31
0.0
  0
LINE
  5
9E68
  8
0
 10
47.54152698722646
 20
211.23675769288
 30
0.0
 11
47.87588233722647
 21
211.23675769288
 31
0.0
  0
LINE
  5
9E69
  8
0
 10
47.87588233722647
 20
211.23675769288
 30
0.0
 11
47.87588233722647
 21
211.57074254288
 31
0.0
  0
LINE
  5
9E6A
  8
0
 10
47.87588233722647
 20
211.57074254288
 30
0.0
 11
47.54152698722646
 21
211.57074254288
 31
0.0
  0
LINE
  5
9E6B
  8
0
 10
47.54152698722646
 20
211.57074254288
 30
0.0
 11
47.54152698722646
 21
211.23675769288
 31
0.0
  0
LINE
  5
9E6C
  8
0
 10
48.20909198722649
 20
211.23675769288
 30
0.0
 11
48.87668928722644
 21
211.23675769288
 31
0.0
  0
LINE
  5
9E6D
  8
0
 10
48.87668928722644
 20
211.23675769288
 30
0.0
 11
48.87668928722644
 21
211.57074254288
 31
0.0
  0
LINE
  5
9E6E
  8
0
 10
48.87668928722644
 20
211.57074254288
 30
0.0
 11
48.20909198722649
 21
211.57074254288
 31
0.0
  0
LINE
  5
9E6F
  8
0
 10
48.20909198722649
 20
211.57074254288
 30
0.0
 11
48.20909198722649
 21
211.23675769288
 31
0.0
  0
LINE
  5
9E70
  8
0
 10
50.21150198722648
 20
211.23675769288
 30
0.0
 11
50.54585733722649
 21
211.23675769288
 31
0.0
  0
LINE
  5
9E71
  8
0
 10
50.54585733722649
 20
211.23675769288
 30
0.0
 11
50.54585733722649
 21
211.57074254288
 31
0.0
  0
LINE
  5
9E72
  8
0
 10
50.54585733722649
 20
211.57074254288
 30
0.0
 11
50.21150198722648
 21
211.57074254288
 31
0.0
  0
LINE
  5
9E73
  8
0
 10
50.21150198722648
 20
211.57074254288
 30
0.0
 11
50.21150198722648
 21
211.23675769288
 31
0.0
  0
LINE
  5
9E74
  8
0
 10
51.88065198722649
 20
211.23675769288
 30
0.0
 11
52.88223698722646
 21
211.23675769288
 31
0.0
  0
LINE
  5
9E75
  8
0
 10
42.53436198722648
 20
210.90311769288
 30
0.0
 11
42.86871733722649
 21
210.90311769288
 31
0.0
  0
LINE
  5
9E76
  8
0
 10
42.86871733722649
 20
210.90311769288
 30
0.0
 11
42.86871733722649
 21
211.23710254288
 31
0.0
  0
LINE
  5
9E77
  8
0
 10
42.86871733722649
 20
211.23710254288
 30
0.0
 11
42.53436198722648
 21
211.23710254288
 31
0.0
  0
LINE
  5
9E78
  8
0
 10
42.53436198722648
 20
211.23710254288
 30
0.0
 11
42.53436198722648
 21
210.90311769288
 31
0.0
  0
LINE
  5
9E79
  8
0
 10
44.53743698722644
 20
210.90311769288
 30
0.0
 11
44.87142088722646
 21
210.90311769288
 31
0.0
  0
LINE
  5
9E7A
  8
0
 10
44.87142088722646
 20
210.90311769288
 30
0.0
 11
44.87142088722646
 21
211.23710254288
 31
0.0
  0
LINE
  5
9E7B
  8
0
 10
44.87142088722646
 20
211.23710254288
 30
0.0
 11
44.53743698722644
 21
211.23710254288
 31
0.0
  0
LINE
  5
9E7C
  8
0
 10
44.53743698722644
 20
211.23710254288
 30
0.0
 11
44.53743698722644
 21
210.90311769288
 31
0.0
  0
LINE
  5
9E7D
  8
0
 10
46.87348698722644
 20
210.90311769288
 30
0.0
 11
47.54108523722647
 21
210.90311769288
 31
0.0
  0
LINE
  5
9E7E
  8
0
 10
47.54108523722647
 20
210.90311769288
 30
0.0
 11
47.54108523722647
 21
211.23710254288
 31
0.0
  0
LINE
  5
9E7F
  8
0
 10
47.54108523722647
 20
211.23710254288
 30
0.0
 11
46.87348698722644
 21
211.23710254288
 31
0.0
  0
LINE
  5
9E80
  8
0
 10
46.87348698722644
 20
211.23710254288
 30
0.0
 11
46.87348698722644
 21
210.90311769288
 31
0.0
  0
LINE
  5
9E81
  8
0
 10
47.87507198722648
 20
210.90311769288
 30
0.0
 11
48.20905683722646
 21
210.90311769288
 31
0.0
  0
LINE
  5
9E82
  8
0
 10
48.20905683722646
 20
210.90311769288
 30
0.0
 11
48.20905683722646
 21
211.23710254288
 31
0.0
  0
LINE
  5
9E83
  8
0
 10
48.20905683722646
 20
211.23710254288
 30
0.0
 11
47.87507198722648
 21
211.23710254288
 31
0.0
  0
LINE
  5
9E84
  8
0
 10
47.87507198722648
 20
211.23710254288
 30
0.0
 11
47.87507198722648
 21
210.90311769288
 31
0.0
  0
LINE
  5
9E85
  8
0
 10
48.54273198722649
 20
210.90311769288
 30
0.0
 11
48.87671683722647
 21
210.90311769288
 31
0.0
  0
LINE
  5
9E86
  8
0
 10
48.87671683722647
 20
210.90311769288
 30
0.0
 11
48.87671683722647
 21
211.23710254288
 31
0.0
  0
LINE
  5
9E87
  8
0
 10
48.87671683722647
 20
211.23710254288
 30
0.0
 11
48.54273198722649
 21
211.23710254288
 31
0.0
  0
LINE
  5
9E88
  8
0
 10
48.54273198722649
 20
211.23710254288
 30
0.0
 11
48.54273198722649
 21
210.90311769288
 31
0.0
  0
LINE
  5
9E89
  8
0
 10
49.20991698722645
 20
210.90311769288
 30
0.0
 11
49.54427233722646
 21
210.90311769288
 31
0.0
  0
LINE
  5
9E8A
  8
0
 10
49.54427233722646
 20
210.90311769288
 30
0.0
 11
49.54427233722646
 21
211.23710254288
 31
0.0
  0
LINE
  5
9E8B
  8
0
 10
49.54427233722646
 20
211.23710254288
 30
0.0
 11
49.20991698722645
 21
211.23710254288
 31
0.0
  0
LINE
  5
9E8C
  8
0
 10
49.20991698722645
 20
211.23710254288
 30
0.0
 11
49.20991698722645
 21
210.90311769288
 31
0.0
  0
LINE
  5
9E8D
  8
0
 10
51.54707088722648
 20
210.90308159288
 30
0.0
 11
51.54707088722648
 21
212.57226769288
 31
0.0
  0
LINE
  5
9E8E
  8
0
 10
53.21549698722646
 20
212.57226769288
 30
0.0
 11
53.21549698722646
 21
210.90308159288
 31
0.0
  0
LINE
  5
9E8F
  8
0
 10
42.53436198722648
 20
210.56909769288
 30
0.0
 11
44.8711434872265
 21
210.56909769288
 31
0.0
  0
LINE
  5
9E90
  8
0
 10
44.8711434872265
 20
210.56909769288
 30
0.0
 11
44.8711434872265
 21
210.90308159288
 31
0.0
  0
LINE
  5
9E91
  8
0
 10
44.8711434872265
 20
210.90308159288
 30
0.0
 11
42.53436198722648
 21
210.90308159288
 31
0.0
  0
LINE
  5
9E92
  8
0
 10
42.53436198722648
 20
210.90308159288
 30
0.0
 11
42.53436198722648
 21
210.56909769288
 31
0.0
  0
LINE
  5
9E93
  8
0
 10
45.20509698722645
 20
210.56909769288
 30
0.0
 11
45.53908183722649
 21
210.56909769288
 31
0.0
  0
LINE
  5
9E94
  8
0
 10
45.53908183722649
 20
210.56909769288
 30
0.0
 11
45.53908183722649
 21
210.90308159288
 31
0.0
  0
LINE
  5
9E95
  8
0
 10
45.53908183722649
 20
210.90308159288
 30
0.0
 11
45.20509698722645
 21
210.90308159288
 31
0.0
  0
LINE
  5
9E96
  8
0
 10
45.20509698722645
 20
210.90308159288
 30
0.0
 11
45.20509698722645
 21
210.56909769288
 31
0.0
  0
LINE
  5
9E97
  8
0
 10
45.87266198722648
 20
210.56909769288
 30
0.0
 11
46.2066458872265
 21
210.56909769288
 31
0.0
  0
LINE
  5
9E98
  8
0
 10
46.2066458872265
 20
210.56909769288
 30
0.0
 11
46.2066458872265
 21
210.90308159288
 31
0.0
  0
LINE
  5
9E99
  8
0
 10
46.2066458872265
 20
210.90308159288
 30
0.0
 11
45.87266198722648
 21
210.90308159288
 31
0.0
  0
LINE
  5
9E9A
  8
0
 10
45.87266198722648
 20
210.90308159288
 30
0.0
 11
45.87266198722648
 21
210.56909769288
 31
0.0
  0
LINE
  5
9E9B
  8
0
 10
46.54032198722649
 20
210.56909769288
 30
0.0
 11
46.87430588722646
 21
210.56909769288
 31
0.0
  0
LINE
  5
9E9C
  8
0
 10
46.87430588722646
 20
210.56909769288
 30
0.0
 11
46.87430588722646
 21
210.90308159288
 31
0.0
  0
LINE
  5
9E9D
  8
0
 10
46.87430588722646
 20
210.90308159288
 30
0.0
 11
46.54032198722649
 21
210.90308159288
 31
0.0
  0
LINE
  5
9E9E
  8
0
 10
46.54032198722649
 20
210.90308159288
 30
0.0
 11
46.54032198722649
 21
210.56909769288
 31
0.0
  0
LINE
  5
9E9F
  8
0
 10
47.20750698722645
 20
210.56909769288
 30
0.0
 11
47.54149088722647
 21
210.56909769288
 31
0.0
  0
LINE
  5
9EA0
  8
0
 10
47.54149088722647
 20
210.56909769288
 30
0.0
 11
47.54149088722647
 21
210.90308159288
 31
0.0
  0
LINE
  5
9EA1
  8
0
 10
47.54149088722647
 20
210.90308159288
 30
0.0
 11
47.20750698722645
 21
210.90308159288
 31
0.0
  0
LINE
  5
9EA2
  8
0
 10
47.20750698722645
 20
210.90308159288
 30
0.0
 11
47.20750698722645
 21
210.56909769288
 31
0.0
  0
LINE
  5
9EA3
  8
0
 10
47.87507198722648
 20
210.56909769288
 30
0.0
 11
48.20905683722646
 21
210.56909769288
 31
0.0
  0
LINE
  5
9EA4
  8
0
 10
48.20905683722646
 20
210.56909769288
 30
0.0
 11
48.20905683722646
 21
210.90308159288
 31
0.0
  0
LINE
  5
9EA5
  8
0
 10
48.20905683722646
 20
210.90308159288
 30
0.0
 11
47.87507198722648
 21
210.90308159288
 31
0.0
  0
LINE
  5
9EA6
  8
0
 10
47.87507198722648
 20
210.90308159288
 30
0.0
 11
47.87507198722648
 21
210.56909769288
 31
0.0
  0
LINE
  5
9EA7
  8
0
 10
48.54273198722649
 20
210.56909769288
 30
0.0
 11
48.87671683722647
 21
210.56909769288
 31
0.0
  0
LINE
  5
9EA8
  8
0
 10
48.87671683722647
 20
210.56909769288
 30
0.0
 11
48.87671683722647
 21
210.90308159288
 31
0.0
  0
LINE
  5
9EA9
  8
0
 10
48.87671683722647
 20
210.90308159288
 30
0.0
 11
48.54273198722649
 21
210.90308159288
 31
0.0
  0
LINE
  5
9EAA
  8
0
 10
48.54273198722649
 20
210.90308159288
 30
0.0
 11
48.54273198722649
 21
210.56909769288
 31
0.0
  0
LINE
  5
9EAB
  8
0
 10
49.20991698722645
 20
210.56909769288
 30
0.0
 11
49.54427233722646
 21
210.56909769288
 31
0.0
  0
LINE
  5
9EAC
  8
0
 10
49.54427233722646
 20
210.56909769288
 30
0.0
 11
49.54427233722646
 21
210.90308159288
 31
0.0
  0
LINE
  5
9EAD
  8
0
 10
49.54427233722646
 20
210.90308159288
 30
0.0
 11
49.20991698722645
 21
210.90308159288
 31
0.0
  0
LINE
  5
9EAE
  8
0
 10
49.20991698722645
 20
210.90308159288
 30
0.0
 11
49.20991698722645
 21
210.56909769288
 31
0.0
  0
LINE
  5
9EAF
  8
0
 10
49.87748198722647
 20
210.56909769288
 30
0.0
 11
50.2114658872265
 21
210.56909769288
 31
0.0
  0
LINE
  5
9EB0
  8
0
 10
50.2114658872265
 20
210.56909769288
 30
0.0
 11
50.2114658872265
 21
210.90308159288
 31
0.0
  0
LINE
  5
9EB1
  8
0
 10
50.2114658872265
 20
210.90308159288
 30
0.0
 11
49.87748198722647
 21
210.90308159288
 31
0.0
  0
LINE
  5
9EB2
  8
0
 10
49.87748198722647
 20
210.90308159288
 30
0.0
 11
49.87748198722647
 21
210.56909769288
 31
0.0
  0
LINE
  5
9EB3
  8
0
 10
50.54590198722644
 20
210.56909769288
 30
0.0
 11
50.87988683722648
 21
210.56909769288
 31
0.0
  0
LINE
  5
9EB4
  8
0
 10
50.87988683722648
 20
210.56909769288
 30
0.0
 11
50.87988683722648
 21
210.90308159288
 31
0.0
  0
LINE
  5
9EB5
  8
0
 10
50.87988683722648
 20
210.90308159288
 30
0.0
 11
50.54590198722644
 21
210.90308159288
 31
0.0
  0
LINE
  5
9EB6
  8
0
 10
50.54590198722644
 20
210.90308159288
 30
0.0
 11
50.54590198722644
 21
210.56909769288
 31
0.0
  0
LINE
  5
9EB7
  8
0
 10
51.21308698722646
 20
210.56909769288
 30
0.0
 11
53.54986848722649
 21
210.56909769288
 31
0.0
  0
LINE
  5
9EB8
  8
0
 10
53.21549698722646
 20
210.90308159288
 30
0.0
 11
51.54707088722648
 21
210.90308159288
 31
0.0
  0
LINE
  5
9EB9
  8
0
 10
45.20509698722645
 20
210.23593269288
 30
0.0
 11
45.53908183722649
 21
210.23593269288
 31
0.0
  0
LINE
  5
9EBA
  8
0
 10
45.53908183722649
 20
210.23593269288
 30
0.0
 11
45.53908183722649
 21
210.56991659288
 31
0.0
  0
LINE
  5
9EBB
  8
0
 10
45.53908183722649
 20
210.56991659288
 30
0.0
 11
45.20509698722645
 21
210.56991659288
 31
0.0
  0
LINE
  5
9EBC
  8
0
 10
45.20509698722645
 20
210.56991659288
 30
0.0
 11
45.20509698722645
 21
210.23593269288
 31
0.0
  0
LINE
  5
9EBD
  8
0
 10
46.54032198722649
 20
210.23593269288
 30
0.0
 11
46.87430588722646
 21
210.23593269288
 31
0.0
  0
LINE
  5
9EBE
  8
0
 10
46.87430588722646
 20
210.23593269288
 30
0.0
 11
46.87430588722646
 21
210.56991659288
 31
0.0
  0
LINE
  5
9EBF
  8
0
 10
46.87430588722646
 20
210.56991659288
 30
0.0
 11
46.54032198722649
 21
210.56991659288
 31
0.0
  0
LINE
  5
9EC0
  8
0
 10
46.54032198722649
 20
210.56991659288
 30
0.0
 11
46.54032198722649
 21
210.23593269288
 31
0.0
  0
LINE
  5
9EC1
  8
0
 10
47.20750698722645
 20
210.23593269288
 30
0.0
 11
47.54149088722647
 21
210.23593269288
 31
0.0
  0
LINE
  5
9EC2
  8
0
 10
47.54149088722647
 20
210.23593269288
 30
0.0
 11
47.54149088722647
 21
210.56991659288
 31
0.0
  0
LINE
  5
9EC3
  8
0
 10
47.54149088722647
 20
210.56991659288
 30
0.0
 11
47.20750698722645
 21
210.56991659288
 31
0.0
  0
LINE
  5
9EC4
  8
0
 10
47.20750698722645
 20
210.56991659288
 30
0.0
 11
47.20750698722645
 21
210.23593269288
 31
0.0
  0
LINE
  5
9EC5
  8
0
 10
49.87748198722647
 20
210.23593269288
 30
0.0
 11
50.2114658872265
 21
210.23593269288
 31
0.0
  0
LINE
  5
9EC6
  8
0
 10
50.2114658872265
 20
210.23593269288
 30
0.0
 11
50.2114658872265
 21
210.56991659288
 31
0.0
  0
LINE
  5
9EC7
  8
0
 10
50.2114658872265
 20
210.56991659288
 30
0.0
 11
49.87748198722647
 21
210.56991659288
 31
0.0
  0
LINE
  5
9EC8
  8
0
 10
49.87748198722647
 20
210.56991659288
 30
0.0
 11
49.87748198722647
 21
210.23593269288
 31
0.0
  0
LINE
  5
9EC9
  8
0
 10
50.54590198722644
 20
210.23593269288
 30
0.0
 11
50.87988683722648
 21
210.23593269288
 31
0.0
  0
LINE
  5
9ECA
  8
0
 10
50.87988683722648
 20
210.23593269288
 30
0.0
 11
50.87988683722648
 21
210.56991659288
 31
0.0
  0
LINE
  5
9ECB
  8
0
 10
50.87988683722648
 20
210.56991659288
 30
0.0
 11
50.54590198722644
 21
210.56991659288
 31
0.0
  0
LINE
  5
9ECC
  8
0
 10
50.54590198722644
 20
210.56991659288
 30
0.0
 11
50.54590198722644
 21
210.23593269288
 31
0.0
  0
LINE
  5
9ECD
  8
0
 10
42.53436198722648
 20
209.90153269288
 30
0.0
 11
42.86871733722649
 21
209.90153269288
 31
0.0
  0
LINE
  5
9ECE
  8
0
 10
42.86871733722649
 20
209.90153269288
 30
0.0
 11
42.86871733722649
 21
210.23588804288
 31
0.0
  0
LINE
  5
9ECF
  8
0
 10
42.86871733722649
 20
210.23588804288
 30
0.0
 11
42.53436198722648
 21
210.23588804288
 31
0.0
  0
LINE
  5
9ED0
  8
0
 10
42.53436198722648
 20
210.23588804288
 30
0.0
 11
42.53436198722648
 21
209.90153269288
 31
0.0
  0
LINE
  5
9ED1
  8
0
 10
44.53743698722644
 20
209.90153269288
 30
0.0
 11
44.87142088722646
 21
209.90153269288
 31
0.0
  0
LINE
  5
9ED2
  8
0
 10
44.87142088722646
 20
209.90153269288
 30
0.0
 11
44.87142088722646
 21
210.23588804288
 31
0.0
  0
LINE
  5
9ED3
  8
0
 10
44.87142088722646
 20
210.23588804288
 30
0.0
 11
44.53743698722644
 21
210.23588804288
 31
0.0
  0
LINE
  5
9ED4
  8
0
 10
44.53743698722644
 20
210.23588804288
 30
0.0
 11
44.53743698722644
 21
209.90153269288
 31
0.0
  0
LINE
  5
9ED5
  8
0
 10
45.20509698722645
 20
209.90153269288
 30
0.0
 11
46.20668198722649
 21
209.90153269288
 31
0.0
  0
LINE
  5
9ED6
  8
0
 10
46.20668198722649
 20
209.90153269288
 30
0.0
 11
46.20668198722649
 21
210.23588804288
 31
0.0
  0
LINE
  5
9ED7
  8
0
 10
46.20668198722649
 20
210.23588804288
 30
0.0
 11
45.20509698722645
 21
210.23588804288
 31
0.0
  0
LINE
  5
9ED8
  8
0
 10
45.20509698722645
 20
210.23588804288
 30
0.0
 11
45.20509698722645
 21
209.90153269288
 31
0.0
  0
LINE
  5
9ED9
  8
0
 10
46.87348698722644
 20
209.90153269288
 30
0.0
 11
48.54266548722649
 21
209.90153269288
 31
0.0
  0
LINE
  5
9EDA
  8
0
 10
48.54266548722649
 20
209.90153269288
 30
0.0
 11
48.54266548722649
 21
210.23588804288
 31
0.0
  0
LINE
  5
9EDB
  8
0
 10
48.54266548722649
 20
210.23588804288
 30
0.0
 11
46.87348698722644
 21
210.23588804288
 31
0.0
  0
LINE
  5
9EDC
  8
0
 10
46.87348698722644
 20
210.23588804288
 30
0.0
 11
46.87348698722644
 21
209.90153269288
 31
0.0
  0
LINE
  5
9EDD
  8
0
 10
49.87748198722647
 20
209.90153269288
 30
0.0
 11
50.2114658872265
 21
209.90153269288
 31
0.0
  0
LINE
  5
9EDE
  8
0
 10
50.2114658872265
 20
209.90153269288
 30
0.0
 11
50.2114658872265
 21
210.23588804288
 31
0.0
  0
LINE
  5
9EDF
  8
0
 10
50.2114658872265
 20
210.23588804288
 30
0.0
 11
49.87748198722647
 21
210.23588804288
 31
0.0
  0
LINE
  5
9EE0
  8
0
 10
49.87748198722647
 20
210.23588804288
 30
0.0
 11
49.87748198722647
 21
209.90153269288
 31
0.0
  0
LINE
  5
9EE1
  8
0
 10
50.54590198722644
 20
209.90153269288
 30
0.0
 11
51.54711648722645
 21
209.90153269288
 31
0.0
  0
LINE
  5
9EE2
  8
0
 10
51.54711648722645
 20
209.90153269288
 30
0.0
 11
51.54711648722645
 21
210.23588804288
 31
0.0
  0
LINE
  5
9EE3
  8
0
 10
51.54711648722645
 20
210.23588804288
 30
0.0
 11
50.54590198722644
 21
210.23588804288
 31
0.0
  0
LINE
  5
9EE4
  8
0
 10
50.54590198722644
 20
210.23588804288
 30
0.0
 11
50.54590198722644
 21
209.90153269288
 31
0.0
  0
LINE
  5
9EE5
  8
0
 10
52.21391198722648
 20
209.90153269288
 30
0.0
 11
53.21549698722646
 21
209.90153269288
 31
0.0
  0
LINE
  5
9EE6
  8
0
 10
53.21549698722646
 20
209.90153269288
 30
0.0
 11
53.21549698722646
 21
210.23588804288
 31
0.0
  0
LINE
  5
9EE7
  8
0
 10
53.21549698722646
 20
210.23588804288
 30
0.0
 11
52.21391198722648
 21
210.23588804288
 31
0.0
  0
LINE
  5
9EE8
  8
0
 10
52.21391198722648
 20
210.23588804288
 30
0.0
 11
52.21391198722648
 21
209.90153269288
 31
0.0
  0
LINE
  5
9EE9
  8
0
 10
42.53436198722648
 20
209.56827269288
 30
0.0
 11
42.86871733722649
 21
209.56827269288
 31
0.0
  0
LINE
  5
9EEA
  8
0
 10
42.86871733722649
 20
209.56827269288
 30
0.0
 11
42.86871733722649
 21
209.90225754288
 31
0.0
  0
LINE
  5
9EEB
  8
0
 10
42.86871733722649
 20
209.90225754288
 30
0.0
 11
42.53436198722648
 21
209.90225754288
 31
0.0
  0
LINE
  5
9EEC
  8
0
 10
42.53436198722648
 20
209.90225754288
 30
0.0
 11
42.53436198722648
 21
209.56827269288
 31
0.0
  0
LINE
  5
9EED
  8
0
 10
44.20351198722648
 20
209.56827269288
 30
0.0
 11
44.53749683722646
 21
209.56827269288
 31
0.0
  0
LINE
  5
9EEE
  8
0
 10
44.53749683722646
 20
209.56827269288
 30
0.0
 11
44.53749683722646
 21
209.90225754288
 31
0.0
  0
LINE
  5
9EEF
  8
0
 10
44.53749683722646
 20
209.90225754288
 30
0.0
 11
44.20351198722648
 21
209.90225754288
 31
0.0
  0
LINE
  5
9EF0
  8
0
 10
44.20351198722648
 20
209.90225754288
 30
0.0
 11
44.20351198722648
 21
209.56827269288
 31
0.0
  0
LINE
  5
9EF1
  8
0
 10
45.20509698722645
 20
209.56827269288
 30
0.0
 11
45.53908183722649
 21
209.56827269288
 31
0.0
  0
LINE
  5
9EF2
  8
0
 10
45.53908183722649
 20
209.56827269288
 30
0.0
 11
45.53908183722649
 21
209.90225754288
 31
0.0
  0
LINE
  5
9EF3
  8
0
 10
45.53908183722649
 20
209.90225754288
 30
0.0
 11
45.20509698722645
 21
209.90225754288
 31
0.0
  0
LINE
  5
9EF4
  8
0
 10
45.20509698722645
 20
209.90225754288
 30
0.0
 11
45.20509698722645
 21
209.56827269288
 31
0.0
  0
LINE
  5
9EF5
  8
0
 10
45.87266198722648
 20
209.56827269288
 30
0.0
 11
46.87387648722648
 21
209.56827269288
 31
0.0
  0
LINE
  5
9EF6
  8
0
 10
46.87387648722648
 20
209.56827269288
 30
0.0
 11
46.87387648722648
 21
209.90225754288
 31
0.0
  0
LINE
  5
9EF7
  8
0
 10
46.87387648722648
 20
209.90225754288
 30
0.0
 11
45.87266198722648
 21
209.90225754288
 31
0.0
  0
LINE
  5
9EF8
  8
0
 10
45.87266198722648
 20
209.90225754288
 30
0.0
 11
45.87266198722648
 21
209.56827269288
 31
0.0
  0
LINE
  5
9EF9
  8
0
 10
47.54152698722646
 20
209.56827269288
 30
0.0
 11
47.87588233722647
 21
209.56827269288
 31
0.0
  0
LINE
  5
9EFA
  8
0
 10
47.87588233722647
 20
209.56827269288
 30
0.0
 11
47.87588233722647
 21
209.90225754288
 31
0.0
  0
LINE
  5
9EFB
  8
0
 10
47.87588233722647
 20
209.90225754288
 30
0.0
 11
47.54152698722646
 21
209.90225754288
 31
0.0
  0
LINE
  5
9EFC
  8
0
 10
47.54152698722646
 20
209.90225754288
 30
0.0
 11
47.54152698722646
 21
209.56827269288
 31
0.0
  0
LINE
  5
9EFD
  8
0
 10
48.54273198722649
 20
209.56827269288
 30
0.0
 11
49.20995878722647
 21
209.56827269288
 31
0.0
  0
LINE
  5
9EFE
  8
0
 10
49.20995878722647
 20
209.56827269288
 30
0.0
 11
49.20995878722647
 21
209.90225754288
 31
0.0
  0
LINE
  5
9EFF
  8
0
 10
49.20995878722647
 20
209.90225754288
 30
0.0
 11
48.54273198722649
 21
209.90225754288
 31
0.0
  0
LINE
  5
9F00
  8
0
 10
48.54273198722649
 20
209.90225754288
 30
0.0
 11
48.54273198722649
 21
209.56827269288
 31
0.0
  0
LINE
  5
9F01
  8
0
 10
49.54431698722647
 20
209.56827269288
 30
0.0
 11
50.54590198722644
 21
209.56827269288
 31
0.0
  0
LINE
  5
9F02
  8
0
 10
50.54590198722644
 20
209.56827269288
 30
0.0
 11
50.54590198722644
 21
209.90225754288
 31
0.0
  0
LINE
  5
9F03
  8
0
 10
50.54590198722644
 20
209.90225754288
 30
0.0
 11
49.54431698722647
 21
209.90225754288
 31
0.0
  0
LINE
  5
9F04
  8
0
 10
49.54431698722647
 20
209.90225754288
 30
0.0
 11
49.54431698722647
 21
209.56827269288
 31
0.0
  0
LINE
  5
9F05
  8
0
 10
51.88065198722649
 20
209.56827269288
 30
0.0
 11
52.88223698722646
 21
209.56827269288
 31
0.0
  0
LINE
  5
9F06
  8
0
 10
52.88223698722646
 20
209.56827269288
 30
0.0
 11
52.88223698722646
 21
209.90225754288
 31
0.0
  0
LINE
  5
9F07
  8
0
 10
52.88223698722646
 20
209.90225754288
 30
0.0
 11
51.88065198722649
 21
209.90225754288
 31
0.0
  0
LINE
  5
9F08
  8
0
 10
51.88065198722649
 20
209.90225754288
 30
0.0
 11
51.88065198722649
 21
209.56827269288
 31
0.0
  0
LINE
  5
9F09
  8
0
 10
43.20192698722644
 20
209.23434769288
 30
0.0
 11
43.53628328722647
 21
209.23434769288
 31
0.0
  0
LINE
  5
9F0A
  8
0
 10
43.53628328722647
 20
209.23434769288
 30
0.0
 11
43.53628328722647
 21
209.56833159288
 31
0.0
  0
LINE
  5
9F0B
  8
0
 10
43.53628328722647
 20
209.56833159288
 30
0.0
 11
43.20192698722644
 21
209.56833159288
 31
0.0
  0
LINE
  5
9F0C
  8
0
 10
43.20192698722644
 20
209.56833159288
 30
0.0
 11
43.20192698722644
 21
209.23434769288
 31
0.0
  0
LINE
  5
9F0D
  8
0
 10
43.86949198722647
 20
209.23434769288
 30
0.0
 11
45.20468848722646
 21
209.23434769288
 31
0.0
  0
LINE
  5
9F0E
  8
0
 10
45.20468848722646
 20
209.23434769288
 30
0.0
 11
45.20468848722646
 21
209.56833159288
 31
0.0
  0
LINE
  5
9F0F
  8
0
 10
45.20468848722646
 20
209.56833159288
 30
0.0
 11
43.86949198722647
 21
209.56833159288
 31
0.0
  0
LINE
  5
9F10
  8
0
 10
43.86949198722647
 20
209.56833159288
 30
0.0
 11
43.86949198722647
 21
209.23434769288
 31
0.0
  0
LINE
  5
9F11
  8
0
 10
45.53873698722646
 20
209.23434769288
 30
0.0
 11
46.20596378722649
 21
209.23434769288
 31
0.0
  0
LINE
  5
9F12
  8
0
 10
46.20596378722649
 20
209.23434769288
 30
0.0
 11
46.20596378722649
 21
209.56833159288
 31
0.0
  0
LINE
  5
9F13
  8
0
 10
46.20596378722649
 20
209.56833159288
 30
0.0
 11
45.53873698722646
 21
209.56833159288
 31
0.0
  0
LINE
  5
9F14
  8
0
 10
45.53873698722646
 20
209.56833159288
 30
0.0
 11
45.53873698722646
 21
209.23434769288
 31
0.0
  0
LINE
  5
9F15
  8
0
 10
46.54032198722649
 20
209.23434769288
 30
0.0
 11
46.87430588722646
 21
209.23434769288
 31
0.0
  0
LINE
  5
9F16
  8
0
 10
46.87430588722646
 20
209.23434769288
 30
0.0
 11
46.87430588722646
 21
209.56833159288
 31
0.0
  0
LINE
  5
9F17
  8
0
 10
46.87430588722646
 20
209.56833159288
 30
0.0
 11
46.54032198722649
 21
209.56833159288
 31
0.0
  0
LINE
  5
9F18
  8
0
 10
46.54032198722649
 20
209.56833159288
 30
0.0
 11
46.54032198722649
 21
209.23434769288
 31
0.0
  0
LINE
  5
9F19
  8
0
 10
47.54152698722646
 20
209.23434769288
 30
0.0
 11
47.87588233722647
 21
209.23434769288
 31
0.0
  0
LINE
  5
9F1A
  8
0
 10
47.87588233722647
 20
209.23434769288
 30
0.0
 11
47.87588233722647
 21
209.56833159288
 31
0.0
  0
LINE
  5
9F1B
  8
0
 10
47.87588233722647
 20
209.56833159288
 30
0.0
 11
47.54152698722646
 21
209.56833159288
 31
0.0
  0
LINE
  5
9F1C
  8
0
 10
47.54152698722646
 20
209.56833159288
 30
0.0
 11
47.54152698722646
 21
209.23434769288
 31
0.0
  0
LINE
  5
9F1D
  8
0
 10
48.54273198722649
 20
209.23434769288
 30
0.0
 11
48.87671683722647
 21
209.23434769288
 31
0.0
  0
LINE
  5
9F1E
  8
0
 10
48.87671683722647
 20
209.23434769288
 30
0.0
 11
48.87671683722647
 21
209.56833159288
 31
0.0
  0
LINE
  5
9F1F
  8
0
 10
48.87671683722647
 20
209.56833159288
 30
0.0
 11
48.54273198722649
 21
209.56833159288
 31
0.0
  0
LINE
  5
9F20
  8
0
 10
48.54273198722649
 20
209.56833159288
 30
0.0
 11
48.54273198722649
 21
209.23434769288
 31
0.0
  0
LINE
  5
9F21
  8
0
 10
49.20991698722645
 20
209.23434769288
 30
0.0
 11
49.54427233722646
 21
209.23434769288
 31
0.0
  0
LINE
  5
9F22
  8
0
 10
49.54427233722646
 20
209.23434769288
 30
0.0
 11
49.54427233722646
 21
209.56833159288
 31
0.0
  0
LINE
  5
9F23
  8
0
 10
49.54427233722646
 20
209.56833159288
 30
0.0
 11
49.20991698722645
 21
209.56833159288
 31
0.0
  0
LINE
  5
9F24
  8
0
 10
49.20991698722645
 20
209.56833159288
 30
0.0
 11
49.20991698722645
 21
209.23434769288
 31
0.0
  0
LINE
  5
9F25
  8
0
 10
49.87748198722647
 20
209.23434769288
 30
0.0
 11
50.2114658872265
 21
209.23434769288
 31
0.0
  0
LINE
  5
9F26
  8
0
 10
50.2114658872265
 20
209.23434769288
 30
0.0
 11
50.2114658872265
 21
209.56833159288
 31
0.0
  0
LINE
  5
9F27
  8
0
 10
50.2114658872265
 20
209.56833159288
 30
0.0
 11
49.87748198722647
 21
209.56833159288
 31
0.0
  0
LINE
  5
9F28
  8
0
 10
49.87748198722647
 20
209.56833159288
 30
0.0
 11
49.87748198722647
 21
209.23434769288
 31
0.0
  0
LINE
  5
9F29
  8
0
 10
50.54590198722644
 20
209.23434769288
 30
0.0
 11
51.54711648722645
 21
209.23434769288
 31
0.0
  0
LINE
  5
9F2A
  8
0
 10
51.54711648722645
 20
209.23434769288
 30
0.0
 11
51.54711648722645
 21
209.56833159288
 31
0.0
  0
LINE
  5
9F2B
  8
0
 10
51.54711648722645
 20
209.56833159288
 30
0.0
 11
50.54590198722644
 21
209.56833159288
 31
0.0
  0
LINE
  5
9F2C
  8
0
 10
50.54590198722644
 20
209.56833159288
 30
0.0
 11
50.54590198722644
 21
209.23434769288
 31
0.0
  0
LINE
  5
9F2D
  8
0
 10
51.88065198722649
 20
209.23434769288
 30
0.0
 11
52.21463683722646
 21
209.23434769288
 31
0.0
  0
LINE
  5
9F2E
  8
0
 10
52.21463683722646
 20
209.23434769288
 30
0.0
 11
52.21463683722646
 21
209.56833159288
 31
0.0
  0
LINE
  5
9F2F
  8
0
 10
52.21463683722646
 20
209.56833159288
 30
0.0
 11
51.88065198722649
 21
209.56833159288
 31
0.0
  0
LINE
  5
9F30
  8
0
 10
51.88065198722649
 20
209.56833159288
 30
0.0
 11
51.88065198722649
 21
209.23434769288
 31
0.0
  0
LINE
  5
9F31
  8
0
 10
52.54831198722644
 20
209.23434769288
 30
0.0
 11
53.21553783722646
 21
209.23434769288
 31
0.0
  0
LINE
  5
9F32
  8
0
 10
53.21553783722646
 20
209.23434769288
 30
0.0
 11
53.21553783722646
 21
209.56833159288
 31
0.0
  0
LINE
  5
9F33
  8
0
 10
53.21553783722646
 20
209.56833159288
 30
0.0
 11
52.54831198722644
 21
209.56833159288
 31
0.0
  0
LINE
  5
9F34
  8
0
 10
52.54831198722644
 20
209.56833159288
 30
0.0
 11
52.54831198722644
 21
209.23434769288
 31
0.0
  0
LINE
  5
9F35
  8
0
 10
42.53436198722648
 20
208.89994769288
 30
0.0
 11
43.20195928722643
 21
208.89994769288
 31
0.0
  0
LINE
  5
9F36
  8
0
 10
43.20195928722643
 20
208.89994769288
 30
0.0
 11
43.20195928722643
 21
209.23430304288
 31
0.0
  0
LINE
  5
9F37
  8
0
 10
43.20195928722643
 20
209.23430304288
 30
0.0
 11
42.53436198722648
 21
209.23430304288
 31
0.0
  0
LINE
  5
9F38
  8
0
 10
42.53436198722648
 20
209.23430304288
 30
0.0
 11
42.53436198722648
 21
208.89994769288
 31
0.0
  0
LINE
  5
9F39
  8
0
 10
43.53585198722647
 20
208.89994769288
 30
0.0
 11
44.20344928722648
 21
208.89994769288
 31
0.0
  0
LINE
  5
9F3A
  8
0
 10
44.20344928722648
 20
208.89994769288
 30
0.0
 11
44.20344928722648
 21
209.23430304288
 31
0.0
  0
LINE
  5
9F3B
  8
0
 10
44.20344928722648
 20
209.23430304288
 30
0.0
 11
43.53585198722647
 21
209.23430304288
 31
0.0
  0
LINE
  5
9F3C
  8
0
 10
43.53585198722647
 20
209.23430304288
 30
0.0
 11
43.53585198722647
 21
208.89994769288
 31
0.0
  0
LINE
  5
9F3D
  8
0
 10
44.87107698722644
 20
208.89994769288
 30
0.0
 11
45.20506088722647
 21
208.89994769288
 31
0.0
  0
LINE
  5
9F3E
  8
0
 10
45.20506088722647
 20
208.89994769288
 30
0.0
 11
45.20506088722647
 21
209.23430304288
 31
0.0
  0
LINE
  5
9F3F
  8
0
 10
45.20506088722647
 20
209.23430304288
 30
0.0
 11
44.87107698722644
 21
209.23430304288
 31
0.0
  0
LINE
  5
9F40
  8
0
 10
44.87107698722644
 20
209.23430304288
 30
0.0
 11
44.87107698722644
 21
208.89994769288
 31
0.0
  0
LINE
  5
9F41
  8
0
 10
45.87266198722648
 20
208.89994769288
 30
0.0
 11
46.53988783722644
 21
208.89994769288
 31
0.0
  0
LINE
  5
9F42
  8
0
 10
46.53988783722644
 20
208.89994769288
 30
0.0
 11
46.53988783722644
 21
209.23430304288
 31
0.0
  0
LINE
  5
9F43
  8
0
 10
46.53988783722644
 20
209.23430304288
 30
0.0
 11
45.87266198722648
 21
209.23430304288
 31
0.0
  0
LINE
  5
9F44
  8
0
 10
45.87266198722648
 20
209.23430304288
 30
0.0
 11
45.87266198722648
 21
208.89994769288
 31
0.0
  0
LINE
  5
9F45
  8
0
 10
47.20750698722645
 20
208.89994769288
 30
0.0
 11
47.87510428722646
 21
208.89994769288
 31
0.0
  0
LINE
  5
9F46
  8
0
 10
47.87510428722646
 20
208.89994769288
 30
0.0
 11
47.87510428722646
 21
209.23430304288
 31
0.0
  0
LINE
  5
9F47
  8
0
 10
47.87510428722646
 20
209.23430304288
 30
0.0
 11
47.20750698722645
 21
209.23430304288
 31
0.0
  0
LINE
  5
9F48
  8
0
 10
47.20750698722645
 20
209.23430304288
 30
0.0
 11
47.20750698722645
 21
208.89994769288
 31
0.0
  0
LINE
  5
9F49
  8
0
 10
48.87665698722645
 20
208.89994769288
 30
0.0
 11
49.54425428722647
 21
208.89994769288
 31
0.0
  0
LINE
  5
9F4A
  8
0
 10
49.54425428722647
 20
208.89994769288
 30
0.0
 11
49.54425428722647
 21
209.23430304288
 31
0.0
  0
LINE
  5
9F4B
  8
0
 10
49.54425428722647
 20
209.23430304288
 30
0.0
 11
48.87665698722645
 21
209.23430304288
 31
0.0
  0
LINE
  5
9F4C
  8
0
 10
48.87665698722645
 20
209.23430304288
 30
0.0
 11
48.87665698722645
 21
208.89994769288
 31
0.0
  0
LINE
  5
9F4D
  8
0
 10
49.87748198722647
 20
208.89994769288
 30
0.0
 11
50.54507928722649
 21
208.89994769288
 31
0.0
  0
LINE
  5
9F4E
  8
0
 10
50.54507928722649
 20
208.89994769288
 30
0.0
 11
50.54507928722649
 21
209.23430304288
 31
0.0
  0
LINE
  5
9F4F
  8
0
 10
50.54507928722649
 20
209.23430304288
 30
0.0
 11
49.87748198722647
 21
209.23430304288
 31
0.0
  0
LINE
  5
9F50
  8
0
 10
49.87748198722647
 20
209.23430304288
 30
0.0
 11
49.87748198722647
 21
208.89994769288
 31
0.0
  0
LINE
  5
9F51
  8
0
 10
50.87906698722645
 20
208.89994769288
 30
0.0
 11
51.21305183722649
 21
208.89994769288
 31
0.0
  0
LINE
  5
9F52
  8
0
 10
51.21305183722649
 20
208.89994769288
 30
0.0
 11
51.21305183722649
 21
209.23430304288
 31
0.0
  0
LINE
  5
9F53
  8
0
 10
51.21305183722649
 20
209.23430304288
 30
0.0
 11
50.87906698722645
 21
209.23430304288
 31
0.0
  0
LINE
  5
9F54
  8
0
 10
50.87906698722645
 20
209.23430304288
 30
0.0
 11
50.87906698722645
 21
208.89994769288
 31
0.0
  0
LINE
  5
9F55
  8
0
 10
51.54672698722646
 20
208.89994769288
 30
0.0
 11
53.54914648722649
 21
208.89994769288
 31
0.0
  0
LINE
  5
9F56
  8
0
 10
53.54914648722649
 20
208.89994769288
 30
0.0
 11
53.54914648722649
 21
209.23430304288
 31
0.0
  0
LINE
  5
9F57
  8
0
 10
53.54914648722649
 20
209.23430304288
 30
0.0
 11
51.54672698722646
 21
209.23430304288
 31
0.0
  0
LINE
  5
9F58
  8
0
 10
51.54672698722646
 20
209.23430304288
 30
0.0
 11
51.54672698722646
 21
208.89994769288
 31
0.0
  0
LINE
  5
9F59
  8
0
 10
42.86866698722645
 20
208.56668769288
 30
0.0
 11
43.20265183722648
 21
208.56668769288
 31
0.0
  0
LINE
  5
9F5A
  8
0
 10
43.20265183722648
 20
208.56668769288
 30
0.0
 11
43.20265183722648
 21
208.90067254288
 31
0.0
  0
LINE
  5
9F5B
  8
0
 10
43.20265183722648
 20
208.90067254288
 30
0.0
 11
42.86866698722645
 21
208.90067254288
 31
0.0
  0
LINE
  5
9F5C
  8
0
 10
42.86866698722645
 20
208.90067254288
 30
0.0
 11
42.86866698722645
 21
208.56668769288
 31
0.0
  0
LINE
  5
9F5D
  8
0
 10
43.53585198722647
 20
208.56668769288
 30
0.0
 11
43.86983588722649
 21
208.56668769288
 31
0.0
  0
LINE
  5
9F5E
  8
0
 10
43.86983588722649
 20
208.56668769288
 30
0.0
 11
43.86983588722649
 21
208.90067254288
 31
0.0
  0
LINE
  5
9F5F
  8
0
 10
43.86983588722649
 20
208.90067254288
 30
0.0
 11
43.53585198722647
 21
208.90067254288
 31
0.0
  0
LINE
  5
9F60
  8
0
 10
43.53585198722647
 20
208.90067254288
 30
0.0
 11
43.53585198722647
 21
208.56668769288
 31
0.0
  0
LINE
  5
9F61
  8
0
 10
44.53743698722644
 20
208.56668769288
 30
0.0
 11
45.53902198722648
 21
208.56668769288
 31
0.0
  0
LINE
  5
9F62
  8
0
 10
45.53902198722648
 20
208.56668769288
 30
0.0
 11
45.53902198722648
 21
208.90067254288
 31
0.0
  0
LINE
  5
9F63
  8
0
 10
45.53902198722648
 20
208.90067254288
 30
0.0
 11
44.53743698722644
 21
208.90067254288
 31
0.0
  0
LINE
  5
9F64
  8
0
 10
44.53743698722644
 20
208.90067254288
 30
0.0
 11
44.53743698722644
 21
208.56668769288
 31
0.0
  0
LINE
  5
9F65
  8
0
 10
46.87348698722644
 20
208.56668769288
 30
0.0
 11
47.54108523722647
 21
208.56668769288
 31
0.0
  0
LINE
  5
9F66
  8
0
 10
47.54108523722647
 20
208.56668769288
 30
0.0
 11
47.54108523722647
 21
208.90067254288
 31
0.0
  0
LINE
  5
9F67
  8
0
 10
47.54108523722647
 20
208.90067254288
 30
0.0
 11
46.87348698722644
 21
208.90067254288
 31
0.0
  0
LINE
  5
9F68
  8
0
 10
46.87348698722644
 20
208.90067254288
 30
0.0
 11
46.87348698722644
 21
208.56668769288
 31
0.0
  0
LINE
  5
9F69
  8
0
 10
47.87507198722648
 20
208.56668769288
 30
0.0
 11
48.87665698722645
 21
208.56668769288
 31
0.0
  0
LINE
  5
9F6A
  8
0
 10
48.87665698722645
 20
208.56668769288
 30
0.0
 11
48.87665698722645
 21
208.90067254288
 31
0.0
  0
LINE
  5
9F6B
  8
0
 10
48.87665698722645
 20
208.90067254288
 30
0.0
 11
47.87507198722648
 21
208.90067254288
 31
0.0
  0
LINE
  5
9F6C
  8
0
 10
47.87507198722648
 20
208.90067254288
 30
0.0
 11
47.87507198722648
 21
208.56668769288
 31
0.0
  0
LINE
  5
9F6D
  8
0
 10
49.20991698722645
 20
208.56668769288
 30
0.0
 11
50.21150198722648
 21
208.56668769288
 31
0.0
  0
LINE
  5
9F6E
  8
0
 10
50.21150198722648
 20
208.56668769288
 30
0.0
 11
50.21150198722648
 21
208.90067254288
 31
0.0
  0
LINE
  5
9F6F
  8
0
 10
50.21150198722648
 20
208.90067254288
 30
0.0
 11
49.20991698722645
 21
208.90067254288
 31
0.0
  0
LINE
  5
9F70
  8
0
 10
49.20991698722645
 20
208.90067254288
 30
0.0
 11
49.20991698722645
 21
208.56668769288
 31
0.0
  0
LINE
  5
9F71
  8
0
 10
50.54590198722644
 20
208.56668769288
 30
0.0
 11
50.87988683722648
 21
208.56668769288
 31
0.0
  0
LINE
  5
9F72
  8
0
 10
50.87988683722648
 20
208.56668769288
 30
0.0
 11
50.87988683722648
 21
208.90067254288
 31
0.0
  0
LINE
  5
9F73
  8
0
 10
50.87988683722648
 20
208.90067254288
 30
0.0
 11
50.54590198722644
 21
208.90067254288
 31
0.0
  0
LINE
  5
9F74
  8
0
 10
50.54590198722644
 20
208.90067254288
 30
0.0
 11
50.54590198722644
 21
208.56668769288
 31
0.0
  0
LINE
  5
9F75
  8
0
 10
51.21308698722646
 20
208.56668769288
 30
0.0
 11
51.88068428722647
 21
208.56668769288
 31
0.0
  0
LINE
  5
9F76
  8
0
 10
51.88068428722647
 20
208.56668769288
 30
0.0
 11
51.88068428722647
 21
208.90067254288
 31
0.0
  0
LINE
  5
9F77
  8
0
 10
51.88068428722647
 20
208.90067254288
 30
0.0
 11
51.21308698722646
 21
208.90067254288
 31
0.0
  0
LINE
  5
9F78
  8
0
 10
51.21308698722646
 20
208.90067254288
 30
0.0
 11
51.21308698722646
 21
208.56668769288
 31
0.0
  0
LINE
  5
9F79
  8
0
 10
42.53436198722648
 20
208.23276269288
 30
0.0
 11
43.20195928722643
 21
208.23276269288
 31
0.0
  0
LINE
  5
9F7A
  8
0
 10
43.20195928722643
 20
208.23276269288
 30
0.0
 11
43.20195928722643
 21
208.56674659288
 31
0.0
  0
LINE
  5
9F7B
  8
0
 10
43.20195928722643
 20
208.56674659288
 30
0.0
 11
42.53436198722648
 21
208.56674659288
 31
0.0
  0
LINE
  5
9F7C
  8
0
 10
42.53436198722648
 20
208.56674659288
 30
0.0
 11
42.53436198722648
 21
208.23276269288
 31
0.0
  0
LINE
  5
9F7D
  8
0
 10
43.53585198722647
 20
208.23276269288
 30
0.0
 11
44.20344928722648
 21
208.23276269288
 31
0.0
  0
LINE
  5
9F7E
  8
0
 10
44.20344928722648
 20
208.23276269288
 30
0.0
 11
44.20344928722648
 21
208.56674659288
 31
0.0
  0
LINE
  5
9F7F
  8
0
 10
44.20344928722648
 20
208.56674659288
 30
0.0
 11
43.53585198722647
 21
208.56674659288
 31
0.0
  0
LINE
  5
9F80
  8
0
 10
43.53585198722647
 20
208.56674659288
 30
0.0
 11
43.53585198722647
 21
208.23276269288
 31
0.0
  0
LINE
  5
9F81
  8
0
 10
44.87107698722644
 20
208.23276269288
 30
0.0
 11
45.53867428722646
 21
208.23276269288
 31
0.0
  0
LINE
  5
9F82
  8
0
 10
45.53867428722646
 20
208.23276269288
 30
0.0
 11
45.53867428722646
 21
208.56674659288
 31
0.0
  0
LINE
  5
9F83
  8
0
 10
45.53867428722646
 20
208.56674659288
 30
0.0
 11
44.87107698722644
 21
208.56674659288
 31
0.0
  0
LINE
  5
9F84
  8
0
 10
44.87107698722644
 20
208.56674659288
 30
0.0
 11
44.87107698722644
 21
208.23276269288
 31
0.0
  0
LINE
  5
9F85
  8
0
 10
46.20592198722647
 20
208.23276269288
 30
0.0
 11
46.87351928722649
 21
208.23276269288
 31
0.0
  0
LINE
  5
9F86
  8
0
 10
46.87351928722649
 20
208.23276269288
 30
0.0
 11
46.87351928722649
 21
208.56674659288
 31
0.0
  0
LINE
  5
9F87
  8
0
 10
46.87351928722649
 20
208.56674659288
 30
0.0
 11
46.20592198722647
 21
208.56674659288
 31
0.0
  0
LINE
  5
9F88
  8
0
 10
46.20592198722647
 20
208.56674659288
 30
0.0
 11
46.20592198722647
 21
208.23276269288
 31
0.0
  0
LINE
  5
9F89
  8
0
 10
47.20750698722645
 20
208.23276269288
 30
0.0
 11
47.54149088722647
 21
208.23276269288
 31
0.0
  0
LINE
  5
9F8A
  8
0
 10
47.54149088722647
 20
208.23276269288
 30
0.0
 11
47.54149088722647
 21
208.56674659288
 31
0.0
  0
LINE
  5
9F8B
  8
0
 10
47.54149088722647
 20
208.56674659288
 30
0.0
 11
47.20750698722645
 21
208.56674659288
 31
0.0
  0
LINE
  5
9F8C
  8
0
 10
47.20750698722645
 20
208.56674659288
 30
0.0
 11
47.20750698722645
 21
208.23276269288
 31
0.0
  0
LINE
  5
9F8D
  8
0
 10
47.87507198722648
 20
208.23276269288
 30
0.0
 11
48.54266928722649
 21
208.23276269288
 31
0.0
  0
LINE
  5
9F8E
  8
0
 10
48.54266928722649
 20
208.23276269288
 30
0.0
 11
48.54266928722649
 21
208.56674659288
 31
0.0
  0
LINE
  5
9F8F
  8
0
 10
48.54266928722649
 20
208.56674659288
 30
0.0
 11
47.87507198722648
 21
208.56674659288
 31
0.0
  0
LINE
  5
9F90
  8
0
 10
47.87507198722648
 20
208.56674659288
 30
0.0
 11
47.87507198722648
 21
208.23276269288
 31
0.0
  0
LINE
  5
9F91
  8
0
 10
49.20991698722645
 20
208.23276269288
 30
0.0
 11
49.87751523722648
 21
208.23276269288
 31
0.0
  0
LINE
  5
9F92
  8
0
 10
49.87751523722648
 20
208.23276269288
 30
0.0
 11
49.87751523722648
 21
208.56674659288
 31
0.0
  0
LINE
  5
9F93
  8
0
 10
49.87751523722648
 20
208.56674659288
 30
0.0
 11
49.20991698722645
 21
208.56674659288
 31
0.0
  0
LINE
  5
9F94
  8
0
 10
49.20991698722645
 20
208.56674659288
 30
0.0
 11
49.20991698722645
 21
208.23276269288
 31
0.0
  0
LINE
  5
9F95
  8
0
 10
50.21150198722648
 20
208.23276269288
 30
0.0
 11
50.54585733722649
 21
208.23276269288
 31
0.0
  0
LINE
  5
9F96
  8
0
 10
50.54585733722649
 20
208.23276269288
 30
0.0
 11
50.54585733722649
 21
208.56674659288
 31
0.0
  0
LINE
  5
9F97
  8
0
 10
50.54585733722649
 20
208.56674659288
 30
0.0
 11
50.21150198722648
 21
208.56674659288
 31
0.0
  0
LINE
  5
9F98
  8
0
 10
50.21150198722648
 20
208.56674659288
 30
0.0
 11
50.21150198722648
 21
208.23276269288
 31
0.0
  0
LINE
  5
9F99
  8
0
 10
51.21308698722646
 20
208.23276269288
 30
0.0
 11
51.54707088722648
 21
208.23276269288
 31
0.0
  0
LINE
  5
9F9A
  8
0
 10
51.54707088722648
 20
208.23276269288
 30
0.0
 11
51.54707088722648
 21
208.56674659288
 31
0.0
  0
LINE
  5
9F9B
  8
0
 10
51.54707088722648
 20
208.56674659288
 30
0.0
 11
51.21308698722646
 21
208.56674659288
 31
0.0
  0
LINE
  5
9F9C
  8
0
 10
51.21308698722646
 20
208.56674659288
 30
0.0
 11
51.21308698722646
 21
208.23276269288
 31
0.0
  0
LINE
  5
9F9D
  8
0
 10
52.21391198722648
 20
208.23276269288
 30
0.0
 11
53.54910848722648
 21
208.23276269288
 31
0.0
  0
LINE
  5
9F9E
  8
0
 10
53.54910848722648
 20
208.23276269288
 30
0.0
 11
53.54910848722648
 21
208.56674659288
 31
0.0
  0
LINE
  5
9F9F
  8
0
 10
53.54910848722648
 20
208.56674659288
 30
0.0
 11
52.21391198722648
 21
208.56674659288
 31
0.0
  0
LINE
  5
9FA0
  8
0
 10
52.21391198722648
 20
208.56674659288
 30
0.0
 11
52.21391198722648
 21
208.23276269288
 31
0.0
  0
LINE
  5
9FA1
  8
0
 10
42.86866698722645
 20
207.89912269288
 30
0.0
 11
46.20665348722645
 21
207.89912269288
 31
0.0
  0
LINE
  5
9FA2
  8
0
 10
46.20665348722645
 20
207.89912269288
 30
0.0
 11
46.20665348722645
 21
208.23310754288
 31
0.0
  0
LINE
  5
9FA3
  8
0
 10
46.20665348722645
 20
208.23310754288
 30
0.0
 11
42.86866698722645
 21
208.23310754288
 31
0.0
  0
LINE
  5
9FA4
  8
0
 10
42.86866698722645
 20
208.23310754288
 30
0.0
 11
42.86866698722645
 21
207.89912269288
 31
0.0
  0
LINE
  5
9FA5
  8
0
 10
46.87348698722644
 20
207.89912269288
 30
0.0
 11
47.20747183722648
 21
207.89912269288
 31
0.0
  0
LINE
  5
9FA6
  8
0
 10
47.20747183722648
 20
207.89912269288
 30
0.0
 11
47.20747183722648
 21
208.23310754288
 31
0.0
  0
LINE
  5
9FA7
  8
0
 10
47.20747183722648
 20
208.23310754288
 30
0.0
 11
46.87348698722644
 21
208.23310754288
 31
0.0
  0
LINE
  5
9FA8
  8
0
 10
46.87348698722644
 20
208.23310754288
 30
0.0
 11
46.87348698722644
 21
207.89912269288
 31
0.0
  0
LINE
  5
9FA9
  8
0
 10
48.20909198722649
 20
207.89912269288
 30
0.0
 11
48.54307588722645
 21
207.89912269288
 31
0.0
  0
LINE
  5
9FAA
  8
0
 10
48.54307588722645
 20
207.89912269288
 30
0.0
 11
48.54307588722645
 21
208.23310754288
 31
0.0
  0
LINE
  5
9FAB
  8
0
 10
48.54307588722645
 20
208.23310754288
 30
0.0
 11
48.20909198722649
 21
208.23310754288
 31
0.0
  0
LINE
  5
9FAC
  8
0
 10
48.20909198722649
 20
208.23310754288
 30
0.0
 11
48.20909198722649
 21
207.89912269288
 31
0.0
  0
LINE
  5
9FAD
  8
0
 10
48.87665698722645
 20
207.89912269288
 30
0.0
 11
49.21064088722648
 21
207.89912269288
 31
0.0
  0
LINE
  5
9FAE
  8
0
 10
49.21064088722648
 20
207.89912269288
 30
0.0
 11
49.21064088722648
 21
208.23310754288
 31
0.0
  0
LINE
  5
9FAF
  8
0
 10
49.21064088722648
 20
208.23310754288
 30
0.0
 11
48.87665698722645
 21
208.23310754288
 31
0.0
  0
LINE
  5
9FB0
  8
0
 10
48.87665698722645
 20
208.23310754288
 30
0.0
 11
48.87665698722645
 21
207.89912269288
 31
0.0
  0
LINE
  5
9FB1
  8
0
 10
50.87906698722645
 20
207.89912269288
 30
0.0
 11
51.54666523722648
 21
207.89912269288
 31
0.0
  0
LINE
  5
9FB2
  8
0
 10
51.54666523722648
 20
207.89912269288
 30
0.0
 11
51.54666523722648
 21
208.23310754288
 31
0.0
  0
LINE
  5
9FB3
  8
0
 10
51.54666523722648
 20
208.23310754288
 30
0.0
 11
50.87906698722645
 21
208.23310754288
 31
0.0
  0
LINE
  5
9FB4
  8
0
 10
50.87906698722645
 20
208.23310754288
 30
0.0
 11
50.87906698722645
 21
207.89912269288
 31
0.0
  0
LINE
  5
9FB5
  8
0
 10
51.88065198722649
 20
207.89912269288
 30
0.0
 11
52.21463683722646
 21
207.89912269288
 31
0.0
  0
LINE
  5
9FB6
  8
0
 10
52.21463683722646
 20
207.89912269288
 30
0.0
 11
52.21463683722646
 21
208.23310754288
 31
0.0
  0
LINE
  5
9FB7
  8
0
 10
52.21463683722646
 20
208.23310754288
 30
0.0
 11
51.88065198722649
 21
208.23310754288
 31
0.0
  0
LINE
  5
9FB8
  8
0
 10
51.88065198722649
 20
208.23310754288
 30
0.0
 11
51.88065198722649
 21
207.89912269288
 31
0.0
  0
LINE
  5
9FB9
  8
0
 10
52.54831198722644
 20
207.89912269288
 30
0.0
 11
53.21553783722646
 21
207.89912269288
 31
0.0
  0
LINE
  5
9FBA
  8
0
 10
53.21553783722646
 20
207.89912269288
 30
0.0
 11
53.21553783722646
 21
208.23310754288
 31
0.0
  0
LINE
  5
9FBB
  8
0
 10
53.21553783722646
 20
208.23310754288
 30
0.0
 11
52.54831198722644
 21
208.23310754288
 31
0.0
  0
LINE
  5
9FBC
  8
0
 10
52.54831198722644
 20
208.23310754288
 30
0.0
 11
52.54831198722644
 21
207.89912269288
 31
0.0
  0
LINE
  5
9FBD
  8
0
 10
42.53436198722648
 20
207.56510269288
 30
0.0
 11
43.20195928722643
 21
207.56510269288
 31
0.0
  0
LINE
  5
9FBE
  8
0
 10
43.20195928722643
 20
207.56510269288
 30
0.0
 11
43.20195928722643
 21
207.89912269288
 31
0.0
  0
LINE
  5
9FBF
  8
0
 10
43.20195928722643
 20
207.89912269288
 30
0.0
 11
42.53436198722648
 21
207.89912269288
 31
0.0
  0
LINE
  5
9FC0
  8
0
 10
42.53436198722648
 20
207.89912269288
 30
0.0
 11
42.53436198722648
 21
207.56510269288
 31
0.0
  0
LINE
  5
9FC1
  8
0
 10
43.53585198722647
 20
207.56510269288
 30
0.0
 11
44.20344928722648
 21
207.56510269288
 31
0.0
  0
LINE
  5
9FC2
  8
0
 10
44.20344928722648
 20
207.56510269288
 30
0.0
 11
44.20344928722648
 21
207.89912269288
 31
0.0
  0
LINE
  5
9FC3
  8
0
 10
44.20344928722648
 20
207.89912269288
 30
0.0
 11
43.53585198722647
 21
207.89912269288
 31
0.0
  0
LINE
  5
9FC4
  8
0
 10
43.53585198722647
 20
207.89912269288
 30
0.0
 11
43.53585198722647
 21
207.56510269288
 31
0.0
  0
LINE
  5
9FC5
  8
0
 10
45.53873698722646
 20
207.56510269288
 30
0.0
 11
45.87272183722644
 21
207.56510269288
 31
0.0
  0
LINE
  5
9FC6
  8
0
 10
45.87272183722644
 20
207.56510269288
 30
0.0
 11
45.87272183722644
 21
207.89912269288
 31
0.0
  0
LINE
  5
9FC7
  8
0
 10
45.87272183722644
 20
207.89912269288
 30
0.0
 11
45.53873698722646
 21
207.89912269288
 31
0.0
  0
LINE
  5
9FC8
  8
0
 10
45.53873698722646
 20
207.89912269288
 30
0.0
 11
45.53873698722646
 21
207.56510269288
 31
0.0
  0
LINE
  5
9FC9
  8
0
 10
46.54032198722649
 20
207.56510269288
 30
0.0
 11
46.87430588722646
 21
207.56510269288
 31
0.0
  0
LINE
  5
9FCA
  8
0
 10
46.87430588722646
 20
207.56510269288
 30
0.0
 11
46.87430588722646
 21
207.89912269288
 31
0.0
  0
LINE
  5
9FCB
  8
0
 10
46.87430588722646
 20
207.89912269288
 30
0.0
 11
46.54032198722649
 21
207.89912269288
 31
0.0
  0
LINE
  5
9FCC
  8
0
 10
46.54032198722649
 20
207.89912269288
 30
0.0
 11
46.54032198722649
 21
207.56510269288
 31
0.0
  0
LINE
  5
9FCD
  8
0
 10
47.20750698722645
 20
207.56510269288
 30
0.0
 11
47.87510428722646
 21
207.56510269288
 31
0.0
  0
LINE
  5
9FCE
  8
0
 10
47.87510428722646
 20
207.56510269288
 30
0.0
 11
47.87510428722646
 21
207.89912269288
 31
0.0
  0
LINE
  5
9FCF
  8
0
 10
47.87510428722646
 20
207.89912269288
 30
0.0
 11
47.20750698722645
 21
207.89912269288
 31
0.0
  0
LINE
  5
9FD0
  8
0
 10
47.20750698722645
 20
207.89912269288
 30
0.0
 11
47.20750698722645
 21
207.56510269288
 31
0.0
  0
LINE
  5
9FD1
  8
0
 10
48.54273198722649
 20
207.56510269288
 30
0.0
 11
49.20995878722647
 21
207.56510269288
 31
0.0
  0
LINE
  5
9FD2
  8
0
 10
49.20995878722647
 20
207.56510269288
 30
0.0
 11
49.20995878722647
 21
207.89912269288
 31
0.0
  0
LINE
  5
9FD3
  8
0
 10
49.20995878722647
 20
207.89912269288
 30
0.0
 11
48.54273198722649
 21
207.89912269288
 31
0.0
  0
LINE
  5
9FD4
  8
0
 10
48.54273198722649
 20
207.89912269288
 30
0.0
 11
48.54273198722649
 21
207.56510269288
 31
0.0
  0
LINE
  5
9FD5
  8
0
 10
50.87906698722645
 20
207.56510269288
 30
0.0
 11
51.21308698722646
 21
207.56510269288
 31
0.0
  0
LINE
  5
9FD6
  8
0
 10
51.21308698722646
 20
207.56510269288
 30
0.0
 11
51.21308698722646
 21
207.89912269288
 31
0.0
  0
LINE
  5
9FD7
  8
0
 10
51.21308698722646
 20
207.89912269288
 30
0.0
 11
50.87910213722648
 21
207.89912269288
 31
0.0
  0
LINE
  5
9FD8
  8
0
 10
50.87910213722648
 20
207.89912269288
 30
0.0
 11
50.87906698722645
 21
207.56510269288
 31
0.0
  0
LINE
  5
9FD9
  8
0
 10
51.88065198722649
 20
207.56510269288
 30
0.0
 11
52.88223698722646
 21
207.56510269288
 31
0.0
  0
LINE
  5
9FDA
  8
0
 10
52.88223698722646
 20
207.56510269288
 30
0.0
 11
52.88223698722646
 21
207.89912269288
 31
0.0
  0
LINE
  5
9FDB
  8
0
 10
52.88223698722646
 20
207.89912269288
 30
0.0
 11
51.88065198722649
 21
207.89912269288
 31
0.0
  0
LINE
  5
9FDC
  8
0
 10
51.88065198722649
 20
207.89912269288
 30
0.0
 11
51.88065198722649
 21
207.56510269288
 31
0.0
  0
LINE
  5
9FDD
  8
0
 10
53.21549698722646
 20
207.56510269288
 30
0.0
 11
53.54985328722648
 21
207.56510269288
 31
0.0
  0
LINE
  5
9FDE
  8
0
 10
53.54985328722648
 20
207.56510269288
 30
0.0
 11
53.54985328722648
 21
207.89912269288
 31
0.0
  0
LINE
  5
9FDF
  8
0
 10
53.54985328722648
 20
207.89912269288
 30
0.0
 11
53.21549698722646
 21
207.89912269288
 31
0.0
  0
LINE
  5
9FE0
  8
0
 10
53.21549698722646
 20
207.89912269288
 30
0.0
 11
53.21549698722646
 21
207.56510269288
 31
0.0
  0
LINE
  5
9FE1
  8
0
 10
42.86866698722645
 20
207.23155769288
 30
0.0
 11
43.20265183722648
 21
207.23155769288
 31
0.0
  0
LINE
  5
9FE2
  8
0
 10
43.20265183722648
 20
207.23155769288
 30
0.0
 11
43.20265183722648
 21
207.56591304288
 31
0.0
  0
LINE
  5
9FE3
  8
0
 10
43.20265183722648
 20
207.56591304288
 30
0.0
 11
42.86866698722645
 21
207.56591304288
 31
0.0
  0
LINE
  5
9FE4
  8
0
 10
42.86866698722645
 20
207.56591304288
 30
0.0
 11
42.86866698722645
 21
207.23155769288
 31
0.0
  0
LINE
  5
9FE5
  8
0
 10
44.53743698722644
 20
207.23155769288
 30
0.0
 11
44.87142088722646
 21
207.23155769288
 31
0.0
  0
LINE
  5
9FE6
  8
0
 10
44.87142088722646
 20
207.23155769288
 30
0.0
 11
44.87142088722646
 21
207.56591304288
 31
0.0
  0
LINE
  5
9FE7
  8
0
 10
44.87142088722646
 20
207.56591304288
 30
0.0
 11
44.53743698722644
 21
207.56591304288
 31
0.0
  0
LINE
  5
9FE8
  8
0
 10
44.53743698722644
 20
207.56591304288
 30
0.0
 11
44.53743698722644
 21
207.23155769288
 31
0.0
  0
LINE
  5
9FE9
  8
0
 10
45.53873698722646
 20
207.23155769288
 30
0.0
 11
46.20596378722649
 21
207.23155769288
 31
0.0
  0
LINE
  5
9FEA
  8
0
 10
46.20596378722649
 20
207.23155769288
 30
0.0
 11
46.20596378722649
 21
207.56591304288
 31
0.0
  0
LINE
  5
9FEB
  8
0
 10
46.20596378722649
 20
207.56591304288
 30
0.0
 11
45.53873698722646
 21
207.56591304288
 31
0.0
  0
LINE
  5
9FEC
  8
0
 10
45.53873698722646
 20
207.56591304288
 30
0.0
 11
45.53873698722646
 21
207.23155769288
 31
0.0
  0
LINE
  5
9FED
  8
0
 10
46.54032198722649
 20
207.23155769288
 30
0.0
 11
47.20754878722647
 21
207.23155769288
 31
0.0
  0
LINE
  5
9FEE
  8
0
 10
47.20754878722647
 20
207.23155769288
 30
0.0
 11
47.20754878722647
 21
207.56591304288
 31
0.0
  0
LINE
  5
9FEF
  8
0
 10
47.20754878722647
 20
207.56591304288
 30
0.0
 11
46.54032198722649
 21
207.56591304288
 31
0.0
  0
LINE
  5
9FF0
  8
0
 10
46.54032198722649
 20
207.56591304288
 30
0.0
 11
46.54032198722649
 21
207.23155769288
 31
0.0
  0
LINE
  5
9FF1
  8
0
 10
48.20909198722649
 20
207.23155769288
 30
0.0
 11
49.21067698722646
 21
207.23155769288
 31
0.0
  0
LINE
  5
9FF2
  8
0
 10
49.21067698722646
 20
207.23155769288
 30
0.0
 11
49.21067698722646
 21
207.56591304288
 31
0.0
  0
LINE
  5
9FF3
  8
0
 10
49.21067698722646
 20
207.56591304288
 30
0.0
 11
48.20909198722649
 21
207.56591304288
 31
0.0
  0
LINE
  5
9FF4
  8
0
 10
48.20909198722649
 20
207.56591304288
 30
0.0
 11
48.20909198722649
 21
207.23155769288
 31
0.0
  0
LINE
  5
9FF5
  8
0
 10
49.87748198722647
 20
207.23155769288
 30
0.0
 11
50.2114658872265
 21
207.23155769288
 31
0.0
  0
LINE
  5
9FF6
  8
0
 10
50.2114658872265
 20
207.23155769288
 30
0.0
 11
50.2114658872265
 21
207.56591304288
 31
0.0
  0
LINE
  5
9FF7
  8
0
 10
50.2114658872265
 20
207.56591304288
 30
0.0
 11
49.87748198722647
 21
207.56591304288
 31
0.0
  0
LINE
  5
9FF8
  8
0
 10
49.87748198722647
 20
207.56591304288
 30
0.0
 11
49.87748198722647
 21
207.23155769288
 31
0.0
  0
LINE
  5
9FF9
  8
0
 10
50.54590198722644
 20
207.23155769288
 30
0.0
 11
51.21312878722648
 21
207.23155769288
 31
0.0
  0
LINE
  5
9FFA
  8
0
 10
51.21312878722648
 20
207.23155769288
 30
0.0
 11
51.21312878722648
 21
207.56591304288
 31
0.0
  0
LINE
  5
9FFB
  8
0
 10
51.21312878722648
 20
207.56591304288
 30
0.0
 11
50.54590198722644
 21
207.56591304288
 31
0.0
  0
LINE
  5
9FFC
  8
0
 10
50.54590198722644
 20
207.56591304288
 30
0.0
 11
50.54590198722644
 21
207.23155769288
 31
0.0
  0
LINE
  5
9FFD
  8
0
 10
51.54672698722646
 20
207.23155769288
 30
0.0
 11
52.54831198722644
 21
207.23155769288
 31
0.0
  0
LINE
  5
9FFE
  8
0
 10
52.54831198722644
 20
207.23155769288
 30
0.0
 11
52.54831198722644
 21
207.56591304288
 31
0.0
  0
LINE
  5
9FFF
  8
0
 10
52.54831198722644
 20
207.56591304288
 30
0.0
 11
51.54672698722646
 21
207.56591304288
 31
0.0
  0
LINE
  5
A000
  8
0
 10
51.54672698722646
 20
207.56591304288
 30
0.0
 11
51.54672698722646
 21
207.23155769288
 31
0.0
  0
LINE
  5
A001
  8
0
 10
53.21549698722646
 20
207.23155769288
 30
0.0
 11
53.54985328722648
 21
207.23155769288
 31
0.0
  0
LINE
  5
A002
  8
0
 10
53.54985328722648
 20
207.23155769288
 30
0.0
 11
53.54985328722648
 21
207.56591304288
 31
0.0
  0
LINE
  5
A003
  8
0
 10
53.54985328722648
 20
207.56591304288
 30
0.0
 11
53.21549698722646
 21
207.56591304288
 31
0.0
  0
LINE
  5
A004
  8
0
 10
53.21549698722646
 20
207.56591304288
 30
0.0
 11
53.21549698722646
 21
207.23155769288
 31
0.0
  0
LINE
  5
A005
  8
0
 10
42.86866698722645
 20
206.89753769288
 30
0.0
 11
43.53589378722648
 21
206.89753769288
 31
0.0
  0
LINE
  5
A006
  8
0
 10
43.53589378722648
 20
206.89753769288
 30
0.0
 11
43.53589378722648
 21
207.23152254288
 31
0.0
  0
LINE
  5
A007
  8
0
 10
43.53589378722648
 20
207.23152254288
 30
0.0
 11
42.86866698722645
 21
207.23152254288
 31
0.0
  0
LINE
  5
A008
  8
0
 10
42.86866698722645
 20
207.23152254288
 30
0.0
 11
42.86866698722645
 21
206.89753769288
 31
0.0
  0
LINE
  5
A009
  8
0
 10
43.86949198722647
 20
206.89753769288
 30
0.0
 11
44.20347588722649
 21
206.89753769288
 31
0.0
  0
LINE
  5
A00A
  8
0
 10
44.20347588722649
 20
206.89753769288
 30
0.0
 11
44.20347588722649
 21
207.23152254288
 31
0.0
  0
LINE
  5
A00B
  8
0
 10
44.20347588722649
 20
207.23152254288
 30
0.0
 11
43.86949198722647
 21
207.23152254288
 31
0.0
  0
LINE
  5
A00C
  8
0
 10
43.86949198722647
 20
207.23152254288
 30
0.0
 11
43.86949198722647
 21
206.89753769288
 31
0.0
  0
LINE
  5
A00D
  8
0
 10
46.20592198722647
 20
206.89753769288
 30
0.0
 11
46.5399058872265
 21
206.89753769288
 31
0.0
  0
LINE
  5
A00E
  8
0
 10
46.5399058872265
 20
206.89753769288
 30
0.0
 11
46.5399058872265
 21
207.23152254288
 31
0.0
  0
LINE
  5
A00F
  8
0
 10
46.5399058872265
 20
207.23152254288
 30
0.0
 11
46.20592198722647
 21
207.23152254288
 31
0.0
  0
LINE
  5
A010
  8
0
 10
46.20592198722647
 20
207.23152254288
 30
0.0
 11
46.20592198722647
 21
206.89753769288
 31
0.0
  0
LINE
  5
A011
  8
0
 10
46.87348698722644
 20
206.89753769288
 30
0.0
 11
49.87749148722645
 21
206.89753769288
 31
0.0
  0
LINE
  5
A012
  8
0
 10
49.87749148722645
 20
206.89753769288
 30
0.0
 11
49.87749148722645
 21
207.23152254288
 31
0.0
  0
LINE
  5
A013
  8
0
 10
49.87749148722645
 20
207.23152254288
 30
0.0
 11
46.87348698722644
 21
207.23152254288
 31
0.0
  0
LINE
  5
A014
  8
0
 10
46.87348698722644
 20
207.23152254288
 30
0.0
 11
46.87348698722644
 21
206.89753769288
 31
0.0
  0
LINE
  5
A015
  8
0
 10
50.21150198722648
 20
206.89753769288
 30
0.0
 11
51.54669848722648
 21
206.89753769288
 31
0.0
  0
LINE
  5
A016
  8
0
 10
51.54669848722648
 20
206.89753769288
 30
0.0
 11
51.54669848722648
 21
207.23152254288
 31
0.0
  0
LINE
  5
A017
  8
0
 10
51.54669848722648
 20
207.23152254288
 30
0.0
 11
50.21150198722648
 21
207.23152254288
 31
0.0
  0
LINE
  5
A018
  8
0
 10
50.21150198722648
 20
207.23152254288
 30
0.0
 11
50.21150198722648
 21
206.89753769288
 31
0.0
  0
LINE
  5
A019
  8
0
 10
52.21391198722648
 20
206.89753769288
 30
0.0
 11
52.88150928722644
 21
206.89753769288
 31
0.0
  0
LINE
  5
A01A
  8
0
 10
52.88150928722644
 20
206.89753769288
 30
0.0
 11
52.88150928722644
 21
207.23152254288
 31
0.0
  0
LINE
  5
A01B
  8
0
 10
52.88150928722644
 20
207.23152254288
 30
0.0
 11
52.21391198722648
 21
207.23152254288
 31
0.0
  0
LINE
  5
A01C
  8
0
 10
52.21391198722648
 20
207.23152254288
 30
0.0
 11
52.21391198722648
 21
206.89753769288
 31
0.0
  0
LINE
  5
A01D
  8
0
 10
53.21549698722646
 20
206.89753769288
 30
0.0
 11
53.54985328722648
 21
206.89753769288
 31
0.0
  0
LINE
  5
A01E
  8
0
 10
53.54985328722648
 20
206.89753769288
 30
0.0
 11
53.54985328722648
 21
207.23152254288
 31
0.0
  0
LINE
  5
A01F
  8
0
 10
53.54985328722648
 20
207.23152254288
 30
0.0
 11
53.21549698722646
 21
207.23152254288
 31
0.0
  0
LINE
  5
A020
  8
0
 10
53.21549698722646
 20
207.23152254288
 30
0.0
 11
53.21549698722646
 21
206.89753769288
 31
0.0
  0
LINE
  5
A021
  8
0
 10
43.20192698722644
 20
206.56427769288
 30
0.0
 11
43.53628328722647
 21
206.56427769288
 31
0.0
  0
LINE
  5
A022
  8
0
 10
43.53628328722647
 20
206.56427769288
 30
0.0
 11
43.53628328722647
 21
206.89826159288
 31
0.0
  0
LINE
  5
A023
  8
0
 10
43.53628328722647
 20
206.89826159288
 30
0.0
 11
43.20192698722644
 21
206.89826159288
 31
0.0
  0
LINE
  5
A024
  8
0
 10
43.20192698722644
 20
206.89826159288
 30
0.0
 11
43.20192698722644
 21
206.56427769288
 31
0.0
  0
LINE
  5
A025
  8
0
 10
43.86949198722647
 20
206.56427769288
 30
0.0
 11
44.20347588722649
 21
206.56427769288
 31
0.0
  0
LINE
  5
A026
  8
0
 10
44.20347588722649
 20
206.56427769288
 30
0.0
 11
44.20347588722649
 21
206.89826159288
 31
0.0
  0
LINE
  5
A027
  8
0
 10
44.20347588722649
 20
206.89826159288
 30
0.0
 11
43.86949198722647
 21
206.89826159288
 31
0.0
  0
LINE
  5
A028
  8
0
 10
43.86949198722647
 20
206.89826159288
 30
0.0
 11
43.86949198722647
 21
206.56427769288
 31
0.0
  0
LINE
  5
A029
  8
0
 10
44.53743698722644
 20
206.56427769288
 30
0.0
 11
46.54022698722645
 21
206.56427769288
 31
0.0
  0
LINE
  5
A02A
  8
0
 10
46.54022698722645
 20
206.56427769288
 30
0.0
 11
46.54022698722645
 21
206.89826159288
 31
0.0
  0
LINE
  5
A02B
  8
0
 10
46.54022698722645
 20
206.89826159288
 30
0.0
 11
44.53743698722644
 21
206.89826159288
 31
0.0
  0
LINE
  5
A02C
  8
0
 10
44.53743698722644
 20
206.89826159288
 30
0.0
 11
44.53743698722644
 21
206.56427769288
 31
0.0
  0
LINE
  5
A02D
  8
0
 10
46.87348698722644
 20
206.56427769288
 30
0.0
 11
47.20747183722648
 21
206.56427769288
 31
0.0
  0
LINE
  5
A02E
  8
0
 10
47.20747183722648
 20
206.56427769288
 30
0.0
 11
47.20747183722648
 21
206.89826159288
 31
0.0
  0
LINE
  5
A02F
  8
0
 10
47.20747183722648
 20
206.89826159288
 30
0.0
 11
46.87348698722644
 21
206.89826159288
 31
0.0
  0
LINE
  5
A030
  8
0
 10
46.87348698722644
 20
206.89826159288
 30
0.0
 11
46.87348698722644
 21
206.56427769288
 31
0.0
  0
LINE
  5
A031
  8
0
 10
47.54152698722646
 20
206.56427769288
 30
0.0
 11
48.20912523722643
 21
206.56427769288
 31
0.0
  0
LINE
  5
A032
  8
0
 10
48.20912523722643
 20
206.56427769288
 30
0.0
 11
48.20912523722643
 21
206.89826159288
 31
0.0
  0
LINE
  5
A033
  8
0
 10
48.20912523722643
 20
206.89826159288
 30
0.0
 11
47.54152698722646
 21
206.89826159288
 31
0.0
  0
LINE
  5
A034
  8
0
 10
47.54152698722646
 20
206.89826159288
 30
0.0
 11
47.54152698722646
 21
206.56427769288
 31
0.0
  0
LINE
  5
A035
  8
0
 10
48.87665698722645
 20
206.56427769288
 30
0.0
 11
49.21064088722648
 21
206.56427769288
 31
0.0
  0
LINE
  5
A036
  8
0
 10
49.21064088722648
 20
206.56427769288
 30
0.0
 11
49.21064088722648
 21
206.89826159288
 31
0.0
  0
LINE
  5
A037
  8
0
 10
49.21064088722648
 20
206.89826159288
 30
0.0
 11
48.87665698722645
 21
206.89826159288
 31
0.0
  0
LINE
  5
A038
  8
0
 10
48.87665698722645
 20
206.89826159288
 30
0.0
 11
48.87665698722645
 21
206.56427769288
 31
0.0
  0
LINE
  5
A039
  8
0
 10
50.21150198722648
 20
206.56427769288
 30
0.0
 11
50.54585733722649
 21
206.56427769288
 31
0.0
  0
LINE
  5
A03A
  8
0
 10
50.54585733722649
 20
206.56427769288
 30
0.0
 11
50.54585733722649
 21
206.89826159288
 31
0.0
  0
LINE
  5
A03B
  8
0
 10
50.54585733722649
 20
206.89826159288
 30
0.0
 11
50.21150198722648
 21
206.89826159288
 31
0.0
  0
LINE
  5
A03C
  8
0
 10
50.21150198722648
 20
206.89826159288
 30
0.0
 11
50.21150198722648
 21
206.56427769288
 31
0.0
  0
LINE
  5
A03D
  8
0
 10
51.54672698722646
 20
206.56427769288
 30
0.0
 11
51.88071088722648
 21
206.56427769288
 31
0.0
  0
LINE
  5
A03E
  8
0
 10
51.88071088722648
 20
206.56427769288
 30
0.0
 11
51.88071088722648
 21
206.89826159288
 31
0.0
  0
LINE
  5
A03F
  8
0
 10
51.88071088722648
 20
206.89826159288
 30
0.0
 11
51.54672698722646
 21
206.89826159288
 31
0.0
  0
LINE
  5
A040
  8
0
 10
51.54672698722646
 20
206.89826159288
 30
0.0
 11
51.54672698722646
 21
206.56427769288
 31
0.0
  0
LINE
  5
A041
  8
0
 10
52.21391198722648
 20
206.56427769288
 30
0.0
 11
52.88150928722644
 21
206.56427769288
 31
0.0
  0
LINE
  5
A042
  8
0
 10
52.88150928722644
 20
206.56427769288
 30
0.0
 11
52.88150928722644
 21
206.89826159288
 31
0.0
  0
LINE
  5
A043
  8
0
 10
52.88150928722644
 20
206.89826159288
 30
0.0
 11
52.21391198722648
 21
206.89826159288
 31
0.0
  0
LINE
  5
A044
  8
0
 10
52.21391198722648
 20
206.89826159288
 30
0.0
 11
52.21391198722648
 21
206.56427769288
 31
0.0
  0
LINE
  5
A045
  8
0
 10
53.21549698722646
 20
206.56427769288
 30
0.0
 11
53.54985328722648
 21
206.56427769288
 31
0.0
  0
LINE
  5
A046
  8
0
 10
53.54985328722648
 20
206.56427769288
 30
0.0
 11
53.54985328722648
 21
206.89826159288
 31
0.0
  0
LINE
  5
A047
  8
0
 10
53.54985328722648
 20
206.89826159288
 30
0.0
 11
53.21549698722646
 21
206.89826159288
 31
0.0
  0
LINE
  5
A048
  8
0
 10
53.21549698722646
 20
206.89826159288
 30
0.0
 11
53.21549698722646
 21
206.56427769288
 31
0.0
  0
LINE
  5
A049
  8
0
 10
42.86866698722645
 20
206.23035269288
 30
0.0
 11
43.20265183722648
 21
206.23035269288
 31
0.0
  0
LINE
  5
A04A
  8
0
 10
43.20265183722648
 20
206.23035269288
 30
0.0
 11
43.20265183722648
 21
206.56433754288
 31
0.0
  0
LINE
  5
A04B
  8
0
 10
43.20265183722648
 20
206.56433754288
 30
0.0
 11
42.86866698722645
 21
206.56433754288
 31
0.0
  0
LINE
  5
A04C
  8
0
 10
42.86866698722645
 20
206.56433754288
 30
0.0
 11
42.86866698722645
 21
206.23035269288
 31
0.0
  0
LINE
  5
A04D
  8
0
 10
43.53585198722647
 20
206.23035269288
 30
0.0
 11
44.53743698722644
 21
206.23035269288
 31
0.0
  0
LINE
  5
A04E
  8
0
 10
44.53743698722644
 20
206.23035269288
 30
0.0
 11
44.53743698722644
 21
206.56433754288
 31
0.0
  0
LINE
  5
A04F
  8
0
 10
44.53743698722644
 20
206.56433754288
 30
0.0
 11
43.53585198722647
 21
206.56433754288
 31
0.0
  0
LINE
  5
A050
  8
0
 10
43.53585198722647
 20
206.56433754288
 30
0.0
 11
43.53585198722647
 21
206.23035269288
 31
0.0
  0
LINE
  5
A051
  8
0
 10
44.87107698722644
 20
206.23035269288
 30
0.0
 11
45.53867428722646
 21
206.23035269288
 31
0.0
  0
LINE
  5
A052
  8
0
 10
45.53867428722646
 20
206.23035269288
 30
0.0
 11
45.53867428722646
 21
206.56433754288
 31
0.0
  0
LINE
  5
A053
  8
0
 10
45.53867428722646
 20
206.56433754288
 30
0.0
 11
44.87107698722644
 21
206.56433754288
 31
0.0
  0
LINE
  5
A054
  8
0
 10
44.87107698722644
 20
206.56433754288
 30
0.0
 11
44.87107698722644
 21
206.23035269288
 31
0.0
  0
LINE
  5
A055
  8
0
 10
45.87266198722648
 20
206.23035269288
 30
0.0
 11
46.2066458872265
 21
206.23035269288
 31
0.0
  0
LINE
  5
A056
  8
0
 10
46.2066458872265
 20
206.23035269288
 30
0.0
 11
46.2066458872265
 21
206.56433754288
 31
0.0
  0
LINE
  5
A057
  8
0
 10
46.2066458872265
 20
206.56433754288
 30
0.0
 11
45.87266198722648
 21
206.56433754288
 31
0.0
  0
LINE
  5
A058
  8
0
 10
45.87266198722648
 20
206.56433754288
 30
0.0
 11
45.87266198722648
 21
206.23035269288
 31
0.0
  0
LINE
  5
A059
  8
0
 10
47.54152698722646
 20
206.23035269288
 30
0.0
 11
49.87830848722649
 21
206.23035269288
 31
0.0
  0
LINE
  5
A05A
  8
0
 10
49.87830848722649
 20
206.23035269288
 30
0.0
 11
49.87830848722649
 21
206.56433754288
 31
0.0
  0
LINE
  5
A05B
  8
0
 10
49.87830848722649
 20
206.56433754288
 30
0.0
 11
47.54152698722646
 21
206.56433754288
 31
0.0
  0
LINE
  5
A05C
  8
0
 10
47.54152698722646
 20
206.56433754288
 30
0.0
 11
47.54152698722646
 21
206.23035269288
 31
0.0
  0
LINE
  5
A05D
  8
0
 10
50.21150198722648
 20
206.23035269288
 30
0.0
 11
50.54585733722649
 21
206.23035269288
 31
0.0
  0
LINE
  5
A05E
  8
0
 10
50.54585733722649
 20
206.23035269288
 30
0.0
 11
50.54585733722649
 21
206.56433754288
 31
0.0
  0
LINE
  5
A05F
  8
0
 10
50.54585733722649
 20
206.56433754288
 30
0.0
 11
50.21150198722648
 21
206.56433754288
 31
0.0
  0
LINE
  5
A060
  8
0
 10
50.21150198722648
 20
206.56433754288
 30
0.0
 11
50.21150198722648
 21
206.23035269288
 31
0.0
  0
LINE
  5
A061
  8
0
 10
50.87906698722645
 20
206.23035269288
 30
0.0
 11
51.21305183722649
 21
206.23035269288
 31
0.0
  0
LINE
  5
A062
  8
0
 10
51.21305183722649
 20
206.23035269288
 30
0.0
 11
51.21305183722649
 21
206.56433754288
 31
0.0
  0
LINE
  5
A063
  8
0
 10
51.21305183722649
 20
206.56433754288
 30
0.0
 11
50.87906698722645
 21
206.56433754288
 31
0.0
  0
LINE
  5
A064
  8
0
 10
50.87906698722645
 20
206.56433754288
 30
0.0
 11
50.87906698722645
 21
206.23035269288
 31
0.0
  0
LINE
  5
A065
  8
0
 10
51.88065198722649
 20
206.23035269288
 30
0.0
 11
52.88223698722646
 21
206.23035269288
 31
0.0
  0
LINE
  5
A066
  8
0
 10
52.88223698722646
 20
206.23035269288
 30
0.0
 11
52.88223698722646
 21
206.56433754288
 31
0.0
  0
LINE
  5
A067
  8
0
 10
52.88223698722646
 20
206.56433754288
 30
0.0
 11
51.88065198722649
 21
206.56433754288
 31
0.0
  0
LINE
  5
A068
  8
0
 10
51.88065198722649
 20
206.56433754288
 30
0.0
 11
51.88065198722649
 21
206.23035269288
 31
0.0
  0
LINE
  5
A069
  8
0
 10
53.21549698722646
 20
206.23035269288
 30
0.0
 11
53.54985328722648
 21
206.23035269288
 31
0.0
  0
LINE
  5
A06A
  8
0
 10
53.54985328722648
 20
206.23035269288
 30
0.0
 11
53.54985328722648
 21
206.56433754288
 31
0.0
  0
LINE
  5
A06B
  8
0
 10
53.54985328722648
 20
206.56433754288
 30
0.0
 11
53.21549698722646
 21
206.56433754288
 31
0.0
  0
LINE
  5
A06C
  8
0
 10
53.21549698722646
 20
206.56433754288
 30
0.0
 11
53.21549698722646
 21
206.23035269288
 31
0.0
  0
LINE
  5
A06D
  8
0
 10
42.53436198722648
 20
205.89595269288
 30
0.0
 11
43.86955848722647
 21
205.89595269288
 31
0.0
  0
LINE
  5
A06E
  8
0
 10
43.86955848722647
 20
205.89595269288
 30
0.0
 11
43.86955848722647
 21
206.23030804288
 31
0.0
  0
LINE
  5
A06F
  8
0
 10
43.86955848722647
 20
206.23030804288
 30
0.0
 11
42.53436198722648
 21
206.23030804288
 31
0.0
  0
LINE
  5
A070
  8
0
 10
42.53436198722648
 20
206.23030804288
 30
0.0
 11
42.53436198722648
 21
205.89595269288
 31
0.0
  0
LINE
  5
A071
  8
0
 10
44.53743698722644
 20
205.89595269288
 30
0.0
 11
44.87142088722646
 21
205.89595269288
 31
0.0
  0
LINE
  5
A072
  8
0
 10
44.87142088722646
 20
205.89595269288
 30
0.0
 11
44.87142088722646
 21
206.23030804288
 31
0.0
  0
LINE
  5
A073
  8
0
 10
44.87142088722646
 20
206.23030804288
 30
0.0
 11
44.53743698722644
 21
206.23030804288
 31
0.0
  0
LINE
  5
A074
  8
0
 10
44.53743698722644
 20
206.23030804288
 30
0.0
 11
44.53743698722644
 21
205.89595269288
 31
0.0
  0
LINE
  5
A075
  8
0
 10
45.20509698722645
 20
205.89595269288
 30
0.0
 11
45.53908183722649
 21
205.89595269288
 31
0.0
  0
LINE
  5
A076
  8
0
 10
45.53908183722649
 20
205.89595269288
 30
0.0
 11
45.53908183722649
 21
206.23030804288
 31
0.0
  0
LINE
  5
A077
  8
0
 10
45.53908183722649
 20
206.23030804288
 30
0.0
 11
45.20509698722645
 21
206.23030804288
 31
0.0
  0
LINE
  5
A078
  8
0
 10
45.20509698722645
 20
206.23030804288
 30
0.0
 11
45.20509698722645
 21
205.89595269288
 31
0.0
  0
LINE
  5
A079
  8
0
 10
45.87266198722648
 20
205.89595269288
 30
0.0
 11
46.2066458872265
 21
205.89595269288
 31
0.0
  0
LINE
  5
A07A
  8
0
 10
46.2066458872265
 20
205.89595269288
 30
0.0
 11
46.2066458872265
 21
206.23030804288
 31
0.0
  0
LINE
  5
A07B
  8
0
 10
46.2066458872265
 20
206.23030804288
 30
0.0
 11
45.87266198722648
 21
206.23030804288
 31
0.0
  0
LINE
  5
A07C
  8
0
 10
45.87266198722648
 20
206.23030804288
 30
0.0
 11
45.87266198722648
 21
205.89595269288
 31
0.0
  0
LINE
  5
A07D
  8
0
 10
46.54032198722649
 20
205.89595269288
 30
0.0
 11
47.54153648722649
 21
205.89595269288
 31
0.0
  0
LINE
  5
A07E
  8
0
 10
47.54153648722649
 20
205.89595269288
 30
0.0
 11
47.54153648722649
 21
206.23030804288
 31
0.0
  0
LINE
  5
A07F
  8
0
 10
47.54153648722649
 20
206.23030804288
 30
0.0
 11
46.54032198722649
 21
206.23030804288
 31
0.0
  0
LINE
  5
A080
  8
0
 10
46.54032198722649
 20
206.23030804288
 30
0.0
 11
46.54032198722649
 21
205.89595269288
 31
0.0
  0
LINE
  5
A081
  8
0
 10
47.87507198722648
 20
205.89595269288
 30
0.0
 11
48.20905683722646
 21
205.89595269288
 31
0.0
  0
LINE
  5
A082
  8
0
 10
48.20905683722646
 20
205.89595269288
 30
0.0
 11
48.20905683722646
 21
206.23030804288
 31
0.0
  0
LINE
  5
A083
  8
0
 10
48.20905683722646
 20
206.23030804288
 30
0.0
 11
47.87507198722648
 21
206.23030804288
 31
0.0
  0
LINE
  5
A084
  8
0
 10
47.87507198722648
 20
206.23030804288
 30
0.0
 11
47.87507198722648
 21
205.89595269288
 31
0.0
  0
LINE
  5
A085
  8
0
 10
49.20991698722645
 20
205.89595269288
 30
0.0
 11
50.21150198722648
 21
205.89595269288
 31
0.0
  0
LINE
  5
A086
  8
0
 10
50.21150198722648
 20
205.89595269288
 30
0.0
 11
50.21150198722648
 21
206.23030804288
 31
0.0
  0
LINE
  5
A087
  8
0
 10
50.21150198722648
 20
206.23030804288
 30
0.0
 11
49.20991698722645
 21
206.23030804288
 31
0.0
  0
LINE
  5
A088
  8
0
 10
49.20991698722645
 20
206.23030804288
 30
0.0
 11
49.20991698722645
 21
205.89595269288
 31
0.0
  0
LINE
  5
A089
  8
0
 10
50.87906698722645
 20
205.89595269288
 30
0.0
 11
51.21305183722649
 21
205.89595269288
 31
0.0
  0
LINE
  5
A08A
  8
0
 10
51.21305183722649
 20
205.89595269288
 30
0.0
 11
51.21305183722649
 21
206.23030804288
 31
0.0
  0
LINE
  5
A08B
  8
0
 10
51.21305183722649
 20
206.23030804288
 30
0.0
 11
50.87906698722645
 21
206.23030804288
 31
0.0
  0
LINE
  5
A08C
  8
0
 10
50.87906698722645
 20
206.23030804288
 30
0.0
 11
50.87906698722645
 21
205.89595269288
 31
0.0
  0
LINE
  5
A08D
  8
0
 10
51.88065198722649
 20
205.89595269288
 30
0.0
 11
52.54787878722647
 21
205.89595269288
 31
0.0
  0
LINE
  5
A08E
  8
0
 10
52.54787878722647
 20
205.89595269288
 30
0.0
 11
52.54787878722647
 21
206.23030804288
 31
0.0
  0
LINE
  5
A08F
  8
0
 10
52.54787878722647
 20
206.23030804288
 30
0.0
 11
51.88065198722649
 21
206.23030804288
 31
0.0
  0
LINE
  5
A090
  8
0
 10
51.88065198722649
 20
206.23030804288
 30
0.0
 11
51.88065198722649
 21
205.89595269288
 31
0.0
  0
LINE
  5
A091
  8
0
 10
42.53436198722648
 20
205.56269269288
 30
0.0
 11
43.20195928722643
 21
205.56269269288
 31
0.0
  0
LINE
  5
A092
  8
0
 10
43.20195928722643
 20
205.56269269288
 30
0.0
 11
43.20195928722643
 21
205.89667754288
 31
0.0
  0
LINE
  5
A093
  8
0
 10
43.20195928722643
 20
205.89667754288
 30
0.0
 11
42.53436198722648
 21
205.89667754288
 31
0.0
  0
LINE
  5
A094
  8
0
 10
42.53436198722648
 20
205.89667754288
 30
0.0
 11
42.53436198722648
 21
205.56269269288
 31
0.0
  0
LINE
  5
A095
  8
0
 10
43.53585198722647
 20
205.56269269288
 30
0.0
 11
43.86983588722649
 21
205.56269269288
 31
0.0
  0
LINE
  5
A096
  8
0
 10
43.86983588722649
 20
205.56269269288
 30
0.0
 11
43.86983588722649
 21
205.89667754288
 31
0.0
  0
LINE
  5
A097
  8
0
 10
43.86983588722649
 20
205.89667754288
 30
0.0
 11
43.53585198722647
 21
205.89667754288
 31
0.0
  0
LINE
  5
A098
  8
0
 10
43.53585198722647
 20
205.89667754288
 30
0.0
 11
43.53585198722647
 21
205.56269269288
 31
0.0
  0
LINE
  5
A099
  8
0
 10
44.20351198722648
 20
205.56269269288
 30
0.0
 11
44.53749683722646
 21
205.56269269288
 31
0.0
  0
LINE
  5
A09A
  8
0
 10
44.53749683722646
 20
205.56269269288
 30
0.0
 11
44.53749683722646
 21
205.89667754288
 31
0.0
  0
LINE
  5
A09B
  8
0
 10
44.53749683722646
 20
205.89667754288
 30
0.0
 11
44.20351198722648
 21
205.89667754288
 31
0.0
  0
LINE
  5
A09C
  8
0
 10
44.20351198722648
 20
205.89667754288
 30
0.0
 11
44.20351198722648
 21
205.56269269288
 31
0.0
  0
LINE
  5
A09D
  8
0
 10
45.20509698722645
 20
205.56269269288
 30
0.0
 11
45.53908183722649
 21
205.56269269288
 31
0.0
  0
LINE
  5
A09E
  8
0
 10
45.53908183722649
 20
205.56269269288
 30
0.0
 11
45.53908183722649
 21
205.89667754288
 31
0.0
  0
LINE
  5
A09F
  8
0
 10
45.53908183722649
 20
205.89667754288
 30
0.0
 11
45.20509698722645
 21
205.89667754288
 31
0.0
  0
LINE
  5
A0A0
  8
0
 10
45.20509698722645
 20
205.89667754288
 30
0.0
 11
45.20509698722645
 21
205.56269269288
 31
0.0
  0
LINE
  5
A0A1
  8
0
 10
45.87266198722648
 20
205.56269269288
 30
0.0
 11
46.87387648722648
 21
205.56269269288
 31
0.0
  0
LINE
  5
A0A2
  8
0
 10
46.87387648722648
 20
205.56269269288
 30
0.0
 11
46.87387648722648
 21
205.89667754288
 31
0.0
  0
LINE
  5
A0A3
  8
0
 10
46.87387648722648
 20
205.89667754288
 30
0.0
 11
45.87266198722648
 21
205.89667754288
 31
0.0
  0
LINE
  5
A0A4
  8
0
 10
45.87266198722648
 20
205.89667754288
 30
0.0
 11
45.87266198722648
 21
205.56269269288
 31
0.0
  0
LINE
  5
A0A5
  8
0
 10
47.20750698722645
 20
205.56269269288
 30
0.0
 11
47.54149088722647
 21
205.56269269288
 31
0.0
  0
LINE
  5
A0A6
  8
0
 10
47.54149088722647
 20
205.56269269288
 30
0.0
 11
47.54149088722647
 21
205.89667754288
 31
0.0
  0
LINE
  5
A0A7
  8
0
 10
47.54149088722647
 20
205.89667754288
 30
0.0
 11
47.20750698722645
 21
205.89667754288
 31
0.0
  0
LINE
  5
A0A8
  8
0
 10
47.20750698722645
 20
205.89667754288
 30
0.0
 11
47.20750698722645
 21
205.56269269288
 31
0.0
  0
LINE
  5
A0A9
  8
0
 10
47.87507198722648
 20
205.56269269288
 30
0.0
 11
48.87665698722645
 21
205.56269269288
 31
0.0
  0
LINE
  5
A0AA
  8
0
 10
48.87665698722645
 20
205.56269269288
 30
0.0
 11
48.87665698722645
 21
205.89667754288
 31
0.0
  0
LINE
  5
A0AB
  8
0
 10
48.87665698722645
 20
205.89667754288
 30
0.0
 11
47.87507198722648
 21
205.89667754288
 31
0.0
  0
LINE
  5
A0AC
  8
0
 10
47.87507198722648
 20
205.89667754288
 30
0.0
 11
47.87507198722648
 21
205.56269269288
 31
0.0
  0
LINE
  5
A0AD
  8
0
 10
49.20991698722645
 20
205.56269269288
 30
0.0
 11
49.54427233722646
 21
205.56269269288
 31
0.0
  0
LINE
  5
A0AE
  8
0
 10
49.54427233722646
 20
205.56269269288
 30
0.0
 11
49.54427233722646
 21
205.89667754288
 31
0.0
  0
LINE
  5
A0AF
  8
0
 10
49.54427233722646
 20
205.89667754288
 30
0.0
 11
49.20991698722645
 21
205.89667754288
 31
0.0
  0
LINE
  5
A0B0
  8
0
 10
49.20991698722645
 20
205.89667754288
 30
0.0
 11
49.20991698722645
 21
205.56269269288
 31
0.0
  0
LINE
  5
A0B1
  8
0
 10
49.87748198722647
 20
205.56269269288
 30
0.0
 11
50.54507928722649
 21
205.56269269288
 31
0.0
  0
LINE
  5
A0B2
  8
0
 10
50.54507928722649
 20
205.56269269288
 30
0.0
 11
50.54507928722649
 21
205.89667754288
 31
0.0
  0
LINE
  5
A0B3
  8
0
 10
50.54507928722649
 20
205.89667754288
 30
0.0
 11
49.87748198722647
 21
205.89667754288
 31
0.0
  0
LINE
  5
A0B4
  8
0
 10
49.87748198722647
 20
205.89667754288
 30
0.0
 11
49.87748198722647
 21
205.56269269288
 31
0.0
  0
LINE
  5
A0B5
  8
0
 10
51.54672698722646
 20
205.56269269288
 30
0.0
 11
52.88155298722648
 21
205.56269269288
 31
0.0
  0
LINE
  5
A0B6
  8
0
 10
52.88155298722648
 20
205.56269269288
 30
0.0
 11
52.88155298722648
 21
205.89667754288
 31
0.0
  0
LINE
  5
A0B7
  8
0
 10
52.88155298722648
 20
205.89667754288
 30
0.0
 11
51.54672698722646
 21
205.89667754288
 31
0.0
  0
LINE
  5
A0B8
  8
0
 10
51.54672698722646
 20
205.89667754288
 30
0.0
 11
51.54672698722646
 21
205.56269269288
 31
0.0
  0
LINE
  5
A0B9
  8
0
 10
42.53436198722648
 20
205.22876769288
 30
0.0
 11
42.86871733722649
 21
205.22876769288
 31
0.0
  0
LINE
  5
A0BA
  8
0
 10
42.86871733722649
 20
205.22876769288
 30
0.0
 11
42.86871733722649
 21
205.56275159288
 31
0.0
  0
LINE
  5
A0BB
  8
0
 10
42.86871733722649
 20
205.56275159288
 30
0.0
 11
42.53436198722648
 21
205.56275159288
 31
0.0
  0
LINE
  5
A0BC
  8
0
 10
42.53436198722648
 20
205.56275159288
 30
0.0
 11
42.53436198722648
 21
205.22876769288
 31
0.0
  0
LINE
  5
A0BD
  8
0
 10
43.20192698722644
 20
205.22876769288
 30
0.0
 11
43.53628328722647
 21
205.22876769288
 31
0.0
  0
LINE
  5
A0BE
  8
0
 10
43.53628328722647
 20
205.22876769288
 30
0.0
 11
43.53628328722647
 21
205.56275159288
 31
0.0
  0
LINE
  5
A0BF
  8
0
 10
43.53628328722647
 20
205.56275159288
 30
0.0
 11
43.20192698722644
 21
205.56275159288
 31
0.0
  0
LINE
  5
A0C0
  8
0
 10
43.20192698722644
 20
205.56275159288
 30
0.0
 11
43.20192698722644
 21
205.22876769288
 31
0.0
  0
LINE
  5
A0C1
  8
0
 10
43.86949198722647
 20
205.22876769288
 30
0.0
 11
44.87107698722644
 21
205.22876769288
 31
0.0
  0
LINE
  5
A0C2
  8
0
 10
44.87107698722644
 20
205.22876769288
 30
0.0
 11
44.87107698722644
 21
205.56275159288
 31
0.0
  0
LINE
  5
A0C3
  8
0
 10
44.87107698722644
 20
205.56275159288
 30
0.0
 11
43.86949198722647
 21
205.56275159288
 31
0.0
  0
LINE
  5
A0C4
  8
0
 10
43.86949198722647
 20
205.56275159288
 30
0.0
 11
43.86949198722647
 21
205.22876769288
 31
0.0
  0
LINE
  5
A0C5
  8
0
 10
45.53873698722646
 20
205.22876769288
 30
0.0
 11
45.87272183722644
 21
205.22876769288
 31
0.0
  0
LINE
  5
A0C6
  8
0
 10
45.87272183722644
 20
205.22876769288
 30
0.0
 11
45.87272183722644
 21
205.56275159288
 31
0.0
  0
LINE
  5
A0C7
  8
0
 10
45.87272183722644
 20
205.56275159288
 30
0.0
 11
45.53873698722646
 21
205.56275159288
 31
0.0
  0
LINE
  5
A0C8
  8
0
 10
45.53873698722646
 20
205.56275159288
 30
0.0
 11
45.53873698722646
 21
205.22876769288
 31
0.0
  0
LINE
  5
A0C9
  8
0
 10
46.20592198722647
 20
205.22876769288
 30
0.0
 11
46.5399058872265
 21
205.22876769288
 31
0.0
  0
LINE
  5
A0CA
  8
0
 10
46.5399058872265
 20
205.22876769288
 30
0.0
 11
46.5399058872265
 21
205.56275159288
 31
0.0
  0
LINE
  5
A0CB
  8
0
 10
46.5399058872265
 20
205.56275159288
 30
0.0
 11
46.20592198722647
 21
205.56275159288
 31
0.0
  0
LINE
  5
A0CC
  8
0
 10
46.20592198722647
 20
205.56275159288
 30
0.0
 11
46.20592198722647
 21
205.22876769288
 31
0.0
  0
LINE
  5
A0CD
  8
0
 10
47.54152698722646
 20
205.22876769288
 30
0.0
 11
48.54311198722644
 21
205.22876769288
 31
0.0
  0
LINE
  5
A0CE
  8
0
 10
48.54311198722644
 20
205.22876769288
 30
0.0
 11
48.54311198722644
 21
205.56275159288
 31
0.0
  0
LINE
  5
A0CF
  8
0
 10
48.54311198722644
 20
205.56275159288
 30
0.0
 11
47.54152698722646
 21
205.56275159288
 31
0.0
  0
LINE
  5
A0D0
  8
0
 10
47.54152698722646
 20
205.56275159288
 30
0.0
 11
47.54152698722646
 21
205.22876769288
 31
0.0
  0
LINE
  5
A0D1
  8
0
 10
49.20991698722645
 20
205.22876769288
 30
0.0
 11
49.87751523722648
 21
205.22876769288
 31
0.0
  0
LINE
  5
A0D2
  8
0
 10
49.87751523722648
 20
205.22876769288
 30
0.0
 11
49.87751523722648
 21
205.56275159288
 31
0.0
  0
LINE
  5
A0D3
  8
0
 10
49.87751523722648
 20
205.56275159288
 30
0.0
 11
49.20991698722645
 21
205.56275159288
 31
0.0
  0
LINE
  5
A0D4
  8
0
 10
49.20991698722645
 20
205.56275159288
 30
0.0
 11
49.20991698722645
 21
205.22876769288
 31
0.0
  0
LINE
  5
A0D5
  8
0
 10
50.54590198722644
 20
205.22876769288
 30
0.0
 11
51.21312878722648
 21
205.22876769288
 31
0.0
  0
LINE
  5
A0D6
  8
0
 10
51.21312878722648
 20
205.22876769288
 30
0.0
 11
51.21312878722648
 21
205.56275159288
 31
0.0
  0
LINE
  5
A0D7
  8
0
 10
51.21312878722648
 20
205.56275159288
 30
0.0
 11
50.54590198722644
 21
205.56275159288
 31
0.0
  0
LINE
  5
A0D8
  8
0
 10
50.54590198722644
 20
205.56275159288
 30
0.0
 11
50.54590198722644
 21
205.22876769288
 31
0.0
  0
LINE
  5
A0D9
  8
0
 10
51.54672698722646
 20
205.22876769288
 30
0.0
 11
51.88071088722648
 21
205.22876769288
 31
0.0
  0
LINE
  5
A0DA
  8
0
 10
51.88071088722648
 20
205.22876769288
 30
0.0
 11
51.88071088722648
 21
205.56275159288
 31
0.0
  0
LINE
  5
A0DB
  8
0
 10
51.88071088722648
 20
205.56275159288
 30
0.0
 11
51.54672698722646
 21
205.56275159288
 31
0.0
  0
LINE
  5
A0DC
  8
0
 10
51.54672698722646
 20
205.56275159288
 30
0.0
 11
51.54672698722646
 21
205.22876769288
 31
0.0
  0
LINE
  5
A0DD
  8
0
 10
52.21391198722648
 20
205.22876769288
 30
0.0
 11
53.21549698722646
 21
205.22876769288
 31
0.0
  0
LINE
  5
A0DE
  8
0
 10
53.21549698722646
 20
205.22876769288
 30
0.0
 11
53.21549698722646
 21
205.56275159288
 31
0.0
  0
LINE
  5
A0DF
  8
0
 10
53.21549698722646
 20
205.56275159288
 30
0.0
 11
52.21391198722648
 21
205.56275159288
 31
0.0
  0
LINE
  5
A0E0
  8
0
 10
52.21391198722648
 20
205.56275159288
 30
0.0
 11
52.21391198722648
 21
205.22876769288
 31
0.0
  0
LINE
  5
A0E1
  8
0
 10
42.53436198722648
 20
204.89512769288
 30
0.0
 11
42.86871733722649
 21
204.89512769288
 31
0.0
  0
LINE
  5
A0E2
  8
0
 10
42.86871733722649
 20
204.89512769288
 30
0.0
 11
42.86871733722649
 21
205.22911159288
 31
0.0
  0
LINE
  5
A0E3
  8
0
 10
42.86871733722649
 20
205.22911159288
 30
0.0
 11
42.53436198722648
 21
205.22911159288
 31
0.0
  0
LINE
  5
A0E4
  8
0
 10
42.53436198722648
 20
205.22911159288
 30
0.0
 11
42.53436198722648
 21
204.89512769288
 31
0.0
  0
LINE
  5
A0E5
  8
0
 10
43.86949198722647
 20
204.89512769288
 30
0.0
 11
44.53708928722648
 21
204.89512769288
 31
0.0
  0
LINE
  5
A0E6
  8
0
 10
44.53708928722648
 20
204.89512769288
 30
0.0
 11
44.53708928722648
 21
205.22911159288
 31
0.0
  0
LINE
  5
A0E7
  8
0
 10
44.53708928722648
 20
205.22911159288
 30
0.0
 11
43.86949198722647
 21
205.22911159288
 31
0.0
  0
LINE
  5
A0E8
  8
0
 10
43.86949198722647
 20
205.22911159288
 30
0.0
 11
43.86949198722647
 21
204.89512769288
 31
0.0
  0
LINE
  5
A0E9
  8
0
 10
44.87107698722644
 20
204.89512769288
 30
0.0
 11
46.87349648722648
 21
204.89512769288
 31
0.0
  0
LINE
  5
A0EA
  8
0
 10
46.87349648722648
 20
204.89512769288
 30
0.0
 11
46.87349648722648
 21
205.22911159288
 31
0.0
  0
LINE
  5
A0EB
  8
0
 10
46.87349648722648
 20
205.22911159288
 30
0.0
 11
44.87107698722644
 21
205.22911159288
 31
0.0
  0
LINE
  5
A0EC
  8
0
 10
44.87107698722644
 20
205.22911159288
 30
0.0
 11
44.87107698722644
 21
204.89512769288
 31
0.0
  0
LINE
  5
A0ED
  8
0
 10
48.54273198722649
 20
204.89512769288
 30
0.0
 11
48.87671683722647
 21
204.89512769288
 31
0.0
  0
LINE
  5
A0EE
  8
0
 10
48.87671683722647
 20
204.89512769288
 30
0.0
 11
48.87671683722647
 21
205.22911159288
 31
0.0
  0
LINE
  5
A0EF
  8
0
 10
48.87671683722647
 20
205.22911159288
 30
0.0
 11
48.54273198722649
 21
205.22911159288
 31
0.0
  0
LINE
  5
A0F0
  8
0
 10
48.54273198722649
 20
205.22911159288
 30
0.0
 11
48.54273198722649
 21
204.89512769288
 31
0.0
  0
LINE
  5
A0F1
  8
0
 10
49.87748198722647
 20
204.89512769288
 30
0.0
 11
50.54507928722649
 21
204.89512769288
 31
0.0
  0
LINE
  5
A0F2
  8
0
 10
50.54507928722649
 20
204.89512769288
 30
0.0
 11
50.54507928722649
 21
205.22911159288
 31
0.0
  0
LINE
  5
A0F3
  8
0
 10
50.54507928722649
 20
205.22911159288
 30
0.0
 11
49.87748198722647
 21
205.22911159288
 31
0.0
  0
LINE
  5
A0F4
  8
0
 10
49.87748198722647
 20
205.22911159288
 30
0.0
 11
49.87748198722647
 21
204.89512769288
 31
0.0
  0
LINE
  5
A0F5
  8
0
 10
50.87906698722645
 20
204.89512769288
 30
0.0
 11
51.88065198722649
 21
204.89512769288
 31
0.0
  0
LINE
  5
A0F6
  8
0
 10
51.88065198722649
 20
204.89512769288
 30
0.0
 11
51.88065198722649
 21
205.22911159288
 31
0.0
  0
LINE
  5
A0F7
  8
0
 10
51.88065198722649
 20
205.22911159288
 30
0.0
 11
50.87906698722645
 21
205.22911159288
 31
0.0
  0
LINE
  5
A0F8
  8
0
 10
50.87906698722645
 20
205.22911159288
 30
0.0
 11
50.87906698722645
 21
204.89512769288
 31
0.0
  0
LINE
  5
A0F9
  8
0
 10
52.21391198722648
 20
204.89512769288
 30
0.0
 11
52.88150928722644
 21
204.89512769288
 31
0.0
  0
LINE
  5
A0FA
  8
0
 10
52.88150928722644
 20
204.89512769288
 30
0.0
 11
52.88150928722644
 21
205.22911159288
 31
0.0
  0
LINE
  5
A0FB
  8
0
 10
52.88150928722644
 20
205.22911159288
 30
0.0
 11
52.21391198722648
 21
205.22911159288
 31
0.0
  0
LINE
  5
A0FC
  8
0
 10
52.21391198722648
 20
205.22911159288
 30
0.0
 11
52.21391198722648
 21
204.89512769288
 31
0.0
  0
LINE
  5
A0FD
  8
0
 10
53.21549698722646
 20
204.89512769288
 30
0.0
 11
53.54985328722648
 21
204.89512769288
 31
0.0
  0
LINE
  5
A0FE
  8
0
 10
53.54985328722648
 20
204.89512769288
 30
0.0
 11
53.54985328722648
 21
205.22911159288
 31
0.0
  0
LINE
  5
A0FF
  8
0
 10
53.54985328722648
 20
205.22911159288
 30
0.0
 11
53.21549698722646
 21
205.22911159288
 31
0.0
  0
LINE
  5
A100
  8
0
 10
53.21549698722646
 20
205.22911159288
 30
0.0
 11
53.21549698722646
 21
204.89512769288
 31
0.0
  0
LINE
  5
A101
  8
0
 10
42.53436198722648
 20
204.56110769288
 30
0.0
 11
43.20195928722643
 21
204.56110769288
 31
0.0
  0
LINE
  5
A102
  8
0
 10
43.20195928722643
 20
204.56110769288
 30
0.0
 11
43.20195928722643
 21
204.89509254288
 31
0.0
  0
LINE
  5
A103
  8
0
 10
43.20195928722643
 20
204.89509254288
 30
0.0
 11
42.53436198722648
 21
204.89509254288
 31
0.0
  0
LINE
  5
A104
  8
0
 10
42.53436198722648
 20
204.89509254288
 30
0.0
 11
42.53436198722648
 21
204.56110769288
 31
0.0
  0
LINE
  5
A105
  8
0
 10
43.53585198722647
 20
204.56110769288
 30
0.0
 11
43.86983588722649
 21
204.56110769288
 31
0.0
  0
LINE
  5
A106
  8
0
 10
43.86983588722649
 20
204.56110769288
 30
0.0
 11
43.86983588722649
 21
204.89509254288
 31
0.0
  0
LINE
  5
A107
  8
0
 10
43.86983588722649
 20
204.89509254288
 30
0.0
 11
43.53585198722647
 21
204.89509254288
 31
0.0
  0
LINE
  5
A108
  8
0
 10
43.53585198722647
 20
204.89509254288
 30
0.0
 11
43.53585198722647
 21
204.56110769288
 31
0.0
  0
LINE
  5
A109
  8
0
 10
44.20351198722648
 20
204.56110769288
 30
0.0
 11
46.20593148722645
 21
204.56110769288
 31
0.0
  0
LINE
  5
A10A
  8
0
 10
46.20593148722645
 20
204.56110769288
 30
0.0
 11
46.20593148722645
 21
204.89509254288
 31
0.0
  0
LINE
  5
A10B
  8
0
 10
46.20593148722645
 20
204.89509254288
 30
0.0
 11
44.20351198722648
 21
204.89509254288
 31
0.0
  0
LINE
  5
A10C
  8
0
 10
44.20351198722648
 20
204.89509254288
 30
0.0
 11
44.20351198722648
 21
204.56110769288
 31
0.0
  0
LINE
  5
A10D
  8
0
 10
47.54152698722646
 20
204.56110769288
 30
0.0
 11
48.20912523722643
 21
204.56110769288
 31
0.0
  0
LINE
  5
A10E
  8
0
 10
48.20912523722643
 20
204.56110769288
 30
0.0
 11
48.20912523722643
 21
204.89509254288
 31
0.0
  0
LINE
  5
A10F
  8
0
 10
48.20912523722643
 20
204.89509254288
 30
0.0
 11
47.54152698722646
 21
204.89509254288
 31
0.0
  0
LINE
  5
A110
  8
0
 10
47.54152698722646
 20
204.89509254288
 30
0.0
 11
47.54152698722646
 21
204.56110769288
 31
0.0
  0
LINE
  5
A111
  8
0
 10
48.87665698722645
 20
204.56110769288
 30
0.0
 11
49.54425428722647
 21
204.56110769288
 31
0.0
  0
LINE
  5
A112
  8
0
 10
49.54425428722647
 20
204.56110769288
 30
0.0
 11
49.54425428722647
 21
204.89509254288
 31
0.0
  0
LINE
  5
A113
  8
0
 10
49.54425428722647
 20
204.89509254288
 30
0.0
 11
48.87665698722645
 21
204.89509254288
 31
0.0
  0
LINE
  5
A114
  8
0
 10
48.87665698722645
 20
204.89509254288
 30
0.0
 11
48.87665698722645
 21
204.56110769288
 31
0.0
  0
LINE
  5
A115
  8
0
 10
50.54590198722644
 20
204.56110769288
 30
0.0
 11
52.54832148722647
 21
204.56110769288
 31
0.0
  0
LINE
  5
A116
  8
0
 10
52.54832148722647
 20
204.56110769288
 30
0.0
 11
52.54832148722647
 21
204.89509254288
 31
0.0
  0
LINE
  5
A117
  8
0
 10
52.54832148722647
 20
204.89509254288
 30
0.0
 11
50.54590198722644
 21
204.89509254288
 31
0.0
  0
LINE
  5
A118
  8
0
 10
50.54590198722644
 20
204.89509254288
 30
0.0
 11
50.54590198722644
 21
204.56110769288
 31
0.0
  0
LINE
  5
A119
  8
0
 10
45.20509698722645
 20
204.22756269288
 30
0.0
 11
45.53908183722649
 21
204.22756269288
 31
0.0
  0
LINE
  5
A11A
  8
0
 10
45.53908183722649
 20
204.22756269288
 30
0.0
 11
45.53908183722649
 21
204.56154754288
 31
0.0
  0
LINE
  5
A11B
  8
0
 10
45.53908183722649
 20
204.56154754288
 30
0.0
 11
45.20509698722645
 21
204.56154754288
 31
0.0
  0
LINE
  5
A11C
  8
0
 10
45.20509698722645
 20
204.56154754288
 30
0.0
 11
45.20509698722645
 21
204.22756269288
 31
0.0
  0
LINE
  5
A11D
  8
0
 10
46.20592198722647
 20
204.22756269288
 30
0.0
 11
46.5399058872265
 21
204.22756269288
 31
0.0
  0
LINE
  5
A11E
  8
0
 10
46.5399058872265
 20
204.22756269288
 30
0.0
 11
46.5399058872265
 21
204.56154754288
 31
0.0
  0
LINE
  5
A11F
  8
0
 10
46.5399058872265
 20
204.56154754288
 30
0.0
 11
46.20592198722647
 21
204.56154754288
 31
0.0
  0
LINE
  5
A120
  8
0
 10
46.20592198722647
 20
204.56154754288
 30
0.0
 11
46.20592198722647
 21
204.22756269288
 31
0.0
  0
LINE
  5
A121
  8
0
 10
46.87348698722644
 20
204.22756269288
 30
0.0
 11
47.20747183722648
 21
204.22756269288
 31
0.0
  0
LINE
  5
A122
  8
0
 10
47.20747183722648
 20
204.22756269288
 30
0.0
 11
47.20747183722648
 21
204.56154754288
 31
0.0
  0
LINE
  5
A123
  8
0
 10
47.20747183722648
 20
204.56154754288
 30
0.0
 11
46.87348698722644
 21
204.56154754288
 31
0.0
  0
LINE
  5
A124
  8
0
 10
46.87348698722644
 20
204.56154754288
 30
0.0
 11
46.87348698722644
 21
204.22756269288
 31
0.0
  0
LINE
  5
A125
  8
0
 10
47.54152698722646
 20
204.22756269288
 30
0.0
 11
47.87588233722647
 21
204.22756269288
 31
0.0
  0
LINE
  5
A126
  8
0
 10
47.87588233722647
 20
204.22756269288
 30
0.0
 11
47.87588233722647
 21
204.56154754288
 31
0.0
  0
LINE
  5
A127
  8
0
 10
47.87588233722647
 20
204.56154754288
 30
0.0
 11
47.54152698722646
 21
204.56154754288
 31
0.0
  0
LINE
  5
A128
  8
0
 10
47.54152698722646
 20
204.56154754288
 30
0.0
 11
47.54152698722646
 21
204.22756269288
 31
0.0
  0
LINE
  5
A129
  8
0
 10
48.54273198722649
 20
204.22756269288
 30
0.0
 11
49.54394648722649
 21
204.22756269288
 31
0.0
  0
LINE
  5
A12A
  8
0
 10
49.54394648722649
 20
204.22756269288
 30
0.0
 11
49.54394648722649
 21
204.56154754288
 31
0.0
  0
LINE
  5
A12B
  8
0
 10
49.54394648722649
 20
204.56154754288
 30
0.0
 11
48.54273198722649
 21
204.56154754288
 31
0.0
  0
LINE
  5
A12C
  8
0
 10
48.54273198722649
 20
204.56154754288
 30
0.0
 11
48.54273198722649
 21
204.22756269288
 31
0.0
  0
LINE
  5
A12D
  8
0
 10
49.87748198722647
 20
204.22756269288
 30
0.0
 11
50.87906698722645
 21
204.22756269288
 31
0.0
  0
LINE
  5
A12E
  8
0
 10
50.87906698722645
 20
204.22756269288
 30
0.0
 11
50.87906698722645
 21
204.56154754288
 31
0.0
  0
LINE
  5
A12F
  8
0
 10
50.87906698722645
 20
204.56154754288
 30
0.0
 11
49.87748198722647
 21
204.56154754288
 31
0.0
  0
LINE
  5
A130
  8
0
 10
49.87748198722647
 20
204.56154754288
 30
0.0
 11
49.87748198722647
 21
204.22756269288
 31
0.0
  0
LINE
  5
A131
  8
0
 10
51.88065198722649
 20
204.22756269288
 30
0.0
 11
52.21463683722646
 21
204.22756269288
 31
0.0
  0
LINE
  5
A132
  8
0
 10
52.21463683722646
 20
204.22756269288
 30
0.0
 11
52.21463683722646
 21
204.56154754288
 31
0.0
  0
LINE
  5
A133
  8
0
 10
52.21463683722646
 20
204.56154754288
 30
0.0
 11
51.88065198722649
 21
204.56154754288
 31
0.0
  0
LINE
  5
A134
  8
0
 10
51.88065198722649
 20
204.56154754288
 30
0.0
 11
51.88065198722649
 21
204.22756269288
 31
0.0
  0
LINE
  5
A135
  8
0
 10
52.54831198722644
 20
204.22756269288
 30
0.0
 11
53.54989698722648
 21
204.22756269288
 31
0.0
  0
LINE
  5
A136
  8
0
 10
53.54989698722648
 20
204.22756269288
 30
0.0
 11
53.54989698722648
 21
204.56154754288
 31
0.0
  0
LINE
  5
A137
  8
0
 10
53.54989698722648
 20
204.56154754288
 30
0.0
 11
52.54831198722644
 21
204.56154754288
 31
0.0
  0
LINE
  5
A138
  8
0
 10
52.54831198722644
 20
204.56154754288
 30
0.0
 11
52.54831198722644
 21
204.22756269288
 31
0.0
  0
LINE
  5
A139
  8
0
 10
42.53436198722648
 20
203.89354269288
 30
0.0
 11
44.8711434872265
 21
203.89354269288
 31
0.0
  0
LINE
  5
A13A
  8
0
 10
44.8711434872265
 20
203.89354269288
 30
0.0
 11
44.8711434872265
 21
204.22752659288
 31
0.0
  0
LINE
  5
A13B
  8
0
 10
44.8711434872265
 20
204.22752659288
 30
0.0
 11
42.53436198722648
 21
204.22752659288
 31
0.0
  0
LINE
  5
A13C
  8
0
 10
42.53436198722648
 20
204.22752659288
 30
0.0
 11
42.53436198722648
 21
203.89354269288
 31
0.0
  0
LINE
  5
A13D
  8
0
 10
46.20592198722647
 20
203.89354269288
 30
0.0
 11
47.20750698722645
 21
203.89354269288
 31
0.0
  0
LINE
  5
A13E
  8
0
 10
47.20750698722645
 20
203.89354269288
 30
0.0
 11
47.20750698722645
 21
204.22752659288
 31
0.0
  0
LINE
  5
A13F
  8
0
 10
47.20750698722645
 20
204.22752659288
 30
0.0
 11
46.20592198722647
 21
204.22752659288
 31
0.0
  0
LINE
  5
A140
  8
0
 10
46.20592198722647
 20
204.22752659288
 30
0.0
 11
46.20592198722647
 21
203.89354269288
 31
0.0
  0
LINE
  5
A141
  8
0
 10
47.54152698722646
 20
203.89354269288
 30
0.0
 11
48.20912523722643
 21
203.89354269288
 31
0.0
  0
LINE
  5
A142
  8
0
 10
48.20912523722643
 20
203.89354269288
 30
0.0
 11
48.20912523722643
 21
204.22752659288
 31
0.0
  0
LINE
  5
A143
  8
0
 10
48.20912523722643
 20
204.22752659288
 30
0.0
 11
47.54152698722646
 21
204.22752659288
 31
0.0
  0
LINE
  5
A144
  8
0
 10
47.54152698722646
 20
204.22752659288
 30
0.0
 11
47.54152698722646
 21
203.89354269288
 31
0.0
  0
LINE
  5
A145
  8
0
 10
48.54273198722649
 20
203.89354269288
 30
0.0
 11
48.87671683722647
 21
203.89354269288
 31
0.0
  0
LINE
  5
A146
  8
0
 10
48.87671683722647
 20
203.89354269288
 30
0.0
 11
48.87671683722647
 21
204.22752659288
 31
0.0
  0
LINE
  5
A147
  8
0
 10
48.87671683722647
 20
204.22752659288
 30
0.0
 11
48.54273198722649
 21
204.22752659288
 31
0.0
  0
LINE
  5
A148
  8
0
 10
48.54273198722649
 20
204.22752659288
 30
0.0
 11
48.54273198722649
 21
203.89354269288
 31
0.0
  0
LINE
  5
A149
  8
0
 10
49.20991698722645
 20
203.89354269288
 30
0.0
 11
49.87751523722648
 21
203.89354269288
 31
0.0
  0
LINE
  5
A14A
  8
0
 10
49.87751523722648
 20
203.89354269288
 30
0.0
 11
49.87751523722648
 21
204.22752659288
 31
0.0
  0
LINE
  5
A14B
  8
0
 10
49.87751523722648
 20
204.22752659288
 30
0.0
 11
49.20991698722645
 21
204.22752659288
 31
0.0
  0
LINE
  5
A14C
  8
0
 10
49.20991698722645
 20
204.22752659288
 30
0.0
 11
49.20991698722645
 21
203.89354269288
 31
0.0
  0
LINE
  5
A14D
  8
0
 10
50.21150198722648
 20
203.89354269288
 30
0.0
 11
50.87909928722644
 21
203.89354269288
 31
0.0
  0
LINE
  5
A14E
  8
0
 10
50.87909928722644
 20
203.89354269288
 30
0.0
 11
50.87909928722644
 21
204.22752659288
 31
0.0
  0
LINE
  5
A14F
  8
0
 10
50.87909928722644
 20
204.22752659288
 30
0.0
 11
50.21150198722648
 21
204.22752659288
 31
0.0
  0
LINE
  5
A150
  8
0
 10
50.21150198722648
 20
204.22752659288
 30
0.0
 11
50.21150198722648
 21
203.89354269288
 31
0.0
  0
LINE
  5
A151
  8
0
 10
51.21308698722646
 20
203.89354269288
 30
0.0
 11
51.54707088722648
 21
203.89354269288
 31
0.0
  0
LINE
  5
A152
  8
0
 10
51.54707088722648
 20
203.89354269288
 30
0.0
 11
51.54707088722648
 21
204.22752659288
 31
0.0
  0
LINE
  5
A153
  8
0
 10
51.54707088722648
 20
204.22752659288
 30
0.0
 11
51.21308698722646
 21
204.22752659288
 31
0.0
  0
LINE
  5
A154
  8
0
 10
51.21308698722646
 20
204.22752659288
 30
0.0
 11
51.21308698722646
 21
203.89354269288
 31
0.0
  0
LINE
  5
A155
  8
0
 10
51.88065198722649
 20
203.89354269288
 30
0.0
 11
52.21463683722646
 21
203.89354269288
 31
0.0
  0
LINE
  5
A156
  8
0
 10
52.21463683722646
 20
203.89354269288
 30
0.0
 11
52.21463683722646
 21
204.22752659288
 31
0.0
  0
LINE
  5
A157
  8
0
 10
52.21463683722646
 20
204.22752659288
 30
0.0
 11
51.88065198722649
 21
204.22752659288
 31
0.0
  0
LINE
  5
A158
  8
0
 10
51.88065198722649
 20
204.22752659288
 30
0.0
 11
51.88065198722649
 21
203.89354269288
 31
0.0
  0
LINE
  5
A159
  8
0
 10
52.54831198722644
 20
203.89354269288
 30
0.0
 11
53.21553783722646
 21
203.89354269288
 31
0.0
  0
LINE
  5
A15A
  8
0
 10
53.21553783722646
 20
203.89354269288
 30
0.0
 11
53.21553783722646
 21
204.22752659288
 31
0.0
  0
LINE
  5
A15B
  8
0
 10
53.21553783722646
 20
204.22752659288
 30
0.0
 11
52.54831198722644
 21
204.22752659288
 31
0.0
  0
LINE
  5
A15C
  8
0
 10
52.54831198722644
 20
204.22752659288
 30
0.0
 11
52.54831198722644
 21
203.89354269288
 31
0.0
  0
LINE
  5
A15D
  8
0
 10
42.53436198722648
 20
203.56028269288
 30
0.0
 11
42.86871733722649
 21
203.56028269288
 31
0.0
  0
LINE
  5
A15E
  8
0
 10
42.86871733722649
 20
203.56028269288
 30
0.0
 11
42.86871733722649
 21
203.89426659288
 31
0.0
  0
LINE
  5
A15F
  8
0
 10
42.86871733722649
 20
203.89426659288
 30
0.0
 11
42.53436198722648
 21
203.89426659288
 31
0.0
  0
LINE
  5
A160
  8
0
 10
42.53436198722648
 20
203.89426659288
 30
0.0
 11
42.53436198722648
 21
203.56028269288
 31
0.0
  0
LINE
  5
A161
  8
0
 10
44.53743698722644
 20
203.56028269288
 30
0.0
 11
44.87142088722646
 21
203.56028269288
 31
0.0
  0
LINE
  5
A162
  8
0
 10
44.87142088722646
 20
203.56028269288
 30
0.0
 11
44.87142088722646
 21
203.89426659288
 31
0.0
  0
LINE
  5
A163
  8
0
 10
44.87142088722646
 20
203.89426659288
 30
0.0
 11
44.53743698722644
 21
203.89426659288
 31
0.0
  0
LINE
  5
A164
  8
0
 10
44.53743698722644
 20
203.89426659288
 30
0.0
 11
44.53743698722644
 21
203.56028269288
 31
0.0
  0
LINE
  5
A165
  8
0
 10
45.53873698722646
 20
203.56028269288
 30
0.0
 11
46.53995148722646
 21
203.56028269288
 31
0.0
  0
LINE
  5
A166
  8
0
 10
46.53995148722646
 20
203.56028269288
 30
0.0
 11
46.53995148722646
 21
203.89426659288
 31
0.0
  0
LINE
  5
A167
  8
0
 10
46.53995148722646
 20
203.89426659288
 30
0.0
 11
45.53873698722646
 21
203.89426659288
 31
0.0
  0
LINE
  5
A168
  8
0
 10
45.53873698722646
 20
203.89426659288
 30
0.0
 11
45.53873698722646
 21
203.56028269288
 31
0.0
  0
LINE
  5
A169
  8
0
 10
47.54152698722646
 20
203.56028269288
 30
0.0
 11
47.87588233722647
 21
203.56028269288
 31
0.0
  0
LINE
  5
A16A
  8
0
 10
47.87588233722647
 20
203.56028269288
 30
0.0
 11
47.87588233722647
 21
203.89426659288
 31
0.0
  0
LINE
  5
A16B
  8
0
 10
47.87588233722647
 20
203.89426659288
 30
0.0
 11
47.54152698722646
 21
203.89426659288
 31
0.0
  0
LINE
  5
A16C
  8
0
 10
47.54152698722646
 20
203.89426659288
 30
0.0
 11
47.54152698722646
 21
203.56028269288
 31
0.0
  0
LINE
  5
A16D
  8
0
 10
49.20991698722645
 20
203.56028269288
 30
0.0
 11
49.54427233722646
 21
203.56028269288
 31
0.0
  0
LINE
  5
A16E
  8
0
 10
49.54427233722646
 20
203.56028269288
 30
0.0
 11
49.54427233722646
 21
203.89426659288
 31
0.0
  0
LINE
  5
A16F
  8
0
 10
49.54427233722646
 20
203.89426659288
 30
0.0
 11
49.20991698722645
 21
203.89426659288
 31
0.0
  0
LINE
  5
A170
  8
0
 10
49.20991698722645
 20
203.89426659288
 30
0.0
 11
49.20991698722645
 21
203.56028269288
 31
0.0
  0
LINE
  5
A171
  8
0
 10
50.21150198722648
 20
203.56028269288
 30
0.0
 11
50.87909928722644
 21
203.56028269288
 31
0.0
  0
LINE
  5
A172
  8
0
 10
50.87909928722644
 20
203.56028269288
 30
0.0
 11
50.87909928722644
 21
203.89426659288
 31
0.0
  0
LINE
  5
A173
  8
0
 10
50.87909928722644
 20
203.89426659288
 30
0.0
 11
50.21150198722648
 21
203.89426659288
 31
0.0
  0
LINE
  5
A174
  8
0
 10
50.21150198722648
 20
203.89426659288
 30
0.0
 11
50.21150198722648
 21
203.56028269288
 31
0.0
  0
LINE
  5
A175
  8
0
 10
51.88065198722649
 20
203.56028269288
 30
0.0
 11
52.88223698722646
 21
203.56028269288
 31
0.0
  0
LINE
  5
A176
  8
0
 10
52.88223698722646
 20
203.56028269288
 30
0.0
 11
52.88223698722646
 21
203.89426659288
 31
0.0
  0
LINE
  5
A177
  8
0
 10
52.88223698722646
 20
203.89426659288
 30
0.0
 11
51.88065198722649
 21
203.89426659288
 31
0.0
  0
LINE
  5
A178
  8
0
 10
51.88065198722649
 20
203.89426659288
 30
0.0
 11
51.88065198722649
 21
203.56028269288
 31
0.0
  0
LINE
  5
A179
  8
0
 10
53.21549698722646
 20
203.56028269288
 30
0.0
 11
53.54985328722648
 21
203.56028269288
 31
0.0
  0
LINE
  5
A17A
  8
0
 10
53.54985328722648
 20
203.56028269288
 30
0.0
 11
53.54985328722648
 21
203.89426659288
 31
0.0
  0
LINE
  5
A17B
  8
0
 10
53.54985328722648
 20
203.89426659288
 30
0.0
 11
53.21549698722646
 21
203.89426659288
 31
0.0
  0
LINE
  5
A17C
  8
0
 10
53.21549698722646
 20
203.89426659288
 30
0.0
 11
53.21549698722646
 21
203.56028269288
 31
0.0
  0
LINE
  5
A17D
  8
0
 10
42.53436198722648
 20
203.22626269288
 30
0.0
 11
42.86871733722649
 21
203.22626269288
 31
0.0
  0
LINE
  5
A17E
  8
0
 10
42.86871733722649
 20
203.22626269288
 30
0.0
 11
42.86871733722649
 21
203.56024754288
 31
0.0
  0
LINE
  5
A17F
  8
0
 10
42.86871733722649
 20
203.56024754288
 30
0.0
 11
42.53436198722648
 21
203.56024754288
 31
0.0
  0
LINE
  5
A180
  8
0
 10
42.53436198722648
 20
203.56024754288
 30
0.0
 11
42.53436198722648
 21
203.22626269288
 31
0.0
  0
LINE
  5
A181
  8
0
 10
43.20192698722644
 20
203.22626269288
 30
0.0
 11
44.20351198722648
 21
203.22626269288
 31
0.0
  0
LINE
  5
A182
  8
0
 10
44.20351198722648
 20
203.22626269288
 30
0.0
 11
44.20351198722648
 21
203.56024754288
 31
0.0
  0
LINE
  5
A183
  8
0
 10
44.20351198722648
 20
203.56024754288
 30
0.0
 11
43.20192698722644
 21
203.56024754288
 31
0.0
  0
LINE
  5
A184
  8
0
 10
43.20192698722644
 20
203.56024754288
 30
0.0
 11
43.20192698722644
 21
203.22626269288
 31
0.0
  0
LINE
  5
A185
  8
0
 10
44.53743698722644
 20
203.22626269288
 30
0.0
 11
44.87142088722646
 21
203.22626269288
 31
0.0
  0
LINE
  5
A186
  8
0
 10
44.87142088722646
 20
203.22626269288
 30
0.0
 11
44.87142088722646
 21
203.56024754288
 31
0.0
  0
LINE
  5
A187
  8
0
 10
44.87142088722646
 20
203.56024754288
 30
0.0
 11
44.53743698722644
 21
203.56024754288
 31
0.0
  0
LINE
  5
A188
  8
0
 10
44.53743698722644
 20
203.56024754288
 30
0.0
 11
44.53743698722644
 21
203.22626269288
 31
0.0
  0
LINE
  5
A189
  8
0
 10
45.87266198722648
 20
203.22626269288
 30
0.0
 11
46.53988783722644
 21
203.22626269288
 31
0.0
  0
LINE
  5
A18A
  8
0
 10
46.53988783722644
 20
203.22626269288
 30
0.0
 11
46.53988783722644
 21
203.56024754288
 31
0.0
  0
LINE
  5
A18B
  8
0
 10
46.53988783722644
 20
203.56024754288
 30
0.0
 11
45.87266198722648
 21
203.56024754288
 31
0.0
  0
LINE
  5
A18C
  8
0
 10
45.87266198722648
 20
203.56024754288
 30
0.0
 11
45.87266198722648
 21
203.22626269288
 31
0.0
  0
LINE
  5
A18D
  8
0
 10
46.87348698722644
 20
203.22626269288
 30
0.0
 11
47.54108523722647
 21
203.22626269288
 31
0.0
  0
LINE
  5
A18E
  8
0
 10
47.54108523722647
 20
203.22626269288
 30
0.0
 11
47.54108523722647
 21
203.56024754288
 31
0.0
  0
LINE
  5
A18F
  8
0
 10
47.54108523722647
 20
203.56024754288
 30
0.0
 11
46.87348698722644
 21
203.56024754288
 31
0.0
  0
LINE
  5
A190
  8
0
 10
46.87348698722644
 20
203.56024754288
 30
0.0
 11
46.87348698722644
 21
203.22626269288
 31
0.0
  0
LINE
  5
A191
  8
0
 10
48.54273198722649
 20
203.22626269288
 30
0.0
 11
49.20995878722647
 21
203.22626269288
 31
0.0
  0
LINE
  5
A192
  8
0
 10
49.20995878722647
 20
203.22626269288
 30
0.0
 11
49.20995878722647
 21
203.56024754288
 31
0.0
  0
LINE
  5
A193
  8
0
 10
49.20995878722647
 20
203.56024754288
 30
0.0
 11
48.54273198722649
 21
203.56024754288
 31
0.0
  0
LINE
  5
A194
  8
0
 10
48.54273198722649
 20
203.56024754288
 30
0.0
 11
48.54273198722649
 21
203.22626269288
 31
0.0
  0
LINE
  5
A195
  8
0
 10
49.54431698722647
 20
203.22626269288
 30
0.0
 11
49.87830183722645
 21
203.22626269288
 31
0.0
  0
LINE
  5
A196
  8
0
 10
49.87830183722645
 20
203.22626269288
 30
0.0
 11
49.87830183722645
 21
203.56024754288
 31
0.0
  0
LINE
  5
A197
  8
0
 10
49.87830183722645
 20
203.56024754288
 30
0.0
 11
49.54431698722647
 21
203.56024754288
 31
0.0
  0
LINE
  5
A198
  8
0
 10
49.54431698722647
 20
203.56024754288
 30
0.0
 11
49.54431698722647
 21
203.22626269288
 31
0.0
  0
LINE
  5
A199
  8
0
 10
50.54590198722644
 20
203.22626269288
 30
0.0
 11
52.54832148722647
 21
203.22626269288
 31
0.0
  0
LINE
  5
A19A
  8
0
 10
52.54832148722647
 20
203.22626269288
 30
0.0
 11
52.54832148722647
 21
203.56024754288
 31
0.0
  0
LINE
  5
A19B
  8
0
 10
52.54832148722647
 20
203.56024754288
 30
0.0
 11
50.54590198722644
 21
203.56024754288
 31
0.0
  0
LINE
  5
A19C
  8
0
 10
50.54590198722644
 20
203.56024754288
 30
0.0
 11
50.54590198722644
 21
203.22626269288
 31
0.0
  0
LINE
  5
A19D
  8
0
 10
42.53436198722648
 20
202.89195769288
 30
0.0
 11
42.86871733722649
 21
202.89195769288
 31
0.0
  0
LINE
  5
A19E
  8
0
 10
42.86871733722649
 20
202.89195769288
 30
0.0
 11
42.86871733722649
 21
203.22631304288
 31
0.0
  0
LINE
  5
A19F
  8
0
 10
42.86871733722649
 20
203.22631304288
 30
0.0
 11
42.53436198722648
 21
203.22631304288
 31
0.0
  0
LINE
  5
A1A0
  8
0
 10
42.53436198722648
 20
203.22631304288
 30
0.0
 11
42.53436198722648
 21
202.89195769288
 31
0.0
  0
LINE
  5
A1A1
  8
0
 10
43.20192698722644
 20
202.89195769288
 30
0.0
 11
44.20351198722648
 21
202.89195769288
 31
0.0
  0
LINE
  5
A1A2
  8
0
 10
44.20351198722648
 20
202.89195769288
 30
0.0
 11
44.20351198722648
 21
203.22631304288
 31
0.0
  0
LINE
  5
A1A3
  8
0
 10
44.20351198722648
 20
203.22631304288
 30
0.0
 11
43.20192698722644
 21
203.22631304288
 31
0.0
  0
LINE
  5
A1A4
  8
0
 10
43.20192698722644
 20
203.22631304288
 30
0.0
 11
43.20192698722644
 21
202.89195769288
 31
0.0
  0
LINE
  5
A1A5
  8
0
 10
44.53743698722644
 20
202.89195769288
 30
0.0
 11
44.87142088722646
 21
202.89195769288
 31
0.0
  0
LINE
  5
A1A6
  8
0
 10
44.87142088722646
 20
202.89195769288
 30
0.0
 11
44.87142088722646
 21
203.22631304288
 31
0.0
  0
LINE
  5
A1A7
  8
0
 10
44.87142088722646
 20
203.22631304288
 30
0.0
 11
44.53743698722644
 21
203.22631304288
 31
0.0
  0
LINE
  5
A1A8
  8
0
 10
44.53743698722644
 20
203.22631304288
 30
0.0
 11
44.53743698722644
 21
202.89195769288
 31
0.0
  0
LINE
  5
A1A9
  8
0
 10
45.53873698722646
 20
202.89195769288
 30
0.0
 11
46.87356298722648
 21
202.89195769288
 31
0.0
  0
LINE
  5
A1AA
  8
0
 10
46.87356298722648
 20
202.89195769288
 30
0.0
 11
46.87356298722648
 21
203.22631304288
 31
0.0
  0
LINE
  5
A1AB
  8
0
 10
46.87356298722648
 20
203.22631304288
 30
0.0
 11
45.53873698722646
 21
203.22631304288
 31
0.0
  0
LINE
  5
A1AC
  8
0
 10
45.53873698722646
 20
203.22631304288
 30
0.0
 11
45.53873698722646
 21
202.89195769288
 31
0.0
  0
LINE
  5
A1AD
  8
0
 10
47.20750698722645
 20
202.89195769288
 30
0.0
 11
47.54149088722647
 21
202.89195769288
 31
0.0
  0
LINE
  5
A1AE
  8
0
 10
47.54149088722647
 20
202.89195769288
 30
0.0
 11
47.54149088722647
 21
203.22631304288
 31
0.0
  0
LINE
  5
A1AF
  8
0
 10
47.54149088722647
 20
203.22631304288
 30
0.0
 11
47.20750698722645
 21
203.22631304288
 31
0.0
  0
LINE
  5
A1B0
  8
0
 10
47.20750698722645
 20
203.22631304288
 30
0.0
 11
47.20750698722645
 21
202.89195769288
 31
0.0
  0
LINE
  5
A1B1
  8
0
 10
47.87507198722648
 20
202.89195769288
 30
0.0
 11
48.20905683722646
 21
202.89195769288
 31
0.0
  0
LINE
  5
A1B2
  8
0
 10
48.20905683722646
 20
202.89195769288
 30
0.0
 11
48.20905683722646
 21
203.22631304288
 31
0.0
  0
LINE
  5
A1B3
  8
0
 10
48.20905683722646
 20
203.22631304288
 30
0.0
 11
47.87507198722648
 21
203.22631304288
 31
0.0
  0
LINE
  5
A1B4
  8
0
 10
47.87507198722648
 20
203.22631304288
 30
0.0
 11
47.87507198722648
 21
202.89195769288
 31
0.0
  0
LINE
  5
A1B5
  8
0
 10
49.20991698722645
 20
202.89195769288
 30
0.0
 11
49.54427233722646
 21
202.89195769288
 31
0.0
  0
LINE
  5
A1B6
  8
0
 10
49.54427233722646
 20
202.89195769288
 30
0.0
 11
49.54427233722646
 21
203.22631304288
 31
0.0
  0
LINE
  5
A1B7
  8
0
 10
49.54427233722646
 20
203.22631304288
 30
0.0
 11
49.20991698722645
 21
203.22631304288
 31
0.0
  0
LINE
  5
A1B8
  8
0
 10
49.20991698722645
 20
203.22631304288
 30
0.0
 11
49.20991698722645
 21
202.89195769288
 31
0.0
  0
LINE
  5
A1B9
  8
0
 10
49.87748198722647
 20
202.89195769288
 30
0.0
 11
50.54507928722649
 21
202.89195769288
 31
0.0
  0
LINE
  5
A1BA
  8
0
 10
50.54507928722649
 20
202.89195769288
 30
0.0
 11
50.54507928722649
 21
203.22631304288
 31
0.0
  0
LINE
  5
A1BB
  8
0
 10
50.54507928722649
 20
203.22631304288
 30
0.0
 11
49.87748198722647
 21
203.22631304288
 31
0.0
  0
LINE
  5
A1BC
  8
0
 10
49.87748198722647
 20
203.22631304288
 30
0.0
 11
49.87748198722647
 21
202.89195769288
 31
0.0
  0
LINE
  5
A1BD
  8
0
 10
50.87906698722645
 20
202.89195769288
 30
0.0
 11
51.21305183722649
 21
202.89195769288
 31
0.0
  0
LINE
  5
A1BE
  8
0
 10
51.21305183722649
 20
202.89195769288
 30
0.0
 11
51.21305183722649
 21
203.22631304288
 31
0.0
  0
LINE
  5
A1BF
  8
0
 10
51.21305183722649
 20
203.22631304288
 30
0.0
 11
50.87906698722645
 21
203.22631304288
 31
0.0
  0
LINE
  5
A1C0
  8
0
 10
50.87906698722645
 20
203.22631304288
 30
0.0
 11
50.87906698722645
 21
202.89195769288
 31
0.0
  0
LINE
  5
A1C1
  8
0
 10
51.54672698722646
 20
202.89195769288
 30
0.0
 11
52.2139537872265
 21
202.89195769288
 31
0.0
  0
LINE
  5
A1C2
  8
0
 10
52.2139537872265
 20
202.89195769288
 30
0.0
 11
52.2139537872265
 21
203.22631304288
 31
0.0
  0
LINE
  5
A1C3
  8
0
 10
52.2139537872265
 20
203.22631304288
 30
0.0
 11
51.54672698722646
 21
203.22631304288
 31
0.0
  0
LINE
  5
A1C4
  8
0
 10
51.54672698722646
 20
203.22631304288
 30
0.0
 11
51.54672698722646
 21
202.89195769288
 31
0.0
  0
LINE
  5
A1C5
  8
0
 10
52.54831198722644
 20
202.89195769288
 30
0.0
 11
52.88229588722646
 21
202.89195769288
 31
0.0
  0
LINE
  5
A1C6
  8
0
 10
52.88229588722646
 20
202.89195769288
 30
0.0
 11
52.88229588722646
 21
203.22631304288
 31
0.0
  0
LINE
  5
A1C7
  8
0
 10
52.88229588722646
 20
203.22631304288
 30
0.0
 11
52.54831198722644
 21
203.22631304288
 31
0.0
  0
LINE
  5
A1C8
  8
0
 10
52.54831198722644
 20
203.22631304288
 30
0.0
 11
52.54831198722644
 21
202.89195769288
 31
0.0
  0
LINE
  5
A1C9
  8
0
 10
53.21549698722646
 20
202.89195769288
 30
0.0
 11
53.54985328722648
 21
202.89195769288
 31
0.0
  0
LINE
  5
A1CA
  8
0
 10
53.54985328722648
 20
202.89195769288
 30
0.0
 11
53.54985328722648
 21
203.22631304288
 31
0.0
  0
LINE
  5
A1CB
  8
0
 10
53.54985328722648
 20
203.22631304288
 30
0.0
 11
53.21549698722646
 21
203.22631304288
 31
0.0
  0
LINE
  5
A1CC
  8
0
 10
53.21549698722646
 20
203.22631304288
 30
0.0
 11
53.21549698722646
 21
202.89195769288
 31
0.0
  0
LINE
  5
A1CD
  8
0
 10
42.53436198722648
 20
202.55869769288
 30
0.0
 11
42.86871733722649
 21
202.55869769288
 31
0.0
  0
LINE
  5
A1CE
  8
0
 10
42.86871733722649
 20
202.55869769288
 30
0.0
 11
42.86871733722649
 21
202.89268159288
 31
0.0
  0
LINE
  5
A1CF
  8
0
 10
42.86871733722649
 20
202.89268159288
 30
0.0
 11
42.53436198722648
 21
202.89268159288
 31
0.0
  0
LINE
  5
A1D0
  8
0
 10
42.53436198722648
 20
202.89268159288
 30
0.0
 11
42.53436198722648
 21
202.55869769288
 31
0.0
  0
LINE
  5
A1D1
  8
0
 10
43.20192698722644
 20
202.55869769288
 30
0.0
 11
44.20351198722648
 21
202.55869769288
 31
0.0
  0
LINE
  5
A1D2
  8
0
 10
44.20351198722648
 20
202.55869769288
 30
0.0
 11
44.20351198722648
 21
202.89268159288
 31
0.0
  0
LINE
  5
A1D3
  8
0
 10
44.20351198722648
 20
202.89268159288
 30
0.0
 11
43.20192698722644
 21
202.89268159288
 31
0.0
  0
LINE
  5
A1D4
  8
0
 10
43.20192698722644
 20
202.89268159288
 30
0.0
 11
43.20192698722644
 21
202.55869769288
 31
0.0
  0
LINE
  5
A1D5
  8
0
 10
44.53743698722644
 20
202.55869769288
 30
0.0
 11
44.87142088722646
 21
202.55869769288
 31
0.0
  0
LINE
  5
A1D6
  8
0
 10
44.87142088722646
 20
202.55869769288
 30
0.0
 11
44.87142088722646
 21
202.89268159288
 31
0.0
  0
LINE
  5
A1D7
  8
0
 10
44.87142088722646
 20
202.89268159288
 30
0.0
 11
44.53743698722644
 21
202.89268159288
 31
0.0
  0
LINE
  5
A1D8
  8
0
 10
44.53743698722644
 20
202.89268159288
 30
0.0
 11
44.53743698722644
 21
202.55869769288
 31
0.0
  0
LINE
  5
A1D9
  8
0
 10
45.87266198722648
 20
202.55869769288
 30
0.0
 11
47.20748798722644
 21
202.55869769288
 31
0.0
  0
LINE
  5
A1DA
  8
0
 10
47.20748798722644
 20
202.55869769288
 30
0.0
 11
47.20748798722644
 21
202.89268159288
 31
0.0
  0
LINE
  5
A1DB
  8
0
 10
47.20748798722644
 20
202.89268159288
 30
0.0
 11
45.87266198722648
 21
202.89268159288
 31
0.0
  0
LINE
  5
A1DC
  8
0
 10
45.87266198722648
 20
202.89268159288
 30
0.0
 11
45.87266198722648
 21
202.55869769288
 31
0.0
  0
LINE
  5
A1DD
  8
0
 10
47.87507198722648
 20
202.55869769288
 30
0.0
 11
48.20905683722646
 21
202.55869769288
 31
0.0
  0
LINE
  5
A1DE
  8
0
 10
48.20905683722646
 20
202.55869769288
 30
0.0
 11
48.20905683722646
 21
202.89268159288
 31
0.0
  0
LINE
  5
A1DF
  8
0
 10
48.20905683722646
 20
202.89268159288
 30
0.0
 11
47.87507198722648
 21
202.89268159288
 31
0.0
  0
LINE
  5
A1E0
  8
0
 10
47.87507198722648
 20
202.89268159288
 30
0.0
 11
47.87507198722648
 21
202.55869769288
 31
0.0
  0
LINE
  5
A1E1
  8
0
 10
48.54273198722649
 20
202.55869769288
 30
0.0
 11
48.87671683722647
 21
202.55869769288
 31
0.0
  0
LINE
  5
A1E2
  8
0
 10
48.87671683722647
 20
202.55869769288
 30
0.0
 11
48.87671683722647
 21
202.89268159288
 31
0.0
  0
LINE
  5
A1E3
  8
0
 10
48.87671683722647
 20
202.89268159288
 30
0.0
 11
48.54273198722649
 21
202.89268159288
 31
0.0
  0
LINE
  5
A1E4
  8
0
 10
48.54273198722649
 20
202.89268159288
 30
0.0
 11
48.54273198722649
 21
202.55869769288
 31
0.0
  0
LINE
  5
A1E5
  8
0
 10
49.20991698722645
 20
202.55869769288
 30
0.0
 11
49.54427233722646
 21
202.55869769288
 31
0.0
  0
LINE
  5
A1E6
  8
0
 10
49.54427233722646
 20
202.55869769288
 30
0.0
 11
49.54427233722646
 21
202.89268159288
 31
0.0
  0
LINE
  5
A1E7
  8
0
 10
49.54427233722646
 20
202.89268159288
 30
0.0
 11
49.20991698722645
 21
202.89268159288
 31
0.0
  0
LINE
  5
A1E8
  8
0
 10
49.20991698722645
 20
202.89268159288
 30
0.0
 11
49.20991698722645
 21
202.55869769288
 31
0.0
  0
LINE
  5
A1E9
  8
0
 10
49.87748198722647
 20
202.55869769288
 30
0.0
 11
50.2114658872265
 21
202.55869769288
 31
0.0
  0
LINE
  5
A1EA
  8
0
 10
50.2114658872265
 20
202.55869769288
 30
0.0
 11
50.2114658872265
 21
202.89268159288
 31
0.0
  0
LINE
  5
A1EB
  8
0
 10
50.2114658872265
 20
202.89268159288
 30
0.0
 11
49.87748198722647
 21
202.89268159288
 31
0.0
  0
LINE
  5
A1EC
  8
0
 10
49.87748198722647
 20
202.89268159288
 30
0.0
 11
49.87748198722647
 21
202.55869769288
 31
0.0
  0
LINE
  5
A1ED
  8
0
 10
50.54590198722644
 20
202.55869769288
 30
0.0
 11
50.87988683722648
 21
202.55869769288
 31
0.0
  0
LINE
  5
A1EE
  8
0
 10
50.87988683722648
 20
202.55869769288
 30
0.0
 11
50.87988683722648
 21
202.89268159288
 31
0.0
  0
LINE
  5
A1EF
  8
0
 10
50.87988683722648
 20
202.89268159288
 30
0.0
 11
50.54590198722644
 21
202.89268159288
 31
0.0
  0
LINE
  5
A1F0
  8
0
 10
50.54590198722644
 20
202.89268159288
 30
0.0
 11
50.54590198722644
 21
202.55869769288
 31
0.0
  0
LINE
  5
A1F1
  8
0
 10
51.54672698722646
 20
202.55869769288
 30
0.0
 11
52.2139537872265
 21
202.55869769288
 31
0.0
  0
LINE
  5
A1F2
  8
0
 10
52.2139537872265
 20
202.55869769288
 30
0.0
 11
52.2139537872265
 21
202.89268159288
 31
0.0
  0
LINE
  5
A1F3
  8
0
 10
52.2139537872265
 20
202.89268159288
 30
0.0
 11
51.54672698722646
 21
202.89268159288
 31
0.0
  0
LINE
  5
A1F4
  8
0
 10
51.54672698722646
 20
202.89268159288
 30
0.0
 11
51.54672698722646
 21
202.55869769288
 31
0.0
  0
LINE
  5
A1F5
  8
0
 10
52.88157198722649
 20
202.55869769288
 30
0.0
 11
53.54916928722645
 21
202.55869769288
 31
0.0
  0
LINE
  5
A1F6
  8
0
 10
53.54916928722645
 20
202.55869769288
 30
0.0
 11
53.54916928722645
 21
202.89268159288
 31
0.0
  0
LINE
  5
A1F7
  8
0
 10
53.54916928722645
 20
202.89268159288
 30
0.0
 11
52.88157198722649
 21
202.89268159288
 31
0.0
  0
LINE
  5
A1F8
  8
0
 10
52.88157198722649
 20
202.89268159288
 30
0.0
 11
52.88157198722649
 21
202.55869769288
 31
0.0
  0
LINE
  5
A1F9
  8
0
 10
42.53436198722648
 20
202.22477269288
 30
0.0
 11
42.86871733722649
 21
202.22477269288
 31
0.0
  0
LINE
  5
A1FA
  8
0
 10
42.86871733722649
 20
202.22477269288
 30
0.0
 11
42.86871733722649
 21
202.55875754288
 31
0.0
  0
LINE
  5
A1FB
  8
0
 10
42.86871733722649
 20
202.55875754288
 30
0.0
 11
42.53436198722648
 21
202.55875754288
 31
0.0
  0
LINE
  5
A1FC
  8
0
 10
42.53436198722648
 20
202.55875754288
 30
0.0
 11
42.53436198722648
 21
202.22477269288
 31
0.0
  0
LINE
  5
A1FD
  8
0
 10
44.53743698722644
 20
202.22477269288
 30
0.0
 11
44.87142088722646
 21
202.22477269288
 31
0.0
  0
LINE
  5
A1FE
  8
0
 10
44.87142088722646
 20
202.22477269288
 30
0.0
 11
44.87142088722646
 21
202.55875754288
 31
0.0
  0
LINE
  5
A1FF
  8
0
 10
44.87142088722646
 20
202.55875754288
 30
0.0
 11
44.53743698722644
 21
202.55875754288
 31
0.0
  0
LINE
  5
A200
  8
0
 10
44.53743698722644
 20
202.55875754288
 30
0.0
 11
44.53743698722644
 21
202.22477269288
 31
0.0
  0
LINE
  5
A201
  8
0
 10
45.87266198722648
 20
202.22477269288
 30
0.0
 11
46.53988783722644
 21
202.22477269288
 31
0.0
  0
LINE
  5
A202
  8
0
 10
46.53988783722644
 20
202.22477269288
 30
0.0
 11
46.53988783722644
 21
202.55875754288
 31
0.0
  0
LINE
  5
A203
  8
0
 10
46.53988783722644
 20
202.55875754288
 30
0.0
 11
45.87266198722648
 21
202.55875754288
 31
0.0
  0
LINE
  5
A204
  8
0
 10
45.87266198722648
 20
202.55875754288
 30
0.0
 11
45.87266198722648
 21
202.22477269288
 31
0.0
  0
LINE
  5
A205
  8
0
 10
47.20750698722645
 20
202.22477269288
 30
0.0
 11
48.20909198722649
 21
202.22477269288
 31
0.0
  0
LINE
  5
A206
  8
0
 10
48.20909198722649
 20
202.22477269288
 30
0.0
 11
48.20909198722649
 21
202.55875754288
 31
0.0
  0
LINE
  5
A207
  8
0
 10
48.20909198722649
 20
202.55875754288
 30
0.0
 11
47.20750698722645
 21
202.55875754288
 31
0.0
  0
LINE
  5
A208
  8
0
 10
47.20750698722645
 20
202.55875754288
 30
0.0
 11
47.20750698722645
 21
202.22477269288
 31
0.0
  0
LINE
  5
A209
  8
0
 10
48.87665698722645
 20
202.22477269288
 30
0.0
 11
49.54425428722647
 21
202.22477269288
 31
0.0
  0
LINE
  5
A20A
  8
0
 10
49.54425428722647
 20
202.22477269288
 30
0.0
 11
49.54425428722647
 21
202.55875754288
 31
0.0
  0
LINE
  5
A20B
  8
0
 10
49.54425428722647
 20
202.55875754288
 30
0.0
 11
48.87665698722645
 21
202.55875754288
 31
0.0
  0
LINE
  5
A20C
  8
0
 10
48.87665698722645
 20
202.55875754288
 30
0.0
 11
48.87665698722645
 21
202.22477269288
 31
0.0
  0
LINE
  5
A20D
  8
0
 10
51.54672698722646
 20
202.22477269288
 30
0.0
 11
52.88155298722648
 21
202.22477269288
 31
0.0
  0
LINE
  5
A20E
  8
0
 10
52.88155298722648
 20
202.22477269288
 30
0.0
 11
52.88155298722648
 21
202.55875754288
 31
0.0
  0
LINE
  5
A20F
  8
0
 10
52.88155298722648
 20
202.55875754288
 30
0.0
 11
51.54672698722646
 21
202.55875754288
 31
0.0
  0
LINE
  5
A210
  8
0
 10
51.54672698722646
 20
202.55875754288
 30
0.0
 11
51.54672698722646
 21
202.22477269288
 31
0.0
  0
LINE
  5
A211
  8
0
 10
42.53436198722648
 20
201.89113269288
 30
0.0
 11
44.8711434872265
 21
201.89113269288
 31
0.0
  0
LINE
  5
A212
  8
0
 10
44.8711434872265
 20
201.89113269288
 30
0.0
 11
44.8711434872265
 21
202.22511754288
 31
0.0
  0
LINE
  5
A213
  8
0
 10
44.8711434872265
 20
202.22511754288
 30
0.0
 11
42.53436198722648
 21
202.22511754288
 31
0.0
  0
LINE
  5
A214
  8
0
 10
42.53436198722648
 20
202.22511754288
 30
0.0
 11
42.53436198722648
 21
201.89113269288
 31
0.0
  0
LINE
  5
A215
  8
0
 10
45.20509698722645
 20
201.89113269288
 30
0.0
 11
45.53908183722649
 21
201.89113269288
 31
0.0
  0
LINE
  5
A216
  8
0
 10
45.53908183722649
 20
201.89113269288
 30
0.0
 11
45.53908183722649
 21
202.22511754288
 31
0.0
  0
LINE
  5
A217
  8
0
 10
45.53908183722649
 20
202.22511754288
 30
0.0
 11
45.20509698722645
 21
202.22511754288
 31
0.0
  0
LINE
  5
A218
  8
0
 10
45.20509698722645
 20
202.22511754288
 30
0.0
 11
45.20509698722645
 21
201.89113269288
 31
0.0
  0
LINE
  5
A219
  8
0
 10
46.20592198722647
 20
201.89113269288
 30
0.0
 11
46.5399058872265
 21
201.89113269288
 31
0.0
  0
LINE
  5
A21A
  8
0
 10
46.5399058872265
 20
201.89113269288
 30
0.0
 11
46.5399058872265
 21
202.22511754288
 31
0.0
  0
LINE
  5
A21B
  8
0
 10
46.5399058872265
 20
202.22511754288
 30
0.0
 11
46.20592198722647
 21
202.22511754288
 31
0.0
  0
LINE
  5
A21C
  8
0
 10
46.20592198722647
 20
202.22511754288
 30
0.0
 11
46.20592198722647
 21
201.89113269288
 31
0.0
  0
LINE
  5
A21D
  8
0
 10
47.20750698722645
 20
201.89113269288
 30
0.0
 11
47.54149088722647
 21
201.89113269288
 31
0.0
  0
LINE
  5
A21E
  8
0
 10
47.54149088722647
 20
201.89113269288
 30
0.0
 11
47.54149088722647
 21
202.22511754288
 31
0.0
  0
LINE
  5
A21F
  8
0
 10
47.54149088722647
 20
202.22511754288
 30
0.0
 11
47.20750698722645
 21
202.22511754288
 31
0.0
  0
LINE
  5
A220
  8
0
 10
47.20750698722645
 20
202.22511754288
 30
0.0
 11
47.20750698722645
 21
201.89113269288
 31
0.0
  0
LINE
  5
A221
  8
0
 10
48.20909198722649
 20
201.89113269288
 30
0.0
 11
48.54307588722645
 21
201.89113269288
 31
0.0
  0
LINE
  5
A222
  8
0
 10
48.54307588722645
 20
201.89113269288
 30
0.0
 11
48.54307588722645
 21
202.22511754288
 31
0.0
  0
LINE
  5
A223
  8
0
 10
48.54307588722645
 20
202.22511754288
 30
0.0
 11
48.20909198722649
 21
202.22511754288
 31
0.0
  0
LINE
  5
A224
  8
0
 10
48.20909198722649
 20
202.22511754288
 30
0.0
 11
48.20909198722649
 21
201.89113269288
 31
0.0
  0
LINE
  5
A225
  8
0
 10
48.87665698722645
 20
201.89113269288
 30
0.0
 11
49.21064088722648
 21
201.89113269288
 31
0.0
  0
LINE
  5
A226
  8
0
 10
49.21064088722648
 20
201.89113269288
 30
0.0
 11
49.21064088722648
 21
202.22511754288
 31
0.0
  0
LINE
  5
A227
  8
0
 10
49.21064088722648
 20
202.22511754288
 30
0.0
 11
48.87665698722645
 21
202.22511754288
 31
0.0
  0
LINE
  5
A228
  8
0
 10
48.87665698722645
 20
202.22511754288
 30
0.0
 11
48.87665698722645
 21
201.89113269288
 31
0.0
  0
LINE
  5
A229
  8
0
 10
49.87748198722647
 20
201.89113269288
 30
0.0
 11
51.21230798722644
 21
201.89113269288
 31
0.0
  0
LINE
  5
A22A
  8
0
 10
51.21230798722644
 20
201.89113269288
 30
0.0
 11
51.21230798722644
 21
202.22511754288
 31
0.0
  0
LINE
  5
A22B
  8
0
 10
51.21230798722644
 20
202.22511754288
 30
0.0
 11
49.87748198722647
 21
202.22511754288
 31
0.0
  0
LINE
  5
A22C
  8
0
 10
49.87748198722647
 20
202.22511754288
 30
0.0
 11
49.87748198722647
 21
201.89113269288
 31
0.0
  0
LINE
  5
A22D
  8
0
 10
51.54672698722646
 20
201.89113269288
 30
0.0
 11
51.88071088722648
 21
201.89113269288
 31
0.0
  0
LINE
  5
A22E
  8
0
 10
51.88071088722648
 20
201.89113269288
 30
0.0
 11
51.88071088722648
 21
202.22511754288
 31
0.0
  0
LINE
  5
A22F
  8
0
 10
51.88071088722648
 20
202.22511754288
 30
0.0
 11
51.54672698722646
 21
202.22511754288
 31
0.0
  0
LINE
  5
A230
  8
0
 10
51.54672698722646
 20
202.22511754288
 30
0.0
 11
51.54672698722646
 21
201.89113269288
 31
0.0
  0
LINE
  5
A231
  8
0
 10
52.21391198722648
 20
201.89113269288
 30
0.0
 11
52.54826733722649
 21
201.89113269288
 31
0.0
  0
LINE
  5
A232
  8
0
 10
52.54826733722649
 20
201.89113269288
 30
0.0
 11
52.54826733722649
 21
202.22511754288
 31
0.0
  0
LINE
  5
A233
  8
0
 10
52.54826733722649
 20
202.22511754288
 30
0.0
 11
52.21391198722648
 21
202.22511754288
 31
0.0
  0
LINE
  5
A234
  8
0
 10
52.21391198722648
 20
202.22511754288
 30
0.0
 11
52.21391198722648
 21
201.89113269288
 31
0.0
  0
LINE
  5
A235
  8
0
 10
52.88157198722649
 20
201.89113269288
 30
0.0
 11
53.21555588722646
 21
201.89113269288
 31
0.0
  0
LINE
  5
A236
  8
0
 10
53.21555588722646
 20
201.89113269288
 30
0.0
 11
53.21555588722646
 21
202.22511754288
 31
0.0
  0
LINE
  5
A237
  8
0
 10
53.21555588722646
 20
202.22511754288
 30
0.0
 11
52.88157198722649
 21
202.22511754288
 31
0.0
  0
LINE
  5
A238
  8
0
 10
52.88157198722649
 20
202.22511754288
 30
0.0
 11
52.88157198722649
 21
201.89113269288
 31
0.0
  0
CIRCLE
  5
A40E
  8
0
 10
63.52185159276132
 20
209.8911326928802
 30
0.0
 40
1.5
  0
TEXT
  5
A40F
  8
0
 10
44.47301841907156
 20
198.5567154792365
 30
0.0
 40
1.3
  1
冬期以外(凍結の心配がない期間)や長期間使用しないときは電源をOFFにしてください
  0
POLYLINE
  5
A410
  8
0
 66
     1
 10
0.0
 20
0.0
 30
0.0
 70
     1
  0
VERTEX
  5
A691
  8
0
 10
42.75218472878782
 20
200.440367020677
 30
0.0
  0
VERTEX
  5
A692
  8
0
 10
41.53974916348966
 20
198.3403670206766
 30
0.0
 42
0.5773502691896262
  0
VERTEX
  5
A693
  8
0
 10
41.62635170386807
 20
198.190367020677
 30
0.0
  0
VERTEX
  5
A694
  8
0
 10
44.0512228344644
 20
198.190367020677
 30
0.0
 42
0.577350269189628
  0
VERTEX
  5
A695
  8
0
 10
44.13782537484281
 20
198.3403670206766
 30
0.0
  0
VERTEX
  5
A696
  8
0
 10
42.92538980954464
 20
200.440367020677
 30
0.0
 42
0.577350269189626
  0
SEQEND
  5
A6B1
  8
0
  0
POLYLINE
  5
A411
  8
0
 66
     1
 10
0.0
 20
0.0
 30
0.0
 70
     1
  0
VERTEX
  5
A697
  8
0
 10
42.79548599967234
 20
200.315367020677
 30
0.0
  0
VERTEX
  5
A698
  8
0
 10
41.66965297408956
 20
198.3653670206881
 30
0.0
 42
0.577350269275458
  0
VERTEX
  5
A699
  8
0
 10
41.7129542442724
 20
198.2903670206764
 30
0.0
  0
VERTEX
  5
A69A
  8
0
 10
43.96462029411191
 20
198.2903670206764
 30
0.0
 42
0.5773502691037941
  0
VERTEX
  5
A69B
  8
0
 10
44.00792156430748
 20
198.3653670206653
 30
0.0
  0
VERTEX
  5
A69C
  8
0
 10
42.88208854005074
 20
200.315367020677
 30
0.0
 42
0.5773502691896244
  0
SEQEND
  5
A6B2
  8
0
  0
CIRCLE
  5
A412
  8
0
 10
42.83878726916623
 20
198.5903670206766
 30
0.0
 40
0.1
  0
LINE
  5
A413
  8
0
 10
42.73878726916632
 20
199.5903670206766
 30
0.0
 11
42.78922974704233
 21
198.8337298525361
 31
0.0
  0
LINE
  5
A414
  8
0
 10
42.9387872691666
 20
199.5903670206766
 30
0.0
 11
42.88834479129014
 21
198.8337298525343
 31
0.0
  0
ARC
  5
A415
  8
0
 10
42.83878726916623
 20
199.5903670206766
 30
0.0
 40
0.1
 50
0.0
 51
180.0
  0
ARC
  5
A416
  8
0
 10
42.83878726916623
 20
198.8403670206766
 30
0.0
 40
0.05
 50
187.6281496673324
 51
352.3718503305627
  0
CIRCLE
  5
A41A
  8
0
 10
82.52185159276138
 20
213.8911326928802
 30
0.0
 40
1.5
  0
CIRCLE
  5
A41B
  8
0
 10
82.52185159276138
 20
205.8911326928802
 30
0.0
 40
1.5
  0
POLYLINE
  5
A41C
  8
0
 66
     1
 10
0.0
 20
0.0
 30
0.0
 70
     1
  0
VERTEX
  5
A69D
  8
0
 10
77.47346513217605
 20
206.2009991416807
 30
0.0
  0
VERTEX
  5
A69E
  8
0
 10
77.20511291573445
 20
206.0460659172806
 30
0.0
  0
VERTEX
  5
A69F
  8
0
 10
77.20511291573445
 20
205.7361994684802
 30
0.0
  0
VERTEX
  5
A6A0
  8
0
 10
77.47346513217605
 20
205.5812662440801
 30
0.0
  0
VERTEX
  5
A6A1
  8
0
 10
77.74181734861764
 20
205.7361994684802
 30
0.0
  0
VERTEX
  5
A6A2
  8
0
 10
77.74181734861764
 20
206.0460659172806
 30
0.0
  0
SEQEND
  5
A6B3
  8
0
  0
POLYLINE
  5
A41D
  8
0
 66
     1
 10
0.0
 20
0.0
 30
0.0
  0
VERTEX
  5
A6A3
  8
0
 10
77.32346513217595
 20
206.4986495282697
 30
0.0
  0
VERTEX
  5
A6A4
  8
0
 10
77.02234011950242
 20
206.3247949211427
 30
0.0
  0
SEQEND
  5
A6B4
  8
0
  0
LINE
  5
A41E
  8
0
 10
77.32346513217595
 20
202.7911326928803
 30
0.0
 11
77.32346513217595
 21
203.3375793022871
 31
0.0
1001
GENIUS_GENODEF_13
1002
{
1000
HIER
1070
     0
1002
}
1002
{
1000
MANEDIT
1070
     0
1002
}
1002
{
1000
NOSEL
1070
     0
1002
}
1002
{
1000
BEHIND
1070
     0
1002
}
1002
{
1000
OTHER
1070
     0
1002
}
1002
{
1000
REACTOR
1002
}
1001
GENIUS_GENOBJ-N-CEN_13
1002
{
1000
OWNER
1000
GEN
1002
}
1001
GENIUS_GENCEN_19
1002
{
1040
3.0
1002
}
  0
LINE
  5
A41F
  8
0
 10
77.62346513217614
 20
202.7911326928803
 30
0.0
 11
77.62346513217614
 21
203.3375793022871
 31
0.0
1001
GENIUS_GENODEF_13
1002
{
1000
HIER
1070
     0
1002
}
1002
{
1000
MANEDIT
1070
     0
1002
}
1002
{
1000
NOSEL
1070
     0
1002
}
1002
{
1000
BEHIND
1070
     0
1002
}
1002
{
1000
OTHER
1070
     0
1002
}
1002
{
1000
REACTOR
1002
}
1001
GENIUS_GENOBJ-N-CEN_13
1002
{
1000
OWNER
1000
GEN
1002
}
1001
GENIUS_GENCEN_19
1002
{
1040
3.0
1002
}
  0
LINE
  5
A420
  8
0
 10
77.62346513217614
 20
206.8911326928805
 30
0.0
 11
78.269291937123
 21
207.5369594978274
 31
0.0
  0
LINE
  5
A421
  8
0
 10
77.62346513217614
 20
207.3911326928805
 30
0.0
 11
78.019291937123
 21
207.7869594978274
 31
0.0
  0
ARC
  5
A422
  8
0
 10
77.47346513217605
 20
208.9911326928804
 30
0.0
 40
0.1499999999999773
 50
0.0
 51
180.0
  0
ARC
  5
A423
  8
0
 10
78.144291937123
 20
207.6619594978274
 30
0.0
 40
0.1767766952966168
 50
315.0000000000196
 51
135.000000000013
  0
LINE
  5
A424
  8
0
 10
77.32346513217595
 20
206.8911326928805
 30
0.0
 11
76.67763832722909
 21
207.5369594978274
 31
0.0
  0
LINE
  5
A425
  8
0
 10
77.32346513217595
 20
207.3911326928805
 30
0.0
 11
76.92763832722909
 21
207.7869594978274
 31
0.0
  0
ARC
  5
A426
  8
0
 10
76.80263832722909
 20
207.6619594978274
 30
0.0
 40
0.1767766952966168
 50
44.99999999998697
 51
224.9999999999674
  0
LINE
  5
A427
  8
0
 10
77.62346513217614
 20
208.0911326928804
 30
0.0
 11
78.02225102939752
 21
208.4899185901018
 31
0.0
  0
LINE
  5
A428
  8
0
 10
77.62346513217614
 20
208.4446860834736
 30
0.0
 11
77.84547433410086
 21
208.6666952853983
 31
0.0
  0
ARC
  5
A429
  8
0
 10
77.93386268174896
 20
208.5783069377502
 30
0.0
 40
0.1249999999999206
 50
314.9999999998895
 51
134.9999999999447
  0
LINE
  5
A42A
  8
0
 10
79.30372102050188
 20
204.6612288823128
 30
0.0
 11
79.44968678955576
 21
204.1164772160375
 31
0.0
  0
LINE
  5
A42B
  8
0
 10
79.60990723834976
 20
204.4844521870162
 30
0.0
 11
79.69116824612803
 21
204.1811819773132
 31
0.0
  0
ARC
  5
A42C
  8
0
 10
80.03082506741504
 20
204.9462615442159
 30
0.0
 40
0.1249999999999206
 50
285.0000000000046
 51
105.0000000000046
  0
LINE
  5
A42D
  8
0
 10
77.62346513217614
 20
204.8911326928805
 30
0.0
 11
77.62346513217614
 21
205.2836158574911
 31
0.0
1001
GENIUS_GENODEF_13
1002
{
1000
HIER
1070
     0
1002
}
1002
{
1000
MANEDIT
1070
     0
1002
}
1002
{
1000
NOSEL
1070
     0
1002
}
1002
{
1000
BEHIND
1070
     0
1002
}
1002
{
1000
OTHER
1070
     0
1002
}
1002
{
1000
REACTOR
1002
}
1001
GENIUS_GENOBJ-N-CEN_13
1002
{
1000
OWNER
1000
GEN
1002
}
1001
GENIUS_GENCEN_19
1002
{
1040
3.0
1002
}
  0
LINE
  5
A42E
  8
0
 10
79.75990723834963
 20
204.7442598081515
 30
0.0
 11
80.06317744805284
 21
204.8255208159299
 31
0.0
  0
ARC
  5
A42F
  8
0
 10
79.57042751784212
 20
204.1488295966753
 30
0.0
 40
0.1249999999999206
 50
194.9999999999634
 51
14.99999999997603
  0
LINE
  5
A430
  8
0
 10
79.45372102050175
 20
204.9210365034482
 30
0.0
 11
79.99847268677723
 21
205.0670022725022
 31
0.0
  0
LINE
  5
A431
  8
0
 10
77.62346513217614
 20
203.6911326928804
 30
0.0
 11
77.62346513217614
 21
204.3911326928805
 31
0.0
1001
GENIUS_GENODEF_13
1002
{
1000
HIER
1070
     0
1002
}
1002
{
1000
MANEDIT
1070
     0
1002
}
1002
{
1000
NOSEL
1070
     0
1002
}
1002
{
1000
BEHIND
1070
     0
1002
}
1002
{
1000
OTHER
1070
     0
1002
}
1002
{
1000
REACTOR
1002
}
1001
GENIUS_GENOBJ-N-CEN_13
1002
{
1000
OWNER
1000
GEN
1002
}
1001
GENIUS_GENCEN_19
1002
{
1040
3.0
1002
}
  0
LINE
  5
A432
  8
0
 10
77.32346513217595
 20
203.6911326928804
 30
0.0
 11
77.32346513217595
 21
204.3911326928805
 31
0.0
1001
GENIUS_GENODEF_13
1002
{
1000
HIER
1070
     0
1002
}
1002
{
1000
MANEDIT
1070
     0
1002
}
1002
{
1000
NOSEL
1070
     0
1002
}
1002
{
1000
BEHIND
1070
     0
1002
}
1002
{
1000
OTHER
1070
     0
1002
}
1002
{
1000
REACTOR
1002
}
1001
GENIUS_GENOBJ-N-CEN_13
1002
{
1000
OWNER
1000
GEN
1002
}
1001
GENIUS_GENCEN_19
1002
{
1040
3.0
1002
}
  0
LINE
  5
A433
  8
0
 10
77.32346513217595
 20
208.4446860834736
 30
0.0
 11
77.32346513217595
 21
208.9911326928804
 31
0.0
1001
GENIUS_GENODEF_13
1002
{
1000
HIER
1070
     0
1002
}
1002
{
1000
MANEDIT
1070
     0
1002
}
1002
{
1000
NOSEL
1070
     0
1002
}
1002
{
1000
BEHIND
1070
     0
1002
}
1002
{
1000
OTHER
1070
     0
1002
}
1002
{
1000
REACTOR
1002
}
1001
GENIUS_GENOBJ-N-CEN_13
1002
{
1000
OWNER
1000
GEN
1002
}
1001
GENIUS_GENCEN_19
1002
{
1040
3.0
1002
}
  0
LINE
  5
A434
  8
0
 10
77.62346513217614
 20
208.4446860834736
 30
0.0
 11
77.62346513217614
 21
208.9911326928804
 31
0.0
1001
GENIUS_GENODEF_13
1002
{
1000
HIER
1070
     0
1002
}
1002
{
1000
MANEDIT
1070
     0
1002
}
1002
{
1000
NOSEL
1070
     0
1002
}
1002
{
1000
BEHIND
1070
     0
1002
}
1002
{
1000
OTHER
1070
     0
1002
}
1002
{
1000
REACTOR
1002
}
1001
GENIUS_GENOBJ-N-CEN_13
1002
{
1000
OWNER
1000
GEN
1002
}
1001
GENIUS_GENCEN_19
1002
{
1040
3.0
1002
}
  0
ARC
  5
A435
  8
0
 10
77.01306758260313
 20
208.5783069377502
 30
0.0
 40
0.1249999999999206
 50
45.00000000005527
 51
224.999999999954
  0
LINE
  5
A436
  8
0
 10
77.32346513217595
 20
208.4446860834736
 30
0.0
 11
77.10145593025123
 21
208.6666952853983
 31
0.0
  0
LINE
  5
A437
  8
0
 10
77.32346513217595
 20
208.0911326928804
 30
0.0
 11
76.92467923495457
 21
208.4899185901018
 31
0.0
  0
LINE
  5
A438
  8
0
 10
77.62346513217614
 20
207.3911326928805
 30
0.0
 11
77.62346513217614
 21
208.0911326928804
 31
0.0
1001
GENIUS_GENODEF_13
1002
{
1000
HIER
1070
     0
1002
}
1002
{
1000
MANEDIT
1070
     0
1002
}
1002
{
1000
NOSEL
1070
     0
1002
}
1002
{
1000
BEHIND
1070
     0
1002
}
1002
{
1000
OTHER
1070
     0
1002
}
1002
{
1000
REACTOR
1002
}
1001
GENIUS_GENOBJ-N-CEN_13
1002
{
1000
OWNER
1000
GEN
1002
}
1001
GENIUS_GENCEN_19
1002
{
1040
3.0
1002
}
  0
LINE
  5
A439
  8
0
 10
77.32346513217595
 20
207.3911326928805
 30
0.0
 11
77.32346513217595
 21
208.0911326928804
 31
0.0
1001
GENIUS_GENODEF_13
1002
{
1000
HIER
1070
     0
1002
}
1002
{
1000
MANEDIT
1070
     0
1002
}
1002
{
1000
NOSEL
1070
     0
1002
}
1002
{
1000
BEHIND
1070
     0
1002
}
1002
{
1000
OTHER
1070
     0
1002
}
1002
{
1000
REACTOR
1002
}
1001
GENIUS_GENOBJ-N-CEN_13
1002
{
1000
OWNER
1000
GEN
1002
}
1001
GENIUS_GENCEN_19
1002
{
1040
3.0
1002
}
  0
LINE
  5
A43A
  8
0
 10
77.62346513217614
 20
203.3375793022871
 30
0.0
 11
77.84547433410086
 21
203.1155701003624
 31
0.0
  0
LINE
  5
A43B
  8
0
 10
77.32346513217595
 20
204.3911326928805
 30
0.0
 11
76.92763832722909
 21
203.9953058879334
 31
0.0
  0
ARC
  5
A43C
  8
0
 10
77.47346513217605
 20
202.7911326928803
 30
0.0
 40
0.1499999999999773
 50
180.0
 51
0.0
  0
ARC
  5
A43D
  8
0
 10
78.144291937123
 20
204.1203058879334
 30
0.0
 40
0.1767766952966168
 50
224.9999999999935
 51
44.99999999998697
  0
ARC
  5
A43E
  8
0
 10
76.80263832722909
 20
204.1203058879334
 30
0.0
 40
0.1767766952966168
 50
135.000000000013
 51
314.9999999999935
  0
LINE
  5
A43F
  8
0
 10
77.62346513217614
 20
204.3911326928805
 30
0.0
 11
78.019291937123
 21
203.9953058879334
 31
0.0
  0
LINE
  5
A440
  8
0
 10
77.32346513217595
 20
204.8911326928805
 30
0.0
 11
76.67763832722909
 21
204.2453058879334
 31
0.0
  0
ARC
  5
A441
  8
0
 10
77.93386268174896
 20
203.2039584480106
 30
0.0
 40
0.1249999999999206
 50
225.0000000000645
 51
44.99999999994473
  0
LINE
  5
A442
  8
0
 10
77.32346513217595
 20
203.6911326928804
 30
0.0
 11
76.92467923495457
 21
203.292346795659
 31
0.0
  0
LINE
  5
A443
  8
0
 10
77.62346513217614
 20
203.6911326928804
 30
0.0
 11
78.02225102939752
 21
203.292346795659
 31
0.0
  0
LINE
  5
A444
  8
0
 10
77.62346513217614
 20
204.8911326928805
 30
0.0
 11
78.269291937123
 21
204.2453058879334
 31
0.0
  0
ARC
  5
A445
  8
0
 10
77.01306758260313
 20
203.2039584480106
 30
0.0
 40
0.1249999999999206
 50
134.9999999999079
 51
314.9999999998895
  0
LINE
  5
A446
  8
0
 10
77.32346513217595
 20
203.3375793022871
 30
0.0
 11
77.10145593025123
 21
203.1155701003624
 31
0.0
  0
LINE
  5
A447
  8
0
 10
78.6975032378528
 20
206.7710365034481
 30
0.0
 11
78.84238590396222
 21
207.3117459745045
 31
0.0
  0
ARC
  5
A448
  8
0
 10
78.67163272848921
 20
207.3574991499776
 30
0.0
 40
0.1767766952966168
 50
344.9999999999747
 51
164.9999999999747
  0
LINE
  5
A449
  8
0
 10
75.33702302600233
 20
204.4844521870162
 30
0.0
 11
74.86378638044431
 21
204.2112288823128
 31
0.0
1001
GENIUS_GENODEF_13
1002
{
1000
HIER
1070
     0
1002
}
1002
{
1000
MANEDIT
1070
     0
1002
}
1002
{
1000
NOSEL
1070
     0
1002
}
1002
{
1000
BEHIND
1070
     0
1002
}
1002
{
1000
OTHER
1070
     0
1002
}
1002
{
1000
REACTOR
1002
}
1001
GENIUS_GENOBJ-N-CEN_13
1002
{
1000
OWNER
1000
GEN
1002
}
1001
GENIUS_GENCEN_19
1002
{
1040
3.0
1002
}
  0
LINE
  5
A44A
  8
0
 10
78.4144905359604
 20
206.2612288823127
 30
0.0
 11
79.29670635796316
 21
206.0248398652572
 31
0.0
  0
LINE
  5
A44B
  8
0
 10
79.45372102050175
 20
206.8612288823128
 30
0.0
 11
79.99847268677723
 21
206.7152631132588
 31
0.0
  0
LINE
  5
A44C
  8
0
 10
79.75990723834963
 20
207.0380055776094
 30
0.0
 11
80.06317744805284
 21
206.956744569831
 31
0.0
  0
ARC
  5
A44D
  8
0
 10
80.03082506741504
 20
206.836003841545
 30
0.0
 40
0.1249999999999206
 50
254.9999999999954
 51
74.99999999999544
  0
LINE
  5
A44E
  8
0
 10
79.30372102050188
 20
207.1210365034481
 30
0.0
 11
79.44968678955576
 21
207.6657881697235
 31
0.0
  0
LINE
  5
A44F
  8
0
 10
76.09942702649943
 20
205.2710365034481
 30
0.0
 11
75.49320924385034
 21
204.9210365034481
 31
0.0
1001
GENIUS_GENODEF_13
1002
{
1000
HIER
1070
     0
1002
}
1002
{
1000
MANEDIT
1070
     0
1002
}
1002
{
1000
NOSEL
1070
     0
1002
}
1002
{
1000
BEHIND
1070
     0
1002
}
1002
{
1000
OTHER
1070
     0
1002
}
1002
{
1000
REACTOR
1002
}
1001
GENIUS_GENOBJ-N-CEN_13
1002
{
1000
OWNER
1000
GEN
1002
}
1001
GENIUS_GENCEN_19
1002
{
1040
3.0
1002
}
  0
ARC
  5
A450
  8
0
 10
76.27529753586288
 20
204.4247662357832
 30
0.0
 40
0.1767766952966168
 50
164.9999999999747
 51
345.0000000000127
  0
LINE
  5
A451
  8
0
 10
76.09942702649943
 20
205.2710365034481
 30
0.0
 11
75.55871755544291
 21
205.4159191695575
 31
0.0
  0
ARC
  5
A452
  8
0
 10
80.15814388390783
 20
207.4411326928804
 30
0.0
 40
0.1499999999999773
 50
300.0000000000254
 51
120.0000000000254
  0
LINE
  5
A453
  8
0
 10
78.4144905359604
 20
206.2612288823127
 30
0.0
 11
78.07459014484976
 21
206.0649873000073
 31
0.0
1001
GENIUS_GENODEF_13
1002
{
1000
HIER
1070
     0
1002
}
1002
{
1000
MANEDIT
1070
     0
1002
}
1002
{
1000
NOSEL
1070
     0
1002
}
1002
{
1000
BEHIND
1070
     0
1002
}
1002
{
1000
OTHER
1070
     0
1002
}
1002
{
1000
REACTOR
1002
}
1001
GENIUS_GENOBJ-N-CEN_13
1002
{
1000
OWNER
1000
GEN
1002
}
1001
GENIUS_GENCEN_19
1002
{
1040
3.0
1002
}
  0
LINE
  5
A454
  8
0
 10
78.26449053596053
 20
206.5210365034481
 30
0.0
 11
77.9245901448499
 21
206.3247949211426
 31
0.0
1001
GENIUS_GENODEF_13
1002
{
1000
HIER
1070
     0
1002
}
1002
{
1000
MANEDIT
1070
     0
1002
}
1002
{
1000
NOSEL
1070
     0
1002
}
1002
{
1000
BEHIND
1070
     0
1002
}
1002
{
1000
OTHER
1070
     0
1002
}
1002
{
1000
REACTOR
1002
}
1001
GENIUS_GENOBJ-N-CEN_13
1002
{
1000
OWNER
1000
GEN
1002
}
1001
GENIUS_GENCEN_19
1002
{
1040
3.0
1002
}
  0
LINE
  5
A455
  8
0
 10
76.24942702649929
 20
205.0112288823127
 30
0.0
 11
76.10454436038987
 21
204.4705194112563
 31
0.0
  0
LINE
  5
A456
  8
0
 10
76.68243972839156
 20
205.2612288823127
 30
0.0
 11
76.44605071133611
 21
204.3790130603102
 31
0.0
  0
LINE
  5
A457
  8
0
 10
80.23314388390787
 20
207.3112288823128
 30
0.0
 11
79.75990723834963
 21
207.0380055776094
 31
0.0
1001
GENIUS_GENODEF_13
1002
{
1000
HIER
1070
     0
1002
}
1002
{
1000
MANEDIT
1070
     0
1002
}
1002
{
1000
NOSEL
1070
     0
1002
}
1002
{
1000
BEHIND
1070
     0
1002
}
1002
{
1000
OTHER
1070
     0
1002
}
1002
{
1000
REACTOR
1002
}
1001
GENIUS_GENOBJ-N-CEN_13
1002
{
1000
OWNER
1000
GEN
1002
}
1001
GENIUS_GENCEN_19
1002
{
1040
3.0
1002
}
  0
ARC
  5
A458
  8
0
 10
74.78878638044426
 20
204.3411326928804
 30
0.0
 40
0.1499999999999773
 50
120.0000000000254
 51
300.0000000000254
  0
ARC
  5
A459
  8
0
 10
75.60447073091592
 20
205.5866723450305
 30
0.0
 40
0.1767766952966168
 50
75.0000000000127
 51
255.0000000000127
  0
LINE
  5
A45A
  8
0
 10
80.08314388390778
 20
207.5710365034481
 30
0.0
 11
79.60990723834976
 21
207.2978131987448
 31
0.0
1001
GENIUS_GENODEF_13
1002
{
1000
HIER
1070
     0
1002
}
1002
{
1000
MANEDIT
1070
     0
1002
}
1002
{
1000
NOSEL
1070
     0
1002
}
1002
{
1000
BEHIND
1070
     0
1002
}
1002
{
1000
OTHER
1070
     0
1002
}
1002
{
1000
REACTOR
1002
}
1001
GENIUS_GENOBJ-N-CEN_13
1002
{
1000
OWNER
1000
GEN
1002
}
1001
GENIUS_GENCEN_19
1002
{
1040
3.0
1002
}
  0
LINE
  5
A45B
  8
0
 10
79.30372102050188
 20
207.1210365034481
 30
0.0
 11
78.6975032378528
 21
206.7710365034481
 31
0.0
1001
GENIUS_GENODEF_13
1002
{
1000
HIER
1070
     0
1002
}
1002
{
1000
MANEDIT
1070
     0
1002
}
1002
{
1000
NOSEL
1070
     0
1002
}
1002
{
1000
BEHIND
1070
     0
1002
}
1002
{
1000
OTHER
1070
     0
1002
}
1002
{
1000
REACTOR
1002
}
1001
GENIUS_GENOBJ-N-CEN_13
1002
{
1000
OWNER
1000
GEN
1002
}
1001
GENIUS_GENCEN_19
1002
{
1040
3.0
1002
}
  0
LINE
  5
A45C
  8
0
 10
75.18702302600246
 20
204.7442598081515
 30
0.0
 11
74.71378638044422
 21
204.4710365034481
 31
0.0
1001
GENIUS_GENODEF_13
1002
{
1000
HIER
1070
     0
1002
}
1002
{
1000
MANEDIT
1070
     0
1002
}
1002
{
1000
NOSEL
1070
     0
1002
}
1002
{
1000
BEHIND
1070
     0
1002
}
1002
{
1000
OTHER
1070
     0
1002
}
1002
{
1000
REACTOR
1002
}
1001
GENIUS_GENOBJ-N-CEN_13
1002
{
1000
OWNER
1000
GEN
1002
}
1001
GENIUS_GENCEN_19
1002
{
1040
3.0
1002
}
  0
LINE
  5
A45D
  8
0
 10
79.45372102050175
 20
206.8612288823128
 30
0.0
 11
78.84750323785266
 21
206.5112288823127
 31
0.0
1001
GENIUS_GENODEF_13
1002
{
1000
HIER
1070
     0
1002
}
1002
{
1000
MANEDIT
1070
     0
1002
}
1002
{
1000
NOSEL
1070
     0
1002
}
1002
{
1000
BEHIND
1070
     0
1002
}
1002
{
1000
OTHER
1070
     0
1002
}
1002
{
1000
REACTOR
1002
}
1001
GENIUS_GENOBJ-N-CEN_13
1002
{
1000
OWNER
1000
GEN
1002
}
1001
GENIUS_GENCEN_19
1002
{
1040
3.0
1002
}
  0
LINE
  5
A45E
  8
0
 10
75.64320924385021
 20
204.6612288823127
 30
0.0
 11
75.49724347479633
 21
204.1164772160373
 31
0.0
  0
LINE
  5
A45F
  8
0
 10
75.33702302600233
 20
204.4844521870162
 30
0.0
 11
75.25576201822406
 21
204.1811819773131
 31
0.0
  0
ARC
  5
A460
  8
0
 10
75.37650274650997
 20
204.1488295966751
 30
0.0
 40
0.1249999999999206
 50
165.000000000024
 51
345.0000000001028
  0
LINE
  5
A461
  8
0
 10
75.49320924385034
 20
204.9210365034481
 30
0.0
 11
74.94845757757486
 21
205.067002272502
 31
0.0
  0
LINE
  5
A462
  8
0
 10
75.18702302600246
 20
204.7442598081515
 30
0.0
 11
74.88375281629925
 21
204.8255208159298
 31
0.0
  0
LINE
  5
A463
  8
0
 10
76.24942702649929
 20
205.0112288823127
 30
0.0
 11
75.64320924385021
 21
204.6612288823127
 31
0.0
1001
GENIUS_GENODEF_13
1002
{
1000
HIER
1070
     0
1002
}
1002
{
1000
MANEDIT
1070
     0
1002
}
1002
{
1000
NOSEL
1070
     0
1002
}
1002
{
1000
BEHIND
1070
     0
1002
}
1002
{
1000
OTHER
1070
     0
1002
}
1002
{
1000
REACTOR
1002
}
1001
GENIUS_GENOBJ-N-CEN_13
1002
{
1000
OWNER
1000
GEN
1002
}
1001
GENIUS_GENCEN_19
1002
{
1040
3.0
1002
}
  0
LINE
  5
A464
  8
0
 10
76.5324397283917
 20
205.5210365034481
 30
0.0
 11
75.65022390638893
 21
205.7574255205036
 31
0.0
  0
ARC
  5
A465
  8
0
 10
74.91610519693705
 20
204.9462615442158
 30
0.0
 40
0.1249999999999206
 50
74.99999999999544
 51
254.9999999999954
  0
LINE
  5
A466
  8
0
 10
78.84750323785266
 20
206.5112288823127
 30
0.0
 11
79.38821270890918
 21
206.3663462162033
 31
0.0
  0
ARC
  5
A467
  8
0
 10
79.34245953343617
 20
206.1955930407303
 30
0.0
 40
0.1767766952966168
 50
255.0000000000127
 51
75.0000000000127
  0
LINE
  5
A468
  8
0
 10
78.26449053596053
 20
206.5210365034481
 30
0.0
 11
78.5008795530162
 21
207.4032523254506
 31
0.0
  0
LINE
  5
A469
  8
0
 10
77.32346513217595
 20
204.8911326928805
 30
0.0
 11
77.32346513217595
 21
205.2836158574911
 31
0.0
1001
GENIUS_GENODEF_13
1002
{
1000
HIER
1070
     0
1002
}
1002
{
1000
MANEDIT
1070
     0
1002
}
1002
{
1000
NOSEL
1070
     0
1002
}
1002
{
1000
BEHIND
1070
     0
1002
}
1002
{
1000
OTHER
1070
     0
1002
}
1002
{
1000
REACTOR
1002
}
1001
GENIUS_GENOBJ-N-CEN_13
1002
{
1000
OWNER
1000
GEN
1002
}
1001
GENIUS_GENCEN_19
1002
{
1040
3.0
1002
}
  0
LINE
  5
A46A
  8
0
 10
79.60990723834976
 20
207.2978131987448
 30
0.0
 11
79.69116824612803
 21
207.6010834084477
 31
0.0
  0
ARC
  5
A46B
  8
0
 10
79.57042751784212
 20
207.6334357890857
 30
0.0
 40
0.1249999999999206
 50
344.9999999999954
 51
165.0000000001188
  0
LINE
  5
A46C
  8
0
 10
75.33702302600233
 20
207.2978131987448
 30
0.0
 11
75.25576201822406
 21
207.6010834084479
 31
0.0
  0
LINE
  5
A46D
  8
0
 10
75.49320924385034
 20
206.8612288823128
 30
0.0
 11
74.94845757757486
 21
206.7152631132588
 31
0.0
  0
LINE
  5
A46E
  8
0
 10
75.18702302600246
 20
207.0380055776094
 30
0.0
 11
74.88375281629925
 21
206.9567445698312
 31
0.0
  0
LINE
  5
A46F
  8
0
 10
79.30372102050188
 20
204.6612288823128
 30
0.0
 11
78.6975032378528
 21
205.0112288823128
 31
0.0
1001
GENIUS_GENODEF_13
1002
{
1000
HIER
1070
     0
1002
}
1002
{
1000
MANEDIT
1070
     0
1002
}
1002
{
1000
NOSEL
1070
     0
1002
}
1002
{
1000
BEHIND
1070
     0
1002
}
1002
{
1000
OTHER
1070
     0
1002
}
1002
{
1000
REACTOR
1002
}
1001
GENIUS_GENOBJ-N-CEN_13
1002
{
1000
OWNER
1000
GEN
1002
}
1001
GENIUS_GENCEN_19
1002
{
1040
3.0
1002
}
  0
LINE
  5
A470
  8
0
 10
79.45372102050175
 20
204.9210365034482
 30
0.0
 11
78.84750323785266
 21
205.2710365034482
 31
0.0
1001
GENIUS_GENODEF_13
1002
{
1000
HIER
1070
     0
1002
}
1002
{
1000
MANEDIT
1070
     0
1002
}
1002
{
1000
NOSEL
1070
     0
1002
}
1002
{
1000
BEHIND
1070
     0
1002
}
1002
{
1000
OTHER
1070
     0
1002
}
1002
{
1000
REACTOR
1002
}
1001
GENIUS_GENOBJ-N-CEN_13
1002
{
1000
OWNER
1000
GEN
1002
}
1001
GENIUS_GENCEN_19
1002
{
1040
3.0
1002
}
  0
ARC
  5
A471
  8
0
 10
75.37650274650997
 20
207.6334357890857
 30
0.0
 40
0.1249999999999206
 50
14.99999999995087
 51
194.9999999999509
  0
ARC
  5
A472
  8
0
 10
74.91610519693705
 20
206.836003841545
 30
0.0
 40
0.1249999999999206
 50
105.0000000000046
 51
285.0000000000046
  0
LINE
  5
A473
  8
0
 10
78.26449053596053
 20
205.2612288823128
 30
0.0
 11
77.9245901448499
 21
205.4574704646182
 31
0.0
1001
GENIUS_GENODEF_13
1002
{
1000
HIER
1070
     0
1002
}
1002
{
1000
MANEDIT
1070
     0
1002
}
1002
{
1000
NOSEL
1070
     0
1002
}
1002
{
1000
BEHIND
1070
     0
1002
}
1002
{
1000
OTHER
1070
     0
1002
}
1002
{
1000
REACTOR
1002
}
1001
GENIUS_GENOBJ-N-CEN_13
1002
{
1000
OWNER
1000
GEN
1002
}
1001
GENIUS_GENCEN_19
1002
{
1040
3.0
1002
}
  0
LINE
  5
A474
  8
0
 10
75.33702302600233
 20
207.2978131987448
 30
0.0
 11
74.86378638044431
 21
207.5710365034481
 31
0.0
1001
GENIUS_GENODEF_13
1002
{
1000
HIER
1070
     0
1002
}
1002
{
1000
MANEDIT
1070
     0
1002
}
1002
{
1000
NOSEL
1070
     0
1002
}
1002
{
1000
BEHIND
1070
     0
1002
}
1002
{
1000
OTHER
1070
     0
1002
}
1002
{
1000
REACTOR
1002
}
1001
GENIUS_GENOBJ-N-CEN_13
1002
{
1000
OWNER
1000
GEN
1002
}
1001
GENIUS_GENCEN_19
1002
{
1040
3.0
1002
}
  0
LINE
  5
A475
  8
0
 10
76.24942702649929
 20
206.7710365034482
 30
0.0
 11
76.10454436038987
 21
207.3117459745046
 31
0.0
  0
LINE
  5
A476
  8
0
 10
78.4144905359604
 20
205.5210365034482
 30
0.0
 11
79.29670635796316
 21
205.7574255205036
 31
0.0
  0
ARC
  5
A477
  8
0
 10
76.27529753586288
 20
207.3574991499776
 30
0.0
 40
0.1767766952966168
 50
15.00000000002528
 51
194.9999999999873
  0
LINE
  5
A478
  8
0
 10
80.08314388390778
 20
204.2112288823128
 30
0.0
 11
79.60990723834976
 21
204.4844521870162
 31
0.0
1001
GENIUS_GENODEF_13
1002
{
1000
HIER
1070
     0
1002
}
1002
{
1000
MANEDIT
1070
     0
1002
}
1002
{
1000
NOSEL
1070
     0
1002
}
1002
{
1000
BEHIND
1070
     0
1002
}
1002
{
1000
OTHER
1070
     0
1002
}
1002
{
1000
REACTOR
1002
}
1001
GENIUS_GENOBJ-N-CEN_13
1002
{
1000
OWNER
1000
GEN
1002
}
1001
GENIUS_GENCEN_19
1002
{
1040
3.0
1002
}
  0
LINE
  5
A479
  8
0
 10
76.5324397283917
 20
206.2612288823128
 30
0.0
 11
75.65022390638893
 21
206.0248398652573
 31
0.0
  0
LINE
  5
A47A
  8
0
 10
78.4144905359604
 20
205.5210365034482
 30
0.0
 11
78.07459014484976
 21
205.7172780857535
 31
0.0
1001
GENIUS_GENODEF_13
1002
{
1000
HIER
1070
     0
1002
}
1002
{
1000
MANEDIT
1070
     0
1002
}
1002
{
1000
NOSEL
1070
     0
1002
}
1002
{
1000
BEHIND
1070
     0
1002
}
1002
{
1000
OTHER
1070
     0
1002
}
1002
{
1000
REACTOR
1002
}
1001
GENIUS_GENOBJ-N-CEN_13
1002
{
1000
OWNER
1000
GEN
1002
}
1001
GENIUS_GENCEN_19
1002
{
1040
3.0
1002
}
  0
LINE
  5
A47B
  8
0
 10
80.23314388390787
 20
204.4710365034481
 30
0.0
 11
79.75990723834963
 21
204.7442598081515
 31
0.0
1001
GENIUS_GENODEF_13
1002
{
1000
HIER
1070
     0
1002
}
1002
{
1000
MANEDIT
1070
     0
1002
}
1002
{
1000
NOSEL
1070
     0
1002
}
1002
{
1000
BEHIND
1070
     0
1002
}
1002
{
1000
OTHER
1070
     0
1002
}
1002
{
1000
REACTOR
1002
}
1001
GENIUS_GENOBJ-N-CEN_13
1002
{
1000
OWNER
1000
GEN
1002
}
1001
GENIUS_GENCEN_19
1002
{
1040
3.0
1002
}
  0
LINE
  5
A47C
  8
0
 10
75.64320924385021
 20
207.1210365034481
 30
0.0
 11
75.49724347479633
 21
207.6657881697235
 31
0.0
  0
ARC
  5
A47D
  8
0
 10
75.60447073091592
 20
206.1955930407303
 30
0.0
 40
0.1767766952966168
 50
104.9999999999873
 51
284.9999999999873
  0
ARC
  5
A47E
  8
0
 10
74.78878638044426
 20
207.4411326928805
 30
0.0
 40
0.1499999999999773
 50
59.99999999997465
 51
239.9999999999746
  0
LINE
  5
A47F
  8
0
 10
78.84750323785266
 20
205.2710365034482
 30
0.0
 11
79.38821270890918
 21
205.4159191695575
 31
0.0
  0
LINE
  5
A480
  8
0
 10
76.24942702649929
 20
206.7710365034482
 30
0.0
 11
75.64320924385021
 21
207.1210365034481
 31
0.0
1001
GENIUS_GENODEF_13
1002
{
1000
HIER
1070
     0
1002
}
1002
{
1000
MANEDIT
1070
     0
1002
}
1002
{
1000
NOSEL
1070
     0
1002
}
1002
{
1000
BEHIND
1070
     0
1002
}
1002
{
1000
OTHER
1070
     0
1002
}
1002
{
1000
REACTOR
1002
}
1001
GENIUS_GENOBJ-N-CEN_13
1002
{
1000
OWNER
1000
GEN
1002
}
1001
GENIUS_GENCEN_19
1002
{
1040
3.0
1002
}
  0
ARC
  5
A481
  8
0
 10
80.15814388390783
 20
204.3411326928805
 30
0.0
 40
0.1499999999999773
 50
239.9999999999746
 51
59.99999999997465
  0
ARC
  5
A482
  8
0
 10
79.34245953343617
 20
205.5866723450306
 30
0.0
 40
0.1767766952966168
 50
284.9999999999873
 51
104.9999999999873
  0
LINE
  5
A483
  8
0
 10
78.26449053596053
 20
205.2612288823128
 30
0.0
 11
78.5008795530162
 21
204.3790130603102
 31
0.0
  0
LINE
  5
A484
  8
0
 10
75.18702302600246
 20
207.0380055776094
 30
0.0
 11
74.71378638044422
 21
207.3112288823128
 31
0.0
1001
GENIUS_GENODEF_13
1002
{
1000
HIER
1070
     0
1002
}
1002
{
1000
MANEDIT
1070
     0
1002
}
1002
{
1000
NOSEL
1070
     0
1002
}
1002
{
1000
BEHIND
1070
     0
1002
}
1002
{
1000
OTHER
1070
     0
1002
}
1002
{
1000
REACTOR
1002
}
1001
GENIUS_GENOBJ-N-CEN_13
1002
{
1000
OWNER
1000
GEN
1002
}
1001
GENIUS_GENCEN_19
1002
{
1040
3.0
1002
}
  0
LINE
  5
A485
  8
0
 10
78.6975032378528
 20
205.0112288823128
 30
0.0
 11
78.84238590396222
 21
204.4705194112563
 31
0.0
  0
LINE
  5
A486
  8
0
 10
76.09942702649943
 20
206.5112288823128
 30
0.0
 11
75.55871755544291
 21
206.3663462162034
 31
0.0
  0
LINE
  5
A487
  8
0
 10
76.68243972839156
 20
206.5210365034482
 30
0.0
 11
76.44605071133611
 21
207.4032523254507
 31
0.0
  0
ARC
  5
A488
  8
0
 10
78.67163272848921
 20
204.4247662357833
 30
0.0
 40
0.1767766952966168
 50
195.0000000000253
 51
14.99999999997601
  0
LINE
  5
A489
  8
0
 10
76.09942702649943
 20
206.5112288823128
 30
0.0
 11
75.49320924385034
 21
206.8612288823128
 31
0.0
1001
GENIUS_GENODEF_13
1002
{
1000
HIER
1070
     0
1002
}
1002
{
1000
MANEDIT
1070
     0
1002
}
1002
{
1000
NOSEL
1070
     0
1002
}
1002
{
1000
BEHIND
1070
     0
1002
}
1002
{
1000
OTHER
1070
     0
1002
}
1002
{
1000
REACTOR
1002
}
1001
GENIUS_GENOBJ-N-CEN_13
1002
{
1000
OWNER
1000
GEN
1002
}
1001
GENIUS_GENCEN_19
1002
{
1040
3.0
1002
}
  0
POLYLINE
  5
A48A
  8
0
 66
     1
 10
0.0
 20
0.0
 30
0.0
  0
VERTEX
  5
A6A5
  8
0
 10
77.9245901448499
 20
206.3247949211426
 30
0.0
  0
VERTEX
  5
A6A6
  8
0
 10
77.62346513217614
 20
206.4986495282697
 30
0.0
  0
SEQEND
  5
A6B5
  8
0
  0
POLYLINE
  5
A48B
  8
0
 66
     1
 10
0.0
 20
0.0
 30
0.0
  0
VERTEX
  5
A6A7
  8
0
 10
77.02234011950219
 20
205.4574704646181
 30
0.0
  0
VERTEX
  5
A6A8
  8
0
 10
77.32346513217595
 20
205.2836158574911
 30
0.0
  0
SEQEND
  5
A6B6
  8
0
  0
POLYLINE
  5
A48C
  8
0
 66
     1
 10
0.0
 20
0.0
 30
0.0
  0
VERTEX
  5
A6A9
  8
0
 10
77.62346513217614
 20
205.2836158574911
 30
0.0
  0
VERTEX
  5
A6AA
  8
0
 10
77.9245901448499
 20
205.4574704646182
 30
0.0
  0
SEQEND
  5
A6B7
  8
0
  0
POLYLINE
  5
A48D
  8
0
 66
     1
 10
0.0
 20
0.0
 30
0.0
  0
VERTEX
  5
A6AB
  8
0
 10
78.07459014484976
 20
205.7172780857535
 30
0.0
  0
VERTEX
  5
A6AC
  8
0
 10
78.07459014484976
 20
206.0649873000073
 30
0.0
  0
SEQEND
  5
A6B8
  8
0
  0
POLYLINE
  5
A48E
  8
0
 66
     1
 10
0.0
 20
0.0
 30
0.0
  0
VERTEX
  5
A6AD
  8
0
 10
76.87234011950233
 20
206.0649873000074
 30
0.0
  0
VERTEX
  5
A6AE
  8
0
 10
76.87234011950233
 20
205.7172780857534
 30
0.0
  0
SEQEND
  5
A6B9
  8
0
  0
LINE
  5
A48F
  8
0
 10
76.87234011950233
 20
206.0649873000074
 30
0.0
 11
76.5324397283917
 21
206.2612288823128
 31
0.0
1001
GENIUS_GENODEF_13
1002
{
1000
HIER
1070
     0
1002
}
1002
{
1000
MANEDIT
1070
     0
1002
}
1002
{
1000
NOSEL
1070
     0
1002
}
1002
{
1000
BEHIND
1070
     0
1002
}
1002
{
1000
OTHER
1070
     0
1002
}
1002
{
1000
REACTOR
1002
}
1001
GENIUS_GENOBJ-N-CEN_13
1002
{
1000
OWNER
1000
GEN
1002
}
1001
GENIUS_GENCEN_19
1002
{
1040
3.0
1002
}
  0
LINE
  5
A490
  8
0
 10
77.02234011950219
 20
205.4574704646181
 30
0.0
 11
76.68243972839156
 21
205.2612288823127
 31
0.0
1001
GENIUS_GENODEF_13
1002
{
1000
HIER
1070
     0
1002
}
1002
{
1000
MANEDIT
1070
     0
1002
}
1002
{
1000
NOSEL
1070
     0
1002
}
1002
{
1000
BEHIND
1070
     0
1002
}
1002
{
1000
OTHER
1070
     0
1002
}
1002
{
1000
REACTOR
1002
}
1001
GENIUS_GENOBJ-N-CEN_13
1002
{
1000
OWNER
1000
GEN
1002
}
1001
GENIUS_GENCEN_19
1002
{
1040
3.0
1002
}
  0
LINE
  5
A491
  8
0
 10
77.62346513217614
 20
206.4986495282697
 30
0.0
 11
77.62346513217614
 21
206.8911326928805
 31
0.0
1001
GENIUS_GENODEF_13
1002
{
1000
HIER
1070
     0
1002
}
1002
{
1000
MANEDIT
1070
     0
1002
}
1002
{
1000
NOSEL
1070
     0
1002
}
1002
{
1000
BEHIND
1070
     0
1002
}
1002
{
1000
OTHER
1070
     0
1002
}
1002
{
1000
REACTOR
1002
}
1001
GENIUS_GENOBJ-N-CEN_13
1002
{
1000
OWNER
1000
GEN
1002
}
1001
GENIUS_GENCEN_19
1002
{
1040
3.0
1002
}
  0
LINE
  5
A492
  8
0
 10
76.87234011950233
 20
205.7172780857534
 30
0.0
 11
76.5324397283917
 21
205.5210365034481
 31
0.0
1001
GENIUS_GENODEF_13
1002
{
1000
HIER
1070
     0
1002
}
1002
{
1000
MANEDIT
1070
     0
1002
}
1002
{
1000
NOSEL
1070
     0
1002
}
1002
{
1000
BEHIND
1070
     0
1002
}
1002
{
1000
OTHER
1070
     0
1002
}
1002
{
1000
REACTOR
1002
}
1001
GENIUS_GENOBJ-N-CEN_13
1002
{
1000
OWNER
1000
GEN
1002
}
1001
GENIUS_GENCEN_19
1002
{
1040
3.0
1002
}
  0
LINE
  5
A493
  8
0
 10
77.02234011950242
 20
206.3247949211427
 30
0.0
 11
76.68243972839156
 21
206.5210365034482
 31
0.0
1001
GENIUS_GENODEF_13
1002
{
1000
HIER
1070
     0
1002
}
1002
{
1000
MANEDIT
1070
     0
1002
}
1002
{
1000
NOSEL
1070
     0
1002
}
1002
{
1000
BEHIND
1070
     0
1002
}
1002
{
1000
OTHER
1070
     0
1002
}
1002
{
1000
REACTOR
1002
}
1001
GENIUS_GENOBJ-N-CEN_13
1002
{
1000
OWNER
1000
GEN
1002
}
1001
GENIUS_GENCEN_19
1002
{
1040
3.0
1002
}
  0
LINE
  5
A494
  8
0
 10
77.32346513217595
 20
206.4986495282697
 30
0.0
 11
77.32346513217595
 21
206.8911326928805
 31
0.0
1001
GENIUS_GENODEF_13
1002
{
1000
HIER
1070
     0
1002
}
1002
{
1000
MANEDIT
1070
     0
1002
}
1002
{
1000
NOSEL
1070
     0
1002
}
1002
{
1000
BEHIND
1070
     0
1002
}
1002
{
1000
OTHER
1070
     0
1002
}
1002
{
1000
REACTOR
1002
}
1001
GENIUS_GENOBJ-N-CEN_13
1002
{
1000
OWNER
1000
GEN
1002
}
1001
GENIUS_GENCEN_19
1002
{
1040
3.0
1002
}
  0
POINT
  5
A495
  8
0
 10
77.47346513217605
 20
205.8911326928805
 30
0.0
  0
ARC
  5
A49D
  8
0
 10
57.65746901629377
 20
237.9020879185233
 30
0.0
 40
2.818784487207035
 50
42.10643774613582
 51
72.54963860556856
  0
ARC
  5
A49E
  8
0
 10
57.66203586108383
 20
237.8940148879145
 30
0.0
 40
2.825124600724308
 50
72.68709389380213
 51
114.8350808121767
  0
ARC
  5
A49F
  8
0
 10
57.66886064054777
 20
237.8951199741496
 30
0.0
 40
2.82699601279636
 50
114.9700164788607
 51
159.7658782060661
  0
ARC
  5
A4A0
  8
0
 10
57.6702334659121
 20
237.9019366597478
 30
0.0
 40
2.825934871198894
 50
159.905183900427
 51
208.1033156220139
  0
ARC
  5
A4A1
  8
0
 10
57.66700331075309
 20
237.9059723330319
 30
0.0
 40
2.824991178843034
 50
208.2063768521136
 51
252.9917058831041
  0
ARC
  5
A4A2
  8
0
 10
57.6611328592084
 20
237.8985039037956
 30
0.0
 40
2.816134321775382
 50
253.0614728184792
 51
303.6104044070932
  0
ARC
  5
A4A3
  8
0
 10
57.65197275224087
 20
237.9078077815078
 30
0.0
 40
2.828954381084524
 50
303.6606050060742
 51
336.6888212394869
  0
ARC
  5
A4A4
  8
0
 10
57.6730174830501
 20
237.8961965171207
 30
0.0
 40
2.805033656979198
 50
336.7365264644543
 51
352.0115546408769
  0
ARC
  5
A4A5
  8
0
 10
60.88196056544552
 20
237.4395087426785
 30
0.0
 40
0.4362831274249897
 50
124.9417661980038
 51
171.1843733476157
  0
ARC
  5
A4A6
  8
0
 10
60.95858270196861
 20
237.3812874263209
 30
0.0
 40
0.5287156028486799
 50
68.4989425064667
 51
128.1363643025119
  0
ARC
  5
A4A7
  8
0
 10
60.95743981099496
 20
237.3781490268989
 30
0.0
 40
0.5320545012467646
 50
21.1786845759318
 51
68.50830305575624
  0
ARC
  5
A4A8
  8
0
 10
60.90062314054759
 20
237.3654622040428
 30
0.0
 40
0.589681274627146
 50
351.3677592453784
 51
20.3336515506318
  0
ARC
  5
A4A9
  8
0
 10
57.68343249312156
 20
237.8923676639886
 30
0.0
 40
3.849700154783129
 50
329.2955579547443
 51
350.8012500119645
  0
ARC
  5
A4AA
  8
0
 10
57.66066396052014
 20
237.9020103037518
 30
0.0
 40
3.874201887614873
 50
272.110292872708
 51
329.3448789643533
  0
ARC
  5
A4AB
  8
0
 10
57.65755038598456
 20
237.8871168359299
 30
0.0
 40
3.859434907830362
 50
228.1538869054162
 51
272.1646262877288
  0
ARC
  5
A4AC
  8
0
 10
57.65899930550934
 20
237.9001797116679
 30
0.0
 40
3.870140110233152
 50
191.6688789272142
 51
228.2669244735644
  0
ARC
  5
A4AD
  8
0
 10
54.43289311226854
 20
239.2068358085739
 30
0.0
 40
2.164208178393929
 50
198.723963475941
 51
254.8927875963115
  0
ARC
  5
A4AE
  8
0
 10
52.35567420496798
 20
239.7876025894692
 30
0.0
 40
1.275794832121307
 50
159.5889286416676
 51
271.2373210171075
  0
ARC
  5
A4AF
  8
0
 10
52.35550907629411
 20
239.7874575689293
 30
0.0
 40
1.27569066216106
 50
56.35876753652801
 51
159.5802376694569
  0
ARC
  5
A4B0
  8
0
 10
52.3550839222087
 20
239.7872828324374
 30
0.0
 40
1.27607169163755
 50
300.8474340774569
 51
56.3472215566183
  0
ARC
  5
A4B1
  8
0
 10
54.43268597258395
 20
239.2057614658537
 30
0.0
 40
1.513270340059136
 50
199.8575424768347
 51
244.8702054099216
  0
ARC
  5
A4B2
  8
0
 10
57.65322468117998
 20
237.9057701014901
 30
0.0
 40
3.863814594731709
 50
128.8924189419203
 51
181.0387416655363
  0
ARC
  5
A4B3
  8
0
 10
57.65981791090309
 20
237.9092456929326
 30
0.0
 40
3.865255996170545
 50
64.08752047055657
 51
129.0008345454499
  0
ARC
  5
A4B4
  8
0
 10
57.63602564698837
 20
237.881331656301
 30
0.0
 40
3.900771647075106
 50
41.93148962721691
 51
63.95236016528539
  0
ARC
  5
A4B5
  8
0
 10
60.13292037922862
 20
240.1416072438176
 30
0.0
 40
0.5329691384397407
 50
326.9391245431075
 51
40.53482220835337
  0
ARC
  5
A4B6
  8
0
 10
60.13436758377819
 20
240.1420752187086
 30
0.0
 40
0.532012855346209
 50
288.8262582044613
 51
326.8118599153543
  0
ARC
  5
A4B7
  8
0
 10
60.13889878239408
 20
240.1199601215695
 30
0.0
 40
0.5096266244015553
 50
220.0392534532336
 51
289.1464231932406
  0
ARC
  5
A4B8
  8
0
 10
52.35555441773688
 20
239.7874915203025
 30
0.0
 40
0.5333610920542913
 50
358.2903179254369
 51
182.8871640299775
  0
ARC
  5
A4B9
  8
0
 10
52.35555669541016
 20
239.7872698668456
 30
0.0
 40
0.533352248318835
 50
182.8633706346291
 51
358.3141113207849
  0
ARC
  5
A4BA
  8
0
 10
56.41441952728323
 20
238.3677732558143
 30
0.0
 40
0.6197235851139764
 50
269.9860909562865
 51
92.215844524471
  0
ARC
  5
A4BB
  8
0
 10
56.41454285113992
 20
238.3677756258364
 30
0.0
 40
0.619725997344469
 50
92.2272460800959
 51
269.9746892990934
  0
ARC
  5
A4BC
  8
0
 10
58.91025071915527
 20
238.3677663123121
 30
0.0
 40
0.6197167624590886
 50
269.9616101028838
 51
89.98977670141691
  0
ARC
  5
A4BD
  8
0
 10
58.90991589087906
 20
238.3677664543564
 30
0.0
 40
0.6197167706109338
 50
89.95882022245952
 51
269.9925665818412
  0
ARC
  5
A4BE
  8
0
 10
57.66213124023702
 20
238.3884287278744
 30
0.0
 40
1.621966970399848
 50
233.6417470358276
 51
306.8838773871507
  0
ARC
  5
A4BF
  8
0
 10
58.78581495103038
 20
236.8818278051955
 30
0.0
 40
0.2575808481740123
 50
48.75225273409504
 51
125.6665677964157
  0
ARC
  5
A4C0
  8
0
 10
58.7854322118429
 20
236.8815659487901
 30
0.0
 40
0.2580301008803177
 50
350.2089239138174
 51
48.72668974044582
  0
ARC
  5
A4C1
  8
0
 10
58.78227931515413
 20
236.8818093383364
 30
0.0
 40
0.2611786316846578
 50
302.7722891929776
 51
350.273929821677
  0
ARC
  5
A4C2
  8
0
 10
57.65846150505966
 20
238.3944620259554
 30
0.0
 40
2.145096291517153
 50
279.580629416799
 51
306.1433603622944
  0
ARC
  5
A4C3
  8
0
 10
57.66204490385651
 20
238.3875994207496
 30
0.0
 40
2.137734336466047
 50
255.4417152635177
 51
279.5165392426289
  0
ARC
  5
A4C4
  8
0
 10
57.66299456259033
 20
238.3853997626991
 30
0.0
 40
2.135844522087935
 50
232.8702473643658
 51
255.4022254017396
  0
ARC
  5
A4C5
  8
0
 10
56.53944427631564
 20
236.8814581531872
 30
0.0
 40
0.25887643170293
 50
155.1529278431441
 51
230.2048092005848
  0
ARC
  5
A4C6
  8
0
 10
56.53824277974949
 20
236.8818977270694
 30
0.0
 40
0.2576014684421306
 50
103.7622011258897
 51
155.1293551933427
  0
ARC
  5
A4C7
  8
0
 10
56.53856804342703
 20
236.8821379148984
 30
0.0
 40
0.2574458242313935
 50
51.00202248787202
 51
103.845228473221
  0
ARC
  5
A4C8
  8
0
 10
49.67809064750812
 20
234.8563964401956
 30
0.0
 40
0.9091768622367206
 50
133.222959671733
 51
270.1894734199499
  0
ARC
  5
A4C9
  8
0
 10
49.67851599511529
 20
234.8560127512006
 30
0.0
 40
0.9087918676904274
 50
270.1627370543721
 51
50.19893912908906
  0
ARC
  5
A4CA
  8
0
 10
49.65783751832709
 20
241.2524829068213
 30
0.0
 40
0.6024320394943272
 50
2.835526177202197
 51
174.3732816204337
  0
ARC
  5
A4CB
  8
0
 10
49.65787348470545
 20
241.252404817856
 30
0.0
 40
0.2295028634559424
 50
358.9188453068101
 51
179.9730971000994
  0
ARC
  5
A4CC
  8
0
 10
46.78492787284531
 20
235.9457480607345
 30
0.0
 40
0.0873768611613766
 50
87.47256260673397
 51
234.0891406317526
  0
ARC
  5
A4CD
  8
0
 10
48.19600764582929
 20
235.9466615414385
 30
0.0
 40
0.0863646317370953
 50
317.9031549580241
 51
87.18148688827209
  0
ARC
  5
A4CE
  8
0
 10
47.49016425175031
 20
235.2405631722867
 30
0.0
 40
0.086253216996548
 50
226.0322552542306
 51
315.2107938570516
  0
LINE
  5
A4CF
  8
0
 10
49.42837064654896
 20
241.2525125795863
 30
0.0
 11
49.42837064654896
 21
237.728801642086
 31
0.0
  0
LINE
  5
A4D0
  8
0
 10
49.42837064654896
 20
237.728801642086
 30
0.0
 11
49.88733549029939
 21
237.728801642086
 31
0.0
  0
LINE
  5
A4D1
  8
0
 10
49.88733549029939
 20
237.728801642086
 30
0.0
 11
49.88733549029939
 21
241.2480744225755
 31
0.0
  0
LINE
  5
A4D2
  8
0
 10
50.2595319738307
 20
241.2822846588758
 30
0.0
 11
50.26025541217405
 21
235.5542117983358
 31
0.0
  0
LINE
  5
A4D3
  8
0
 10
49.0554507246743
 20
235.5189083973104
 30
0.0
 11
49.0554507246743
 21
237.4994071108356
 31
0.0
  0
LINE
  5
A4D4
  8
0
 10
49.0554507246743
 20
237.4994071108356
 30
0.0
 11
46.59222806842399
 21
237.4994071108356
 31
0.0
  0
LINE
  5
A4D5
  8
0
 10
46.59222806842399
 20
237.4994071108356
 30
0.0
 11
46.59222806842399
 21
237.7287176984795
 31
0.0
  0
LINE
  5
A4D6
  8
0
 10
46.59222806842399
 20
237.7287176984795
 30
0.0
 11
49.0554507246743
 21
237.728801642086
 31
0.0
  0
LINE
  5
A4D7
  8
0
 10
49.0554507246743
 20
237.728801642086
 30
0.0
 11
49.05830812498504
 21
241.3115495533166
 31
0.0
  0
LINE
  5
A4D8
  8
0
 10
46.73367908291561
 20
235.8749788767831
 30
0.0
 11
47.43028267116389
 21
235.1784840796006
 31
0.0
  0
LINE
  5
A4D9
  8
0
 10
47.55137845904937
 20
235.1797977358363
 30
0.0
 11
48.2600913042881
 21
235.8887639220261
 31
0.0
  0
LINE
  5
A4DA
  8
0
 10
48.20025441035863
 20
236.0329216979774
 30
0.0
 11
47.81909330279905
 21
236.033039923336
 31
0.0
  0
LINE
  5
A4DB
  8
0
 10
47.81909330279905
 20
236.033039923336
 30
0.0
 11
47.81909330279905
 21
237.0471699926006
 31
0.0
  0
LINE
  5
A4DC
  8
0
 10
47.81909330279905
 20
237.0471699926006
 30
0.0
 11
47.16114408404928
 21
237.0472977358357
 31
0.0
  0
LINE
  5
A4DD
  8
0
 10
47.16114408404928
 20
237.0472977358357
 30
0.0
 11
47.16114408404928
 21
236.033039923336
 31
0.0
  0
LINE
  5
A4DE
  8
0
 10
47.16114408404928
 20
236.033039923336
 30
0.0
 11
46.78878100014236
 21
236.033039923336
 31
0.0
  0
LINE
  5
A4DF
  8
0
 10
48.38809720904919
 20
239.6238992983361
 30
0.0
 11
48.18735502154914
 21
239.7397391420862
 31
0.0
  0
LINE
  5
A4E0
  8
0
 10
48.18735502154914
 20
239.7397391420862
 30
0.0
 11
47.69103666217416
 21
239.4532157045858
 31
0.0
  0
LINE
  5
A4E1
  8
0
 10
47.69103666217416
 20
239.4532157045858
 30
0.0
 11
47.6909487715493
 21
240.0264383608363
 31
0.0
  0
LINE
  5
A4E2
  8
0
 10
47.6909487715493
 20
240.0264383608363
 30
0.0
 11
47.49020658404925
 21
240.1422782045859
 31
0.0
  0
LINE
  5
A4E3
  8
0
 10
47.49020658404925
 20
240.1422782045859
 30
0.0
 11
47.28937650592434
 21
240.0264383608363
 31
0.0
  0
LINE
  5
A4E4
  8
0
 10
47.28937650592434
 20
240.0264383608363
 30
0.0
 11
47.28937650592434
 21
239.4532157045858
 31
0.0
  0
LINE
  5
A4E5
  8
0
 10
47.28937650592434
 20
239.4532157045858
 30
0.0
 11
46.79297025592405
 21
239.7397391420862
 31
0.0
  0
LINE
  5
A4E6
  8
0
 10
46.79297025592405
 20
239.7397391420862
 30
0.0
 11
46.59222806842399
 21
239.6238992983361
 31
0.0
  0
LINE
  5
A4E7
  8
0
 10
46.59222806842399
 20
239.6238992983361
 30
0.0
 11
46.59222806842399
 21
239.3920438295862
 31
0.0
  0
LINE
  5
A4E8
  8
0
 10
46.59222806842399
 20
239.3920438295862
 30
0.0
 11
47.08863431842428
 21
239.1055203920858
 31
0.0
  0
LINE
  5
A4E9
  8
0
 10
47.08863431842428
 20
239.1055203920858
 30
0.0
 11
46.59222806842399
 21
238.8188211733357
 31
0.0
  0
LINE
  5
A4EA
  8
0
 10
46.59222806842399
 20
238.8188211733357
 30
0.0
 11
46.59222806842399
 21
238.5869657045858
 31
0.0
  0
LINE
  5
A4EB
  8
0
 10
46.59222806842399
 20
238.5869657045858
 30
0.0
 11
46.79297025592405
 21
238.4711258608357
 31
0.0
  0
LINE
  5
A4EC
  8
0
 10
46.79297025592405
 20
238.4711258608357
 30
0.0
 11
47.28937650592434
 21
238.757649298336
 31
0.0
  0
LINE
  5
A4ED
  8
0
 10
47.28937650592434
 20
238.757649298336
 30
0.0
 11
47.28946439654919
 21
238.1844266420861
 31
0.0
  0
LINE
  5
A4EE
  8
0
 10
47.28946439654919
 20
238.1844266420861
 30
0.0
 11
47.49020658404925
 21
238.068586798336
 31
0.0
  0
LINE
  5
A4EF
  8
0
 10
47.49020658404925
 20
238.068586798336
 30
0.0
 11
47.69103666217416
 21
238.1844266420861
 31
0.0
  0
LINE
  5
A4F0
  8
0
 10
47.69103666217416
 20
238.1844266420861
 30
0.0
 11
47.6909487715493
 21
238.757649298336
 31
0.0
  0
LINE
  5
A4F1
  8
0
 10
47.6909487715493
 20
238.757649298336
 30
0.0
 11
48.18735502154914
 21
238.4711258608357
 31
0.0
  0
LINE
  5
A4F2
  8
0
 10
48.18735502154914
 20
238.4711258608357
 30
0.0
 11
48.38809720904919
 21
238.5869657045858
 31
0.0
  0
LINE
  5
A4F3
  8
0
 10
48.38809720904919
 20
238.5869657045858
 30
0.0
 11
48.38809720904919
 21
238.8188211733357
 31
0.0
  0
LINE
  5
A4F4
  8
0
 10
48.38809720904919
 20
238.8188211733357
 30
0.0
 11
47.89177884967421
 21
239.1055203920858
 31
0.0
  0
LINE
  5
A4F5
  8
0
 10
47.89177884967421
 20
239.1055203920858
 30
0.0
 11
48.38809720904919
 21
239.3920438295862
 31
0.0
  0
LINE
  5
A4F6
  8
0
 10
48.38809720904919
 20
239.3920438295862
 30
0.0
 11
48.38809720904919
 21
239.6238992983361
 31
0.0
  0
ARC
  5
A4F7
  8
0
 10
43.12195478708367
 20
230.2040409156377
 30
0.0
 40
0.3670849884844836
 50
88.43595018400146
 51
181.5907611346543
  0
ARC
  5
A4F8
  8
0
 10
43.11635377227552
 20
230.1781458410476
 30
0.0
 40
0.3616836161732613
 50
177.5113831094955
 51
272.4752596742406
  0
ARC
  5
A4F9
  8
0
 10
47.84987530444288
 20
228.8144599229935
 30
0.0
 40
1.757421872517575
 50
58.63205765538193
 51
91.82624667791212
  0
ARC
  5
A4FA
  8
0
 10
48.03109981520703
 20
229.1539855968172
 30
0.0
 40
1.373363550070809
 50
357.3646905701011
 51
57.71432541069638
  0
ARC
  5
A4FB
  8
0
 10
47.37222150099021
 20
229.1492370588012
 30
0.0
 40
2.031628876196131
 50
312.3580077297276
 51
358.3528725601312
  0
ARC
  5
A4FC
  8
0
 10
46.53428259649785
 20
230.2833967343947
 30
0.0
 40
3.437343882281632
 50
279.6428930056555
 51
309.9410387066555
  0
ARC
  5
A4FD
  8
0
 10
45.82932603886918
 20
233.0638009901203
 30
0.0
 40
6.30072093565917
 50
275.4117803201625
 51
281.7281302859267
  0
ARC
  5
A4FE
  8
0
 10
46.41897313966314
 20
226.6870054065629
 30
0.0
 40
0.104260725704256
 50
87.4752300347481
 51
163.7199139015231
  0
ARC
  5
A4FF
  8
0
 10
46.6171237840131
 20
226.6564036091231
 30
0.0
 40
0.3041729537229
 50
168.6561978748385
 51
200.0889648778359
  0
ARC
  5
A500
  8
0
 10
46.25954925444672
 20
225.9016405458524
 30
0.0
 40
0.2537512839947012
 50
261.3372320245579
 51
20.62119432797275
  0
ARC
  5
A501
  8
0
 10
45.89215582039027
 20
227.3439425842884
 30
0.0
 40
1.693196324176135
 50
200.7119394462078
 51
269.6171287198742
  0
ARC
  5
A502
  8
0
 10
44.01206817150471
 20
228.5589400945012
 30
0.0
 40
0.2418104089398966
 50
78.56434552526832
 51
205.2442294015707
  0
ARC
  5
A503
  8
0
 10
45.20962626165608
 20
228.251173043513
 30
0.0
 40
0.5454708950328662
 50
22.03436718337224
 51
87.10976279916946
  0
ARC
  5
A504
  8
0
 10
46.42806731645199
 20
228.072216264344
 30
0.0
 40
0.5575982287956304
 50
198.5615711856641
 51
231.4697421334256
  0
ARC
  5
A505
  8
0
 10
46.27522352434924
 20
227.9079684750717
 30
0.0
 40
0.3343453227859988
 50
234.4274826077689
 51
282.9237961332864
  0
ARC
  5
A506
  8
0
 10
45.96411653330371
 20
228.9255360761126
 30
0.0
 40
1.397765155718417
 50
286.0259576150772
 51
322.7723331413743
  0
ARC
  5
A507
  8
0
 10
45.45649809226564
 20
229.3733392555588
 30
0.0
 40
2.073453716718684
 50
321.405557856657
 51
357.0055140470168
  0
ARC
  5
A508
  8
0
 10
46.98166101339643
 20
229.3036509879529
 30
0.0
 40
0.5468257340680802
 50
355.949160792519
 51
43.9861427071242
  0
ARC
  5
A509
  8
0
 10
46.98970115444691
 20
229.2031016235783
 30
0.0
 40
0.6158215084356161
 50
51.25619189844242
 51
94.75943482914414
  0
ARC
  5
A50A
  8
0
 10
50.95033060708239
 20
228.1107941273331
 30
0.0
 40
0.9170993127764647
 50
90.00286747961208
 51
268.2497146487426
  0
ARC
  5
A50B
  8
0
 10
50.95025402573552
 20
228.11079529522
 30
0.0
 40
0.9170981442542538
 50
268.2544990708273
 51
89.99808305752734
  0
ARC
  5
A50C
  8
0
 10
53.00544288092315
 20
230.1893347776381
 30
0.0
 40
0.3770840596473977
 50
89.9884213680942
 51
178.6192995487076
  0
ARC
  5
A50D
  8
0
 10
54.17348586405449
 20
230.1893347570178
 30
0.0
 40
0.3770841082509337
 50
1.380703407340469
 51
90.02492579868495
  0
ARC
  5
A50E
  8
0
 10
54.17356316724522
 20
227.6231598566253
 30
0.0
 40
0.3768973543141036
 50
269.9633102497762
 51
0.0233356470828619
  0
ARC
  5
A50F
  8
0
 10
53.00536554733365
 20
227.6231598241206
 30
0.0
 40
0.3768972758079303
 50
179.9766594067293
 51
270.0233405932998
  0
ARC
  5
A510
  8
0
 10
56.67348138063871
 20
230.1899665955723
 30
0.0
 40
0.3765533069000618
 50
91.32755171042443
 51
178.7135156246359
  0
ARC
  5
A511
  8
0
 10
57.84184129374267
 20
230.1892493705247
 30
0.0
 40
0.3772853742403397
 50
1.39293758417252
 51
88.57968746194234
  0
ARC
  5
A512
  8
0
 10
55.35469610331689
 20
227.3334115138221
 30
0.0
 40
0.9424222807007966
 50
270.2596160298706
 51
359.1847732707243
  0
ARC
  5
A513
  8
0
 10
55.08760404498663
 20
226.0185623842734
 30
0.0
 40
0.3724651062386549
 50
89.29017710179693
 51
270.7098228982031
  0
ARC
  5
A514
  8
0
 10
56.0287765773701
 20
227.7815118235526
 30
0.0
 40
2.135678174171317
 50
269.0521856153052
 51
304.9431031995392
  0
ARC
  5
A515
  8
0
 10
55.98387637645669
 20
227.8864408614875
 30
0.0
 40
2.247528607778139
 50
304.3492687691318
 51
342.0336073987834
  0
ARC
  5
A516
  8
0
 10
55.96984566801929
 20
227.8474170501666
 30
0.0
 40
2.249219839620582
 50
343.0895187182542
 51
0.3832968636579526
  0
ARC
  5
A517
  8
0
 10
59.44662856806193
 20
230.2030350405237
 30
0.0
 40
0.3724661917305334
 50
89.27682506750826
 51
270.7231749324918
  0
ARC
  5
A518
  8
0
 10
59.21691674985981
 20
228.5260819155233
 30
0.0
 40
0.3541906372867973
 50
86.29944766479187
 51
273.7005523352082
  0
ARC
  5
A519
  8
0
 10
60.42079314574055
 20
229.2378748528951
 30
0.0
 40
0.358803858625055
 50
267.0887535299613
 51
356.4733133196503
  0
ARC
  5
A51A
  8
0
 10
60.4414007800583
 20
229.4931563053544
 30
0.0
 40
0.3396690833730922
 50
354.8685998202262
 51
96.56439594170052
  0
ARC
  5
A51B
  8
0
 10
64.74309232623638
 20
230.2030350405237
 30
0.0
 40
0.3724651062386495
 50
269.2901771018636
 51
90.7098228981364
  0
ARC
  5
A51C
  8
0
 10
63.07886164108312
 20
229.4537012725522
 30
0.0
 40
0.3768972758071489
 50
89.97665940658239
 51
180.0233405934893
  0
ARC
  5
A51D
  8
0
 10
63.03670587449979
 20
229.2116173436021
 30
0.0
 40
0.3347676534002981
 50
179.2835006658344
 51
277.2606919210987
  0
ARC
  5
A51E
  8
0
 10
63.06765195233455
 20
227.8065072974246
 30
0.0
 40
0.3662987656052747
 50
88.22229995736356
 51
176.6896381244135
  0
ARC
  5
A51F
  8
0
 10
63.613585165699
 20
227.2567638050344
 30
0.0
 40
0.9125541393853733
 50
182.5916258786893
 51
271.6600393676819
  0
ARC
  5
A520
  8
0
 10
64.76529648926066
 20
225.9953592592736
 30
0.0
 40
0.3502616083451314
 50
265.608746066266
 51
94.39125393373403
  0
ARC
  5
A521
  8
0
 10
62.96167516080707
 20
227.8729583972334
 30
0.0
 40
2.227259321723195
 50
225.0349285396396
 51
271.1216669202527
  0
ARC
  5
A522
  8
0
 10
62.7074571106902
 20
227.702434282267
 30
0.0
 40
1.927871578424823
 50
179.3527648258316
 51
226.7994771726991
  0
ARC
  5
A523
  8
0
 10
60.60007797962208
 20
227.9573450049793
 30
0.0
 40
0.1798521029892861
 50
357.1558279388276
 51
48.65700890603938
  0
ARC
  5
A524
  8
0
 10
60.52983576839906
 20
227.8613020570504
 30
0.0
 40
0.2985497565163959
 50
50.7122642471553
 51
78.58034235835271
  0
ARC
  5
A525
  8
0
 10
60.41502939208012
 20
227.3581809800746
 30
0.0
 40
0.8145440850389851
 50
77.67158325142975
 51
90.87644874463575
  0
ARC
  5
A526
  8
0
 10
64.94826808204536
 20
228.5523454911901
 30
0.0
 40
0.3797198155434018
 50
270.2659772238895
 51
356.0405792706824
  0
ARC
  5
A527
  8
0
 10
64.9616616076567
 20
228.514101344407
 30
0.0
 40
0.365617762344841
 50
1.884695911894787
 51
91.822965253088
  0
LINE
  5
A528
  8
0
 10
43.13197416217417
 20
230.5709891420859
 30
0.0
 11
47.79386869342443
 21
230.5709891420859
 31
0.0
  0
LINE
  5
A529
  8
0
 10
46.93860502154939
 20
229.8167996889613
 30
0.0
 11
43.13197416217417
 21
229.8167996889613
 31
0.0
  0
LINE
  5
A52A
  8
0
 10
44.06001127154923
 20
228.7959500795858
 30
0.0
 11
45.23713041217388
 21
228.7959500795858
 31
0.0
  0
LINE
  5
A52B
  8
0
 10
45.71525541217443
 20
228.455813360836
 30
0.0
 11
45.8994741621741
 21
227.8947196108359
 31
0.0
  0
LINE
  5
A52C
  8
0
 10
43.79335111529916
 20
228.455813360836
 30
0.0
 11
44.30839017779954
 21
226.7451102358362
 31
0.0
  0
LINE
  5
A52D
  8
0
 10
45.88084134967403
 20
225.6507840639613
 30
0.0
 11
46.22132963092417
 21
225.6507840639613
 31
0.0
  0
LINE
  5
A52E
  8
0
 10
46.49704252154925
 20
225.991008673336
 30
0.0
 11
46.3314565840492
 21
226.5519266420859
 31
0.0
  0
LINE
  5
A52F
  8
0
 10
52.62846830279886
 20
230.1984207827107
 30
0.0
 11
52.62846830279886
 21
227.623313360836
 31
0.0
  0
LINE
  5
A530
  8
0
 10
53.00551908404896
 20
227.2462625795859
 30
0.0
 11
54.17332181842403
 21
227.2462625795859
 31
0.0
  0
LINE
  5
A531
  8
0
 10
54.55046049029943
 20
227.623313360836
 30
0.0
 11
54.55046049029943
 21
230.1984207827107
 31
0.0
  0
LINE
  5
A532
  8
0
 10
54.17332181842403
 20
230.5664188295858
 30
0.0
 11
53.00551908404896
 21
230.5664188295858
 31
0.0
  0
LINE
  5
A533
  8
0
 10
56.29702299029896
 20
230.1984207827107
 30
0.0
 11
56.29702299029896
 21
227.3200028139607
 31
0.0
  0
LINE
  5
A534
  8
0
 10
55.35896634967412
 20
226.3909989077109
 30
0.0
 11
55.09221830279921
 21
226.3909989077109
 31
0.0
  0
LINE
  5
A535
  8
0
 10
55.09221830279921
 20
225.6461258608359
 30
0.0
 11
55.99344877154954
 21
225.6461258608359
 31
0.0
  0
LINE
  5
A536
  8
0
 10
58.21901517779906
 20
227.8624637514611
 30
0.0
 11
58.21901517779906
 21
230.1984207827107
 31
0.0
  0
LINE
  5
A537
  8
0
 10
57.85119291217416
 20
230.5664188295858
 30
0.0
 11
56.66475736529947
 21
230.5664188295858
 31
0.0
  0
LINE
  5
A538
  8
0
 10
59.45132963092419
 20
230.5754715639612
 30
0.0
 11
64.73847806842423
 21
230.5754715639612
 31
0.0
  0
LINE
  5
A539
  8
0
 10
64.73847806842423
 20
229.8305985170862
 30
0.0
 11
63.07901517779919
 21
229.8305985170862
 31
0.0
  0
LINE
  5
A53A
  8
0
 10
62.70196439654911
 20
229.4535477358357
 30
0.0
 11
62.7019643965491
 21
229.215803595211
 31
0.0
  0
LINE
  5
A53B
  8
0
 10
63.07901517779919
 20
228.8795340639606
 30
0.0
 11
64.95003080279912
 21
228.8795340639606
 31
0.0
  0
LINE
  5
A53C
  8
0
 10
64.95003080279912
 20
228.172629767086
 30
0.0
 11
63.07901517779919
 21
228.172629767086
 31
0.0
  0
LINE
  5
A53D
  8
0
 10
62.7019643965491
 20
227.827659063961
 30
0.0
 11
62.7019643965491
 21
227.2155008608359
 31
0.0
  0
LINE
  5
A53E
  8
0
 10
63.64002103717439
 20
226.3445926577113
 30
0.0
 11
64.73847806842423
 21
226.3445926577113
 31
0.0
  0
LINE
  5
A53F
  8
0
 10
64.73847806842423
 20
225.6461258608359
 30
0.0
 11
63.00527494342396
 21
225.6461258608359
 31
0.0
  0
LINE
  5
A540
  8
0
 10
60.77970853717443
 20
227.7242117983358
 30
0.0
 11
60.77970853717443
 21
227.9484207827107
 31
0.0
  0
LINE
  5
A541
  8
0
 10
60.40256986529903
 20
228.172629767086
 30
0.0
 11
59.2397768965493
 21
228.172629767086
 31
0.0
  0
LINE
  5
A542
  8
0
 10
59.2397768965493
 20
228.8795340639606
 30
0.0
 11
60.40256986529903
 21
228.8795340639606
 31
0.0
  0
LINE
  5
A543
  8
0
 10
60.77891752154938
 20
229.215803595211
 30
0.0
 11
60.77970853717443
 21
229.4627762514609
 31
0.0
  0
LINE
  5
A544
  8
0
 10
60.40256986529903
 20
229.8305985170862
 30
0.0
 11
59.45132963092419
 21
229.8305985170862
 31
0.0
  0
LINE
  5
A548
  8
0
 10
44.90033353717399
 20
232.450969610836
 30
0.0
 11
44.01843900592439
 21
232.450969610836
 31
0.0
  0
LINE
  5
A549
  8
0
 10
44.01843900592439
 20
232.450969610836
 30
0.0
 11
44.01843900592439
 21
232.6163797670859
 31
0.0
  0
LINE
  5
A54A
  8
0
 10
44.01843900592439
 20
232.6163797670859
 30
0.0
 11
45.09386869342416
 21
232.6163797670859
 31
0.0
  0
LINE
  5
A54B
  8
0
 10
45.09386869342416
 20
232.6163797670859
 30
0.0
 11
45.09386869342416
 21
232.450969610836
 31
0.0
  0
LINE
  5
A54C
  8
0
 10
44.47476713092419
 20
232.0305887514613
 30
0.0
 11
44.3240347090491
 21
232.2360770327112
 31
0.0
  0
LINE
  5
A54D
  8
0
 10
44.3240347090491
 20
232.2360770327112
 30
0.0
 11
44.17057767779943
 21
232.1334207827111
 31
0.0
  0
LINE
  5
A54E
  8
0
 10
44.5708315840493
 20
231.5636258608363
 30
0.0
 11
44.72824369342425
 21
231.6623270327107
 31
0.0
  0
LINE
  5
A54F
  8
0
 10
44.72824369342425
 20
231.6623270327107
 30
0.0
 11
44.58014799029888
 21
231.8811746889613
 31
0.0
  0
ARC
  5
A550
  8
0
 10
34.35775182455328
 20
224.8148989071182
 30
0.0
 40
12.24141795992888
 50
33.45643062216249
 51
36.71601240395405
  0
ARC
  5
A551
  8
0
 10
44.07173874484919
 20
232.8641870245328
 30
0.0
 40
0.9259146617534648
 50
295.8028544447355
 51
333.4947229782731
  0
ARC
  5
A552
  8
0
 10
44.14461293910705
 20
232.7903280698591
 30
0.0
 40
1.008092580477948
 50
295.5970136290768
 51
340.3280553328837
  0
LINE
  5
A553
  8
0
 10
45.86774564654888
 20
232.156008673336
 30
0.0
 11
45.86774564654888
 21
231.5796219545862
 31
0.0
  0
LINE
  5
A554
  8
0
 10
45.86774564654888
 20
231.5796219545862
 30
0.0
 11
46.0598745527991
 21
231.5796219545862
 31
0.0
  0
LINE
  5
A555
  8
0
 10
46.0598745527991
 20
231.5796219545862
 30
0.0
 11
46.0598745527991
 21
232.2481180483363
 31
0.0
  0
LINE
  5
A556
  8
0
 10
46.44545072467417
 20
232.5283133608362
 30
0.0
 11
46.33602689654936
 21
232.6537332827109
 31
0.0
  0
LINE
  5
A557
  8
0
 10
45.33802884967417
 20
232.1800907045861
 30
0.0
 11
45.36606595904914
 21
232.0159989077109
 31
0.0
  0
ARC
  5
A558
  8
0
 10
45.09474539729401
 20
233.980953098307
 30
0.0
 40
1.817221010036674
 50
277.6936667564446
 51
313.0836814663463
  0
ARC
  5
A559
  8
0
 10
45.27396205279749
 20
233.7350034933088
 30
0.0
 40
1.681810567258462
 50
297.8592692614841
 51
314.1519780416271
  0
ARC
  5
A55A
  8
0
 10
45.08145436047098
 20
234.0046207602681
 30
0.0
 40
2.008885420952019
 50
278.1448623061169
 51
293.0420589932965
  0
LINE
  5
A55B
  8
0
 10
47.17529447467405
 20
232.2467996889607
 30
0.0
 11
47.17529447467405
 21
232.2774735170859
 31
0.0
  0
LINE
  5
A55C
  8
0
 10
47.17529447467405
 20
232.2774735170859
 30
0.0
 11
46.66025541217414
 21
232.2774735170859
 31
0.0
  0
LINE
  5
A55D
  8
0
 10
46.66025541217414
 20
232.2774735170859
 30
0.0
 11
46.66025541217414
 21
232.4469266420863
 31
0.0
  0
LINE
  5
A55E
  8
0
 10
46.66025541217414
 20
232.4469266420863
 30
0.0
 11
47.17529447467405
 21
232.4469266420863
 31
0.0
  0
LINE
  5
A55F
  8
0
 10
47.17529447467405
 20
232.4469266420863
 30
0.0
 11
47.17529447467405
 21
232.6963602358363
 31
0.0
  0
LINE
  5
A560
  8
0
 10
47.17529447467405
 20
232.6963602358363
 30
0.0
 11
47.36206205279905
 21
232.6963602358363
 31
0.0
  0
LINE
  5
A561
  8
0
 10
47.36206205279905
 20
232.6963602358363
 30
0.0
 11
47.36206205279905
 21
232.4469266420863
 31
0.0
  0
LINE
  5
A562
  8
0
 10
47.36206205279905
 20
232.4469266420863
 30
0.0
 11
47.78903470904925
 21
232.4469266420863
 31
0.0
  0
LINE
  5
A563
  8
0
 10
47.78903470904925
 20
232.4469266420863
 30
0.0
 11
47.78903470904925
 21
232.2774735170859
 31
0.0
  0
LINE
  5
A564
  8
0
 10
47.78903470904925
 20
232.2774735170859
 30
0.0
 11
47.36206205279905
 21
232.2774735170859
 31
0.0
  0
LINE
  5
A565
  8
0
 10
47.36206205279905
 20
232.2774735170859
 30
0.0
 11
47.36206205279905
 21
232.2467996889607
 31
0.0
  0
LINE
  5
A566
  8
0
 10
46.82970853717416
 20
231.583577032711
 30
0.0
 11
46.77363431842423
 21
231.7490750795858
 31
0.0
  0
ARC
  5
A567
  8
0
 10
46.40236595510977
 20
232.2322941572525
 30
0.0
 40
0.7730646200712835
 50
342.2910204567376
 51
1.075142363622295
  0
ARC
  5
A568
  8
0
 10
46.84883452808675
 20
232.0961091943685
 30
0.0
 40
0.3063876798952075
 50
304.2370088981581
 51
341.1546735930816
  0
ARC
  5
A569
  8
0
 10
46.67686578165878
 20
232.378478123456
 30
0.0
 40
0.6367985092080606
 50
278.7405863986843
 51
302.7346045229082
  0
ARC
  5
A56A
  8
0
 10
46.70441475244647
 20
232.3594336998973
 30
0.0
 40
0.7859084555523594
 50
279.173547062458
 51
305.3414915022681
  0
ARC
  5
A56B
  8
0
 10
46.85359478995768
 20
232.1064505563029
 30
0.0
 40
0.4938678410143298
 50
308.2022886499759
 51
350.7296062183676
  0
ARC
  5
A56C
  8
0
 10
46.30947299409077
 20
232.2365927769964
 30
0.0
 40
1.05263854554364
 50
348.508946732466
 51
0.5555773579723515
  0
LINE
  5
A56D
  8
0
 10
48.78712064654928
 20
232.460286017086
 30
0.0
 11
48.13198392779896
 21
232.460286017086
 31
0.0
  0
LINE
  5
A56E
  8
0
 10
48.13198392779896
 20
232.460286017086
 30
0.0
 11
48.13198392779896
 21
232.6243778139613
 31
0.0
  0
LINE
  5
A56F
  8
0
 10
48.13198392779896
 20
232.6243778139613
 30
0.0
 11
48.98584134967405
 21
232.6243778139613
 31
0.0
  0
LINE
  5
A570
  8
0
 10
48.98584134967405
 20
232.6243778139613
 30
0.0
 11
48.98584134967405
 21
232.460286017086
 31
0.0
  0
LINE
  5
A571
  8
0
 10
49.10062650592454
 20
231.7156766420861
 30
0.0
 11
48.9778433027991
 21
231.594299688961
 31
0.0
  0
LINE
  5
A572
  8
0
 10
48.0945425215491
 20
231.602297735836
 30
0.0
 11
48.01447416217388
 21
231.7490750795858
 31
0.0
  0
ARC
  5
A573
  8
0
 10
47.31555077397639
 20
233.2836725315143
 30
0.0
 40
1.686263099876902
 50
294.4866134087317
 51
330.7717068869524
  0
ARC
  5
A574
  8
0
 10
47.24978421645628
 20
233.4126698114417
 30
0.0
 40
1.997764662355422
 50
295.0147624386637
 51
312.8436054073329
  0
ARC
  5
A575
  8
0
 10
41.3753111772059
 20
224.0177719014184
 30
0.0
 40
10.73323194737177
 50
44.90184257982877
 51
47.63246263973684
  0
ARC
  5
A576
  8
0
 10
42.14617436577085
 20
224.7138552974611
 30
0.0
 40
9.868632464113261
 50
45.19446774917355
 51
48.17612407225278
  0
ARC
  5
A577
  8
0
 10
47.61264365866053
 20
233.0846626201527
 30
0.0
 40
1.508482032064661
 50
317.6232793949262
 51
335.5492736743415
  0
LINE
  5
A578
  8
0
 10
49.64765775592423
 20
232.6590946108361
 30
0.0
 11
49.47284330279899
 21
232.6790457827108
 31
0.0
  0
LINE
  5
A579
  8
0
 10
49.47284330279899
 20
231.574260626461
 30
0.0
 11
49.64765775592423
 21
231.594299688961
 31
0.0
  0
ARC
  5
A57A
  8
0
 10
51.82399217972169
 20
232.1266971498986
 30
0.0
 40
2.24050855401593
 50
166.2536808747335
 51
193.7463191252665
  0
ARC
  5
A57B
  8
0
 10
51.72626853823903
 20
232.1266532045859
 30
0.0
 40
2.320142851654927
 50
166.2264222050919
 51
193.7735777949081
  0
LINE
  5
A57C
  8
0
 10
49.85578275592434
 20
232.420207892086
 30
0.0
 11
49.85578275592434
 21
232.5763016420859
 31
0.0
  0
LINE
  5
A57D
  8
0
 10
49.85578275592434
 20
232.5763016420859
 30
0.0
 11
50.42953275592436
 21
232.5763016420859
 31
0.0
  0
LINE
  5
A57E
  8
0
 10
50.42953275592436
 20
232.5763016420859
 30
0.0
 11
50.42953275592436
 21
232.420207892086
 31
0.0
  0
LINE
  5
A57F
  8
0
 10
50.42953275592436
 20
232.420207892086
 30
0.0
 11
49.85578275592434
 21
232.420207892086
 31
0.0
  0
LINE
  5
A580
  8
0
 10
50.03595853717388
 20
232.0827078920859
 30
0.0
 11
49.91045072467386
 21
232.1828153139612
 31
0.0
  0
LINE
  5
A581
  8
0
 10
50.44148588092412
 20
231.8238700014606
 30
0.0
 11
50.46556791217427
 21
231.6690946108363
 31
0.0
  0
ARC
  5
A582
  8
0
 10
50.27005895323343
 20
231.7648534868757
 30
0.0
 40
0.5513711698559726
 50
130.708220238404
 51
157.703625479385
  0
ARC
  5
A583
  8
0
 10
49.96061401023909
 20
231.8917151600291
 30
0.0
 40
0.2169312572480087
 50
157.6967650917142
 51
205.3984993646999
  0
ARC
  5
A584
  8
0
 10
50.026984080573
 20
231.9460124959093
 30
0.0
 40
0.3008800009813904
 50
209.3210192654115
 51
257.5935048122165
  0
ARC
  5
A585
  8
0
 10
50.15961076894365
 20
232.4579957090866
 30
0.0
 40
0.8296316180790294
 50
256.2444659394042
 51
275.2215523672216
  0
ARC
  5
A586
  8
0
 10
50.15723980870461
 20
232.8438985445711
 30
0.0
 40
1.214590672657983
 50
273.6760364924776
 51
284.7056607611161
  0
ARC
  5
A587
  8
0
 10
50.14567974560488
 20
233.0665341110782
 30
0.0
 40
1.277386143272562
 50
270.1640623199838
 51
283.3896060448867
  0
ARC
  5
A588
  8
0
 10
50.12692186703485
 20
232.1592026379101
 30
0.0
 40
0.3707277183708511
 50
242.6706422703897
 51
273.4664302047655
  0
ARC
  5
A589
  8
0
 10
50.00639728876976
 20
231.9008891944417
 30
0.0
 40
0.0866823147437489
 50
154.8854560630789
 51
235.0327799996414
  0
ARC
  5
A58A
  8
0
 10
50.3454455951231
 20
231.7393709944831
 30
0.0
 40
0.4622363727478137
 50
132.0317914832259
 51
154.5946083240115
  0
LINE
  5
A58B
  8
0
 10
50.90185697467405
 20
232.3976200014611
 30
0.0
 11
50.71640775592414
 21
232.3976200014611
 31
0.0
  0
LINE
  5
A58C
  8
0
 10
50.71640775592414
 20
232.3976200014611
 30
0.0
 11
50.71640775592414
 21
232.5496707827113
 31
0.0
  0
LINE
  5
A58D
  8
0
 10
50.71640775592414
 20
232.5496707827113
 30
0.0
 11
50.94457181842427
 21
232.5496707827113
 31
0.0
  0
LINE
  5
A58E
  8
0
 10
50.9912417402993
 20
232.7378446108358
 30
0.0
 11
51.15137845904928
 21
232.7164871889607
 31
0.0
  0
LINE
  5
A58F
  8
0
 10
51.11130033404925
 20
232.5496707827113
 30
0.0
 11
51.33419095904947
 21
232.5496707827113
 31
0.0
  0
LINE
  5
A590
  8
0
 10
51.33419095904947
 20
232.5496707827113
 30
0.0
 11
51.33419095904947
 21
232.3976200014611
 31
0.0
  0
LINE
  5
A591
  8
0
 10
51.33419095904947
 20
232.3976200014611
 30
0.0
 11
51.07131009967406
 21
232.3976200014611
 31
0.0
  0
LINE
  5
A592
  8
0
 10
50.84042142779936
 20
231.7291239077111
 30
0.0
 11
50.68573392779899
 21
231.7811551577113
 31
0.0
  0
LINE
  5
A593
  8
0
 10
51.46892728717421
 20
232.5496707827113
 30
0.0
 11
51.46892728717421
 21
232.0479910952106
 31
0.0
  0
LINE
  5
A594
  8
0
 10
51.63838041217423
 20
232.3934891420857
 30
0.0
 11
51.63838041217423
 21
231.9651981264613
 31
0.0
  0
LINE
  5
A595
  8
0
 10
51.88790189654947
 20
232.522952032711
 30
0.0
 11
51.86786283404899
 21
232.3708133608359
 31
0.0
  0
LINE
  5
A596
  8
0
 10
51.89449369342447
 20
231.7650711733357
 30
0.0
 11
51.78911283404886
 21
231.6477371889612
 31
0.0
  0
LINE
  5
A597
  8
0
 10
51.78911283404886
 20
231.6477371889612
 30
0.0
 11
51.63038236529928
 21
231.7798367983358
 31
0.0
  0
ARC
  5
A598
  8
0
 10
42.92107503663419
 20
234.6394922392327
 30
0.0
 40
8.291191369612257
 50
345.4009556896889
 51
346.740746954867
  0
ARC
  5
A599
  8
0
 10
44.37677798867254
 20
234.3390947282112
 30
0.0
 40
6.807788178855744
 50
337.9301136346513
 51
343.4301309136037
  0
ARC
  5
A59A
  8
0
 10
45.15534402838607
 20
234.0667864429828
 30
0.0
 40
6.146931849803847
 50
337.647891114247
 51
344.2437969395151
  0
ARC
  5
A59B
  8
0
 10
48.22944958263236
 20
233.3302664226943
 30
0.0
 40
2.985698127172701
 50
344.84418349645
 51
348.136949894858
  0
ARC
  5
A59C
  8
0
 10
51.49143441157298
 20
229.604289962229
 30
0.0
 40
2.945466813310544
 50
82.26435931630408
 51
90.43781711643568
  0
ARC
  5
A59D
  8
0
 10
51.58569678687598
 20
230.6877859513859
 30
0.0
 40
1.706516609687102
 50
80.48265313058977
 51
88.23088210500025
  0
ARC
  5
A59E
  8
0
 10
50.67110998206041
 20
230.4633853815075
 30
0.0
 40
1.786352038619028
 50
46.77616557053221
 51
57.2156866531281
  0
ARC
  5
A59F
  8
0
 10
51.40024934312317
 20
231.8102628780989
 30
0.0
 40
0.2321356375605922
 50
300.4982959066377
 51
352.4685567394949
  0
ARC
  5
A5A0
  8
0
 10
51.32984495782662
 20
232.0140040857524
 30
0.0
 40
0.4454740180557357
 50
260.8493170262734
 51
294.9930070723727
  0
ARC
  5
A5A1
  8
0
 10
51.2732894928838
 20
231.8483517832772
 30
0.0
 40
0.274524516799522
 50
210.6191600754503
 51
267.0164240300838
  0
ARC
  5
A5A2
  8
0
 10
51.27264519402126
 20
231.821696199735
 30
0.0
 40
0.2613734309622749
 50
147.2334581988806
 51
205.6564160796825
  0
ARC
  5
A5A3
  8
0
 10
51.27761373680237
 20
231.78293256583
 30
0.0
 40
0.2880874616600608
 50
91.03111037243933
 51
141.2747978514547
  0
ARC
  5
A5A4
  8
0
 10
51.3202385490649
 20
231.6282231333568
 30
0.0
 40
0.4453240198322287
 50
70.49501453936077
 51
96.16302987731919
  0
ARC
  5
A5A5
  8
0
 10
51.32305862059095
 20
231.6381899070835
 30
0.0
 40
0.2902930385304879
 50
59.83528150936421
 51
103.2201440558064
  0
ARC
  5
A5A6
  8
0
 10
51.27815708736008
 20
231.8243232487167
 30
0.0
 40
0.0988304488869036
 50
102.5568170755454
 51
180.262765637224
  0
ARC
  5
A5A7
  8
0
 10
51.28045160824397
 20
231.8211035242614
 30
0.0
 40
0.1011617650333014
 50
178.4329333203594
 51
256.0701828760615
  0
ARC
  5
A5A8
  8
0
 10
51.32721745769197
 20
231.9739724558986
 30
0.0
 40
0.2609345439815814
 50
254.1836782918791
 51
287.6043484841652
  0
ARC
  5
A5A9
  8
0
 10
51.37698586546004
 20
231.8044034941365
 30
0.0
 40
0.0843426031298885
 50
290.2187264652961
 51
350.7581622463694
  0
ARC
  5
A5AA
  8
0
 10
51.10226641263959
 20
231.8720535294614
 30
0.0
 40
0.3670603004158596
 50
347.2201738930314
 51
2.67316898487712
  0
LINE
  5
A5AB
  8
0
 10
52.20940580279921
 20
232.1573270327111
 30
0.0
 11
52.17741361529943
 21
232.309553595211
 31
0.0
  0
LINE
  5
A5AC
  8
0
 10
52.36549955279906
 20
231.7638407045859
 30
0.0
 11
52.37754056842414
 21
231.611614142086
 31
0.0
  0
ARC
  5
A5AD
  8
0
 10
52.79608019318627
 20
229.9765904944118
 30
0.0
 40
2.413600042319521
 50
93.0330778001963
 51
104.852125248309
  0
ARC
  5
A5AE
  8
0
 10
52.6934276826039
 20
231.8599916664368
 30
0.0
 40
0.5274133454568837
 50
60.91960556758053
 51
92.72310713201327
  0
ARC
  5
A5AF
  8
0
 10
52.79619141305924
 20
232.0883618225377
 30
0.0
 40
0.2786914630822537
 50
9.671194361801408
 51
56.55959162043377
  0
ARC
  5
A5B0
  8
0
 10
52.63619194764137
 20
232.0478747529733
 30
0.0
 40
0.4434101722744036
 50
333.9597813248128
 51
11.35547973600755
  0
ARC
  5
A5B1
  8
0
 10
52.70757050148216
 20
232.0389211980829
 30
0.0
 40
0.3760688166287614
 50
291.9740011095546
 51
330.4090690351002
  0
ARC
  5
A5B2
  8
0
 10
52.52202859308832
 20
232.4326031732916
 30
0.0
 40
0.8109562744615367
 50
277.5911083880274
 51
293.7231081887235
  0
ARC
  5
A5B3
  8
0
 10
52.38884557672174
 20
233.301119801782
 30
0.0
 40
1.689543481937406
 50
269.6166218252729
 51
278.1772037059889
  0
ARC
  5
A5B4
  8
0
 10
52.40409458862494
 20
232.9172505210336
 30
0.0
 40
1.154055363259622
 50
268.0835017580472
 51
287.3544714703422
  0
ARC
  5
A5B5
  8
0
 10
52.68169383921049
 20
232.0315274538052
 30
0.0
 40
0.2258508101221847
 50
287.1599817388461
 51
352.3121354184231
  0
ARC
  5
A5B6
  8
0
 10
52.70757293224902
 20
232.0373178209725
 30
0.0
 40
0.2011894179017752
 50
349.6911030936221
 51
46.3182034235858
  0
ARC
  5
A5B7
  8
0
 10
52.67569239809345
 20
231.915790443303
 30
0.0
 40
0.3169953313446048
 50
57.39040451094466
 51
96.72424011120249
  0
ARC
  5
A5B8
  8
0
 10
52.85522731874704
 20
229.6683358258953
 30
0.0
 40
2.571412580288827
 50
94.83313718967965
 51
104.5458325788219
  0
LINE
  5
A5B9
  8
0
 10
53.6103823652993
 20
232.420207892086
 30
0.0
 11
53.42888822467421
 21
232.420207892086
 31
0.0
  0
LINE
  5
A5BA
  8
0
 10
53.42888822467421
 20
232.420207892086
 30
0.0
 11
53.42888822467421
 21
232.571028204586
 31
0.0
  0
LINE
  5
A5BB
  8
0
 10
53.42888822467421
 20
232.571028204586
 30
0.0
 11
53.64105619342399
 21
232.571028204586
 31
0.0
  0
LINE
  5
A5BC
  8
0
 10
53.64105619342399
 20
232.571028204586
 30
0.0
 11
53.66909330279896
 21
232.732483282711
 31
0.0
  0
LINE
  5
A5BD
  8
0
 10
53.66909330279896
 20
232.732483282711
 30
0.0
 11
53.83863431842428
 21
232.7177176577109
 31
0.0
  0
LINE
  5
A5BE
  8
0
 10
53.83863431842428
 20
232.7177176577109
 30
0.0
 11
53.81323392779905
 21
232.571028204586
 31
0.0
  0
LINE
  5
A5BF
  8
0
 10
53.81323392779905
 20
232.571028204586
 30
0.0
 11
54.27896634967419
 21
232.571028204586
 31
0.0
  0
LINE
  5
A5C0
  8
0
 10
54.27896634967419
 20
232.571028204586
 30
0.0
 11
54.27896634967419
 21
232.420207892086
 31
0.0
  0
LINE
  5
A5C1
  8
0
 10
54.27896634967419
 20
232.420207892086
 30
0.0
 11
53.7839663496743
 21
232.420207892086
 31
0.0
  0
LINE
  5
A5C2
  8
0
 10
53.55703275592396
 20
231.5689871889606
 30
0.0
 11
53.38889799029903
 21
231.6076590639612
 31
0.0
  0
LINE
  5
A5C3
  8
0
 10
53.94129056842439
 20
232.1334207827111
 30
0.0
 11
53.93065580279927
 21
232.2827469545862
 31
0.0
  0
LINE
  5
A5C4
  8
0
 10
54.48032377154914
 20
232.3135086733362
 30
0.0
 11
54.48032377154914
 21
232.1640946108362
 31
0.0
  0
LINE
  5
A5C5
  8
0
 10
54.08006986529927
 20
231.962649298336
 30
0.0
 11
53.95869291217423
 21
232.0399051577113
 31
0.0
  0
LINE
  5
A5C6
  8
0
 10
54.49104642779912
 20
231.7704325014609
 30
0.0
 11
54.51108549029914
 21
231.6197000795863
 31
0.0
  0
ARC
  5
A5C7
  8
0
 10
47.01143429323656
 20
233.7824871642455
 30
0.0
 40
6.738094721294446
 50
341.1697144444025
 51
348.3357808241415
  0
ARC
  5
A5C8
  8
0
 10
47.03051018746628
 20
233.7648043078236
 30
0.0
 40
6.886008252687487
 50
341.4047346856015
 51
348.7397953124075
  0
ARC
  5
A5C9
  8
0
 10
54.46813895862089
 20
227.6049623333116
 30
0.0
 40
4.708562105975219
 50
89.85172986605279
 51
96.5546104840503
  0
ARC
  5
A5CA
  8
0
 10
54.46915146235957
 20
227.6088564213195
 30
0.0
 40
4.555251890260736
 50
89.85947499256585
 51
96.65436322543621
  0
ARC
  5
A5CB
  8
0
 10
54.18684976006863
 20
231.7252717026756
 30
0.0
 40
0.3886512038689388
 50
125.9477923082765
 51
153.9456213275426
  0
ARC
  5
A5CC
  8
0
 10
53.99978433158931
 20
231.8312934958997
 30
0.0
 40
0.1745196541164178
 50
158.2451995748845
 51
211.937738790848
  0
ARC
  5
A5CD
  8
0
 10
54.10853448892644
 20
231.9254005157574
 30
0.0
 40
0.3173766808952333
 50
215.9728103304899
 51
258.577083270988
  0
ARC
  5
A5CE
  8
0
 10
54.22195615382934
 20
232.3136849597545
 30
0.0
 40
0.7212479843673572
 50
255.8532185042195
 51
272.6578213791558
  0
ARC
  5
A5CF
  8
0
 10
54.2257553468168
 20
233.1267054297833
 30
0.0
 40
1.533779128917274
 50
271.1075186277241
 51
280.7212356446171
  0
ARC
  5
A5D0
  8
0
 10
54.21304546682937
 20
233.2109109203033
 30
0.0
 40
1.467059170398629
 50
270.0695624886666
 51
280.923337658684
  0
ARC
  5
A5D1
  8
0
 10
54.20864561637804
 20
232.1111507500473
 30
0.0
 40
0.3680274217404644
 50
240.6869572496387
 51
273.2459162436446
  0
ARC
  5
A5D2
  8
0
 10
54.06796597682476
 20
231.853661851543
 30
0.0
 40
0.074711058388821
 50
182.4248820533392
 51
238.082482720991
  0
ARC
  5
A5D3
  8
0
 10
54.07650813473249
 20
231.8455356557827
 30
0.0
 40
0.0833343655532817
 50
131.1757227927974
 51
176.5841957139149
  0
ARC
  5
A5D4
  8
0
 10
54.53985340838987
 20
231.4101509704803
 30
0.0
 40
0.7187873877436253
 50
129.7668863169349
 51
136.1330162188036
  0
LINE
  5
A5D5
  8
0
 10
54.99940580279917
 20
232.6604129702108
 30
0.0
 11
54.9807729902991
 21
232.5095926577113
 31
0.0
  0
LINE
  5
A5D6
  8
0
 10
55.63450345904903
 20
232.6203348452107
 30
0.0
 11
55.63450345904903
 21
232.4695145327112
 31
0.0
  0
LINE
  5
A5D7
  8
0
 10
55.05266752154921
 20
232.3934891420857
 30
0.0
 11
54.87934720904923
 21
232.4069364077112
 31
0.0
  0
LINE
  5
A5D8
  8
0
 10
54.87934720904923
 20
232.4069364077112
 30
0.0
 11
54.81255033404886
 21
231.989280157711
 31
0.0
  0
LINE
  5
A5D9
  8
0
 10
54.81255033404886
 20
231.989280157711
 30
0.0
 11
54.97145658404906
 21
231.9545633608357
 31
0.0
  0
LINE
  5
A5DA
  8
0
 10
55.0181265059241
 20
232.1373758608359
 30
0.0
 11
55.05266752154921
 21
232.3934891420857
 31
0.0
  0
LINE
  5
A5DB
  8
0
 10
54.92601713092427
 20
231.7503934389613
 30
0.0
 11
54.91406400592405
 21
231.5970242983361
 31
0.0
  0
ARC
  5
A5DC
  8
0
 10
55.43399515924197
 20
231.5431171273833
 30
0.0
 40
0.725320742221686
 50
82.7383955307303
 51
124.9847424284259
  0
ARC
  5
A5DD
  8
0
 10
55.51424387789368
 20
231.969154344292
 30
0.0
 40
0.2936885684487056
 50
25.47750666320868
 51
87.76921556057754
  0
ARC
  5
A5DE
  8
0
 10
55.44638430326442
 20
231.9625809181373
 30
0.0
 40
0.3585317338785675
 50
321.3543299701645
 51
21.75842031571825
  0
ARC
  5
A5DF
  8
0
 10
55.37076195803656
 20
232.0944470249392
 30
0.0
 40
0.5030455772132802
 50
274.9636499740987
 51
314.989839151749
  0
ARC
  5
A5E0
  8
0
 10
55.1787829172572
 20
233.5507909872914
 30
0.0
 40
1.971618719957279
 50
262.2838934043664
 51
276.8602022226234
  0
ARC
  5
A5E1
  8
0
 10
55.23958882851089
 20
234.4587370096899
 30
0.0
 40
2.726435788097946
 50
263.3957068302936
 51
271.0732963894559
  0
ARC
  5
A5E2
  8
0
 10
55.29777153189819
 20
232.1218392131402
 30
0.0
 40
0.3891246493399197
 50
268.9526659567916
 51
311.9026700510424
  0
ARC
  5
A5E3
  8
0
 10
55.42184360819239
 20
231.9532938508702
 30
0.0
 40
0.1819431806139916
 50
318.2838146029565
 51
32.76134975180928
  0
ARC
  5
A5E4
  8
0
 10
55.4204270888273
 20
231.9029118392481
 30
0.0
 40
0.2144715613892272
 50
43.94597849543317
 51
93.25534829104993
  0
ARC
  5
A5E5
  8
0
 10
55.39829111939274
 20
231.5990222709376
 30
0.0
 40
0.518110737832
 50
88.89882867160388
 51
112.7433476052045
  0
ARC
  5
A5E6
  8
0
 10
55.64190045527521
 20
230.9835367906842
 30
0.0
 40
1.179994739142887
 50
112.0984440204114
 51
124.6230820154886
  0
ARC
  5
A5E7
  8
0
 10
55.63246947970471
 20
237.6401771912369
 30
0.0
 40
5.019842758098118
 50
262.7550085222148
 51
270.023215555127
  0
ARC
  5
A5E8
  8
0
 10
55.63385020878054
 20
237.8105288973672
 30
0.0
 40
5.341014404604963
 50
262.9765318468749
 51
270.0070077480808
  0
LINE
  5
A5E9
  8
0
 10
56.2002554121741
 20
232.055989142086
 30
0.0
 11
56.2002554121741
 21
232.6563700014611
 31
0.0
  0
LINE
  5
A5EA
  8
0
 10
56.2002554121741
 20
232.6563700014611
 30
0.0
 11
56.3870229902991
 21
232.6563700014611
 31
0.0
  0
LINE
  5
A5EB
  8
0
 10
56.3870229902991
 20
232.6563700014611
 30
0.0
 11
56.3870229902991
 21
232.055989142086
 31
0.0
  0
LINE
  5
A5EC
  8
0
 10
56.3870229902991
 20
232.055989142086
 30
0.0
 11
56.2002554121741
 21
232.055989142086
 31
0.0
  0
LINE
  5
A5ED
  8
0
 10
56.87130033404947
 20
232.2868778139608
 30
0.0
 11
56.87130033404947
 21
232.6563700014611
 31
0.0
  0
LINE
  5
A5EE
  8
0
 10
56.87130033404947
 20
232.6563700014611
 30
0.0
 11
57.06219877154899
 21
232.6563700014611
 31
0.0
  0
LINE
  5
A5EF
  8
0
 10
57.06219877154899
 20
232.6563700014611
 30
0.0
 11
57.06219877154899
 21
232.290832892086
 31
0.0
  0
LINE
  5
A5F0
  8
0
 10
56.36566556842399
 20
231.5663504702109
 30
0.0
 11
56.32831205279899
 21
231.7304422670857
 31
0.0
  0
LINE
  5
A5F1
  8
0
 10
57.76128080279886
 20
231.930481329586
 30
0.0
 11
57.76128080279886
 21
232.073303595211
 31
0.0
  0
LINE
  5
A5F2
  8
0
 10
57.76128080279886
 20
232.073303595211
 30
0.0
 11
57.39178861529899
 21
232.073303595211
 31
0.0
  0
LINE
  5
A5F3
  8
0
 10
57.39178861529899
 20
232.073303595211
 30
0.0
 11
57.39178861529899
 21
232.233440313961
 31
0.0
  0
LINE
  5
A5F4
  8
0
 10
57.39178861529899
 20
232.233440313961
 30
0.0
 11
57.76128080279886
 21
232.233440313961
 31
0.0
  0
LINE
  5
A5F5
  8
0
 10
57.76128080279886
 20
232.233440313961
 30
0.0
 11
57.76128080279886
 21
232.4695145327112
 31
0.0
  0
LINE
  5
A5F6
  8
0
 10
57.76128080279886
 20
232.4695145327112
 30
0.0
 11
57.50771634967396
 21
232.4695145327112
 31
0.0
  0
LINE
  5
A5F7
  8
0
 10
57.50771634967396
 20
232.4695145327112
 30
0.0
 11
57.50771634967396
 21
232.6337821108362
 31
0.0
  0
LINE
  5
A5F8
  8
0
 10
57.50771634967396
 20
232.6337821108362
 30
0.0
 11
58.42309720904905
 21
232.6337821108362
 31
0.0
  0
LINE
  5
A5F9
  8
0
 10
58.42309720904905
 20
232.6337821108362
 30
0.0
 11
58.42309720904905
 21
232.4695145327112
 31
0.0
  0
LINE
  5
A5FA
  8
0
 10
58.42309720904905
 20
232.4695145327112
 30
0.0
 11
57.95613431842412
 21
232.4695145327112
 31
0.0
  0
LINE
  5
A5FB
  8
0
 10
57.95613431842412
 20
232.4695145327112
 30
0.0
 11
57.95613431842412
 21
232.233440313961
 31
0.0
  0
LINE
  5
A5FC
  8
0
 10
57.95613431842412
 20
232.233440313961
 30
0.0
 11
58.53920072467417
 21
232.233440313961
 31
0.0
  0
LINE
  5
A5FD
  8
0
 10
58.53920072467417
 20
232.233440313961
 30
0.0
 11
58.53920072467417
 21
232.073303595211
 31
0.0
  0
LINE
  5
A5FE
  8
0
 10
58.53920072467417
 20
232.073303595211
 30
0.0
 11
57.95613431842412
 21
232.073303595211
 31
0.0
  0
LINE
  5
A5FF
  8
0
 10
57.95613431842412
 20
232.073303595211
 30
0.0
 11
57.95613431842412
 21
231.9358426577108
 31
0.0
  0
LINE
  5
A600
  8
0
 10
58.43645658404921
 20
231.7757059389613
 30
0.0
 11
58.44173002154912
 21
231.6103836733362
 31
0.0
  0
ARC
  5
A601
  8
0
 10
56.06602844367202
 20
232.2696557460474
 30
0.0
 40
0.8054560304915982
 50
340.9437882329723
 51
1.225178000018496
  0
ARC
  5
A602
  8
0
 10
56.50330914073191
 20
232.127578720716
 30
0.0
 40
0.345855307889423
 50
291.670576553406
 51
339.5389467977661
  0
ARC
  5
A603
  8
0
 10
56.2261717735724
 20
232.7816497260269
 30
0.0
 40
1.056158017710445
 50
275.5497072742328
 51
292.5397602820191
  0
ARC
  5
A604
  8
0
 10
56.29352039201061
 20
232.6144512274238
 30
0.0
 40
1.050580850648829
 50
273.9376978144313
 51
296.3652409231708
  0
ARC
  5
A605
  8
0
 10
56.5069086978061
 20
232.1494203963329
 30
0.0
 40
0.5393756653461665
 50
297.9933108679145
 51
349.2973959047169
  0
ARC
  5
A606
  8
0
 10
56.01233946784347
 20
232.2786544286345
 30
0.0
 40
1.049929936971548
 50
347.3794742886816
 51
0.6646064465848662
  0
ARC
  5
A607
  8
0
 10
58.25060798505018
 20
231.9008916135118
 30
0.0
 40
0.4902210140205808
 50
176.5395261482863
 51
206.0121964930288
  0
ARC
  5
A608
  8
0
 10
57.99300845514853
 20
231.8380138501921
 30
0.0
 40
0.2379373016522034
 50
219.7400975832281
 51
273.8636407009164
  0
ARC
  5
A609
  8
0
 10
58.14657425502229
 20
235.0971620898774
 30
0.0
 40
3.499248583992225
 50
267.747489334722
 51
274.8385522250587
  0
ARC
  5
A60A
  8
0
 10
58.13313171811365
 20
235.294765475419
 30
0.0
 40
3.532107868600457
 50
269.5594493554569
 51
274.926425743971
  0
ARC
  5
A60B
  8
0
 10
58.1068483918811
 20
232.0980286144622
 30
0.0
 40
0.3352677379612373
 50
252.6101303751348
 51
269.8504673977251
  0
ARC
  5
A60C
  8
0
 10
58.03116804987814
 20
231.8388750373637
 30
0.0
 40
0.0655496828836007
 50
188.1794661638701
 51
248.0315991587105
  0
ARC
  5
A60D
  8
0
 10
58.41283353989324
 20
231.9258251544857
 30
0.0
 40
0.4568090730928223
 50
178.7434429434794
 51
192.1667740459287
  0
LINE
  5
A60E
  8
0
 10
58.74864408404937
 20
232.0372684389611
 30
0.0
 11
58.74864408404937
 21
232.2160379702107
 31
0.0
  0
LINE
  5
A60F
  8
0
 10
58.74864408404937
 20
232.2160379702107
 30
0.0
 11
59.85070463092416
 21
232.2160379702107
 31
0.0
  0
LINE
  5
A610
  8
0
 10
59.85070463092416
 20
232.2160379702107
 30
0.0
 11
59.85070463092416
 21
232.0372684389611
 31
0.0
  0
LINE
  5
A611
  8
0
 10
59.85070463092416
 20
232.0372684389611
 30
0.0
 11
58.74864408404937
 21
232.0372684389611
 31
0.0
  0
LINE
  5
A612
  8
0
 10
60.45644681842396
 20
232.121379767086
 30
0.0
 11
60.45644681842396
 21
231.575666876461
 31
0.0
  0
LINE
  5
A613
  8
0
 10
60.45644681842396
 20
231.575666876461
 30
0.0
 11
60.26967924029896
 21
231.575666876461
 31
0.0
  0
LINE
  5
A614
  8
0
 10
60.26967924029896
 20
231.575666876461
 30
0.0
 11
60.26967924029896
 21
232.677815313961
 31
0.0
  0
LINE
  5
A615
  8
0
 10
60.26967924029896
 20
232.677815313961
 30
0.0
 11
60.45644681842396
 21
232.677815313961
 31
0.0
  0
LINE
  5
A616
  8
0
 10
60.45644681842396
 20
232.677815313961
 30
0.0
 11
60.45644681842396
 21
232.3041043764613
 31
0.0
  0
LINE
  5
A617
  8
0
 10
61.18224759967416
 20
232.081301642086
 30
0.0
 11
61.12626127154954
 21
231.9132547670859
 31
0.0
  0
ARC
  5
A618
  8
0
 10
58.86105079463879
 20
225.8133689697555
 30
0.0
 40
6.683931073296139
 50
69.67895110286432
 51
76.19068882595862
  0
ARC
  5
A619
  8
0
 10
58.91329954185422
 20
225.9731224324774
 30
0.0
 40
6.338956678330691
 50
69.56741481783094
 51
75.9104163881585
  0
LINE
  5
A61A
  8
0
 10
61.52379056842437
 20
231.7304422670857
 30
0.0
 11
61.52379056842437
 21
231.906575079586
 31
0.0
  0
LINE
  5
A61B
  8
0
 10
61.52379056842437
 20
231.906575079586
 30
0.0
 11
61.41849759967454
 21
231.8838992983363
 31
0.0
  0
LINE
  5
A61C
  8
0
 10
61.41849759967454
 20
231.8838992983363
 30
0.0
 11
61.40645658404947
 21
232.0399051577113
 31
0.0
  0
LINE
  5
A61D
  8
0
 10
61.40645658404947
 20
232.0399051577113
 30
0.0
 11
61.52379056842437
 21
232.063987188961
 31
0.0
  0
LINE
  5
A61E
  8
0
 10
61.52379056842437
 20
232.063987188961
 30
0.0
 11
61.52379056842437
 21
232.3535867983363
 31
0.0
  0
LINE
  5
A61F
  8
0
 10
61.52379056842437
 20
232.3535867983363
 30
0.0
 11
61.40786283404896
 21
232.3535867983363
 31
0.0
  0
LINE
  5
A620
  8
0
 10
61.40786283404896
 20
232.3535867983363
 30
0.0
 11
61.40786283404896
 21
232.5002762514612
 31
0.0
  0
LINE
  5
A621
  8
0
 10
61.40786283404896
 20
232.5002762514612
 30
0.0
 11
61.52379056842437
 21
232.5002762514612
 31
0.0
  0
LINE
  5
A622
  8
0
 10
61.52379056842437
 20
232.5002762514612
 30
0.0
 11
61.52379056842437
 21
232.7310770327111
 31
0.0
  0
LINE
  5
A623
  8
0
 10
61.52379056842437
 20
232.7310770327111
 30
0.0
 11
61.69201322467416
 21
232.7310770327111
 31
0.0
  0
LINE
  5
A624
  8
0
 10
61.69201322467416
 20
232.7310770327111
 30
0.0
 11
61.69201322467416
 21
232.5002762514612
 31
0.0
  0
LINE
  5
A625
  8
0
 10
61.69201322467416
 20
232.5002762514612
 30
0.0
 11
61.80407377154916
 21
232.5002762514612
 31
0.0
  0
LINE
  5
A626
  8
0
 10
61.80407377154916
 20
232.5002762514612
 30
0.0
 11
61.80407377154916
 21
232.3695828920862
 31
0.0
  0
LINE
  5
A627
  8
0
 10
61.80407377154916
 20
232.3695828920862
 30
0.0
 11
62.19237455279927
 21
232.3695828920862
 31
0.0
  0
LINE
  5
A628
  8
0
 10
62.19237455279927
 20
232.3695828920862
 30
0.0
 11
62.19237455279927
 21
232.0866629702112
 31
0.0
  0
LINE
  5
A629
  8
0
 10
62.19237455279927
 20
232.0866629702112
 30
0.0
 11
62.23236478717399
 21
232.0866629702112
 31
0.0
  0
LINE
  5
A62A
  8
0
 10
62.23236478717399
 20
232.0866629702112
 30
0.0
 11
62.23236478717399
 21
232.3695828920862
 31
0.0
  0
LINE
  5
A62B
  8
0
 10
62.23236478717399
 20
232.3695828920862
 30
0.0
 11
62.63525541217405
 21
232.3695828920862
 31
0.0
  0
LINE
  5
A62C
  8
0
 10
62.63525541217405
 20
232.3695828920862
 30
0.0
 11
62.63525541217405
 21
232.053264532711
 31
0.0
  0
LINE
  5
A62D
  8
0
 10
62.63525541217405
 20
232.053264532711
 30
0.0
 11
62.29643705279886
 21
232.053264532711
 31
0.0
  0
LINE
  5
A62E
  8
0
 10
62.29643705279886
 20
232.053264532711
 30
0.0
 11
62.29643705279886
 21
232.0039578920858
 31
0.0
  0
LINE
  5
A62F
  8
0
 10
62.29643705279886
 20
232.0039578920858
 30
0.0
 11
62.65793119342425
 21
232.0039578920858
 31
0.0
  0
LINE
  5
A630
  8
0
 10
62.65793119342425
 20
232.0039578920858
 30
0.0
 11
62.65793119342425
 21
231.866496954586
 31
0.0
  0
LINE
  5
A631
  8
0
 10
62.65793119342425
 20
231.866496954586
 30
0.0
 11
62.38986478717425
 21
231.866496954586
 31
0.0
  0
LINE
  5
A632
  8
0
 10
62.03223783404928
 20
231.866496954586
 30
0.0
 11
61.75872220904921
 21
231.866496954586
 31
0.0
  0
LINE
  5
A633
  8
0
 10
61.75872220904921
 20
231.866496954586
 30
0.0
 11
61.75872220904921
 21
231.9745145327113
 31
0.0
  0
LINE
  5
A634
  8
0
 10
61.75872220904921
 20
231.9745145327113
 30
0.0
 11
61.69201322467416
 21
231.9532450014611
 31
0.0
  0
LINE
  5
A635
  8
0
 10
61.69201322467416
 20
231.9532450014611
 30
0.0
 11
61.69201322467416
 21
231.743713751461
 31
0.0
  0
LINE
  5
A636
  8
0
 10
61.72005033404912
 20
231.679729376461
 30
0.0
 11
61.79607572467421
 21
231.544905157711
 31
0.0
  0
LINE
  5
A637
  8
0
 10
62.12302884967403
 20
231.7784305483363
 30
0.0
 11
62.12302884967403
 21
231.5289090639611
 31
0.0
  0
LINE
  5
A638
  8
0
 10
62.12302884967403
 20
231.5289090639611
 30
0.0
 11
62.29643705279886
 21
231.5289090639611
 31
0.0
  0
LINE
  5
A639
  8
0
 10
62.29643705279886
 20
231.5289090639611
 30
0.0
 11
62.29643705279886
 21
231.7811551577113
 31
0.0
  0
LINE
  5
A63A
  8
0
 10
62.67928861529936
 20
231.679729376461
 30
0.0
 11
62.59930814654899
 21
231.544905157711
 31
0.0
  0
LINE
  5
A63B
  8
0
 10
61.86814603717403
 20
232.7177176577109
 30
0.0
 11
62.57531400592416
 21
232.7177176577109
 31
0.0
  0
LINE
  5
A63C
  8
0
 10
62.57531400592416
 20
232.7177176577109
 30
0.0
 11
62.57531400592416
 21
232.4055301577108
 31
0.0
  0
LINE
  5
A63D
  8
0
 10
62.57531400592416
 20
232.4055301577108
 30
0.0
 11
61.86814603717403
 21
232.4055301577108
 31
0.0
  0
LINE
  5
A63E
  8
0
 10
61.86814603717403
 20
232.4055301577108
 30
0.0
 11
61.86814603717403
 21
232.7177176577109
 31
0.0
  0
LINE
  5
A63F
  8
0
 10
62.03083158404934
 20
232.5829813295857
 30
0.0
 11
62.03083158404934
 21
232.5242703920861
 31
0.0
  0
LINE
  5
A640
  8
0
 10
62.03083158404934
 20
232.5242703920861
 30
0.0
 11
62.40577299029928
 21
232.5242703920861
 31
0.0
  0
LINE
  5
A641
  8
0
 10
62.40577299029928
 20
232.5242703920861
 30
0.0
 11
62.40577299029928
 21
232.5829813295857
 31
0.0
  0
LINE
  5
A642
  8
0
 10
62.40577299029928
 20
232.5829813295857
 30
0.0
 11
62.03083158404934
 21
232.5829813295857
 31
0.0
  0
LINE
  5
A643
  8
0
 10
61.69201322467416
 20
232.1080203920863
 30
0.0
 11
61.69201322467416
 21
232.3535867983363
 31
0.0
  0
LINE
  5
A644
  8
0
 10
61.69201322467416
 20
232.3535867983363
 30
0.0
 11
61.79071439654899
 21
232.3535867983363
 31
0.0
  0
LINE
  5
A645
  8
0
 10
61.79071439654899
 20
232.3535867983363
 30
0.0
 11
61.79071439654899
 21
232.1400125795861
 31
0.0
  0
LINE
  5
A646
  8
0
 10
61.79071439654899
 20
232.1400125795861
 30
0.0
 11
61.69201322469025
 21
232.1080203920914
 31
0.0
  0
LINE
  5
A647
  8
0
 10
62.12302884967403
 20
232.0039578920858
 30
0.0
 11
61.8054800215491
 21
232.0039578920858
 31
0.0
  0
LINE
  5
A648
  8
0
 10
61.8054800215491
 20
232.0039578920858
 30
0.0
 11
61.80275541217406
 21
232.053264532711
 31
0.0
  0
LINE
  5
A649
  8
0
 10
61.80275541217406
 20
232.053264532711
 30
0.0
 11
62.12302884967403
 21
232.053264532711
 31
0.0
  0
LINE
  5
A64A
  8
0
 10
62.12302884967403
 20
232.053264532711
 30
0.0
 11
62.12302884967403
 21
232.0039578920858
 31
0.0
  0
LINE
  5
A64B
  8
0
 10
62.05350736529908
 20
232.1734110170863
 30
0.0
 11
61.93617338092417
 21
232.1734110170863
 31
0.0
  0
LINE
  5
A64C
  8
0
 10
61.93617338092417
 20
232.1734110170863
 30
0.0
 11
61.93617338092417
 21
232.2453934389612
 31
0.0
  0
LINE
  5
A64D
  8
0
 10
61.93617338092417
 20
232.2453934389612
 30
0.0
 11
62.05350736529908
 21
232.2453934389612
 31
0.0
  0
LINE
  5
A64E
  8
0
 10
62.05350736529908
 20
232.2453934389612
 30
0.0
 11
62.05350736529908
 21
232.1734110170863
 31
0.0
  0
LINE
  5
A64F
  8
0
 10
62.36841947467428
 20
232.1734110170863
 30
0.0
 11
62.36841947467428
 21
232.2453934389612
 31
0.0
  0
LINE
  5
A650
  8
0
 10
62.36841947467428
 20
232.2453934389612
 30
0.0
 11
62.48452299029896
 21
232.2453934389612
 31
0.0
  0
LINE
  5
A651
  8
0
 10
62.48452299029896
 20
232.2453934389612
 30
0.0
 11
62.48452299029896
 21
232.1734110170863
 31
0.0
  0
LINE
  5
A652
  8
0
 10
62.48452299029896
 20
232.1734110170863
 30
0.0
 11
62.36841947467428
 21
232.1734110170863
 31
0.0
  0
LINE
  5
A653
  8
0
 10
61.41313627154886
 20
231.6757742983362
 30
0.0
 11
61.42122220904912
 21
231.5329520327112
 31
0.0
  0
ARC
  5
A654
  8
0
 10
61.62534805820231
 20
233.9382206563064
 30
0.0
 40
2.272377029695415
 50
264.6414777738622
 51
266.9348152461827
  0
ARC
  5
A655
  8
0
 10
61.50617516799237
 20
231.691449390195
 30
0.0
 40
0.022476476334337
 50
264.03501221812
 51
306.5640674473047
  0
ARC
  5
A656
  8
0
 10
61.50748864665267
 20
231.6820198577158
 30
0.0
 40
0.014839073681366
 50
324.4701988857918
 51
4.421974038738584
  0
ARC
  5
A657
  8
0
 10
61.01692490316131
 20
231.7229357067952
 30
0.0
 40
0.5069212474043316
 50
355.5000960438273
 51
0.8484748777902161
  0
ARC
  5
A658
  8
0
 10
61.63483142898474
 20
234.0666524707057
 30
0.0
 40
2.542688893344043
 50
265.1809484774698
 51
267.5208014624529
  0
ARC
  5
A659
  8
0
 10
61.53230738655246
 20
232.2737637051622
 30
0.0
 40
0.7474574208886295
 50
269.4278258300276
 51
274.7828769779775
  0
ARC
  5
A65A
  8
0
 10
61.58193964761441
 20
231.6700903649749
 30
0.0
 40
0.1417505388387061
 50
275.1365035074422
 51
297.894765149848
  0
ARC
  5
A65B
  8
0
 10
61.61221599954879
 20
231.6042011649799
 30
0.0
 40
0.0694715375261978
 50
301.2514755256504
 51
351.3397225057918
  0
ARC
  5
A65C
  8
0
 10
61.37097527988727
 20
231.6740110273246
 30
0.0
 40
0.3201466567477245
 50
345.4792488797654
 51
359.0668339659391
  0
ARC
  5
A65D
  8
0
 10
59.49868524004476
 20
231.7335868573653
 30
0.0
 40
2.193351363129598
 50
358.3072842196231
 51
0.2645405394391241
  0
ARC
  5
A65E
  8
0
 10
61.25337562182137
 20
232.8140889668767
 30
0.0
 40
1.226603834737866
 50
292.3622304129851
 51
309.4180965652807
  0
ARC
  5
A65F
  8
0
 10
61.1796976066083
 20
232.7535231076993
 30
0.0
 40
1.356716379153855
 50
297.0209406626466
 51
314.0515009572343
  0
ARC
  5
A660
  8
0
 10
63.25415937731835
 20
232.6966850073361
 30
0.0
 40
1.324925264474462
 50
223.7097081622024
 51
240.3793491799922
  0
ARC
  5
A661
  8
0
 10
63.27545780459155
 20
232.9212173882756
 30
0.0
 40
1.377211017143197
 50
229.981595629291
 51
244.349432299083
  0
LINE
  5
A662
  8
0
 10
63.23967924029921
 20
232.7044461733361
 30
0.0
 11
63.07558744342396
 21
232.7364383608363
 31
0.0
  0
LINE
  5
A663
  8
0
 10
62.80075345904925
 20
232.1520535952112
 30
0.0
 11
62.87018705279888
 21
231.9732840639606
 31
0.0
  0
LINE
  5
A664
  8
0
 10
62.96616361529914
 20
232.1026590639611
 30
0.0
 11
62.96616361529914
 21
231.5223172670861
 31
0.0
  0
LINE
  5
A665
  8
0
 10
62.96616361529914
 20
231.5223172670861
 30
0.0
 11
63.14502103717405
 21
231.5223172670861
 31
0.0
  0
LINE
  5
A666
  8
0
 10
63.14502103717405
 20
231.5223172670861
 30
0.0
 11
63.14502103717405
 21
232.3882157045862
 31
0.0
  0
LINE
  5
A667
  8
0
 10
63.15829252154936
 20
232.2187625795858
 30
0.0
 11
63.29979642779927
 21
232.1107450014613
 31
0.0
  0
LINE
  5
A668
  8
0
 10
63.50651517779943
 20
232.4736453920858
 30
0.0
 11
63.50651517779943
 21
231.5223172670861
 31
0.0
  0
LINE
  5
A669
  8
0
 10
63.50651517779943
 20
231.5223172670861
 30
0.0
 11
63.68932767779916
 21
231.5223172670861
 31
0.0
  0
LINE
  5
A66A
  8
0
 10
63.68932767779916
 20
231.5223172670861
 30
0.0
 11
63.68932767779916
 21
231.7837918764611
 31
0.0
  0
LINE
  5
A66B
  8
0
 10
63.68932767779916
 20
231.7837918764611
 30
0.0
 11
64.02287259967443
 21
231.7837918764611
 31
0.0
  0
LINE
  5
A66C
  8
0
 10
64.02287259967443
 20
231.7837918764611
 30
0.0
 11
64.02287259967443
 21
231.9358426577108
 31
0.0
  0
LINE
  5
A66D
  8
0
 10
64.02287259967443
 20
231.9358426577108
 30
0.0
 11
63.68932767779916
 21
231.9358426577108
 31
0.0
  0
LINE
  5
A66E
  8
0
 10
63.68932767779916
 20
231.9358426577108
 30
0.0
 11
63.68932767779916
 21
232.1334207827111
 31
0.0
  0
LINE
  5
A66F
  8
0
 10
63.68932767779916
 20
232.1334207827111
 30
0.0
 11
64.02287259967443
 21
232.1334207827111
 31
0.0
  0
LINE
  5
A670
  8
0
 10
64.02287259967443
 20
232.1334207827111
 30
0.0
 11
64.02287259967443
 21
232.280110235836
 31
0.0
  0
LINE
  5
A671
  8
0
 10
64.02287259967443
 20
232.280110235836
 30
0.0
 11
63.68932767779916
 21
232.280110235836
 31
0.0
  0
LINE
  5
A672
  8
0
 10
63.68932767779916
 20
232.280110235836
 30
0.0
 11
63.68932767779916
 21
232.4736453920858
 31
0.0
  0
LINE
  5
A673
  8
0
 10
63.68932767779916
 20
232.4736453920858
 30
0.0
 11
64.06295072467447
 21
232.4736453920858
 31
0.0
  0
LINE
  5
A674
  8
0
 10
64.06295072467447
 20
232.4736453920858
 30
0.0
 11
64.06295072467447
 21
232.6203348452107
 31
0.0
  0
LINE
  5
A675
  8
0
 10
64.06295072467447
 20
232.6203348452107
 30
0.0
 11
63.54527494342437
 21
232.6203348452107
 31
0.0
  0
LINE
  5
A676
  8
0
 10
63.57603666217437
 20
232.7164871889607
 30
0.0
 11
63.40649564654905
 21
232.7511160952106
 31
0.0
  0
ARC
  5
A677
  8
0
 10
61.5977179688555
 20
233.0423279363027
 30
0.0
 40
1.509194028694409
 50
335.5457096686311
 51
348.3060403035889
  0
ARC
  5
A678
  8
0
 10
61.88908662909935
 20
232.926081218324
 30
0.0
 40
1.195932761560066
 50
319.6679218269052
 51
334.8367065032426
  0
ARC
  5
A679
  8
0
 10
62.10095537483907
 20
232.6442244140449
 30
0.0
 40
1.020724413232922
 50
318.9043658670693
 51
327.9560510819899
  0
ARC
  5
A67A
  8
0
 10
61.96384317999524
 20
232.9140635666897
 30
0.0
 40
1.292941260989209
 50
336.0018785125658
 51
350.6697714262836
  0
ARC
  5
A67B
  8
0
 10
61.43628063739278
 20
233.3456664916581
 30
0.0
 40
2.057969231116068
 50
326.7988139724891
 51
343.207798180194
  0
ARC
  5
A67C
  8
0
 10
61.22811004577794
 20
233.4228726690766
 30
0.0
 40
2.452256813952018
 50
327.6513795623706
 51
337.2268745923164
  0
LINE
  5
A67D
  8
0
 10
63.48920072467399
 20
232.4736453920858
 30
0.0
 11
63.50651517779943
 21
232.4736453920858
 31
0.0
  0
LINE
  5
A67E
  8
0
 10
63.57603666217437
 20
232.7164871889607
 30
0.0
 11
63.56089993221398
 21
232.6679086923735
 31
0.0
  0
LINE
  5
A67F
  8
0
 10
63.56089993221398
 20
232.6679086923735
 30
0.0
 11
63.54527494342437
 21
232.6203348452107
 31
0.0
  0
VIEWPORT
  5
22
 67
     1
  8
0
 10
5.269134197284911
 20
5.545311567251436
 30
0.0
 40
11.13808705479925
 41
12.32365374410561
 68
     1
 69
     1
1001
GENIUS_GENSCREG_15
1000
PF
1040
1.0
1000
DF
1040
1.0
1000
MIN
1011
-0.2999093301147138
1021
-0.6165153048013714
1031
0.0
1021
-0.6165153048013714
1031
0.0
1000
MAX
1011
10.83817772468454
1021
11.70713843930424
1031
0.0
1021
11.70713843930424
1031
0.0
1000
FLAGS
1070
     4
1001
GENIUS_GENODEF_13
1002
{
1000
HIER
1070
     0
1002
}
1002
{
1000
MANEDIT
1070
     0
1002
}
1002
{
1000
NOSEL
1070
     0
1002
}
1002
{
1000
BEHIND
1070
     0
1002
}
1002
{
1000
OTHER
1070
     0
1002
}
1002
{
1000
REACTOR
1002
}
1001
GENIUS_GENOBJ-N-SDF_13
1002
{
1000
OWNER
1000
GEN
1002
}
1001
ACAD
1000
MVIEW
1002
{
1070
    16
1010
0.0
1020
0.0
1030
0.0
1020
0.0
1030
0.0
1010
0.0
1020
0.0
1030
1.0
1020
0.0
1030
1.0
1040
0.0
1040
12.32365374410561
1040
5.269134197284911
1040
5.545311567251436
1040
50.0
1040
0.0
1040
0.0
1070
     0
1070
   100
1070
     0
1070
     1
1070
     0
1070
     0
1070
     0
1070
     0
1040
0.0
1040
0.0
1040
0.0
1040
1.0
1040
1.0
1040
10.0
1040
10.0
1070
     0
1002
{
1002
}
1002
}
  0
ENDSEC
  0
EOF
