  0
SECTION
  2
HEADER
  9
$ACADVER
  1
AC1009
  9
$DWGCODEPAGE
  3
ansi_932
  9
$INSBASE
 10
0.0
 20
0.0
 30
0.0
  9
$EXTMIN
 10
0.0
 20
0.0
 30
0.0
  9
$EXTMAX
 10
288.0
 20
302.0597841493609
 30
0.0
  9
$LIMMIN
 10
0.0
 20
0.0
  9
$LIMMAX
 10
420.0
 20
420.0
  9
$ORTHOMODE
 70
     0
  9
$REGENMODE
 70
     1
  9
$FILLMODE
 70
     1
  9
$QTEXTMODE
 70
     0
  9
$MIRRTEXT
 70
     0
  9
$DRAGMODE
 70
     2
  9
$LTSCALE
 40
10.0
  9
$OSMODE
 70
 15359
  9
$ATTMODE
 70
     1
  9
$TEXTSIZE
 40
3.5
  9
$TRACEWID
 40
1.0
  9
$TEXTSTYLE
  7
STANDARD
  9
$CLAYER
  8
0
  9
$CELTYPE
  6
BYLAYER
  9
$CECOLOR
 62
   256
  9
$DIMSCALE
 40
1.0
  9
$DIMASZ
 40
2.5
  9
$DIMEXO
 40
1.0
  9
$DIMDLI
 40
7.0
  9
$DIMRND
 40
0.0
  9
$DIMDLE
 40
0.0
  9
$DIMEXE
 40
1.0
  9
$DIMTP
 40
0.1
  9
$DIMTM
 40
0.1
  9
$DIMTXT
 40
3.0
  9
$DIMCEN
 40
0.0
  9
$DIMTSZ
 40
0.0
  9
$DIMTOL
 70
     0
  9
$DIMLIM
 70
     0
  9
$DIMTIH
 70
     0
  9
$DIMTOH
 70
     0
  9
$DIMSE1
 70
     0
  9
$DIMSE2
 70
     0
  9
$DIMTAD
 70
     3
  9
$DIMZIN
 70
     8
  9
$DIMBLK
  1
OPEN
  9
$DIMASO
 70
     1
  9
$DIMSHO
 70
     1
  9
$DIMPOST
  1

  9
$DIMAPOST
  1
"
  9
$DIMALT
 70
     0
  9
$DIMALTD
 70
     2
  9
$DIMALTF
 40
0.0393701
  9
$DIMLFAC
 40
1.0
  9
$DIMTOFL
 70
     1
  9
$DIMTVP
 40
0.0
  9
$DIMTIX
 70
     0
  9
$DIMSOXD
 70
     0
  9
$DIMSAH
 70
     0
  9
$DIMBLK1
  1

  9
$DIMBLK2
  1

  9
$DIMSTYLE
  2
AM_JIS
  9
$DIMCLRD
 70
   256
  9
$DIMCLRE
 70
   256
  9
$DIMCLRT
 70
     2
  9
$DIMTFAC
 40
0.71
  9
$DIMGAP
 40
1.0
  9
$LUNITS
 70
     2
  9
$LUPREC
 70
     2
  9
$SKETCHINC
 40
1.0
  9
$FILLETRAD
 40
2.5
  9
$AUNITS
 70
     0
  9
$AUPREC
 70
     0
  9
$MENU
  1
.
  9
$ELEVATION
 40
0.0
  9
$PELEVATION
 40
0.0
  9
$THICKNESS
 40
0.0
  9
$LIMCHECK
 70
     0
  9
$CHAMFERA
 40
2.5
  9
$CHAMFERB
 40
2.5
  9
$SKPOLY
 70
     1
  9
$TDCREATE
 40
2460208.770399167
  9
$TDUPDATE
 40
2460210.744449305
  9
$TDINDWG
 40
0.128012037
  9
$TDUSRTIMER
 40
0.1279141551
  9
$USRTIMER
 70
     1
  9
$ANGBASE
 50
0.0
  9
$ANGDIR
 70
     0
  9
$PDMODE
 70
     0
  9
$PDSIZE
 40
0.0
  9
$PLINEWID
 40
0.0
  9
$COORDS
 70
     2
  9
$SPLFRAME
 70
     0
  9
$SPLINETYPE
 70
     6
  9
$SPLINESEGS
 70
     8
  9
$ATTDIA
 70
     1
  9
$ATTREQ
 70
     1
  9
$HANDLING
 70
     1
  9
$HANDSEED
  5
2A04
  9
$SURFTAB1
 70
     6
  9
$SURFTAB2
 70
     6
  9
$SURFTYPE
 70
     6
  9
$SURFU
 70
     6
  9
$SURFV
 70
     6
  9
$UCSNAME
  2

  9
$UCSORG
 10
0.0
 20
0.0
 30
0.0
  9
$UCSXDIR
 10
1.0
 20
0.0
 30
0.0
  9
$UCSYDIR
 10
0.0
 20
1.0
 30
0.0
  9
$PUCSNAME
  2

  9
$PUCSORG
 10
0.0
 20
0.0
 30
0.0
  9
$PUCSXDIR
 10
1.0
 20
0.0
 30
0.0
  9
$PUCSYDIR
 10
0.0
 20
1.0
 30
0.0
  9
$USERI1
 70
     0
  9
$USERI2
 70
     0
  9
$USERI3
 70
     0
  9
$USERI4
 70
     0
  9
$USERI5
 70
     0
  9
$USERR1
 40
0.0
  9
$USERR2
 40
0.0
  9
$USERR3
 40
0.0
  9
$USERR4
 40
0.0
  9
$USERR5
 40
0.0
  9
$WORLDVIEW
 70
     1
  9
$SHADEDGE
 70
     3
  9
$SHADEDIF
 70
    70
  9
$TILEMODE
 70
     1
  9
$MAXACTVP
 70
    48
  9
$PLIMCHECK
 70
     0
  9
$PEXTMIN
 10
1.000000000000000E+20
 20
1.000000000000000E+20
 30
1.000000000000000E+20
  9
$PEXTMAX
 10
-1.000000000000000E+20
 20
-1.000000000000000E+20
 30
-1.000000000000000E+20
  9
$PLIMMIN
 10
-0.2500002402958907
 20
-0.2499999962453767
  9
$PLIMMAX
 10
10.74999951940822
 20
8.249999763458732
  9
$UNITMODE
 70
     0
  9
$VISRETAIN
 70
     1
  9
$PLINEGEN
 70
     0
  9
$PSLTSCALE
 70
     1
  0
ENDSEC
  0
SECTION
  2
TABLES
  0
TABLE
  2
VPORT
 70
     1
  0
VPORT
  2
*ACTIVE
 70
     0
 10
0.0
 20
0.0
 11
1.0
 21
1.0
 12
144.0000000000002
 22
151.0298920746809
 13
0.0
 23
0.0
 14
2.5
 24
2.5
 15
10.0
 25
10.0
 16
0.0
 26
0.0
 36
1.0
 17
0.0
 27
0.0
 37
0.0
 40
304.7779824319198
 41
2.164994425863991
 42
50.0
 43
0.0
 44
0.0
 50
0.0
 51
0.0
 71
     0
 72
   100
 73
     1
 74
     3
 75
     0
 76
     0
 77
     0
 78
     0
  0
ENDTAB
  0
TABLE
  2
LTYPE
 70
    14
  0
LTYPE
  2
CONTINUOUS
 70
     0
  3
Solid line
 72
    65
 73
     0
 40
0.0
  0
LTYPE
  2
PHANTOM2
 70
     0
  3
___ _ _ ___ _ _ ___ _ _ ___ _ _ ___ _ _ ___ _ _
 72
    65
 73
     6
 40
1.25
 49
0.625
 49
-0.125
 49
0.125
 49
-0.125
 49
0.125
 49
-0.125
  0
LTYPE
  2
ACJISTGB
 70
     0
  3
__ . . __ . .
 72
    65
 73
     6
 40
9.0
 49
4.0
 49
-1.0
 49
1.0
 49
-1.0
 49
1.0
 49
-1.0
  0
LTYPE
  2
ACJISTGL
 70
     0
  3
_ _ _ _ _
 72
    65
 73
     2
 40
3.0
 49
2.0
 49
-1.0
  0
LTYPE
  2
AM_ISO02W050
 70
     0
  3
__ __ __ __ __ __ __ __ __ __ __ __ __ __ __
 72
    65
 73
     2
 40
7.5
 49
6.0
 49
-1.5
  0
LTYPE
  2
AM_ISO08W050
 70
     0
  3
____ . ____ . ____ . ____ . ____ . ____ . ____
 72
    65
 73
     4
 40
18.0
 49
12.0
 49
-1.5
 49
3.0
 49
-1.5
  0
LTYPE
  2
AM_ISO09W050
 70
     0
  3
_____ . . _____ . . _____ . . ____ .. ____
 72
    65
 73
     6
 40
22.5
 49
12.0
 49
-1.5
 49
3.0
 49
-1.5
 49
3.0
 49
-1.5
  0
LTYPE
  2
AM_ISO02W050X2
 70
     0
  3
 _ _ _ _ _ _ _ _ _ _ _ _
 72
    65
 73
     2
 40
3.75
 49
3.0
 49
-0.75
  0
LTYPE
  2
AM_ISO08W050X2
 70
     0
  3
__ . __ . __ . __ . __ . __
 72
    65
 73
     4
 40
9.0
 49
6.0
 49
-0.75
 49
1.5
 49
-0.75
  0
LTYPE
  2
AMZIGZAG
 70
     0
  3
/\/-/\/-/\/-/\/-/\/-/\/
 72
    65
 73
     2
 40
11.0001
 49
0.0001
 49
-11.0
  0
LTYPE
  2
AMCONSTR
 70
     0
  3
_______________________
 72
    65
 73
     2
 40
9999.0
 49
9999.0
 49
0.0
  0
LTYPE
  2
CENTER2
 70
     0
  3
Center (.5x) ___ _ ___ _ ___ _ ___ _ ___ _ ___
 72
    65
 73
     4
 40
1.125
 49
0.75
 49
-0.125
 49
0.125
 49
-0.125
  0
LTYPE
  2
HIDDEN2
 70
     0
  3
Hidden (.5x) _ _ _ _ _ _ _ _ _ _ _ _ _ _ _ _ _
 72
    65
 73
     2
 40
0.1875
 49
0.125
 49
-0.0625
  0
LTYPE
  2
ACJISWELD
 70
     0
  3
_ _ _ _ _
 72
    65
 73
     2
 40
2.0
 49
2.0
 49
-1.0
  0
ENDTAB
  0
TABLE
  2
LAYER
 70
     4
  0
LAYER
  2
0
 70
     0
 62
     7
  6
CONTINUOUS
  0
LAYER
  2
7
 70
     0
 62
     4
  6
CENTER2
  0
LAYER
  2
AM_0
 70
     0
 62
     7
  6
CONTINUOUS
  0
LAYER
  2
10
 70
     0
 62
     2
  6
CONTINUOUS
  0
ENDTAB
  0
TABLE
  2
STYLE
 70
     4
  0
STYLE
  2
STANDARD
 70
     0
 40
0.0
 41
1.0
 50
0.0
 71
     0
 42
3.5
  3
isocp.shx
  4
extfont.shx
  0
STYLE
  2
ACJISTS
 70
     0
 40
1.0
 41
1.0
 50
0.0
 71
     0
 42
3.5
  3
isocp.shx
  4
extfont.shx
  0
STYLE
  2
ACJISGDT
 70
     0
 40
0.0
 41
1.0
 50
0.0
 71
     0
 42
3.5
  3
amgdt.shx
  4
extfont.shx
  0
STYLE
  2

 70
     1
 40
0.0
 41
1.0
 50
0.0
 71
     0
 42
3.5
  3
ltypeshp.shx
  4

  0
ENDTAB
  0
TABLE
  2
VIEW
 70
     3
  0
VIEW
  2
AMDTVIEW1
 70
     0
 40
329.0721649484536
 10
210.0
 20
164.5360824742268
 41
420.0
 11
0.0
 21
0.0
 31
1.0
 12
0.0
 22
0.0
 32
0.0
 42
50.0
 43
0.0
 44
0.0
 50
0.0
 71
     0
  0
VIEW
  2
AMDTVIEW2
 70
     0
 40
329.0721649484536
 10
210.0
 20
164.5360824742268
 41
420.0
 11
0.0
 21
0.0
 31
1.0
 12
0.0
 22
0.0
 32
0.0
 42
50.0
 43
0.0
 44
0.0
 50
0.0
 71
     0
  0
VIEW
  2
AMDTVIEW3
 70
     0
 40
329.0721649484536
 10
210.0
 20
164.5360824742268
 41
420.0
 11
0.0
 21
0.0
 31
1.0
 12
0.0
 22
0.0
 32
0.0
 42
50.0
 43
0.0
 44
0.0
 50
0.0
 71
     0
  0
ENDTAB
  0
TABLE
  2
UCS
 70
     0
  0
ENDTAB
  0
TABLE
  2
APPID
 70
    66
  0
APPID
  2
ACAD
 70
     0
  0
APPID
  2
AD_DRAW
 70
     0
  0
APPID
  2
DESIGNERASSEMBLIES
 70
     0
  0
APPID
  2
MCAD_NO_VIS
 70
     0
  0
APPID
  2
ASURF_PCURVE_APPNAME
 70
     0
  0
APPID
  2
ACAD_TEMP_GRAPHIC
 70
     0
  0
APPID
  2
ACATTRIBSERVICES
 70
     0
  0
APPID
  2
ACADM_DIM_EDIT
 70
     0
  0
APPID
  2
GENIUS_GENDIM_13
 70
     0
  0
APPID
  2
GENIUS_GENDTOL_13
 70
     0
  0
APPID
  2
GENIUS_GE3DTOL_13
 70
     0
  0
APPID
  2
AMG_3D2D_5_0
 70
     0
  0
APPID
  2
AMDT_DM_ADJ
 70
     0
  0
APPID
  2
ACAD_PSEXT
 70
     0
  0
APPID
  2
ACAD_DSTYLE_DIMTEXT_FILL
 70
     0
  0
APPID
  2
ACAECLAYERSTANDARD
 70
     0
  0
APPID
  2
GENIUS_GENREC_14
 70
     0
  0
APPID
  2
GENIUS_GENODEF_13
 70
     0
  0
APPID
  2
GENIUS_GENOBJ-N-REC_13
 70
     0
  0
APPID
  2
DCO15
 70
     0
  0
APPID
  2
ACAD_DSTYLE_DIMJAG
 70
     0
  0
APPID
  2
ACAD_DSTYLE_DIMTALN
 70
     0
  0
APPID
  2
ACAD_MLEADERVER
 70
     0
  0
APPID
  2
GENIUS_GENSCREG_15
 70
     0
  0
APPID
  2
GENIUS_GENOBJ-N-SDF_13
 70
     0
  0
APPID
  2
ACAD_NAV_VCDISPLAY
 70
     0
  0
APPID
  2
ACAD_EXEMPT_FROM_CAD_STAND
 70
     0
  0
APPID
  2
ACCMTRANSPARENCY
 70
     0
  0
APPID
  2
HC_SUPERPART
 70
     0
  0
APPID
  2
HC_SP4BLOCK
 70
     0
  0
APPID
  2
HC_XDATA_SPRING
 70
     0
  0
APPID
  2
HCCAD_FRAME
 70
     0
  0
APPID
  2
GENIUS_GENOLIS_13
 70
     0
  0
APPID
  2
GENIUS_GENOENT_13
 70
     0
  0
APPID
  2
GENIUS_GENOREF_13
 70
     0
  0
APPID
  2
GENIUS_GENOBJ-N-TIT_13
 70
     0
  0
APPID
  2
GENIUS_GENOBJ-N-ZOO_13
 70
     0
  0
APPID
  2
GENIUS_GENTITLE_13
 70
     0
  0
APPID
  2
GENIUS_GENSYMENT_13
 70
     0
  0
APPID
  2
GENIUS_GENSCSYM_13
 70
     0
  0
APPID
  2
GENIUS_GENOBJ-N-REV_13
 70
     0
  0
APPID
  2
GENIUS_GENOBJ-N-RSSYM_13
 70
     0
  0
APPID
  2
GENIUS_GENREV_15
 70
     0
  0
APPID
  2
HRA
 70
     0
  0
APPID
  2
HTIT
 70
     0
  0
APPID
  2
GENIUS_GENZOO_17
 70
     0
  0
APPID
  2
GENIUS_GENOBJ-N-CEN_13
 70
     0
  0
APPID
  2
GENIUS_GENCEN_19
 70
     0
  0
APPID
  2
GENIUS_GENOBJ-N-CRS_13
 70
     0
  0
APPID
  2
GENIUS_GENCRS_20
 70
     0
  0
APPID
  2
GENIUS_GENOBJ-N-CRC_13
 70
     0
  0
APPID
  2
GENIUS_GENCRC_14
 70
     0
  0
APPID
  2
GENIUS_GENFIL_13
 70
     0
  0
APPID
  2
GENIUS_GENOBJ-N-CHA_13
 70
     0
  0
APPID
  2
GENIUS_GENOBJ-N-FIL_13
 70
     0
  0
APPID
  2
GENIUS_GENHATCH_13
 70
     0
  0
APPID
  2
GENIUS_GENOBJ-N-HTC_13
 70
     0
  0
APPID
  2
GENIUS_GENOBJ-N-DIM_13
 70
     0
  0
APPID
  2
GENIUS_GENOBJ-N-DIMLI_13
 70
     0
  0
APPID
  2
GENIUS_GENOBJ-N-FITL_13
 70
     0
  0
APPID
  2
GENIUS_GENFITL_13
 70
     0
  0
APPID
  2
GENLAYCOLOR
 70
     0
  0
APPID
  2
ACAD_DSTYLE_DIMBREAK
 70
     0
  0
APPID
  2
ACADANNOTATIVE
 70
     0
  0
APPID
  2
ACADANNOPO
 70
     0
  0
APPID
  2
PLOTTRANSPARENCY
 70
     0
  0
ENDTAB
  0
TABLE
  2
DIMSTYLE
 70
     8
  0
DIMSTYLE
  2
STANDARD
 70
     0
  3

  4

  5

  6

  7

 40
1.0
 41
2.5
 42
0.625
 43
3.75
 44
1.25
 45
0.0
 46
0.0
 47
0.0
 48
0.0
140
2.5
141
2.5
142
0.0
143
0.0394
144
1.0
145
0.0
146
1.0
147
0.625
 71
     0
 72
     0
 73
     0
 74
     0
 75
     0
 76
     0
 77
     1
 78
     8
170
     0
171
     4
172
     1
173
     0
174
     0
175
     0
176
     0
177
     0
178
     0
  0
DIMSTYLE
  2
ISO-25
 70
     0
  3

  4

  5

  6

  7

 40
1.0
 41
2.5
 42
0.625
 43
3.75
 44
1.25
 45
0.0
 46
0.0
 47
0.0
 48
0.0
140
2.5
141
2.5
142
0.0
143
0.0394
144
1.0
145
0.0
146
1.0
147
0.625
 71
     0
 72
     0
 73
     0
 74
     0
 75
     0
 76
     0
 77
     1
 78
     8
170
     0
171
     4
172
     1
173
     0
174
     0
175
     0
176
     0
177
     0
178
     0
  0
DIMSTYLE
  2
AM_JIS
 70
     0
  3

  4
"
  5
OPEN
  6

  7

 40
1.0
 41
2.5
 42
1.0
 43
7.0
 44
1.0
 45
0.0
 46
0.0
 47
0.1
 48
0.1
140
3.0
141
0.0
142
0.0
143
0.0393701
144
1.0
145
0.0
146
0.71
147
1.0
 71
     0
 72
     0
 73
     0
 74
     0
 75
     0
 76
     0
 77
     3
 78
     8
170
     0
171
     2
172
     1
173
     0
174
     0
175
     0
176
   256
177
   256
178
     2
  0
DIMSTYLE
  2
AM_JIS$3
 70
     0
  3

  4
"
  5
OPEN
  6

  7

 40
1.0
 41
2.5
 42
1.0
 43
10.0
 44
1.0
 45
0.0
 46
0.0
 47
0.1
 48
0.1
140
3.0
141
0.0
142
0.0
143
0.0393701
144
1.0
145
0.0
146
0.71
147
1.0
 71
     0
 72
     0
 73
     0
 74
     0
 75
     0
 76
     0
 77
     3
 78
     8
170
     0
171
     2
172
     1
173
     0
174
     0
175
     0
176
   256
177
   256
178
     2
  0
DIMSTYLE
  2
AM_JIS$4
 70
     0
  3

  4
"
  5

  6
OPEN30
  7
OPEN
 40
1.0
 41
2.5
 42
1.0
 43
10.0
 44
1.0
 45
0.0
 46
0.0
 47
0.1
 48
0.1
140
3.0
141
0.0
142
0.0
143
0.0393701
144
1.0
145
0.0
146
0.71
147
1.0
 71
     0
 72
     0
 73
     0
 74
     0
 75
     1
 76
     0
 77
     3
 78
     8
170
     0
171
     2
172
     1
173
     1
174
     0
175
     0
176
   256
177
   256
178
     2
  0
DIMSTYLE
  2
AM_JIS$6
 70
     0
  3

  4
"
  5
OPEN30
  6
OPEN30
  7
OPEN30
 40
1.0
 41
2.5
 42
1.0
 43
10.0
 44
1.0
 45
0.0
 46
0.0
 47
0.1
 48
0.1
140
3.5
141
0.0
142
0.0
143
0.0393701
144
1.0
145
0.0
146
0.71
147
1.5
 71
     0
 72
     0
 73
     0
 74
     0
 75
     0
 76
     0
 77
     0
 78
     8
170
     0
171
     2
172
     1
173
     0
174
     0
175
     0
176
   256
177
   256
178
     2
  0
DIMSTYLE
  2
AM_JIS$7
 70
     0
  3

  4
"
  5
OPEN30
  6

  7

 40
1.0
 41
2.5
 42
1.0
 43
10.0
 44
1.0
 45
0.0
 46
0.0
 47
0.1
 48
0.1
140
3.0
141
0.0
142
0.0
143
0.0393701
144
1.0
145
0.0
146
0.71
147
1.0
 71
     0
 72
     0
 73
     0
 74
     0
 75
     0
 76
     0
 77
     3
 78
     8
170
     0
171
     2
172
     1
173
     0
174
     0
175
     0
176
   256
177
   256
178
     2
  0
DIMSTYLE
  2
AM_JIS$0
 70
     0
  3

  4
"
  5
OPEN
  6

  7

 40
1.0
 41
2.5
 42
1.0
 43
7.0
 44
1.0
 45
0.0
 46
0.0
 47
0.1
 48
0.1
140
3.0
141
0.0
142
0.0
143
0.0393701
144
1.0
145
0.0
146
0.71
147
1.0
 71
     0
 72
     0
 73
     0
 74
     0
 75
     0
 76
     0
 77
     3
 78
     8
170
     0
171
     2
172
     1
173
     0
174
     0
175
     0
176
   256
177
   256
178
     2
  0
ENDTAB
  0
ENDSEC
  0
SECTION
  2
BLOCKS
  0
BLOCK
  8
0
  2
$MODEL_SPACE
 70
     0
 10
0.0
 20
0.0
 30
0.0
  3
$MODEL_SPACE
  1

  0
ENDBLK
  5
1C
  8
0
  0
BLOCK
 67
     1
  8
0
  2
$PAPER_SPACE
 70
     0
 10
0.0
 20
0.0
 30
0.0
  3
$PAPER_SPACE
  1

  0
ENDBLK
  5
19
 67
     1
  8
0
  0
BLOCK
  8
0
  2
_OPEN30
 70
     0
 10
0.0
 20
0.0
 30
0.0
  3
_OPEN30
  1

  0
LINE
  5
2EF
  8
0
  6
BYBLOCK
 62
     0
 10
-1.0
 20
0.26794919
 30
0.0
 11
0.0
 21
0.0
 31
0.0
  0
LINE
  5
2F0
  8
0
  6
BYBLOCK
 62
     0
 10
0.0
 20
0.0
 30
0.0
 11
-1.0
 21
-0.26794919
 31
0.0
  0
LINE
  5
2F1
  8
0
  6
BYBLOCK
 62
     0
 10
0.0
 20
0.0
 30
0.0
 11
-1.0
 21
0.0
 31
0.0
  0
ENDBLK
  5
2F3
  8
0
  0
BLOCK
  8
0
  2
_OPEN
 70
     0
 10
0.0
 20
0.0
 30
0.0
  3
_OPEN
  1

  0
LINE
  5
597
  8
0
  6
BYBLOCK
 62
     0
 10
-1.0
 20
0.1666666666666667
 30
0.0
 11
0.0
 21
0.0
 31
0.0
  0
LINE
  5
598
  8
0
  6
BYBLOCK
 62
     0
 10
-1.0
 20
-0.1666666666666667
 30
0.0
 11
0.0
 21
0.0
 31
0.0
  0
LINE
  5
599
  8
0
  6
BYBLOCK
 62
     0
 10
0.0
 20
0.0
 30
0.0
 11
-1.0
 21
0.0
 31
0.0
  0
ENDBLK
  5
59B
  8
0
  0
BLOCK
  8
0
  2
_TAGCIRCLE
 70
     2
 10
0.0
 20
0.0
 30
0.0
  3
_TAGCIRCLE
  1

  0
CIRCLE
  5
1151
  8
0
  6
BYBLOCK
 62
     0
 10
0.0
 20
0.0
 30
0.0
 40
4.0
  0
ATTDEF
  5
1152
  8
0
 62
     0
 10
-7.1
 20
-1.5
 30
0.0
 40
3.0
  1
タグ番号
 72
     1
 11
0.0
 21
-1.5
 31
0.0
  3
タグ番号を入力
  2
タグ番号
 70
     0
  0
ENDBLK
  5
1154
  8
0
  0
BLOCK
  8
AM_0
  2
_ACMOPEN30
 70
     0
 10
0.0
 20
0.0
 30
0.0
  3
_ACMOPEN30
  1
Acad:XRef
  0
LINE
  5
1CA4
  8
AM_0
 62
     0
 10
-1.0
 20
0.0
 30
0.0
 11
0.0
 21
0.0
 31
0.0
  0
LINE
  5
1CA5
  8
AM_0
 62
     0
 10
-1.0
 20
-0.2679491924311227
 30
0.0
 11
0.0
 21
0.0
 31
0.0
  0
LINE
  5
1CA6
  8
AM_0
 62
     0
 10
-1.0
 20
0.2679491924311227
 30
0.0
 11
0.0
 21
0.0
 31
0.0
  0
ENDBLK
  5
1CA7
  8
AM_0
  0
ENDSEC
  0
SECTION
  2
ENTITIES
  0
TEXT
  5
28A7
  8
10
 10
-1.5
 20
0.5
 30
0.0
 40
10.0
  1
2023.09.19 LD2-13[丸ハンドル][両側チックナット付]
 11
-1.5
 21
0.5
 31
0.0
 73
     1
  0
LINE
  5
28A8
  8
0
 10
58.82174282877713
 20
32.17281279736227
 30
0.0
 11
58.82174282877713
 21
33.38820020882196
 31
0.0
  0
LINE
  5
28A9
  8
0
 10
54.82174282877713
 20
32.17281279736228
 30
0.0
 11
54.82174282877713
 21
33.38820600424941
 31
0.0
  0
ARC
  5
28AA
  8
0
 10
64.82174282877713
 20
34.17281279736227
 30
0.0
 40
2.0
 50
270.0
 51
0.0
  0
ARC
  5
28AB
  8
0
 10
48.82174282877713
 20
34.17281279736227
 30
0.0
 40
2.0
 50
180.0
 51
270.0
  0
LINE
  5
28AC
  8
0
 10
48.82174282877713
 20
32.17281279736227
 30
0.0
 11
64.82174282877713
 21
32.17281279736227
 31
0.0
  0
LINE
  5
28AD
  8
0
 10
42.82174282877713
 20
73.17281279736227
 30
0.0
 11
42.82174282877713
 21
76.17281279736227
 31
0.0
  0
LINE
  5
28AE
  8
0
 10
70.82174282877713
 20
73.17281279736227
 30
0.0
 11
70.82174282877713
 21
76.17281279736227
 31
0.0
  0
LINE
  5
28AF
  8
0
 10
43.82174282877713
 20
72.17281279736227
 30
0.0
 11
49.99866238400378
 21
72.17281279736227
 31
0.0
  0
LINE
  5
28B0
  8
0
 10
63.64483331152515
 20
72.17281279736227
 30
0.0
 11
69.82174282877713
 21
72.17281279736227
 31
0.0
  0
LINE
  5
28B1
  8
0
 10
46.82174282877713
 20
34.17281279736227
 30
0.0
 11
46.82174282877713
 21
38.00700815776637
 31
0.0
  0
LINE
  5
28B2
  8
0
 10
42.82174282877713
 20
73.17281279736227
 30
0.0
 11
43.82174282877713
 21
72.17281279736227
 31
0.0
  0
LINE
  5
28B3
  8
0
 10
43.82174282877713
 20
68.60656662938942
 30
0.0
 11
43.82174282877713
 21
72.17281279736227
 31
0.0
  0
LINE
  5
28B4
  8
0
 10
66.82174282877713
 20
34.17281279736227
 30
0.0
 11
66.82174282877712
 21
38.00700236233892
 31
0.0
  0
LINE
  5
28B5
  8
0
 10
69.82174282877713
 20
68.60657242481695
 30
0.0
 11
69.82174282877713
 21
72.17281279736227
 31
0.0
  0
LINE
  5
28B6
  8
0
 10
70.82174282877713
 20
73.17281279736227
 30
0.0
 11
69.82174282877713
 21
72.17281279736227
 31
0.0
  0
LINE
  5
28B7
  8
0
 10
42.32177334635526
 20
76.17281279736227
 30
0.0
 11
71.32177334635526
 21
76.17281279736227
 31
0.0
  0
LINE
  5
28B8
  8
0
 10
43.82178860514432
 20
90.17281279736227
 30
0.0
 11
69.82178860514432
 21
90.17281279736227
 31
0.0
  0
LINE
  5
28B9
  8
0
 10
43.82178860514432
 20
90.17281279736227
 30
0.0
 11
43.82178860514432
 21
104.1728127973623
 31
0.0
  0
LINE
  5
28BA
  8
0
 10
40.82175465498739
 20
88.17281909901831
 30
0.0
 11
43.82178860514432
 21
90.17281279736227
 31
0.0
  0
LINE
  5
28BB
  8
0
 10
40.82175233290968
 20
76.57474871824061
 30
0.0
 11
40.82175465498739
 21
88.17281909901831
 31
0.0
  0
ARC
  5
28BC
  8
0
 10
42.32177334635526
 20
79.17281279736227
 30
0.0
 40
3.0
 50
239.9995365861323
 51
270.0
  0
ARC
  5
28BD
  8
0
 10
45.82178860514432
 20
104.1728127973623
 30
0.0
 40
2.0
 50
131.4066090610732
 51
180.0
  0
LINE
  5
28BE
  8
0
 10
69.82178860514432
 20
90.17281279736227
 30
0.0
 11
69.82178860514432
 21
104.1728127973623
 31
0.0
  0
LINE
  5
28BF
  8
0
 10
72.82175233290559
 20
76.5747244540014
 30
0.0
 11
72.82175465499711
 21
88.17286436523284
 31
0.0
  0
LINE
  5
28C0
  8
0
 10
72.82175465499711
 20
88.17286436523284
 30
0.0
 11
69.82178860514432
 21
90.17281279736227
 31
0.0
  0
ARC
  5
28C1
  8
0
 10
71.32177334635526
 20
79.17281279736227
 30
0.0
 40
3.000000000000014
 50
270.0
 51
299.9995365882021
  0
ARC
  5
28C2
  8
0
 10
67.82178860514432
 20
104.1728127973623
 30
0.0
 40
2.0
 50
0.0
 51
48.59339093892676
  0
LINE
  5
28C3
  8
0
 10
181.4610519366972
 20
32.17281279736227
 30
0.0
 11
181.4610519366972
 21
41.17281279736227
 31
0.0
  0
LINE
  5
28C4
  8
0
 10
185.4610519366972
 20
32.17281279736227
 30
0.0
 11
185.4610519366972
 21
41.17281279736227
 31
0.0
  0
ARC
  5
28C5
  8
0
 10
175.4610519366972
 20
34.17281279736227
 30
0.0
 40
2.0
 50
180.0
 51
270.0
  0
ARC
  5
28C6
  8
0
 10
191.4610519366972
 20
34.17281279736227
 30
0.0
 40
2.0
 50
270.0
 51
0.0
  0
LINE
  5
28C7
  8
0
 10
175.4610519366972
 20
32.17281279736227
 30
0.0
 11
191.4610519366972
 21
32.17281279736227
 31
0.0
  0
LINE
  5
28C8
  8
0
 10
167.2969894366972
 20
88.06343779736227
 30
0.0
 11
170.4610977130644
 21
90.17281279736227
 31
0.0
  0
ARC
  5
28C9
  8
0
 10
168.9610824542754
 20
79.17281279736227
 30
0.0
 40
3.0
 50
180.0
 51
270.0
  0
LINE
  5
28CA
  8
0
 10
161.0855483966582
 20
67.17281279736227
 30
0.0
 11
170.4610519366972
 21
67.1728127973623
 31
0.0
  0
LINE
  5
28CB
  8
0
 10
161.0855483966582
 20
41.17281279736227
 30
0.0
 11
205.8365554767363
 21
41.17281279736227
 31
0.0
  0
LINE
  5
28CC
  8
0
 10
161.0855483966582
 20
67.17281279736227
 30
0.0
 11
161.0855483966582
 21
41.17281279736227
 31
0.0
  0
LINE
  5
28CD
  8
0
 10
157.4610483966582
 20
37.54831279736226
 30
0.0
 11
155.4610519366972
 21
37.54831279736226
 31
0.0
  0
LINE
  5
28CE
  8
0
 10
158.9400483966581
 20
39.02731279736224
 30
0.0
 11
155.4610519366973
 21
39.02731279736224
 31
0.0
  0
LINE
  5
28CF
  8
0
 10
157.4610483966582
 20
37.54831279736226
 30
0.0
 11
161.0855483966582
 21
41.17281279736227
 31
0.0
  0
LINE
  5
28D0
  8
0
 10
157.4610483966582
 20
70.79731279736225
 30
0.0
 11
155.4610519366972
 21
70.79731279736227
 31
0.0
  0
LINE
  5
28D1
  8
0
 10
158.9400483966582
 20
69.31831279736227
 30
0.0
 11
155.4610519366972
 21
69.31831279736227
 31
0.0
  0
LINE
  5
28D2
  8
0
 10
157.4610483966582
 20
70.79731279736225
 30
0.0
 11
161.0855483966582
 21
67.17281279736227
 31
0.0
  0
ARC
  5
28D3
  8
0
 10
168.9610824542754
 20
85.56734404736227
 30
0.0
 40
2.999965191306392
 50
123.6910374462956
 51
180.0
  0
LINE
  5
28D4
  8
0
 10
165.9610824542754
 20
79.17281279736227
 30
0.0
 11
165.9610824542754
 21
85.56734404736227
 31
0.0
  0
LINE
  5
28D5
  8
0
 10
197.4610519366972
 20
73.17281279736227
 30
0.0
 11
197.4610519366972
 21
76.17281279736227
 31
0.0
  0
LINE
  5
28D6
  8
0
 10
169.4610519366972
 20
73.17281279736227
 30
0.0
 11
169.4610519366972
 21
76.17281279736227
 31
0.0
  0
LINE
  5
28D7
  8
0
 10
205.8365554767363
 20
67.17281279736227
 30
0.0
 11
196.4610519366972
 21
67.1728127973623
 31
0.0
  0
LINE
  5
28D8
  8
0
 10
173.4610519366972
 20
34.17281279736227
 30
0.0
 11
173.4610519366972
 21
41.17281279736227
 31
0.0
  0
LINE
  5
28D9
  8
0
 10
193.4610519366972
 20
34.17281279736227
 30
0.0
 11
193.4610519366972
 21
41.17281279736227
 31
0.0
  0
LINE
  5
28DA
  8
0
 10
170.4610519366972
 20
72.17281279736227
 30
0.0
 11
196.4610519366972
 21
72.17281279736227
 31
0.0
  0
LINE
  5
28DB
  8
0
 10
170.4610519366972
 20
67.1728127973623
 30
0.0
 11
170.4610519366972
 21
72.17281279736227
 31
0.0
  0
LINE
  5
28DC
  8
0
 10
169.4610519366972
 20
73.17281279736227
 30
0.0
 11
170.4610519366972
 21
72.17281279736227
 31
0.0
  0
LINE
  5
28DD
  8
0
 10
197.4610519366972
 20
73.17281279736227
 30
0.0
 11
196.4610519366972
 21
72.17281279736227
 31
0.0
  0
LINE
  5
28DE
  8
0
 10
196.4610519366972
 20
67.1728127973623
 30
0.0
 11
196.4610519366972
 21
72.17281279736227
 31
0.0
  0
LINE
  5
28DF
  8
0
 10
205.8365554767363
 20
67.17281279736227
 30
0.0
 11
205.8365554767363
 21
41.17281279736227
 31
0.0
  0
LINE
  5
28E0
  8
0
 10
211.4610519366972
 20
39.02731279736224
 30
0.0
 11
207.9820554767363
 21
39.02731279736224
 31
0.0
  0
LINE
  5
28E1
  8
0
 10
211.4610519366972
 20
37.54831279736226
 30
0.0
 11
209.4610554767362
 21
37.54831279736226
 31
0.0
  0
LINE
  5
28E2
  8
0
 10
209.4610554767362
 20
37.54831279736226
 30
0.0
 11
205.8365554767363
 21
41.17281279736227
 31
0.0
  0
LINE
  5
28E3
  8
0
 10
211.4610519366972
 20
69.31831279736227
 30
0.0
 11
207.9820554767363
 21
69.31831279736227
 31
0.0
  0
LINE
  5
28E4
  8
0
 10
211.4610519366972
 20
70.79731279736225
 30
0.0
 11
209.4610554767362
 21
70.79731279736225
 31
0.0
  0
LINE
  5
28E5
  8
0
 10
209.4610554767362
 20
70.79731279736225
 30
0.0
 11
205.8365554767363
 21
67.17281279736227
 31
0.0
  0
ARC
  5
28E6
  8
0
 10
197.9610977130644
 20
85.56734404736227
 30
0.0
 40
3.0
 50
0.0
 51
56.30872007704609
  0
ARC
  5
28E7
  8
0
 10
197.9610824542754
 20
79.17281279736227
 30
0.0
 40
3.000000000000014
 50
270.0
 51
0.0
  0
LINE
  5
28E8
  8
0
 10
196.4610977130644
 20
90.17281279736227
 30
0.0
 11
196.4610977130644
 21
104.1728127973623
 31
0.0
  0
LINE
  5
28E9
  8
0
 10
170.4610977130644
 20
90.17281279736227
 30
0.0
 11
170.4610977130644
 21
104.1728127973623
 31
0.0
  0
LINE
  5
28EA
  8
0
 10
168.9610824542754
 20
76.17281279736227
 30
0.0
 11
197.9610824542754
 21
76.17281279736227
 31
0.0
  0
LINE
  5
28EB
  8
0
 10
170.4610977130644
 20
90.17281279736227
 30
0.0
 11
196.4610977130644
 21
90.17281279736227
 31
0.0
  0
LINE
  5
28EC
  8
0
 10
199.6252059894316
 20
88.06343779736227
 30
0.0
 11
196.4610977130644
 21
90.17281279736227
 31
0.0
  0
ARC
  5
28ED
  8
0
 10
172.4610977130644
 20
104.1728127973623
 30
0.0
 40
2.0
 50
131.4066090609945
 51
180.0
  0
ARC
  5
28EE
  8
0
 10
194.4610977130644
 20
104.1728127973623
 30
0.0
 40
2.0
 50
0.0
 51
48.59339093900549
  0
LINE
  5
28EF
  8
0
 10
200.9610824542754
 20
79.17281279736227
 30
0.0
 11
200.9610824542754
 21
85.56734404736227
 31
0.0
  0
LINE
  5
28F0
  8
0
 10
157.2957197186582
 20
251.1412893715533
 30
0.0
 11
155.4610822898848
 21
251.1412893715533
 31
0.0
  0
LINE
  5
28F1
  8
0
 10
156.4127175483632
 20
252.6202893715533
 30
0.0
 11
155.4610822898848
 21
252.6202893715533
 31
0.0
  0
LINE
  5
28F2
  8
0
 10
157.295719718666
 20
284.3902893715533
 30
0.0
 11
155.4610822898848
 21
284.3902893715533
 31
0.0
  0
LINE
  5
28F3
  8
0
 10
156.4127175483702
 20
282.9112893715533
 30
0.0
 11
155.4610822898848
 21
282.9112893715533
 31
0.0
  0
LINE
  5
28F4
  8
0
 10
211.4610822898848
 20
251.1412893715533
 30
0.0
 11
209.6264372658194
 21
251.1412893715533
 31
0.0
  0
LINE
  5
28F5
  8
0
 10
211.4610822898848
 20
252.6202893715533
 30
0.0
 11
210.5094394361144
 21
252.6202893715533
 31
0.0
  0
LINE
  5
28F6
  8
0
 10
211.4610822898847
 20
284.3902893715533
 30
0.0
 11
209.6264372658116
 21
284.3902893715533
 31
0.0
  0
LINE
  5
28F7
  8
0
 10
211.4610822898847
 20
282.9112893715533
 30
0.0
 11
210.5094394361075
 21
282.9112893715533
 31
0.0
  0
LINE
  5
28F8
  8
0
 10
232.4610519366972
 20
54.17281279736227
 30
0.0
 11
232.4610519366972
 21
42.1728127973623
 31
0.0
  0
LINE
  5
28F9
  8
0
 10
264.4610519366972
 20
54.17281279736227
 30
0.0
 11
264.4610519366972
 21
45.11375112827605
 31
0.0
  0
LINE
  5
28FA
  8
0
 10
232.4610519366972
 20
42.1728127973623
 30
0.0
 11
231.4610519366972
 21
41.1728127973623
 31
0.0
1001
GENIUS_GENFIL_13
1070
     0
1040
1.0
1040
1.0
1040
20.0
1040
0.0
1002
{
1002
}
1001
GENIUS_GENODEF_13
1002
{
1000
HIER
1070
     0
1002
}
1002
{
1000
MANEDIT
1070
     0
1002
}
1002
{
1000
NOSEL
1070
     0
1002
}
1002
{
1000
BEHIND
1070
     0
1002
}
1002
{
1000
OTHER
1070
     0
1002
}
1002
{
1000
REACTOR
1002
}
1001
GENIUS_GENOBJ-N-CHA_13
1002
{
1000
OWNER
1000
GEN
1002
}
  0
LINE
  5
28FB
  8
0
 10
232.4610519366972
 20
43.67281279736227
 30
0.0
 11
255.5850903277365
 21
43.67281279736227
 31
0.0
  0
LINE
  5
28FC
  8
0
 10
264.4610519366972
 20
45.11375112827602
 30
0.0
 11
251.4610519366972
 21
44.70520966971253
 31
0.0
  0
LINE
  5
28FD
  8
0
 10
263.2613497774685
 20
43.91404896904737
 30
0.0
 11
255.5850903277366
 21
43.6728127973623
 31
0.0
  0
LINE
  5
28FE
  8
0
 10
264.4610519366972
 20
45.11375112827602
 30
0.0
 11
263.2613497774685
 21
43.91404896904737
 31
0.0
  0
LINE
  5
28FF
  8
0
 10
264.4610519366972
 20
54.17281279736221
 30
0.0
 11
264.4610519366972
 21
45.11375112827602
 31
0.0
  0
LINE
  5
2900
  8
0
 10
251.461051936697
 20
54.17281279736235
 30
0.0
 11
251.4610519366972
 21
43.6728127973623
 31
0.0
  0
LINE
  5
2901
  8
0
 10
251.4610519366972
 20
44.70520966971253
 30
0.0
 11
248.7956555364816
 21
43.6728127973623
 31
0.0
  0
LINE
  5
2902
  8
0
 10
256.3024494151002
 20
43.69535671489038
 30
0.0
 11
256.3024494151002
 21
43.67281279736227
 31
0.0
  0
LINE
  5
2903
  8
0
 10
231.4610519366972
 20
54.17281279736261
 30
0.0
 11
231.4610519366972
 21
41.17281279736227
 31
0.0
  0
LINE
  5
2904
  8
0
 10
248.7956555364815
 20
43.67281279736227
 30
0.0
 11
248.7956555364815
 21
54.17281279736221
 31
0.0
  0
LINE
  5
2905
  8
0
 10
232.4610519366972
 20
54.17281279736223
 30
0.0
 11
232.4610519366972
 21
66.1728127973622
 31
0.0
  0
LINE
  5
2906
  8
0
 10
264.4610519366972
 20
54.17281279736223
 30
0.0
 11
264.4610519366972
 21
63.23187446644845
 31
0.0
  0
LINE
  5
2907
  8
0
 10
232.4610519366972
 20
66.1728127973622
 30
0.0
 11
231.4610519366972
 21
67.1728127973622
 31
0.0
1001
GENIUS_GENFIL_13
1070
     0
1040
1.0
1040
1.0
1040
20.0
1040
0.0
1002
{
1002
}
1001
GENIUS_GENODEF_13
1002
{
1000
HIER
1070
     0
1002
}
1002
{
1000
MANEDIT
1070
     0
1002
}
1002
{
1000
NOSEL
1070
     0
1002
}
1002
{
1000
BEHIND
1070
     0
1002
}
1002
{
1000
OTHER
1070
     0
1002
}
1002
{
1000
REACTOR
1002
}
1001
GENIUS_GENOBJ-N-CHA_13
1002
{
1000
OWNER
1000
GEN
1002
}
  0
LINE
  5
2908
  8
0
 10
232.4610519366972
 20
64.67281279736223
 30
0.0
 11
255.5850903277365
 21
64.67281279736223
 31
0.0
  0
LINE
  5
2909
  8
0
 10
264.4610519366972
 20
63.23187446644847
 30
0.0
 11
251.4610519366972
 21
63.64041592501196
 31
0.0
  0
LINE
  5
290A
  8
0
 10
263.2613497774685
 20
64.43157662567712
 30
0.0
 11
255.5850903277366
 21
64.6728127973622
 31
0.0
  0
LINE
  5
290B
  8
0
 10
264.4610519366972
 20
63.23187446644847
 30
0.0
 11
263.2613497774685
 21
64.43157662567712
 31
0.0
  0
LINE
  5
290C
  8
0
 10
264.4610519366972
 20
54.17281279736229
 30
0.0
 11
264.4610519366972
 21
63.23187446644847
 31
0.0
  0
LINE
  5
290D
  8
0
 10
251.461051936697
 20
54.17281279736215
 30
0.0
 11
251.4610519366972
 21
64.6728127973622
 31
0.0
  0
LINE
  5
290E
  8
0
 10
251.4610519366972
 20
63.64041592501196
 30
0.0
 11
248.7956555364816
 21
64.6728127973622
 31
0.0
  0
LINE
  5
290F
  8
0
 10
256.3024494151002
 20
64.65026887983412
 30
0.0
 11
256.3024494151002
 21
64.67281279736223
 31
0.0
  0
LINE
  5
2910
  8
0
 10
231.4610519366972
 20
54.17281279736189
 30
0.0
 11
231.4610519366972
 21
67.17281279736223
 31
0.0
  0
LINE
  5
2911
  8
0
 10
248.7956555364815
 20
64.67281279736223
 30
0.0
 11
248.7956555364815
 21
54.17281279736229
 31
0.0
  0
LINE
  5
2912
  8
0
 10
231.4610519366972
 20
73.17281279736227
 30
0.0
 11
231.4610519366972
 21
35.17281279736227
 31
0.0
  0
LINE
  5
2913
  8
0
 10
211.4610519366972
 20
73.17281279736227
 30
0.0
 11
211.4610519366972
 21
35.17281279736227
 31
0.0
  0
LINE
  5
2914
  8
0
 10
228.5217417074914
 20
32.23350256815644
 30
0.0
 11
214.4003621659031
 21
32.23350256815644
 31
0.0
  0
LINE
  5
2915
  8
0
 10
211.4610519366972
 20
35.17281279736227
 30
0.0
 11
214.4003621659031
 21
32.23350256815644
 31
0.0
  0
LINE
  5
2916
  8
0
 10
231.4610519366972
 20
35.17281279736227
 30
0.0
 11
228.5217417074914
 21
32.23350256815644
 31
0.0
  0
LINE
  5
2917
  8
0
 10
228.5217417074914
 20
76.1121230265681
 30
0.0
 11
214.4003621659031
 21
76.1121230265681
 31
0.0
  0
LINE
  5
2918
  8
0
 10
211.4610519366972
 20
73.17281279736227
 30
0.0
 11
214.4003621659031
 21
76.1121230265681
 31
0.0
  0
LINE
  5
2919
  8
0
 10
231.4610519366972
 20
73.17281279736227
 30
0.0
 11
228.5217417074914
 21
76.1121230265681
 31
0.0
  0
LINE
  5
291A
  8
0
 10
134.4610519366972
 20
54.17281279736227
 30
0.0
 11
134.4610519366972
 21
42.1728127973623
 31
0.0
  0
LINE
  5
291B
  8
0
 10
102.4610519366972
 20
54.17281279736227
 30
0.0
 11
102.4610519366972
 21
45.11375112827605
 31
0.0
  0
LINE
  5
291C
  8
0
 10
134.4610519366972
 20
42.1728127973623
 30
0.0
 11
135.4610519366972
 21
41.1728127973623
 31
0.0
1001
GENIUS_GENFIL_13
1070
     0
1040
1.0
1040
1.0
1040
20.0
1040
0.0
1002
{
1002
}
1001
GENIUS_GENODEF_13
1002
{
1000
HIER
1070
     0
1002
}
1002
{
1000
MANEDIT
1070
     0
1002
}
1002
{
1000
NOSEL
1070
     0
1002
}
1002
{
1000
BEHIND
1070
     0
1002
}
1002
{
1000
OTHER
1070
     0
1002
}
1002
{
1000
REACTOR
1002
}
1001
GENIUS_GENOBJ-N-CHA_13
1002
{
1000
OWNER
1000
GEN
1002
}
  0
LINE
  5
291D
  8
0
 10
134.4610519366972
 20
43.67281279736227
 30
0.0
 11
111.337013545658
 21
43.67281279736227
 31
0.0
  0
LINE
  5
291E
  8
0
 10
102.4610519366972
 20
45.11375112827602
 30
0.0
 11
115.4610519366972
 21
44.70520966971253
 31
0.0
  0
LINE
  5
291F
  8
0
 10
103.660754095926
 20
43.91404896904737
 30
0.0
 11
111.3370135456579
 21
43.6728127973623
 31
0.0
  0
LINE
  5
2920
  8
0
 10
102.4610519366972
 20
45.11375112827602
 30
0.0
 11
103.660754095926
 21
43.91404896904737
 31
0.0
  0
LINE
  5
2921
  8
0
 10
102.4610519366972
 20
54.17281279736221
 30
0.0
 11
102.4610519366972
 21
45.11375112827602
 31
0.0
  0
LINE
  5
2922
  8
0
 10
115.4610519366975
 20
54.17281279736235
 30
0.0
 11
115.4610519366972
 21
43.6728127973623
 31
0.0
  0
LINE
  5
2923
  8
0
 10
115.4610519366972
 20
44.70520966971253
 30
0.0
 11
118.1264483369129
 21
43.6728127973623
 31
0.0
  0
LINE
  5
2924
  8
0
 10
110.6196544582942
 20
43.69535671489038
 30
0.0
 11
110.6196544582942
 21
43.67281279736227
 31
0.0
  0
LINE
  5
2925
  8
0
 10
135.4610519366972
 20
54.17281279736261
 30
0.0
 11
135.4610519366972
 21
41.17281279736227
 31
0.0
  0
LINE
  5
2926
  8
0
 10
118.1264483369129
 20
43.67281279736227
 30
0.0
 11
118.1264483369129
 21
54.17281279736221
 31
0.0
  0
LINE
  5
2927
  8
0
 10
134.4610519366972
 20
54.17281279736223
 30
0.0
 11
134.4610519366972
 21
66.1728127973622
 31
0.0
  0
LINE
  5
2928
  8
0
 10
102.4610519366972
 20
54.17281279736223
 30
0.0
 11
102.4610519366972
 21
63.23187446644845
 31
0.0
  0
LINE
  5
2929
  8
0
 10
134.4610519366972
 20
66.1728127973622
 30
0.0
 11
135.4610519366972
 21
67.1728127973622
 31
0.0
1001
GENIUS_GENFIL_13
1070
     0
1040
1.0
1040
1.0
1040
20.0
1040
0.0
1002
{
1002
}
1001
GENIUS_GENODEF_13
1002
{
1000
HIER
1070
     0
1002
}
1002
{
1000
MANEDIT
1070
     0
1002
}
1002
{
1000
NOSEL
1070
     0
1002
}
1002
{
1000
BEHIND
1070
     0
1002
}
1002
{
1000
OTHER
1070
     0
1002
}
1002
{
1000
REACTOR
1002
}
1001
GENIUS_GENOBJ-N-CHA_13
1002
{
1000
OWNER
1000
GEN
1002
}
  0
LINE
  5
292A
  8
0
 10
134.4610519366972
 20
64.67281279736223
 30
0.0
 11
111.337013545658
 21
64.67281279736223
 31
0.0
  0
LINE
  5
292B
  8
0
 10
102.4610519366972
 20
63.23187446644847
 30
0.0
 11
115.4610519366972
 21
63.64041592501196
 31
0.0
  0
LINE
  5
292C
  8
0
 10
103.660754095926
 20
64.43157662567712
 30
0.0
 11
111.3370135456579
 21
64.6728127973622
 31
0.0
  0
LINE
  5
292D
  8
0
 10
102.4610519366972
 20
63.23187446644847
 30
0.0
 11
103.660754095926
 21
64.43157662567712
 31
0.0
  0
LINE
  5
292E
  8
0
 10
102.4610519366972
 20
54.17281279736229
 30
0.0
 11
102.4610519366972
 21
63.23187446644847
 31
0.0
  0
LINE
  5
292F
  8
0
 10
115.4610519366975
 20
54.17281279736215
 30
0.0
 11
115.4610519366972
 21
64.6728127973622
 31
0.0
  0
LINE
  5
2930
  8
0
 10
115.4610519366972
 20
63.64041592501196
 30
0.0
 11
118.1264483369129
 21
64.6728127973622
 31
0.0
  0
LINE
  5
2931
  8
0
 10
110.6196544582942
 20
64.65026887983412
 30
0.0
 11
110.6196544582942
 21
64.67281279736223
 31
0.0
  0
LINE
  5
2932
  8
0
 10
135.4610519366972
 20
54.17281279736189
 30
0.0
 11
135.4610519366972
 21
67.17281279736223
 31
0.0
  0
LINE
  5
2933
  8
0
 10
118.1264483369129
 20
64.67281279736223
 30
0.0
 11
118.1264483369129
 21
54.17281279736229
 31
0.0
  0
LINE
  5
2934
  8
0
 10
135.4610519366972
 20
73.17281279736227
 30
0.0
 11
135.4610519366972
 21
35.17281279736227
 31
0.0
  0
LINE
  5
2935
  8
0
 10
155.4610519366972
 20
73.17281279736227
 30
0.0
 11
155.4610519366972
 21
35.17281279736227
 31
0.0
  0
LINE
  5
2936
  8
0
 10
138.4003621659031
 20
32.23350256815644
 30
0.0
 11
152.5217417074914
 21
32.23350256815644
 31
0.0
  0
LINE
  5
2937
  8
0
 10
155.4610519366972
 20
35.17281279736227
 30
0.0
 11
152.5217417074914
 21
32.23350256815644
 31
0.0
  0
LINE
  5
2938
  8
0
 10
135.4610519366972
 20
35.17281279736227
 30
0.0
 11
138.4003621659031
 21
32.23350256815644
 31
0.0
  0
LINE
  5
2939
  8
0
 10
138.4003621659031
 20
76.1121230265681
 30
0.0
 11
152.5217417074914
 21
76.1121230265681
 31
0.0
  0
LINE
  5
293A
  8
0
 10
155.4610519366972
 20
73.17281279736227
 30
0.0
 11
152.5217417074914
 21
76.1121230265681
 31
0.0
  0
LINE
  5
293B
  8
0
 10
135.4610519366972
 20
73.17281279736227
 30
0.0
 11
138.4003621659031
 21
76.1121230265681
 31
0.0
  0
CIRCLE
  5
293C
  8
0
  6
CONTINUOUS
 10
56.82174784776453
 20
54.17281279736227
 30
0.0
 40
19.0
  0
CIRCLE
  5
293D
  8
0
 10
56.82174784776453
 20
54.17281279736227
 30
0.0
 40
9.0
  0
CIRCLE
  5
293E
  8
0
 10
56.82174784776453
 20
54.17281279736227
 30
0.0
 40
10.5
  0
LINE
  5
293F
  8
0
 10
37.82174784776453
 20
43.20315768275924
 30
0.0
 11
56.82174784776453
 21
32.23350256815644
 31
0.0
  0
LINE
  5
2940
  8
0
 10
56.8217478477643
 20
76.11212302656833
 30
0.0
 11
37.82174784776453
 21
65.1424679119653
 31
0.0
  0
LINE
  5
2941
  8
0
 10
37.82174784776453
 20
65.1424679119653
 30
0.0
 11
37.82174784776453
 21
43.20315768275924
 31
0.0
  0
LINE
  5
2942
  8
0
 10
75.82174784776453
 20
43.20315768275924
 30
0.0
 11
75.82174784776453
 21
65.14246791196553
 31
0.0
  0
LINE
  5
2943
  8
0
 10
56.82174784776453
 20
32.23350256815644
 30
0.0
 11
75.82174784776453
 21
43.20315768275924
 31
0.0
  0
LINE
  5
2944
  8
0
 10
75.82174784776453
 20
65.14246791196553
 30
0.0
 11
56.8217478477643
 21
76.11212302656833
 31
0.0
  0
CIRCLE
  5
2945
  8
0
 10
56.82174784776453
 20
54.17281279736227
 30
0.0
 40
13.5
  0
CIRCLE
  5
2946
  8
0
 10
56.82174784776453
 20
54.17281279736227
 30
0.0
 40
12.0
  0
CIRCLE
  5
2947
  8
0
 10
56.82174784776453
 20
54.17281279736227
 30
0.0
 40
6.5
  0
LINE
  5
2948
  8
0
 10
232.4610822898848
 20
267.7657893715533
 30
0.0
 11
232.4610822898848
 21
255.7657893715533
 31
0.0
  0
LINE
  5
2949
  8
0
 10
264.4610822898848
 20
267.7657893715533
 30
0.0
 11
264.4610822898848
 21
258.7067277024671
 31
0.0
  0
LINE
  5
294A
  8
0
 10
232.4610822898848
 20
255.7657893715533
 30
0.0
 11
231.4610822898848
 21
254.7657893715533
 31
0.0
1001
GENIUS_GENFIL_13
1070
     0
1040
1.0
1040
1.0
1040
20.0
1040
0.0
1002
{
1002
}
1001
GENIUS_GENODEF_13
1002
{
1000
HIER
1070
     0
1002
}
1002
{
1000
MANEDIT
1070
     0
1002
}
1002
{
1000
NOSEL
1070
     0
1002
}
1002
{
1000
BEHIND
1070
     0
1002
}
1002
{
1000
OTHER
1070
     0
1002
}
1002
{
1000
REACTOR
1002
}
1001
GENIUS_GENOBJ-N-CHA_13
1002
{
1000
OWNER
1000
GEN
1002
}
  0
LINE
  5
294B
  8
0
 10
232.4610822898848
 20
257.2657893715533
 30
0.0
 11
255.585120680924
 21
257.2657893715533
 31
0.0
  0
LINE
  5
294C
  8
0
 10
264.4610822898848
 20
258.706727702467
 30
0.0
 11
251.4610822898848
 21
258.2981862439036
 31
0.0
  0
LINE
  5
294D
  8
0
 10
263.261380130656
 20
257.5070255432384
 30
0.0
 11
255.5851206809241
 21
257.2657893715533
 31
0.0
  0
LINE
  5
294E
  8
0
 10
115.461082289885
 20
267.7657893715534
 30
0.0
 11
115.4610822898848
 21
257.2657893715533
 31
0.0
  0
LINE
  5
294F
  8
0
 10
264.4610822898848
 20
258.706727702467
 30
0.0
 11
263.261380130656
 21
257.5070255432384
 31
0.0
  0
LINE
  5
2950
  8
0
 10
264.4610822898848
 20
267.7657893715532
 30
0.0
 11
264.4610822898848
 21
258.706727702467
 31
0.0
  0
LINE
  5
2951
  8
0
 10
251.4610822898845
 20
267.7657893715534
 30
0.0
 11
251.4610822898848
 21
257.2657893715533
 31
0.0
  0
LINE
  5
2952
  8
0
 10
251.4610822898848
 20
258.2981862439036
 30
0.0
 11
248.7956858896691
 21
257.2657893715533
 31
0.0
  0
LINE
  5
2953
  8
0
 10
256.3024797682878
 20
257.2883332890814
 30
0.0
 11
256.3024797682878
 21
257.2657893715533
 31
0.0
  0
LINE
  5
2954
  8
0
 10
231.4610822898848
 20
267.7657893715536
 30
0.0
 11
231.4610822898848
 21
254.7657893715533
 31
0.0
  0
LINE
  5
2955
  8
0
 10
248.7956858896691
 20
257.2657893715533
 30
0.0
 11
248.7956858896691
 21
267.7657893715532
 31
0.0
  0
LINE
  5
2956
  8
0
 10
232.4610822898848
 20
267.7657893715533
 30
0.0
 11
232.4610822898848
 21
279.7657893715532
 31
0.0
  0
LINE
  5
2957
  8
0
 10
264.4610822898848
 20
267.7657893715533
 30
0.0
 11
264.4610822898848
 21
276.8248510406395
 31
0.0
  0
LINE
  5
2958
  8
0
 10
232.4610822898848
 20
279.7657893715532
 30
0.0
 11
231.4610822898848
 21
280.7657893715532
 31
0.0
1001
GENIUS_GENFIL_13
1070
     0
1040
1.0
1040
1.0
1040
20.0
1040
0.0
1002
{
1002
}
1001
GENIUS_GENODEF_13
1002
{
1000
HIER
1070
     0
1002
}
1002
{
1000
MANEDIT
1070
     0
1002
}
1002
{
1000
NOSEL
1070
     0
1002
}
1002
{
1000
BEHIND
1070
     0
1002
}
1002
{
1000
OTHER
1070
     0
1002
}
1002
{
1000
REACTOR
1002
}
1001
GENIUS_GENOBJ-N-CHA_13
1002
{
1000
OWNER
1000
GEN
1002
}
  0
LINE
  5
2959
  8
0
 10
232.4610822898848
 20
278.2657893715532
 30
0.0
 11
255.585120680924
 21
278.2657893715532
 31
0.0
  0
LINE
  5
295A
  8
0
 10
264.4610822898848
 20
276.8248510406395
 30
0.0
 11
251.4610822898848
 21
277.233392499203
 31
0.0
  0
LINE
  5
295B
  8
0
 10
263.261380130656
 20
278.0245531998681
 30
0.0
 11
255.5851206809241
 21
278.2657893715532
 31
0.0
  0
LINE
  5
295C
  8
0
 10
264.4610822898848
 20
276.8248510406395
 30
0.0
 11
263.261380130656
 21
278.0245531998681
 31
0.0
  0
LINE
  5
295D
  8
0
 10
264.4610822898848
 20
267.7657893715533
 30
0.0
 11
264.4610822898848
 21
276.8248510406395
 31
0.0
  0
LINE
  5
295E
  8
0
 10
251.4610822898845
 20
267.7657893715532
 30
0.0
 11
251.4610822898848
 21
278.2657893715532
 31
0.0
  0
LINE
  5
295F
  8
0
 10
251.4610822898848
 20
277.233392499203
 30
0.0
 11
248.7956858896691
 21
278.2657893715532
 31
0.0
  0
LINE
  5
2960
  8
0
 10
256.3024797682878
 20
278.2432454540252
 30
0.0
 11
256.3024797682878
 21
278.2657893715532
 31
0.0
  0
LINE
  5
2961
  8
0
 10
231.4610822898848
 20
267.765789371553
 30
0.0
 11
231.4610822898848
 21
280.7657893715532
 31
0.0
  0
LINE
  5
2962
  8
0
 10
248.7956858896691
 20
278.2657893715532
 30
0.0
 11
248.7956858896691
 21
267.7657893715533
 31
0.0
  0
LINE
  5
2963
  8
0
 10
231.4610822898848
 20
286.7657893715533
 30
0.0
 11
231.4610822898848
 21
248.7657893715533
 31
0.0
  0
LINE
  5
2964
  8
0
 10
211.4610822898848
 20
286.7657893715533
 30
0.0
 11
211.4610822898848
 21
281.0699160746343
 31
0.0
  0
LINE
  5
2965
  8
0
 10
211.4610822898848
 20
254.4616626684598
 30
0.0
 11
211.4610822898848
 21
248.7657893715533
 31
0.0
  0
LINE
  5
2966
  8
0
 10
211.4610822898848
 20
286.7657893715533
 30
0.0
 11
231.4610822898848
 21
286.7657893715533
 31
0.0
  0
LINE
  5
2967
  8
0
 10
211.4610822898848
 20
248.7657893715533
 30
0.0
 11
231.4610822898848
 21
248.7657893715533
 31
0.0
  0
LINE
  5
2968
  8
0
 10
134.4610822898848
 20
267.7657893715533
 30
0.0
 11
134.4610822898848
 21
255.7657893715533
 31
0.0
  0
LINE
  5
2969
  8
0
 10
102.4610822898848
 20
267.7657893715533
 30
0.0
 11
102.4610822898848
 21
258.7067277024671
 31
0.0
  0
LINE
  5
296A
  8
0
 10
134.4610822898848
 20
255.7657893715533
 30
0.0
 11
135.4610822898848
 21
254.7657893715533
 31
0.0
1001
GENIUS_GENFIL_13
1070
     0
1040
1.0
1040
1.0
1040
20.0
1040
0.0
1002
{
1002
}
1001
GENIUS_GENODEF_13
1002
{
1000
HIER
1070
     0
1002
}
1002
{
1000
MANEDIT
1070
     0
1002
}
1002
{
1000
NOSEL
1070
     0
1002
}
1002
{
1000
BEHIND
1070
     0
1002
}
1002
{
1000
OTHER
1070
     0
1002
}
1002
{
1000
REACTOR
1002
}
1001
GENIUS_GENOBJ-N-CHA_13
1002
{
1000
OWNER
1000
GEN
1002
}
  0
LINE
  5
296B
  8
0
 10
134.4610822898848
 20
257.2657893715533
 30
0.0
 11
111.3370438988455
 21
257.2657893715533
 31
0.0
  0
LINE
  5
296C
  8
0
 10
102.4610822898848
 20
258.706727702467
 30
0.0
 11
115.4610822898848
 21
258.2981862439036
 31
0.0
  0
LINE
  5
296D
  8
0
 10
103.6607844491135
 20
257.5070255432384
 30
0.0
 11
111.3370438988454
 21
257.2657893715533
 31
0.0
  0
LINE
  5
296E
  8
0
 10
102.4610822898848
 20
258.706727702467
 30
0.0
 11
103.6607844491135
 21
257.5070255432384
 31
0.0
  0
LINE
  5
296F
  8
0
 10
102.4610822898848
 20
267.7657893715532
 30
0.0
 11
102.4610822898848
 21
258.706727702467
 31
0.0
  0
LINE
  5
2970
  8
0
 10
115.4610822898848
 20
258.2981862439036
 30
0.0
 11
118.1264786901004
 21
257.2657893715533
 31
0.0
  0
LINE
  5
2971
  8
0
 10
135.4610822898848
 20
267.7657893715536
 30
0.0
 11
135.4610822898848
 21
254.7657893715533
 31
0.0
  0
LINE
  5
2972
  8
0
 10
110.6196848114818
 20
257.2883332890814
 30
0.0
 11
110.6196848114818
 21
257.2657893715533
 31
0.0
  0
LINE
  5
2973
  8
0
 10
134.4610822898848
 20
279.7657893715532
 30
0.0
 11
135.4610822898848
 21
280.7657893715532
 31
0.0
1001
GENIUS_GENFIL_13
1070
     0
1040
1.0
1040
1.0
1040
20.0
1040
0.0
1002
{
1002
}
1001
GENIUS_GENODEF_13
1002
{
1000
HIER
1070
     0
1002
}
1002
{
1000
MANEDIT
1070
     0
1002
}
1002
{
1000
NOSEL
1070
     0
1002
}
1002
{
1000
BEHIND
1070
     0
1002
}
1002
{
1000
OTHER
1070
     0
1002
}
1002
{
1000
REACTOR
1002
}
1001
GENIUS_GENOBJ-N-CHA_13
1002
{
1000
OWNER
1000
GEN
1002
}
  0
LINE
  5
2974
  8
0
 10
118.1264786901004
 20
257.2657893715533
 30
0.0
 11
118.1264786901004
 21
267.7657893715532
 31
0.0
  0
LINE
  5
2975
  8
0
 10
134.4610822898848
 20
267.7657893715533
 30
0.0
 11
134.4610822898848
 21
279.7657893715532
 31
0.0
  0
LINE
  5
2976
  8
0
 10
102.4610822898848
 20
267.7657893715533
 30
0.0
 11
102.4610822898848
 21
276.8248510406395
 31
0.0
  0
LINE
  5
2977
  8
0
 10
134.4610822898848
 20
278.2657893715532
 30
0.0
 11
111.3370438988455
 21
278.2657893715532
 31
0.0
  0
LINE
  5
2978
  8
0
 10
102.4610822898848
 20
276.8248510406395
 30
0.0
 11
115.4610822898848
 21
277.233392499203
 31
0.0
  0
LINE
  5
2979
  8
0
 10
103.6607844491135
 20
278.0245531998681
 30
0.0
 11
111.3370438988454
 21
278.2657893715532
 31
0.0
  0
LINE
  5
297A
  8
0
 10
102.4610822898848
 20
276.8248510406395
 30
0.0
 11
103.6607844491135
 21
278.0245531998681
 31
0.0
  0
LINE
  5
297B
  8
0
 10
102.4610822898848
 20
267.7657893715533
 30
0.0
 11
102.4610822898848
 21
276.8248510406395
 31
0.0
  0
LINE
  5
297C
  8
0
 10
115.461082289885
 20
267.7657893715532
 30
0.0
 11
115.4610822898848
 21
278.2657893715532
 31
0.0
  0
LINE
  5
297D
  8
0
 10
115.4610822898848
 20
277.233392499203
 30
0.0
 11
118.1264786901004
 21
278.2657893715532
 31
0.0
  0
LINE
  5
297E
  8
0
 10
110.6196848114818
 20
278.2432454540252
 30
0.0
 11
110.6196848114818
 21
278.2657893715532
 31
0.0
  0
LINE
  5
297F
  8
0
 10
135.4610822898848
 20
267.765789371553
 30
0.0
 11
135.4610822898848
 21
280.7657893715532
 31
0.0
  0
LINE
  5
2980
  8
0
 10
118.1264786901004
 20
278.2657893715532
 30
0.0
 11
118.1264786901004
 21
267.7657893715533
 31
0.0
  0
LINE
  5
2981
  8
0
 10
135.4610822898848
 20
286.7657893715533
 30
0.0
 11
135.4610822898848
 21
248.7657893715533
 31
0.0
  0
LINE
  5
2982
  8
0
 10
155.4610822898848
 20
286.7657893715533
 30
0.0
 11
155.4610822898848
 21
281.0699320597531
 31
0.0
  0
LINE
  5
2983
  8
0
 10
155.4610822898848
 20
254.461646683341
 30
0.0
 11
155.4610822898848
 21
248.7657893715533
 31
0.0
  0
LINE
  5
2984
  8
0
 10
155.4610822898848
 20
286.7657893715533
 30
0.0
 11
135.4610822898848
 21
286.7657893715533
 31
0.0
  0
LINE
  5
2985
  8
0
 10
155.4610822898848
 20
248.7657893715533
 30
0.0
 11
135.4610822898848
 21
248.7657893715533
 31
0.0
  0
LINE
  5
2986
  8
7
 10
56.8217631890309
 20
152.4668127973621
 30
0.0
 11
56.82174235588116
 21
29.37881279736231
 31
0.0
1001
GENIUS_GENODEF_13
1002
{
1000
HIER
1070
     0
1002
}
1002
{
1000
MANEDIT
1070
     0
1002
}
1002
{
1000
NOSEL
1070
     0
1002
}
1002
{
1000
BEHIND
1070
     0
1002
}
1002
{
1000
OTHER
1070
     0
1002
}
1002
{
1000
REACTOR
1002
}
1001
GENIUS_GENOBJ-N-CEN_13
1002
{
1000
OWNER
1000
GEN
1002
}
1001
GENIUS_GENCEN_19
1002
{
1040
2.794
1002
}
  0
LINE
  5
2987
  8
7
 10
99.66705193669723
 20
54.17281279736221
 30
0.0
 11
267.2550519366972
 21
54.17281279736229
 31
0.0
1001
GENIUS_GENODEF_13
1002
{
1000
HIER
1070
     0
1002
}
1002
{
1000
MANEDIT
1070
     0
1002
}
1002
{
1000
NOSEL
1070
     0
1002
}
1002
{
1000
BEHIND
1070
     0
1002
}
1002
{
1000
OTHER
1070
     0
1002
}
1002
{
1000
REACTOR
1002
}
1001
GENIUS_GENOBJ-N-CEN_13
1002
{
1000
OWNER
1000
GEN
1002
}
1001
GENIUS_GENCEN_19
1002
{
1040
2.794
1002
}
  0
LINE
  5
2988
  8
7
 10
183.4610519366972
 20
29.37881279736227
 30
0.0
 11
183.4610519366972
 21
152.4668127973623
 31
0.0
1001
GENIUS_GENOBJ-N-CEN_13
1002
{
1000
OWNER
1000
GEN
1002
}
1001
GENIUS_GENODEF_13
1002
{
1000
HIER
1070
     0
1002
}
1002
{
1000
MANEDIT
1070
     0
1002
}
1002
{
1000
NOSEL
1070
     0
1002
}
1002
{
1000
BEHIND
1070
     0
1002
}
1002
{
1000
OTHER
1070
     0
1002
}
1002
{
1000
REACTOR
1002
}
1001
GENIUS_GENCEN_19
1002
{
1040
2.794
1002
}
  0
LINE
  5
2989
  8
7
 10
99.66708228988476
 20
267.7657893715532
 30
0.0
 11
267.2550822898847
 21
267.7657893715533
 31
0.0
1001
GENIUS_GENODEF_13
1002
{
1000
HIER
1070
     0
1002
}
1002
{
1000
MANEDIT
1070
     0
1002
}
1002
{
1000
NOSEL
1070
     0
1002
}
1002
{
1000
BEHIND
1070
     0
1002
}
1002
{
1000
OTHER
1070
     0
1002
}
1002
{
1000
REACTOR
1002
}
1001
GENIUS_GENOBJ-N-CEN_13
1002
{
1000
OWNER
1000
GEN
1002
}
1001
GENIUS_GENCEN_19
1002
{
1040
2.794
1002
}
  0
LINE
  5
298A
  8
7
 10
183.4611322137848
 20
233.4717945937337
 30
0.0
 11
183.4610247706929
 21
302.0597841493609
 31
0.0
1001
GENIUS_GENOBJ-N-CEN_13
1002
{
1000
OWNER
1000
GEN
1002
}
1001
GENIUS_GENODEF_13
1002
{
1000
HIER
1070
     0
1002
}
1002
{
1000
MANEDIT
1070
     0
1002
}
1002
{
1000
NOSEL
1070
     0
1002
}
1002
{
1000
BEHIND
1070
     0
1002
}
1002
{
1000
OTHER
1070
     0
1002
}
1002
{
1000
REACTOR
1002
}
1001
GENIUS_GENCEN_19
1002
{
1040
2.794
1002
}
  0
LINE
  5
298B
  8
7
 10
35.02774784776453
 20
54.17281279736227
 30
0.0
 11
78.61574784776452
 21
54.17281279736226
 31
0.0
1001
GENIUS_GENODEF_13
1002
{
1000
HIER
1070
     0
1002
}
1002
{
1000
MANEDIT
1070
     0
1002
}
1002
{
1000
NOSEL
1070
     0
1002
}
1002
{
1000
BEHIND
1070
     0
1002
}
1002
{
1000
OTHER
1070
     0
1002
}
1002
{
1000
REACTOR
1002
}
1001
GENIUS_GENOBJ-N-CEN_13
1002
{
1000
OWNER
1000
GEN
1002
}
1001
GENIUS_GENCEN_19
1002
{
1040
2.794
1002
}
  0
POLYLINE
  5
298C
  8
0
 66
     1
 10
0.0
 20
0.0
 30
0.0
 70
     1
  0
VERTEX
  5
29EB
  8
0
 10
190.4827201175867
 20
297.9601025593834
 30
0.0
 42
0.1147433684531263
  0
VERTEX
  5
29EC
  8
0
 10
176.4394368668909
 20
297.9601025593834
 30
0.0
 42
0.3169980516087132
  0
VERTEX
  5
29ED
  8
0
 10
174.9055188589109
 20
296.2403815435259
 30
0.0
 42
-0.5034443575988989
  0
VERTEX
  5
29EE
  8
0
 10
163.0791381255676
 20
289.4124174435915
 30
0.0
 42
0.3169980516087056
  0
VERTEX
  5
29EF
  8
0
 10
160.8228570344227
 20
288.9438659892871
 30
0.0
 42
0.1147433684531285
  0
VERTEX
  5
29F0
  8
0
 10
153.8012154090748
 20
276.7820259416435
 30
0.0
 42
0.3169980516087055
  0
VERTEX
  5
29F1
  8
0
 10
154.5235784922388
 20
274.5937534714817
 30
0.0
 42
-0.5034443575988864
  0
VERTEX
  5
29F2
  8
0
 10
154.5235784922388
 20
260.9378252716119
 30
0.0
 42
0.3169980516087206
  0
VERTEX
  5
29F3
  8
0
 10
153.8012154090748
 20
258.7495528014501
 30
0.0
 42
0.1147433684531274
  0
VERTEX
  5
29F4
  8
0
 10
160.8228570344227
 20
246.5877127538074
 30
0.0
 42
0.3169980516087066
  0
VERTEX
  5
29F5
  8
0
 10
163.0791381255676
 20
246.1191612995021
 30
0.0
 42
-0.503444357598898
  0
VERTEX
  5
29F6
  8
0
 10
174.9055188589109
 20
239.2911971995677
 30
0.0
 42
0.316998051608725
  0
VERTEX
  5
29F7
  8
0
 10
176.4394368668909
 20
237.5714761837103
 30
0.0
 42
0.1147433684531251
  0
VERTEX
  5
29F8
  8
0
 10
190.4827201175867
 20
237.5714761837103
 30
0.0
 42
0.3169980516087174
  0
VERTEX
  5
29F9
  8
0
 10
192.0166381255667
 20
239.2911971995677
 30
0.0
 42
-0.503444357598898
  0
VERTEX
  5
29FA
  8
0
 10
203.84301885891
 20
246.1191612995021
 30
0.0
 42
0.3169980516087068
  0
VERTEX
  5
29FB
  8
0
 10
206.099299950055
 20
246.5877127538074
 30
0.0
 42
0.1147433684531273
  0
VERTEX
  5
29FC
  8
0
 10
213.1209415754029
 20
258.7495528014501
 30
0.0
 42
0.3169980516087207
  0
VERTEX
  5
29FD
  8
0
 10
212.3985784922388
 20
260.9378252716119
 30
0.0
 42
-0.5034443575988866
  0
VERTEX
  5
29FE
  8
0
 10
212.3985784922388
 20
274.5937534714817
 30
0.0
 42
0.3169980516087057
  0
VERTEX
  5
29FF
  8
0
 10
213.1209415754029
 20
276.7820259416435
 30
0.0
 42
0.1147433684531281
  0
VERTEX
  5
2A00
  8
0
 10
206.099299950055
 20
288.9438659892871
 30
0.0
 42
0.3169980516087061
  0
VERTEX
  5
2A01
  8
0
 10
203.84301885891
 20
289.4124174435915
 30
0.0
 42
-0.5034443575988988
  0
VERTEX
  5
2A02
  8
0
 10
192.0166381255667
 20
296.2403815435259
 30
0.0
 42
0.3169980516087095
  0
SEQEND
  5
2A03
  8
0
  0
CIRCLE
  5
298D
  8
0
 10
183.4610784922388
 20
267.7657893715473
 30
0.0
 40
11.0
  0
ARC
  5
298E
  8
0
 10
54.78279507425603
 20
113.8763878139289
 30
0.0
 40
30.91919402524992
 50
78.72967692071798
 51
86.21889213639939
  0
LINE
  5
298F
  8
0
 10
43.8217579770126
 20
146.6728823621593
 30
0.0
 11
69.82175797702351
 21
146.672882362152
 31
0.0
  0
LINE
  5
2990
  8
0
 10
34.3217579770126
 20
105.6728823621593
 30
0.0
 11
79.32175797701174
 21
105.6728823621593
 31
0.0
  0
LINE
  5
2991
  8
0
 10
32.3217579770126
 20
113.4145521129617
 30
0.0
 11
81.32175797701174
 21
113.4145521129617
 31
0.0
  0
ARC
  5
2992
  8
0
 10
56.86658329564344
 20
118.8508412832853
 30
0.0
 40
3.704509570427573
 50
269.3066925052582
 51
329.9640267076164
  0
LINE
  5
2993
  8
0
 10
25.8217579770126
 20
139.1690359807039
 30
0.0
 11
25.8217579770126
 21
124.6728823621611
 31
0.0
  0
LINE
  5
2994
  8
0
 10
26.59672309808505
 20
124.6728823621611
 30
0.0
 11
26.59672309808505
 21
141.2528799023225
 31
0.0
  0
LINE
  5
2995
  8
0
 10
49.99379387708544
 20
142.3940245611434
 30
0.0
 11
49.99379387708544
 21
124.6728823621611
 31
0.0
  0
LINE
  5
2996
  8
0
 10
35.25973735419851
 20
124.6728823621611
 30
0.0
 11
35.25973735419851
 21
142.3940245611434
 31
0.0
  0
ARC
  5
2997
  8
0
 10
34.46830706807398
 20
115.7907798181637
 30
0.0
 40
0.5000000000001373
 50
246.2367264954113
 51
357.253232453353
1001
GENIUS_GENODEF_13
1002
{
1000
HIER
1070
     0
1002
}
1002
{
1000
MANEDIT
1070
     0
1002
}
1002
{
1000
NOSEL
1070
     0
1002
}
1002
{
1000
BEHIND
1070
     0
1002
}
1002
{
1000
REACTOR
1002
}
1001
GENIUS_GENOBJ-N-FIL_13
1002
{
1000
OWNER
1000
GEN
1002
}
  0
ARC
  5
2998
  8
0
 10
34.3217579770126
 20
107.6728823621593
 30
0.0
 40
2.0
 50
180.0
 51
270.0
1001
GENIUS_GENODEF_13
1002
{
1000
HIER
1070
     0
1002
}
1002
{
1000
MANEDIT
1070
     0
1002
}
1002
{
1000
NOSEL
1070
     0
1002
}
1002
{
1000
BEHIND
1070
     0
1002
}
1002
{
1000
REACTOR
1002
}
1001
GENIUS_GENOBJ-N-FIL_13
1002
{
1000
OWNER
1000
GEN
1002
}
  0
LINE
  5
2999
  8
0
 10
32.3217579770126
 20
113.4145521129617
 30
0.0
 11
32.3217579770126
 21
107.6728823621584
 31
0.0
  0
LINE
  5
299A
  8
0
 10
32.3217579770126
 20
113.4145521129617
 30
0.0
 11
25.8217579770126
 21
124.6728823621611
 31
0.0
  0
ARC
  5
299B
  8
0
 10
37.7101944432799
 20
122.656144704732
 30
0.0
 40
8.092139528442901
 50
218.3219467238784
 51
244.8164215542301
  0
ARC
  5
299C
  8
0
 10
63.17260452550718
 20
144.3167957395755
 30
0.0
 40
41.51720649287704
 50
208.2390387289535
 51
219.9850051421011
  0
LINE
  5
299D
  8
0
 10
36.25973735419851
 20
124.6840443879123
 30
0.0
 11
48.99379387708544
 21
124.6728823621584
 31
0.0
  0
ARC
  5
299E
  8
0
 10
-145.4899980252056
 20
124.4246209791301
 30
0.0
 40
180.6652985045642
 50
357.2532324534187
 51
0.0787330719278605
  0
ARC
  5
299F
  8
0
 10
56.77693265839653
 20
118.8508412832853
 30
0.0
 40
3.704509570427561
 50
210.0359732923834
 51
270.6933074947418
  0
ARC
  5
29A0
  8
0
 10
66.14057053655202
 20
127.5239155247918
 30
0.0
 40
16.39654800819768
 50
190.0134925743618
 51
219.9445765225451
  0
ARC
  5
29A1
  8
0
 10
43.8217579770126
 20
106.6728823621618
 30
0.0
 40
39.99999999999841
 50
90.0
 51
111.8037479893856
  0
ARC
  5
29A2
  8
0
 10
31.37478630367698
 20
139.4588815561048
 30
0.0
 40
4.869076824715424
 50
37.07163361014624
 51
88.33534575517591
  0
ARC
  5
29A3
  8
0
 10
30.82175797701237
 20
139.1690359807039
 30
0.0
 40
4.999999999999826
 50
111.803747989381
 51
180.0
1001
GENIUS_GENODEF_13
1002
{
1000
HIER
1070
     0
1002
}
1002
{
1000
MANEDIT
1070
     0
1002
}
1002
{
1000
NOSEL
1070
     0
1002
}
1002
{
1000
BEHIND
1070
     0
1002
}
1002
{
1000
REACTOR
1002
}
1001
GENIUS_GENOBJ-N-FIL_13
1002
{
1000
OWNER
1000
GEN
1002
}
  0
ARC
  5
29A4
  8
0
 10
33.17040681461825
 20
136.2035294134072
 30
0.0
 40
8.289104774638442
 50
101.5112441720059
 51
142.4715634063257
  0
LINE
  5
29A5
  8
0
 10
36.25973735419851
 20
142.3940245611434
 30
0.0
 11
48.99379387708544
 21
142.3940245611434
 31
0.0
  0
ARC
  5
29A6
  8
0
 10
58.86072087978428
 20
113.8763878139255
 30
0.0
 40
30.91919402525333
 50
93.78110786360082
 51
101.2703230792818
  0
ARC
  5
29A7
  8
0
 10
53.17908584762475
 20
140.5227417964236
 30
0.0
 40
3.694290746966676
 50
95.61023783028725
 51
149.5667841226168
  0
LINE
  5
29A8
  8
0
 10
87.82175797701265
 20
139.169035980703
 30
0.0
 11
87.82175797701265
 21
124.6728823621611
 31
0.0
  0
LINE
  5
29A9
  8
0
 10
78.38377859984129
 20
124.6728823621611
 30
0.0
 11
78.38377859984129
 21
142.3940245611434
 31
0.0
  0
LINE
  5
29AA
  8
0
 10
87.04679285595475
 20
124.6728823621611
 30
0.0
 11
87.04679285595475
 21
141.2528799023225
 31
0.0
  0
LINE
  5
29AB
  8
0
 10
63.64972207695521
 20
142.3940245611434
 30
0.0
 11
63.64972207695521
 21
124.6728823621611
 31
0.0
  0
LINE
  5
29AC
  8
0
 10
81.32175797701174
 20
113.4145521129608
 30
0.0
 11
87.82175797701265
 21
124.6728823621611
 31
0.0
  0
ARC
  5
29AD
  8
0
 10
50.47091142852619
 20
144.3167957395805
 30
0.0
 40
41.51720649288583
 50
320.0149948579001
 51
331.7609612710451
  0
ARC
  5
29AE
  8
0
 10
79.3217579770118
 20
107.6728823621593
 30
0.0
 40
2.0
 50
269.9999999999984
 51
0.0
1001
GENIUS_GENODEF_13
1002
{
1000
HIER
1070
     0
1002
}
1002
{
1000
MANEDIT
1070
     0
1002
}
1002
{
1000
NOSEL
1070
     0
1002
}
1002
{
1000
BEHIND
1070
     0
1002
}
1002
{
1000
REACTOR
1002
}
1001
GENIUS_GENOBJ-N-FIL_13
1002
{
1000
OWNER
1000
GEN
1002
}
  0
LINE
  5
29AF
  8
0
 10
77.46838604906506
 20
124.6728823621611
 30
0.0
 11
64.64972207695521
 21
124.6728823621611
 31
0.0
  0
ARC
  5
29B0
  8
0
 10
47.50294541749113
 20
127.5239155247901
 30
0.0
 40
16.39654800819415
 50
320.0554234774524
 51
349.9865074256933
  0
LINE
  5
29B1
  8
0
 10
81.32175797701174
 20
113.4145521129608
 30
0.0
 11
81.32175797701174
 21
107.6728823621584
 31
0.0
  0
ARC
  5
29B2
  8
0
 10
259.1335139792453
 20
124.4246209791321
 30
0.0
 40
180.6652985045639
 50
179.9212669280768
 51
182.7467675465875
  0
ARC
  5
29B3
  8
0
 10
75.93332151076092
 20
122.656144704732
 30
0.0
 40
8.092139528442887
 50
295.1835784457699
 51
321.6780532761216
  0
ARC
  5
29B4
  8
0
 10
79.17520888596673
 20
115.7907798181636
 30
0.0
 40
0.5000000000000417
 50
182.7467675466345
 51
293.7632735045934
1001
GENIUS_GENODEF_13
1002
{
1000
HIER
1070
     0
1002
}
1002
{
1000
MANEDIT
1070
     0
1002
}
1002
{
1000
NOSEL
1070
     0
1002
}
1002
{
1000
BEHIND
1070
     0
1002
}
1002
{
1000
REACTOR
1002
}
1001
GENIUS_GENOBJ-N-FIL_13
1002
{
1000
OWNER
1000
GEN
1002
}
  0
ARC
  5
29B5
  8
0
 10
69.82175797701169
 20
106.6728823621603
 30
0.0
 40
39.99999999999903
 50
68.19625201061444
 51
90.0
  0
ARC
  5
29B6
  8
0
 10
80.47310913942258
 20
136.2035294134072
 30
0.0
 40
8.289104774638432
 50
37.52843659367432
 51
78.48875582799408
  0
LINE
  5
29B7
  8
0
 10
77.46838604906506
 20
142.3940245611425
 30
0.0
 11
64.64972207695521
 21
142.3940245611434
 31
0.0
  0
ARC
  5
29B8
  8
0
 10
60.46443010641499
 20
140.5227417964236
 30
0.0
 40
3.69429074696669
 50
30.43321587738312
 51
84.38976216971281
  0
ARC
  5
29B9
  8
0
 10
82.26872965036378
 20
139.4588815561048
 30
0.0
 40
4.869076824715402
 50
91.66465424482342
 51
142.9283663898536
  0
ARC
  5
29BA
  8
0
 10
82.82175797701294
 20
139.1690359807031
 30
0.0
 40
4.999999999999716
 50
0.0
 51
68.19625201061926
1001
GENIUS_GENODEF_13
1002
{
1000
HIER
1070
     0
1002
}
1002
{
1000
MANEDIT
1070
     0
1002
}
1002
{
1000
NOSEL
1070
     0
1002
}
1002
{
1000
BEHIND
1070
     0
1002
}
1002
{
1000
REACTOR
1002
}
1001
GENIUS_GENOBJ-N-FIL_13
1002
{
1000
OWNER
1000
GEN
1002
}
  0
LINE
  5
29BB
  8
0
 10
158.9610704700166
 20
113.4145521129626
 30
0.0
 11
207.9610704700157
 21
113.4145521129626
 31
0.0
  0
LINE
  5
29BC
  8
0
 10
160.9610704700166
 20
105.6728823621611
 30
0.0
 11
205.9610704700157
 21
105.6728823621611
 31
0.0
  0
LINE
  5
29BD
  8
0
 10
170.4610704700166
 20
146.6728823621611
 30
0.0
 11
196.4610704700276
 21
146.6728823621529
 31
0.0
  0
ARC
  5
29BE
  8
0
 10
170.2248078376102
 20
138.780330082818
 30
0.0
 40
5.951205005509391
 50
37.3888069136842
 51
97.21420027622548
  0
ARC
  5
29BF
  8
0
 10
170.3551434907536
 20
117.6660994037007
 30
0.0
 40
2.565357953936887
 50
240.6774080382678
 51
316.5238775543754
  0
LINE
  5
29C0
  8
0
 10
153.7147469406122
 20
122.5014510188371
 30
0.0
 11
153.7147469406131
 21
142.4803891803854
 31
0.0
  0
LINE
  5
29C1
  8
0
 10
161.8990498472189
 20
124.672882362162
 30
0.0
 11
161.899049847218
 21
142.3940245611443
 31
0.0
  0
ARC
  5
29C2
  8
0
 10
160.9610704700166
 20
107.6728823621611
 30
0.0
 40
1.999999999999943
 50
180.0
 51
270.0000000000016
1001
GENIUS_GENODEF_13
1002
{
1000
HIER
1070
     0
1002
}
1002
{
1000
MANEDIT
1070
     0
1002
}
1002
{
1000
NOSEL
1070
     0
1002
}
1002
{
1000
BEHIND
1070
     0
1002
}
1002
{
1000
REACTOR
1002
}
1001
GENIUS_GENOBJ-N-FIL_13
1002
{
1000
OWNER
1000
GEN
1002
}
  0
LINE
  5
29C3
  8
0
 10
155.1269174123403
 20
124.6728823621629
 30
0.0
 11
160.8990498472025
 21
124.6728823621629
 31
0.0
  0
LINE
  5
29C4
  8
0
 10
158.9610704700166
 20
113.4145521129626
 30
0.0
 11
153.7147469406122
 21
122.5014510188362
 31
0.0
  0
LINE
  5
29C5
  8
0
 10
158.9610704700166
 20
113.4145521129626
 30
0.0
 11
158.9610704700166
 21
107.6728823621602
 31
0.0
  0
ARC
  5
29C6
  8
0
 10
174.6896683122183
 20
127.2098567686204
 30
0.0
 40
13.03979140386123
 50
191.2188087997441
 51
244.6115597288428
  0
LINE
  5
29C7
  8
0
 10
154.9828431945738
 20
142.3940245611443
 30
0.0
 11
160.8990498472025
 21
142.3940245611443
 31
0.0
  0
ARC
  5
29C8
  8
0
 10
170.4610704700166
 20
106.6728823621597
 30
0.0
 40
40.00000000000136
 50
90.0
 51
111.8037479893841
  0
ARC
  5
29C9
  8
0
 10
157.4610704700157
 20
139.1690359807062
 30
0.0
 40
4.999999999998328
 50
111.8037479893801
 51
138.5267245313361
1001
GENIUS_GENODEF_13
1002
{
1000
HIER
1070
     0
1002
}
1002
{
1000
MANEDIT
1070
     0
1002
}
1002
{
1000
NOSEL
1070
     0
1002
}
1002
{
1000
BEHIND
1070
     0
1002
}
1002
{
1000
REACTOR
1002
}
1001
GENIUS_GENOBJ-N-FIL_13
1002
{
1000
OWNER
1000
GEN
1002
}
  0
ARC
  5
29CA
  8
0
 10
168.8640408592104
 20
133.0312670425027
 30
0.0
 40
11.66928995911952
 50
86.98674223133865
 51
126.6456998178239
  0
LINE
  5
29CB
  8
0
 10
213.2073939994356
 20
122.5014510188371
 30
0.0
 11
213.2073939994356
 21
142.4803891803854
 31
0.0
  0
LINE
  5
29CC
  8
0
 10
174.9532381516687
 20
142.3940245611443
 30
0.0
 11
174.9532381516696
 21
124.6728823621629
 31
0.0
  0
LINE
  5
29CD
  8
0
 10
191.9689027883791
 20
142.3940245611443
 30
0.0
 11
191.9689027883791
 21
124.6728823621629
 31
0.0
  0
LINE
  5
29CE
  8
0
 10
205.0230910928298
 20
124.672882362162
 30
0.0
 11
205.0230910928298
 21
142.3940245611443
 31
0.0
  0
ARC
  5
29CF
  8
0
 10
196.5669974492943
 20
117.6660994037007
 30
0.0
 40
2.565357953936903
 50
223.476122445624
 51
299.3225919617312
  0
LINE
  5
29D0
  8
0
 10
175.9532381516541
 20
124.6728823621629
 30
0.0
 11
190.9689027883791
 21
124.6728823621629
 31
0.0
  0
ARC
  5
29D1
  8
0
 10
151.2066748848927
 20
127.2681723770494
 30
0.0
 40
23.88796343861021
 50
331.5850581069332
 51
353.7628312294631
  0
ARC
  5
29D2
  8
0
 10
215.715466055155
 20
127.2681723770495
 30
0.0
 40
23.88796343861022
 50
186.237168770537
 51
208.4149418930671
  0
ARC
  5
29D3
  8
0
 10
205.9610704700158
 20
107.6728823621611
 30
0.0
 40
2.0
 50
269.9999999999984
 51
0.0
1001
GENIUS_GENODEF_13
1002
{
1000
HIER
1070
     0
1002
}
1002
{
1000
MANEDIT
1070
     0
1002
}
1002
{
1000
NOSEL
1070
     0
1002
}
1002
{
1000
BEHIND
1070
     0
1002
}
1002
{
1000
REACTOR
1002
}
1001
GENIUS_GENOBJ-N-FIL_13
1002
{
1000
OWNER
1000
GEN
1002
}
  0
LINE
  5
29D4
  8
0
 10
211.6735959655302
 20
124.6728823621629
 30
0.0
 11
206.0230910928298
 21
124.6728823621629
 31
0.0
  0
ARC
  5
29D5
  8
0
 10
192.2324726278295
 20
127.2098567686204
 30
0.0
 40
13.03979140386123
 50
295.3884402711573
 51
348.7811912002559
  0
LINE
  5
29D6
  8
0
 10
207.9610704700157
 20
113.4145521129626
 30
0.0
 11
207.9610704700157
 21
107.6728823621593
 31
0.0
  0
LINE
  5
29D7
  8
0
 10
207.9610704700157
 20
113.4145521129626
 30
0.0
 11
213.2073939994356
 21
122.5014510188626
 31
0.0
  0
ARC
  5
29D8
  8
0
 10
196.6973331024388
 20
138.7803300828176
 30
0.0
 40
5.951205005509814
 50
82.78579972377833
 51
142.6111930863149
  0
LINE
  5
29D9
  8
0
 10
175.9532381516541
 20
142.3940245611443
 30
0.0
 11
190.9689027883791
 21
142.3940245611443
 31
0.0
  0
LINE
  5
29DA
  8
0
 10
211.9392977454585
 20
142.3940245611443
 30
0.0
 11
206.0230910928298
 21
142.3940245611443
 31
0.0
  0
ARC
  5
29DB
  8
0
 10
196.4610704700156
 20
106.6728823621597
 30
0.0
 40
40.00000000000134
 50
68.19625201061586
 51
89.99999999999983
  0
ARC
  5
29DC
  8
0
 10
198.0581000808384
 20
133.0312670425027
 30
0.0
 40
11.66928995911953
 50
53.35430018217612
 51
93.01325776866135
  0
ARC
  5
29DD
  8
0
 10
209.4610704700323
 20
139.1690359807066
 30
0.0
 40
4.99999999999799
 50
41.47327546866229
 51
68.19625201061902
1001
GENIUS_GENODEF_13
1002
{
1000
HIER
1070
     0
1002
}
1002
{
1000
MANEDIT
1070
     0
1002
}
1002
{
1000
NOSEL
1070
     0
1002
}
1002
{
1000
BEHIND
1070
     0
1002
}
1002
{
1000
REACTOR
1002
}
1001
GENIUS_GENOBJ-N-FIL_13
1002
{
1000
OWNER
1000
GEN
1002
}
  0
VIEWPORT
  5
22
 67
     1
  8
0
 10
5.269134197284911
 20
5.545311567251436
 30
0.0
 40
11.13808705479925
 41
12.32365374410561
 68
     1
 69
     1
1001
GENIUS_GENSCREG_15
1000
PF
1040
1.0
1000
DF
1040
1.0
1000
MIN
1011
-0.2999093301147138
1021
-0.6165153048013714
1031
0.0
1021
-0.6165153048013714
1031
0.0
1000
MAX
1011
10.83817772468454
1021
11.70713843930424
1031
0.0
1021
11.70713843930424
1031
0.0
1000
FLAGS
1070
     4
1001
GENIUS_GENODEF_13
1002
{
1000
HIER
1070
     0
1002
}
1002
{
1000
MANEDIT
1070
     0
1002
}
1002
{
1000
NOSEL
1070
     0
1002
}
1002
{
1000
BEHIND
1070
     0
1002
}
1002
{
1000
OTHER
1070
     0
1002
}
1002
{
1000
REACTOR
1002
}
1001
GENIUS_GENOBJ-N-SDF_13
1002
{
1000
OWNER
1000
GEN
1002
}
1001
ACAD
1000
MVIEW
1002
{
1070
    16
1010
0.0
1020
0.0
1030
0.0
1020
0.0
1030
0.0
1010
0.0
1020
0.0
1030
1.0
1020
0.0
1030
1.0
1040
0.0
1040
12.32365374410561
1040
5.269134197284911
1040
5.545311567251436
1040
50.0
1040
0.0
1040
0.0
1070
     0
1070
   100
1070
     0
1070
     1
1070
     0
1070
     0
1070
     0
1070
     0
1040
0.0
1040
0.0
1040
0.0
1040
1.0
1040
1.0
1040
10.0
1040
10.0
1070
     0
1002
{
1002
}
1002
}
  0
ENDSEC
  0
EOF
