  0
SECTION
  2
HEADER
  9
$ACADVER
  1
AC1009
  9
$DWGCODEPAGE
  3
ansi_932
  9
$INSBASE
 10
0.0
 20
0.0
 30
0.0
  9
$EXTMIN
 10
0.0
 20
0.0
 30
0.0
  9
$EXTMAX
 10
292.8057291044029
 20
302.2657841494092
 30
0.0
  9
$LIMMIN
 10
0.0
 20
0.0
  9
$LIMMAX
 10
420.0
 20
420.0
  9
$ORTHOMODE
 70
     0
  9
$REGENMODE
 70
     1
  9
$FILLMODE
 70
     1
  9
$QTEXTMODE
 70
     0
  9
$MIRRTEXT
 70
     0
  9
$DRAGMODE
 70
     2
  9
$LTSCALE
 40
10.0
  9
$OSMODE
 70
 15359
  9
$ATTMODE
 70
     1
  9
$TEXTSIZE
 40
3.5
  9
$TRACEWID
 40
1.0
  9
$TEXTSTYLE
  7
STANDARD
  9
$CLAYER
  8
0
  9
$CELTYPE
  6
BYLAYER
  9
$CECOLOR
 62
   256
  9
$DIMSCALE
 40
1.0
  9
$DIMASZ
 40
2.5
  9
$DIMEXO
 40
1.0
  9
$DIMDLI
 40
7.0
  9
$DIMRND
 40
0.0
  9
$DIMDLE
 40
0.0
  9
$DIMEXE
 40
1.0
  9
$DIMTP
 40
0.1
  9
$DIMTM
 40
0.1
  9
$DIMTXT
 40
3.0
  9
$DIMCEN
 40
0.0
  9
$DIMTSZ
 40
0.0
  9
$DIMTOL
 70
     0
  9
$DIMLIM
 70
     0
  9
$DIMTIH
 70
     0
  9
$DIMTOH
 70
     0
  9
$DIMSE1
 70
     0
  9
$DIMSE2
 70
     0
  9
$DIMTAD
 70
     3
  9
$DIMZIN
 70
     8
  9
$DIMBLK
  1
OPEN
  9
$DIMASO
 70
     1
  9
$DIMSHO
 70
     1
  9
$DIMPOST
  1

  9
$DIMAPOST
  1
"
  9
$DIMALT
 70
     0
  9
$DIMALTD
 70
     2
  9
$DIMALTF
 40
0.0393701
  9
$DIMLFAC
 40
1.0
  9
$DIMTOFL
 70
     1
  9
$DIMTVP
 40
0.0
  9
$DIMTIX
 70
     0
  9
$DIMSOXD
 70
     0
  9
$DIMSAH
 70
     0
  9
$DIMBLK1
  1

  9
$DIMBLK2
  1

  9
$DIMSTYLE
  2
AM_JIS
  9
$DIMCLRD
 70
   256
  9
$DIMCLRE
 70
   256
  9
$DIMCLRT
 70
     2
  9
$DIMTFAC
 40
0.71
  9
$DIMGAP
 40
1.0
  9
$LUNITS
 70
     2
  9
$LUPREC
 70
     2
  9
$SKETCHINC
 40
1.0
  9
$FILLETRAD
 40
2.5
  9
$AUNITS
 70
     0
  9
$AUPREC
 70
     0
  9
$MENU
  1
.
  9
$ELEVATION
 40
0.0
  9
$PELEVATION
 40
0.0
  9
$THICKNESS
 40
0.0
  9
$LIMCHECK
 70
     0
  9
$CHAMFERA
 40
2.5
  9
$CHAMFERB
 40
2.5
  9
$SKPOLY
 70
     1
  9
$TDCREATE
 40
2460208.771379028
  9
$TDUPDATE
 40
2460210.744248634
  9
$TDINDWG
 40
0.1277446296
  9
$TDUSRTIMER
 40
0.1276477431
  9
$USRTIMER
 70
     1
  9
$ANGBASE
 50
0.0
  9
$ANGDIR
 70
     0
  9
$PDMODE
 70
     0
  9
$PDSIZE
 40
0.0
  9
$PLINEWID
 40
0.0
  9
$COORDS
 70
     2
  9
$SPLFRAME
 70
     0
  9
$SPLINETYPE
 70
     6
  9
$SPLINESEGS
 70
     8
  9
$ATTDIA
 70
     1
  9
$ATTREQ
 70
     1
  9
$HANDLING
 70
     1
  9
$HANDSEED
  5
29B4
  9
$SURFTAB1
 70
     6
  9
$SURFTAB2
 70
     6
  9
$SURFTYPE
 70
     6
  9
$SURFU
 70
     6
  9
$SURFV
 70
     6
  9
$UCSNAME
  2

  9
$UCSORG
 10
0.0
 20
0.0
 30
0.0
  9
$UCSXDIR
 10
1.0
 20
0.0
 30
0.0
  9
$UCSYDIR
 10
0.0
 20
1.0
 30
0.0
  9
$PUCSNAME
  2

  9
$PUCSORG
 10
0.0
 20
0.0
 30
0.0
  9
$PUCSXDIR
 10
1.0
 20
0.0
 30
0.0
  9
$PUCSYDIR
 10
0.0
 20
1.0
 30
0.0
  9
$USERI1
 70
     0
  9
$USERI2
 70
     0
  9
$USERI3
 70
     0
  9
$USERI4
 70
     0
  9
$USERI5
 70
     0
  9
$USERR1
 40
0.0
  9
$USERR2
 40
0.0
  9
$USERR3
 40
0.0
  9
$USERR4
 40
0.0
  9
$USERR5
 40
0.0
  9
$WORLDVIEW
 70
     1
  9
$SHADEDGE
 70
     3
  9
$SHADEDIF
 70
    70
  9
$TILEMODE
 70
     1
  9
$MAXACTVP
 70
    48
  9
$PLIMCHECK
 70
     0
  9
$PEXTMIN
 10
1.000000000000000E+20
 20
1.000000000000000E+20
 30
1.000000000000000E+20
  9
$PEXTMAX
 10
-1.000000000000000E+20
 20
-1.000000000000000E+20
 30
-1.000000000000000E+20
  9
$PLIMMIN
 10
-0.2500002402958907
 20
-0.2499999962453767
  9
$PLIMMAX
 10
10.74999951940822
 20
8.249999763458732
  9
$UNITMODE
 70
     0
  9
$VISRETAIN
 70
     1
  9
$PLINEGEN
 70
     0
  9
$PSLTSCALE
 70
     1
  0
ENDSEC
  0
SECTION
  2
TABLES
  0
TABLE
  2
VPORT
 70
     1
  0
VPORT
  2
*ACTIVE
 70
     0
 10
0.0
 20
0.0
 11
1.0
 21
1.0
 12
146.4028645522017
 22
151.1328920747051
 13
0.0
 23
0.0
 14
2.5
 24
2.5
 15
10.0
 25
10.0
 16
0.0
 26
0.0
 36
1.0
 17
0.0
 27
0.0
 37
0.0
 40
304.9858362002475
 41
2.164994425863991
 42
50.0
 43
0.0
 44
0.0
 50
0.0
 51
0.0
 71
     0
 72
   100
 73
     1
 74
     3
 75
     0
 76
     0
 77
     0
 78
     0
  0
ENDTAB
  0
TABLE
  2
LTYPE
 70
    14
  0
LTYPE
  2
CONTINUOUS
 70
     0
  3
Solid line
 72
    65
 73
     0
 40
0.0
  0
LTYPE
  2
PHANTOM2
 70
     0
  3
___ _ _ ___ _ _ ___ _ _ ___ _ _ ___ _ _ ___ _ _
 72
    65
 73
     6
 40
1.25
 49
0.625
 49
-0.125
 49
0.125
 49
-0.125
 49
0.125
 49
-0.125
  0
LTYPE
  2
ACJISTGB
 70
     0
  3
__ . . __ . .
 72
    65
 73
     6
 40
9.0
 49
4.0
 49
-1.0
 49
1.0
 49
-1.0
 49
1.0
 49
-1.0
  0
LTYPE
  2
ACJISTGL
 70
     0
  3
_ _ _ _ _
 72
    65
 73
     2
 40
3.0
 49
2.0
 49
-1.0
  0
LTYPE
  2
AM_ISO02W050
 70
     0
  3
__ __ __ __ __ __ __ __ __ __ __ __ __ __ __
 72
    65
 73
     2
 40
7.5
 49
6.0
 49
-1.5
  0
LTYPE
  2
AM_ISO08W050
 70
     0
  3
____ . ____ . ____ . ____ . ____ . ____ . ____
 72
    65
 73
     4
 40
18.0
 49
12.0
 49
-1.5
 49
3.0
 49
-1.5
  0
LTYPE
  2
AM_ISO09W050
 70
     0
  3
_____ . . _____ . . _____ . . ____ .. ____
 72
    65
 73
     6
 40
22.5
 49
12.0
 49
-1.5
 49
3.0
 49
-1.5
 49
3.0
 49
-1.5
  0
LTYPE
  2
AM_ISO02W050X2
 70
     0
  3
 _ _ _ _ _ _ _ _ _ _ _ _
 72
    65
 73
     2
 40
3.75
 49
3.0
 49
-0.75
  0
LTYPE
  2
AM_ISO08W050X2
 70
     0
  3
__ . __ . __ . __ . __ . __
 72
    65
 73
     4
 40
9.0
 49
6.0
 49
-0.75
 49
1.5
 49
-0.75
  0
LTYPE
  2
AMZIGZAG
 70
     0
  3
/\/-/\/-/\/-/\/-/\/-/\/
 72
    65
 73
     2
 40
11.0001
 49
0.0001
 49
-11.0
  0
LTYPE
  2
AMCONSTR
 70
     0
  3
_______________________
 72
    65
 73
     2
 40
9999.0
 49
9999.0
 49
0.0
  0
LTYPE
  2
CENTER2
 70
     0
  3
Center (.5x) ___ _ ___ _ ___ _ ___ _ ___ _ ___
 72
    65
 73
     4
 40
1.125
 49
0.75
 49
-0.125
 49
0.125
 49
-0.125
  0
LTYPE
  2
HIDDEN2
 70
     0
  3
Hidden (.5x) _ _ _ _ _ _ _ _ _ _ _ _ _ _ _ _ _
 72
    65
 73
     2
 40
0.1875
 49
0.125
 49
-0.0625
  0
LTYPE
  2
ACJISWELD
 70
     0
  3
_ _ _ _ _
 72
    65
 73
     2
 40
2.0
 49
2.0
 49
-1.0
  0
ENDTAB
  0
TABLE
  2
LAYER
 70
     5
  0
LAYER
  2
0
 70
     0
 62
     7
  6
CONTINUOUS
  0
LAYER
  2
7
 70
     0
 62
     4
  6
CENTER2
  0
LAYER
  2
AM_7
 70
     0
 62
     4
  6
CENTER2
  0
LAYER
  2
AM_0
 70
     0
 62
     7
  6
CONTINUOUS
  0
LAYER
  2
10
 70
     0
 62
     2
  6
CONTINUOUS
  0
ENDTAB
  0
TABLE
  2
STYLE
 70
     4
  0
STYLE
  2
STANDARD
 70
     0
 40
0.0
 41
1.0
 50
0.0
 71
     0
 42
3.5
  3
isocp.shx
  4
extfont.shx
  0
STYLE
  2
ACJISTS
 70
     0
 40
1.0
 41
1.0
 50
0.0
 71
     0
 42
3.5
  3
isocp.shx
  4
extfont.shx
  0
STYLE
  2
ACJISGDT
 70
     0
 40
0.0
 41
1.0
 50
0.0
 71
     0
 42
3.5
  3
amgdt.shx
  4
extfont.shx
  0
STYLE
  2

 70
     1
 40
0.0
 41
1.0
 50
0.0
 71
     0
 42
3.5
  3
ltypeshp.shx
  4

  0
ENDTAB
  0
TABLE
  2
VIEW
 70
     3
  0
VIEW
  2
AMDTVIEW1
 70
     0
 40
329.0721649484536
 10
210.0
 20
164.5360824742268
 41
420.0
 11
0.0
 21
0.0
 31
1.0
 12
0.0
 22
0.0
 32
0.0
 42
50.0
 43
0.0
 44
0.0
 50
0.0
 71
     0
  0
VIEW
  2
AMDTVIEW2
 70
     0
 40
329.0721649484536
 10
210.0
 20
164.5360824742268
 41
420.0
 11
0.0
 21
0.0
 31
1.0
 12
0.0
 22
0.0
 32
0.0
 42
50.0
 43
0.0
 44
0.0
 50
0.0
 71
     0
  0
VIEW
  2
AMDTVIEW3
 70
     0
 40
329.0721649484536
 10
210.0
 20
164.5360824742268
 41
420.0
 11
0.0
 21
0.0
 31
1.0
 12
0.0
 22
0.0
 32
0.0
 42
50.0
 43
0.0
 44
0.0
 50
0.0
 71
     0
  0
ENDTAB
  0
TABLE
  2
UCS
 70
     0
  0
ENDTAB
  0
TABLE
  2
APPID
 70
    66
  0
APPID
  2
ACAD
 70
     0
  0
APPID
  2
AD_DRAW
 70
     0
  0
APPID
  2
DESIGNERASSEMBLIES
 70
     0
  0
APPID
  2
MCAD_NO_VIS
 70
     0
  0
APPID
  2
ASURF_PCURVE_APPNAME
 70
     0
  0
APPID
  2
ACAD_TEMP_GRAPHIC
 70
     0
  0
APPID
  2
ACATTRIBSERVICES
 70
     0
  0
APPID
  2
ACADM_DIM_EDIT
 70
     0
  0
APPID
  2
GENIUS_GENDIM_13
 70
     0
  0
APPID
  2
GENIUS_GENDTOL_13
 70
     0
  0
APPID
  2
GENIUS_GE3DTOL_13
 70
     0
  0
APPID
  2
AMG_3D2D_5_0
 70
     0
  0
APPID
  2
AMDT_DM_ADJ
 70
     0
  0
APPID
  2
ACAD_PSEXT
 70
     0
  0
APPID
  2
ACAD_DSTYLE_DIMTEXT_FILL
 70
     0
  0
APPID
  2
ACAECLAYERSTANDARD
 70
     0
  0
APPID
  2
GENIUS_GENREC_14
 70
     0
  0
APPID
  2
GENIUS_GENODEF_13
 70
     0
  0
APPID
  2
GENIUS_GENOBJ-N-REC_13
 70
     0
  0
APPID
  2
DCO15
 70
     0
  0
APPID
  2
ACAD_DSTYLE_DIMJAG
 70
     0
  0
APPID
  2
ACAD_DSTYLE_DIMTALN
 70
     0
  0
APPID
  2
ACAD_MLEADERVER
 70
     0
  0
APPID
  2
GENIUS_GENSCREG_15
 70
     0
  0
APPID
  2
GENIUS_GENOBJ-N-SDF_13
 70
     0
  0
APPID
  2
ACAD_NAV_VCDISPLAY
 70
     0
  0
APPID
  2
ACAD_EXEMPT_FROM_CAD_STAND
 70
     0
  0
APPID
  2
ACCMTRANSPARENCY
 70
     0
  0
APPID
  2
HC_SUPERPART
 70
     0
  0
APPID
  2
HC_SP4BLOCK
 70
     0
  0
APPID
  2
HC_XDATA_SPRING
 70
     0
  0
APPID
  2
HCCAD_FRAME
 70
     0
  0
APPID
  2
GENIUS_GENOLIS_13
 70
     0
  0
APPID
  2
GENIUS_GENOENT_13
 70
     0
  0
APPID
  2
GENIUS_GENOREF_13
 70
     0
  0
APPID
  2
GENIUS_GENOBJ-N-TIT_13
 70
     0
  0
APPID
  2
GENIUS_GENOBJ-N-ZOO_13
 70
     0
  0
APPID
  2
GENIUS_GENTITLE_13
 70
     0
  0
APPID
  2
GENIUS_GENSYMENT_13
 70
     0
  0
APPID
  2
GENIUS_GENSCSYM_13
 70
     0
  0
APPID
  2
GENIUS_GENOBJ-N-REV_13
 70
     0
  0
APPID
  2
GENIUS_GENOBJ-N-RSSYM_13
 70
     0
  0
APPID
  2
GENIUS_GENREV_15
 70
     0
  0
APPID
  2
HRA
 70
     0
  0
APPID
  2
HTIT
 70
     0
  0
APPID
  2
GENIUS_GENZOO_17
 70
     0
  0
APPID
  2
GENIUS_GENOBJ-N-CEN_13
 70
     0
  0
APPID
  2
GENIUS_GENCEN_19
 70
     0
  0
APPID
  2
GENIUS_GENOBJ-N-CRS_13
 70
     0
  0
APPID
  2
GENIUS_GENCRS_20
 70
     0
  0
APPID
  2
GENIUS_GENOBJ-N-CRC_13
 70
     0
  0
APPID
  2
GENIUS_GENCRC_14
 70
     0
  0
APPID
  2
GENIUS_GENFIL_13
 70
     0
  0
APPID
  2
GENIUS_GENOBJ-N-CHA_13
 70
     0
  0
APPID
  2
GENIUS_GENOBJ-N-FIL_13
 70
     0
  0
APPID
  2
GENIUS_GENHATCH_13
 70
     0
  0
APPID
  2
GENIUS_GENOBJ-N-HTC_13
 70
     0
  0
APPID
  2
GENIUS_GENOBJ-N-DIM_13
 70
     0
  0
APPID
  2
GENIUS_GENOBJ-N-DIMLI_13
 70
     0
  0
APPID
  2
GENIUS_GENOBJ-N-FITL_13
 70
     0
  0
APPID
  2
GENIUS_GENFITL_13
 70
     0
  0
APPID
  2
GENLAYCOLOR
 70
     0
  0
APPID
  2
ACAD_DSTYLE_DIMBREAK
 70
     0
  0
APPID
  2
ACADANNOTATIVE
 70
     0
  0
APPID
  2
ACADANNOPO
 70
     0
  0
APPID
  2
PLOTTRANSPARENCY
 70
     0
  0
ENDTAB
  0
TABLE
  2
DIMSTYLE
 70
     8
  0
DIMSTYLE
  2
STANDARD
 70
     0
  3

  4

  5

  6

  7

 40
1.0
 41
2.5
 42
0.625
 43
3.75
 44
1.25
 45
0.0
 46
0.0
 47
0.0
 48
0.0
140
2.5
141
2.5
142
0.0
143
0.0394
144
1.0
145
0.0
146
1.0
147
0.625
 71
     0
 72
     0
 73
     0
 74
     0
 75
     0
 76
     0
 77
     1
 78
     8
170
     0
171
     4
172
     1
173
     0
174
     0
175
     0
176
     0
177
     0
178
     0
  0
DIMSTYLE
  2
ISO-25
 70
     0
  3

  4

  5

  6

  7

 40
1.0
 41
2.5
 42
0.625
 43
3.75
 44
1.25
 45
0.0
 46
0.0
 47
0.0
 48
0.0
140
2.5
141
2.5
142
0.0
143
0.0394
144
1.0
145
0.0
146
1.0
147
0.625
 71
     0
 72
     0
 73
     0
 74
     0
 75
     0
 76
     0
 77
     1
 78
     8
170
     0
171
     4
172
     1
173
     0
174
     0
175
     0
176
     0
177
     0
178
     0
  0
DIMSTYLE
  2
AM_JIS
 70
     0
  3

  4
"
  5
OPEN
  6

  7

 40
1.0
 41
2.5
 42
1.0
 43
7.0
 44
1.0
 45
0.0
 46
0.0
 47
0.1
 48
0.1
140
3.0
141
0.0
142
0.0
143
0.0393701
144
1.0
145
0.0
146
0.71
147
1.0
 71
     0
 72
     0
 73
     0
 74
     0
 75
     0
 76
     0
 77
     3
 78
     8
170
     0
171
     2
172
     1
173
     0
174
     0
175
     0
176
   256
177
   256
178
     2
  0
DIMSTYLE
  2
AM_JIS$3
 70
     0
  3

  4
"
  5
OPEN
  6

  7

 40
1.0
 41
2.5
 42
1.0
 43
10.0
 44
1.0
 45
0.0
 46
0.0
 47
0.1
 48
0.1
140
3.0
141
0.0
142
0.0
143
0.0393701
144
1.0
145
0.0
146
0.71
147
1.0
 71
     0
 72
     0
 73
     0
 74
     0
 75
     0
 76
     0
 77
     3
 78
     8
170
     0
171
     2
172
     1
173
     0
174
     0
175
     0
176
   256
177
   256
178
     2
  0
DIMSTYLE
  2
AM_JIS$4
 70
     0
  3

  4
"
  5

  6
OPEN30
  7
OPEN
 40
1.0
 41
2.5
 42
1.0
 43
10.0
 44
1.0
 45
0.0
 46
0.0
 47
0.1
 48
0.1
140
3.0
141
0.0
142
0.0
143
0.0393701
144
1.0
145
0.0
146
0.71
147
1.0
 71
     0
 72
     0
 73
     0
 74
     0
 75
     1
 76
     0
 77
     3
 78
     8
170
     0
171
     2
172
     1
173
     1
174
     0
175
     0
176
   256
177
   256
178
     2
  0
DIMSTYLE
  2
AM_JIS$6
 70
     0
  3

  4
"
  5
OPEN30
  6
OPEN30
  7
OPEN30
 40
1.0
 41
2.5
 42
1.0
 43
10.0
 44
1.0
 45
0.0
 46
0.0
 47
0.1
 48
0.1
140
3.5
141
0.0
142
0.0
143
0.0393701
144
1.0
145
0.0
146
0.71
147
1.5
 71
     0
 72
     0
 73
     0
 74
     0
 75
     0
 76
     0
 77
     0
 78
     8
170
     0
171
     2
172
     1
173
     0
174
     0
175
     0
176
   256
177
   256
178
     2
  0
DIMSTYLE
  2
AM_JIS$7
 70
     0
  3

  4
"
  5
OPEN30
  6

  7

 40
1.0
 41
2.5
 42
1.0
 43
10.0
 44
1.0
 45
0.0
 46
0.0
 47
0.1
 48
0.1
140
3.0
141
0.0
142
0.0
143
0.0393701
144
1.0
145
0.0
146
0.71
147
1.0
 71
     0
 72
     0
 73
     0
 74
     0
 75
     0
 76
     0
 77
     3
 78
     8
170
     0
171
     2
172
     1
173
     0
174
     0
175
     0
176
   256
177
   256
178
     2
  0
DIMSTYLE
  2
AM_JIS$0
 70
     0
  3

  4
"
  5
OPEN
  6

  7

 40
1.0
 41
2.5
 42
1.0
 43
7.0
 44
1.0
 45
0.0
 46
0.0
 47
0.1
 48
0.1
140
3.0
141
0.0
142
0.0
143
0.0393701
144
1.0
145
0.0
146
0.71
147
1.0
 71
     0
 72
     0
 73
     0
 74
     0
 75
     0
 76
     0
 77
     3
 78
     8
170
     0
171
     2
172
     1
173
     0
174
     0
175
     0
176
   256
177
   256
178
     2
  0
ENDTAB
  0
ENDSEC
  0
SECTION
  2
BLOCKS
  0
BLOCK
  8
0
  2
$MODEL_SPACE
 70
     0
 10
0.0
 20
0.0
 30
0.0
  3
$MODEL_SPACE
  1

  0
ENDBLK
  5
1C
  8
0
  0
BLOCK
 67
     1
  8
0
  2
$PAPER_SPACE
 70
     0
 10
0.0
 20
0.0
 30
0.0
  3
$PAPER_SPACE
  1

  0
ENDBLK
  5
19
 67
     1
  8
0
  0
BLOCK
  8
0
  2
_OPEN30
 70
     0
 10
0.0
 20
0.0
 30
0.0
  3
_OPEN30
  1

  0
LINE
  5
2EF
  8
0
  6
BYBLOCK
 62
     0
 10
-1.0
 20
0.26794919
 30
0.0
 11
0.0
 21
0.0
 31
0.0
  0
LINE
  5
2F0
  8
0
  6
BYBLOCK
 62
     0
 10
0.0
 20
0.0
 30
0.0
 11
-1.0
 21
-0.26794919
 31
0.0
  0
LINE
  5
2F1
  8
0
  6
BYBLOCK
 62
     0
 10
0.0
 20
0.0
 30
0.0
 11
-1.0
 21
0.0
 31
0.0
  0
ENDBLK
  5
2F3
  8
0
  0
BLOCK
  8
0
  2
_OPEN
 70
     0
 10
0.0
 20
0.0
 30
0.0
  3
_OPEN
  1

  0
LINE
  5
597
  8
0
  6
BYBLOCK
 62
     0
 10
-1.0
 20
0.1666666666666667
 30
0.0
 11
0.0
 21
0.0
 31
0.0
  0
LINE
  5
598
  8
0
  6
BYBLOCK
 62
     0
 10
-1.0
 20
-0.1666666666666667
 30
0.0
 11
0.0
 21
0.0
 31
0.0
  0
LINE
  5
599
  8
0
  6
BYBLOCK
 62
     0
 10
0.0
 20
0.0
 30
0.0
 11
-1.0
 21
0.0
 31
0.0
  0
ENDBLK
  5
59B
  8
0
  0
BLOCK
  8
0
  2
_TAGCIRCLE
 70
     2
 10
0.0
 20
0.0
 30
0.0
  3
_TAGCIRCLE
  1

  0
CIRCLE
  5
1151
  8
0
  6
BYBLOCK
 62
     0
 10
0.0
 20
0.0
 30
0.0
 40
4.0
  0
ATTDEF
  5
1152
  8
0
 62
     0
 10
-7.1
 20
-1.5
 30
0.0
 40
3.0
  1
タグ番号
 72
     1
 11
0.0
 21
-1.5
 31
0.0
  3
タグ番号を入力
  2
タグ番号
 70
     0
  0
ENDBLK
  5
1154
  8
0
  0
BLOCK
  8
AM_0
  2
_ACMOPEN30
 70
     0
 10
0.0
 20
0.0
 30
0.0
  3
_ACMOPEN30
  1
Acad:XRef
  0
LINE
  5
1CA4
  8
AM_0
 62
     0
 10
-1.0
 20
0.0
 30
0.0
 11
0.0
 21
0.0
 31
0.0
  0
LINE
  5
1CA5
  8
AM_0
 62
     0
 10
-1.0
 20
-0.2679491924311227
 30
0.0
 11
0.0
 21
0.0
 31
0.0
  0
LINE
  5
1CA6
  8
AM_0
 62
     0
 10
-1.0
 20
0.2679491924311227
 30
0.0
 11
0.0
 21
0.0
 31
0.0
  0
ENDBLK
  5
1CA7
  8
AM_0
  0
ENDSEC
  0
SECTION
  2
ENTITIES
  0
LINE
  5
2880
  8
0
 10
58.82174784776453
 20
32.17281279736227
 30
0.0
 11
58.82174784776453
 21
33.38820310653568
 31
0.0
  0
LINE
  5
2881
  8
0
 10
54.82174784776453
 20
32.17281279736227
 30
0.0
 11
54.82174784776453
 21
33.3882031065358
 31
0.0
  0
ARC
  5
2882
  8
0
 10
64.82174784776453
 20
34.17281279736227
 30
0.0
 40
2.0
 50
270.0
 51
0.0
  0
ARC
  5
2883
  8
0
 10
48.82174784776453
 20
34.17281279736227
 30
0.0
 40
2.0
 50
180.0
 51
270.0
  0
LINE
  5
2884
  8
0
 10
48.82174784776453
 20
32.17281279736227
 30
0.0
 11
64.82174784776453
 21
32.17281279736227
 31
0.0
  0
LINE
  5
2885
  8
0
 10
42.82174784776453
 20
73.17281279736227
 30
0.0
 11
42.82174784776453
 21
76.17281279736227
 31
0.0
  0
LINE
  5
2886
  8
0
 10
70.82174784776453
 20
73.17281279736227
 30
0.0
 11
70.82174784776453
 21
76.17281279736227
 31
0.0
  0
LINE
  5
2887
  8
0
 10
43.82174784776453
 20
72.17281279736227
 30
0.0
 11
49.99866238400432
 21
72.17281279736227
 31
0.0
  0
LINE
  5
2888
  8
0
 10
63.64483331152474
 20
72.17281279736227
 30
0.0
 11
69.82174784776453
 21
72.17281279736227
 31
0.0
  0
LINE
  5
2889
  8
0
 10
46.82174784776453
 20
34.17281279736227
 30
0.0
 11
46.82174784776453
 21
38.00700526005278
 31
0.0
  0
LINE
  5
288A
  8
0
 10
42.82174784776453
 20
73.17281279736227
 30
0.0
 11
43.82174784776453
 21
72.17281279736227
 31
0.0
  0
LINE
  5
288B
  8
0
 10
43.82174784776453
 20
68.60656952710292
 30
0.0
 11
43.82174784776453
 21
72.17281279736227
 31
0.0
  0
LINE
  5
288C
  8
0
 10
66.82174784776453
 20
34.17281279736227
 30
0.0
 11
66.82174784776453
 21
38.00700526005272
 31
0.0
  0
LINE
  5
288D
  8
0
 10
69.82174784776453
 20
68.60656952710292
 30
0.0
 11
69.82174784776453
 21
72.17281279736227
 31
0.0
  0
LINE
  5
288E
  8
0
 10
70.82174784776453
 20
73.17281279736227
 30
0.0
 11
69.82174784776453
 21
72.17281279736227
 31
0.0
  0
LINE
  5
288F
  8
0
 10
42.32177836534265
 20
76.17281279736227
 30
0.0
 11
71.32177836534265
 21
76.17281279736227
 31
0.0
  0
LINE
  5
2890
  8
0
 10
43.82179362413171
 20
90.17281279736227
 30
0.0
 11
69.82179362413171
 21
90.17281279736227
 31
0.0
  0
LINE
  5
2891
  8
0
 10
43.82179362413171
 20
90.17281279736227
 30
0.0
 11
43.82179362413171
 21
104.1728127973622
 31
0.0
  0
LINE
  5
2892
  8
0
 10
40.82175967397484
 20
88.17281909901828
 30
0.0
 11
43.82179362413171
 21
90.17281279736227
 31
0.0
  0
LINE
  5
2893
  8
0
 10
40.82175735189708
 20
76.57474871824058
 30
0.0
 11
40.82175967397484
 21
88.17281909901828
 31
0.0
  0
ARC
  5
2894
  8
0
 10
42.32177836534265
 20
79.17281279736227
 30
0.0
 40
3.0
 50
239.9995365861335
 51
270.0
  0
ARC
  5
2895
  8
0
 10
45.82179362413171
 20
104.1728127973622
 30
0.0
 40
2.0
 50
131.4066090610713
 51
180.0
  0
LINE
  5
2896
  8
0
 10
69.82179362413171
 20
90.17281279736227
 30
0.0
 11
69.82179362413171
 21
104.1728127973622
 31
0.0
  0
LINE
  5
2897
  8
0
 10
72.82175735189298
 20
76.5747244540014
 30
0.0
 11
72.82175967398439
 21
88.17286436523284
 31
0.0
  0
LINE
  5
2898
  8
0
 10
72.82175967398439
 20
88.17286436523284
 30
0.0
 11
69.82179362413171
 21
90.17281279736227
 31
0.0
  0
ARC
  5
2899
  8
0
 10
71.32177836534265
 20
79.17281279736227
 30
0.0
 40
3.000000000000014
 50
270.0
 51
299.9995365882019
  0
ARC
  5
289A
  8
0
 10
67.82179362413171
 20
104.1728127973622
 30
0.0
 40
2.0
 50
0.0
 51
48.59339093892875
  0
LINE
  5
289B
  8
0
 10
194.8057302994584
 20
32.17281279736227
 30
0.0
 11
194.8057302994584
 21
41.17281279736227
 31
0.0
  0
LINE
  5
289C
  8
0
 10
198.8057302994584
 20
32.17281279736227
 30
0.0
 11
198.8057302994584
 21
41.17281279736227
 31
0.0
  0
ARC
  5
289D
  8
0
 10
188.8057302994584
 20
34.17281279736227
 30
0.0
 40
2.0
 50
180.0
 51
270.0
  0
ARC
  5
289E
  8
0
 10
204.8057302994584
 20
34.17281279736227
 30
0.0
 40
2.0
 50
270.0
 51
0.0
  0
LINE
  5
289F
  8
0
 10
188.8057302994584
 20
32.17281279736227
 30
0.0
 11
204.8057302994584
 21
32.17281279736227
 31
0.0
  0
LINE
  5
28A0
  8
0
 10
180.6416677994584
 20
88.06343779736227
 30
0.0
 11
183.8057760758256
 21
90.17281279736227
 31
0.0
  0
ARC
  5
28A1
  8
0
 10
182.3057608170366
 20
79.17281279736227
 30
0.0
 40
3.0
 50
180.0
 51
270.0
  0
LINE
  5
28A2
  8
0
 10
174.4302267594194
 20
67.17281279736227
 30
0.0
 11
183.8057302994584
 21
67.17281279736233
 31
0.0
  0
LINE
  5
28A3
  8
0
 10
174.4302267594194
 20
41.17281279736227
 30
0.0
 11
219.1812338394975
 21
41.17281279736227
 31
0.0
  0
LINE
  5
28A4
  8
0
 10
174.4302267594194
 20
67.17281279736227
 30
0.0
 11
174.4302267594194
 21
41.17281279736227
 31
0.0
  0
LINE
  5
28A5
  8
0
 10
170.8057267594193
 20
37.54831279736226
 30
0.0
 11
167.8057291044036
 21
37.54831279736226
 31
0.0
  0
LINE
  5
28A6
  8
0
 10
172.2847267594193
 20
39.02731279736224
 30
0.0
 11
167.8057291044036
 21
39.02731279736224
 31
0.0
  0
LINE
  5
28A7
  8
0
 10
170.8057267594193
 20
37.54831279736226
 30
0.0
 11
174.4302267594194
 21
41.17281279736227
 31
0.0
  0
LINE
  5
28A8
  8
0
 10
170.8057267594193
 20
70.79731279736222
 30
0.0
 11
167.8057291044036
 21
70.79731279736228
 31
0.0
  0
LINE
  5
28A9
  8
0
 10
172.2847267594195
 20
69.3183127973623
 30
0.0
 11
167.8057291044036
 21
69.3183127973623
 31
0.0
  0
LINE
  5
28AA
  8
0
 10
170.8057267594193
 20
70.79731279736222
 30
0.0
 11
174.4302267594194
 21
67.17281279736227
 31
0.0
  0
ARC
  5
28AB
  8
0
 10
182.3057608170366
 20
85.56734404736227
 30
0.0
 40
2.999965191306392
 50
123.6910374462956
 51
180.0
  0
LINE
  5
28AC
  8
0
 10
179.3057608170366
 20
79.17281279736227
 30
0.0
 11
179.3057608170366
 21
85.56734404736227
 31
0.0
  0
LINE
  5
28AD
  8
0
 10
210.8057302994584
 20
73.17281279736227
 30
0.0
 11
210.8057302994584
 21
76.17281279736227
 31
0.0
  0
LINE
  5
28AE
  8
0
 10
182.8057302994584
 20
73.17281279736227
 30
0.0
 11
182.8057302994584
 21
76.17281279736227
 31
0.0
  0
LINE
  5
28AF
  8
0
 10
219.1812338394975
 20
67.17281279736227
 30
0.0
 11
209.8057302994584
 21
67.17281279736233
 31
0.0
  0
LINE
  5
28B0
  8
0
 10
186.8057302994584
 20
34.17281279736227
 30
0.0
 11
186.8057302994584
 21
41.17281279736227
 31
0.0
  0
LINE
  5
28B1
  8
0
 10
206.8057302994584
 20
34.17281279736227
 30
0.0
 11
206.8057302994584
 21
41.17281279736227
 31
0.0
  0
LINE
  5
28B2
  8
0
 10
183.8057302994584
 20
72.17281279736227
 30
0.0
 11
209.8057302994584
 21
72.17281279736227
 31
0.0
  0
LINE
  5
28B3
  8
0
 10
183.8057302994584
 20
67.17281279736233
 30
0.0
 11
183.8057302994584
 21
72.17281279736227
 31
0.0
  0
LINE
  5
28B4
  8
0
 10
182.8057302994584
 20
73.17281279736227
 30
0.0
 11
183.8057302994584
 21
72.17281279736227
 31
0.0
  0
LINE
  5
28B5
  8
0
 10
210.8057302994584
 20
73.17281279736227
 30
0.0
 11
209.8057302994584
 21
72.17281279736227
 31
0.0
  0
LINE
  5
28B6
  8
0
 10
209.8057302994584
 20
67.17281279736233
 30
0.0
 11
209.8057302994584
 21
72.17281279736227
 31
0.0
  0
LINE
  5
28B7
  8
0
 10
219.1812338394975
 20
67.17281279736227
 30
0.0
 11
219.1812338394975
 21
41.17281279736227
 31
0.0
  0
LINE
  5
28B8
  8
0
 10
225.8057291044026
 20
39.02731279736224
 30
0.0
 11
221.3267338394974
 21
39.02731279736224
 31
0.0
  0
LINE
  5
28B9
  8
0
 10
225.8057291044029
 20
37.54831279736226
 30
0.0
 11
222.8057338394974
 21
37.54831279736226
 31
0.0
  0
LINE
  5
28BA
  8
0
 10
222.8057338394974
 20
37.54831279736226
 30
0.0
 11
219.1812338394975
 21
41.17281279736227
 31
0.0
  0
LINE
  5
28BB
  8
0
 10
225.8057291044026
 20
69.3183127973623
 30
0.0
 11
221.3267338394974
 21
69.3183127973623
 31
0.0
  0
LINE
  5
28BC
  8
0
 10
225.8057291044029
 20
70.79731279736222
 30
0.0
 11
222.8057338394974
 21
70.79731279736222
 31
0.0
  0
LINE
  5
28BD
  8
0
 10
222.8057338394974
 20
70.79731279736222
 30
0.0
 11
219.1812338394975
 21
67.17281279736227
 31
0.0
  0
ARC
  5
28BE
  8
0
 10
211.3057760758256
 20
85.56734404736227
 30
0.0
 40
3.0
 50
0.0
 51
56.30872007704352
  0
ARC
  5
28BF
  8
0
 10
211.3057608170366
 20
79.17281279736227
 30
0.0
 40
3.000000000000014
 50
270.0
 51
0.0
  0
LINE
  5
28C0
  8
0
 10
209.8057760758256
 20
90.17281279736227
 30
0.0
 11
209.8057760758256
 21
104.1728127973622
 31
0.0
  0
LINE
  5
28C1
  8
0
 10
183.8057760758256
 20
90.17281279736227
 30
0.0
 11
183.8057760758256
 21
104.1728127973622
 31
0.0
  0
LINE
  5
28C2
  8
0
 10
182.3057608170366
 20
76.17281279736227
 30
0.0
 11
211.3057608170366
 21
76.17281279736227
 31
0.0
  0
LINE
  5
28C3
  8
0
 10
183.8057760758256
 20
90.17281279736227
 30
0.0
 11
209.8057760758256
 21
90.17281279736227
 31
0.0
  0
LINE
  5
28C4
  8
0
 10
212.9698843521928
 20
88.06343779736227
 30
0.0
 11
209.8057760758256
 21
90.17281279736227
 31
0.0
  0
ARC
  5
28C5
  8
0
 10
185.8057760758256
 20
104.1728127973622
 30
0.0
 40
2.0
 50
131.4066090609928
 51
180.0
  0
ARC
  5
28C6
  8
0
 10
207.8057760758256
 20
104.1728127973622
 30
0.0
 40
2.0
 50
0.0
 51
48.59339093900719
  0
LINE
  5
28C7
  8
0
 10
214.3057608170366
 20
79.17281279736227
 30
0.0
 11
214.3057608170366
 21
85.56734404736227
 31
0.0
  0
LINE
  5
28C8
  8
0
 10
170.6403715258816
 20
251.1412893715533
 30
0.0
 11
167.8057291044036
 21
251.1412893715533
 31
0.0
  0
LINE
  5
28C9
  8
0
 10
169.7573693555862
 20
252.6202893715533
 30
0.0
 11
167.8057291044036
 21
252.6202893715532
 31
0.0
  0
LINE
  5
28CA
  8
0
 10
170.6403715258818
 20
284.3902893715533
 30
0.0
 11
167.8057291044036
 21
284.3902893715533
 31
0.0
  0
LINE
  5
28CB
  8
0
 10
169.7573693555864
 20
282.9112893715533
 30
0.0
 11
167.8057291044036
 21
282.9112893715533
 31
0.0
  0
LINE
  5
28CC
  8
0
 10
225.8057291044029
 20
251.1412893715533
 30
0.0
 11
222.9710890730353
 21
251.1412893715533
 31
0.0
  0
LINE
  5
28CD
  8
0
 10
225.8057291044026
 20
252.6202893715533
 30
0.0
 11
223.8540912433307
 21
252.6202893715533
 31
0.0
  0
LINE
  5
28CE
  8
0
 10
225.8057291044029
 20
284.3902893715533
 30
0.0
 11
222.971089073035
 21
284.3902893715533
 31
0.0
  0
LINE
  5
28CF
  8
0
 10
225.8057291044026
 20
282.9112893715533
 30
0.0
 11
223.8540912433305
 21
282.9112893715533
 31
0.0
  0
LINE
  5
28D0
  8
7
 10
100.8057291044036
 20
267.7657893715532
 30
0.0
 11
292.8057291044026
 21
267.7657893715533
 31
0.0
1001
GENIUS_GENODEF_13
1002
{
1000
HIER
1070
     0
1002
}
1002
{
1000
MANEDIT
1070
     0
1002
}
1002
{
1000
NOSEL
1070
     0
1002
}
1002
{
1000
BEHIND
1070
     0
1002
}
1002
{
1000
OTHER
1070
     0
1002
}
1002
{
1000
REACTOR
1002
}
1001
GENIUS_GENOBJ-N-CEN_13
1002
{
1000
OWNER
1000
GEN
1002
}
1001
GENIUS_GENCEN_19
1002
{
1040
2.794
1002
}
  0
LINE
  5
28D1
  8
7
 10
196.8057302994584
 20
29.37881279736229
 30
0.0
 11
196.8057302994584
 21
152.4668127973623
 31
0.0
1001
GENIUS_GENODEF_13
1002
{
1000
HIER
1070
     0
1002
}
1002
{
1000
MANEDIT
1070
     0
1002
}
1002
{
1000
NOSEL
1070
     0
1002
}
1002
{
1000
BEHIND
1070
     0
1002
}
1002
{
1000
OTHER
1070
     0
1002
}
1002
{
1000
REACTOR
1002
}
1001
GENIUS_GENOBJ-N-CEN_13
1002
{
1000
OWNER
1000
GEN
1002
}
1001
GENIUS_GENCEN_19
1002
{
1040
2.794
1002
}
  0
LINE
  5
28D2
  8
7
 10
56.82174784776453
 20
29.37881279736229
 30
0.0
 11
56.82174784776453
 21
152.4668127973623
 31
0.0
1001
GENIUS_GENODEF_13
1002
{
1000
HIER
1070
     0
1002
}
1002
{
1000
MANEDIT
1070
     0
1002
}
1002
{
1000
NOSEL
1070
     0
1002
}
1002
{
1000
BEHIND
1070
     0
1002
}
1002
{
1000
OTHER
1070
     0
1002
}
1002
{
1000
REACTOR
1002
}
1001
GENIUS_GENOBJ-N-CEN_13
1002
{
1000
OWNER
1000
GEN
1002
}
1001
GENIUS_GENCEN_19
1002
{
1040
2.794
1002
}
  0
LINE
  5
28D3
  8
7
 10
100.8057291044036
 20
54.17281279736227
 30
0.0
 11
292.8057291044026
 21
54.17281279736227
 31
0.0
1001
GENIUS_GENOBJ-N-CEN_13
1002
{
1000
OWNER
1000
GEN
1002
}
1001
GENIUS_GENODEF_13
1002
{
1000
HIER
1070
     0
1002
}
1002
{
1000
MANEDIT
1070
     0
1002
}
1002
{
1000
NOSEL
1070
     0
1002
}
1002
{
1000
BEHIND
1070
     0
1002
}
1002
{
1000
OTHER
1070
     0
1002
}
1002
{
1000
REACTOR
1002
}
1001
GENIUS_GENCEN_19
1002
{
1040
2.794
1002
}
  0
LINE
  5
28D4
  8
7
 10
76.24025286675192
 20
54.17281279736227
 30
0.0
 11
37.40325286675193
 21
54.17281279736227
 31
0.0
1001
GENIUS_GENOBJ-N-CEN_13
1002
{
1000
OWNER
1000
GEN
1002
}
1001
GENIUS_GENODEF_13
1002
{
1000
HIER
1070
     0
1002
}
1002
{
1000
MANEDIT
1070
     0
1002
}
1002
{
1000
NOSEL
1070
     0
1002
}
1002
{
1000
BEHIND
1070
     0
1002
}
1002
{
1000
OTHER
1070
     0
1002
}
1002
{
1000
REACTOR
1002
}
1001
GENIUS_GENCEN_19
1002
{
1040
2.794
1002
}
  0
TEXT
  5
28D5
  8
10
 10
-1.5
 20
0.5
 30
0.0
 40
10.0
  1
2023.09.19 LD2-20[丸ハンドル][両側チックナット付]
 11
-1.5
 21
0.5
 31
0.0
 73
     1
  0
LINE
  5
28D6
  8
0
 10
147.8057291044036
 20
40.92281279736045
 30
0.0
 11
114.1804985762467
 21
40.92281279736045
 31
0.0
  0
LINE
  5
28D7
  8
0
 10
147.8057291044036
 20
67.42281279736045
 30
0.0
 11
114.1804985762521
 21
67.42281279736045
 31
0.0
  0
LINE
  5
28D8
  8
0
 10
167.8057291044036
 20
35.17281279736045
 30
0.0
 11
167.8057291044036
 21
73.17281279736045
 31
0.0
  0
LINE
  5
28D9
  8
0
 10
147.8057291044036
 20
35.17281279736045
 30
0.0
 11
147.8057291044036
 21
73.17281279736045
 31
0.0
  0
LINE
  5
28DA
  8
0
 10
150.7450393336087
 20
32.2335025681553
 30
0.0
 11
164.8664188751966
 21
32.2335025681553
 31
0.0
  0
LINE
  5
28DB
  8
0
 10
147.8057291044036
 20
35.17281279736045
 30
0.0
 11
150.7450393336087
 21
32.2335025681553
 31
0.0
  0
LINE
  5
28DC
  8
0
 10
167.8057291044036
 20
35.17281279736045
 30
0.0
 11
164.8664188751966
 21
32.2335025681553
 31
0.0
  0
LINE
  5
28DD
  8
0
 10
150.7450393336087
 20
76.11212302656742
 30
0.0
 11
164.8664188751966
 21
76.11212302656742
 31
0.0
  0
LINE
  5
28DE
  8
0
 10
147.8057291044036
 20
73.17281279736045
 30
0.0
 11
150.7450393336087
 21
76.11212302656742
 31
0.0
  0
LINE
  5
28DF
  8
0
 10
167.8057291044036
 20
73.17281279736045
 30
0.0
 11
164.8664188751966
 21
76.11212302656742
 31
0.0
  0
POINT
  5
28E0
  8
0
 10
158.8057291044031
 20
54.17281279736227
 30
0.0
  0
LINE
  5
28E1
  8
0
 10
103.8057291044036
 20
42.41380511275412
 30
0.0
 11
103.8057291044036
 21
65.93182048197042
 31
0.0
  0
LINE
  5
28E2
  8
0
 10
118.8057291044036
 20
41.9424111221054
 30
0.0
 11
103.8057291044036
 21
42.41380511275412
 31
0.0
  0
LINE
  5
28E3
  8
0
 10
114.2744343250681
 20
40.92281279736045
 30
0.0
 11
105.0054312636323
 21
41.21410295352717
 31
0.0
  0
LINE
  5
28E4
  8
0
 10
105.0054312636323
 20
41.21410295352717
 30
0.0
 11
103.8057291044036
 21
42.41380511275412
 31
0.0
  0
LINE
  5
28E5
  8
0
 10
118.8057291044036
 20
40.92281279736045
 30
0.0
 11
118.8057291044036
 21
54.17281279736227
 31
0.0
  0
LINE
  5
28E6
  8
0
 10
118.8057291044036
 20
41.9424111221054
 30
0.0
 11
121.4380827827435
 21
40.92281279736045
 31
0.0
  0
LINE
  5
28E7
  8
0
 10
103.8057291044036
 20
65.93182048197042
 30
0.0
 11
118.8057291044036
 21
66.40321447261914
 31
0.0
  0
LINE
  5
28E8
  8
0
 10
105.0054312636323
 20
67.13152264119736
 30
0.0
 11
114.2744343250213
 21
67.42281279736045
 31
0.0
  0
LINE
  5
28E9
  8
0
 10
103.8057291044036
 20
65.93182048197042
 30
0.0
 11
105.0054312636323
 21
67.13152264119736
 31
0.0
  0
LINE
  5
28EA
  8
0
 10
118.8057291044036
 20
54.17281279736227
 30
0.0
 11
118.8057291044036
 21
67.42281279736045
 31
0.0
  0
LINE
  5
28EB
  8
0
 10
118.8057291044036
 20
66.40321447261914
 30
0.0
 11
121.4380827827397
 21
67.42281279736045
 31
0.0
  0
LINE
  5
28EC
  8
0
 10
245.8057291044026
 20
67.42281279736409
 30
0.0
 11
279.4309596325595
 21
67.42281279736409
 31
0.0
  0
LINE
  5
28ED
  8
0
 10
245.8057291044026
 20
40.92281279736409
 30
0.0
 11
279.430959632554
 21
40.92281279736409
 31
0.0
  0
LINE
  5
28EE
  8
0
 10
225.8057291044026
 20
73.17281279736409
 30
0.0
 11
225.8057291044026
 21
35.17281279736409
 31
0.0
  0
LINE
  5
28EF
  8
0
 10
245.8057291044026
 20
73.17281279736409
 30
0.0
 11
245.8057291044026
 21
35.17281279736409
 31
0.0
  0
LINE
  5
28F0
  8
0
 10
242.8664188751975
 20
76.11212302656924
 30
0.0
 11
228.7450393336096
 21
76.11212302656924
 31
0.0
  0
LINE
  5
28F1
  8
0
 10
245.8057291044026
 20
73.17281279736409
 30
0.0
 11
242.8664188751975
 21
76.11212302656924
 31
0.0
  0
LINE
  5
28F2
  8
0
 10
225.8057291044026
 20
73.17281279736409
 30
0.0
 11
228.7450393336096
 21
76.11212302656924
 31
0.0
  0
LINE
  5
28F3
  8
0
 10
242.8664188751975
 20
32.23350256815712
 30
0.0
 11
228.7450393336096
 21
32.23350256815712
 31
0.0
  0
LINE
  5
28F4
  8
0
 10
245.8057291044026
 20
35.17281279736409
 30
0.0
 11
242.8664188751975
 21
32.23350256815712
 31
0.0
  0
LINE
  5
28F5
  8
0
 10
225.8057291044026
 20
35.17281279736409
 30
0.0
 11
228.7450393336096
 21
32.23350256815712
 31
0.0
  0
POINT
  5
28F6
  8
0
 10
234.8057291044031
 20
54.17281279736227
 30
0.0
 50
180.0
  0
LINE
  5
28F7
  8
0
 10
289.8057291044026
 20
65.93182048197042
 30
0.0
 11
289.8057291044026
 21
42.41380511275412
 31
0.0
  0
LINE
  5
28F8
  8
0
 10
274.8057291044026
 20
66.40321447261914
 30
0.0
 11
289.8057291044026
 21
65.93182048197042
 31
0.0
  0
LINE
  5
28F9
  8
0
 10
279.3370238837385
 20
67.42281279736409
 30
0.0
 11
288.6060269451739
 21
67.13152264119736
 31
0.0
  0
LINE
  5
28FA
  8
0
 10
288.6060269451739
 20
67.13152264119736
 30
0.0
 11
289.8057291044026
 21
65.93182048197042
 31
0.0
  0
LINE
  5
28FB
  8
0
 10
274.8057291044026
 20
67.42281279736409
 30
0.0
 11
274.8057291044026
 21
54.17281279736227
 31
0.0
  0
LINE
  5
28FC
  8
0
 10
274.8057291044026
 20
66.40321447261914
 30
0.0
 11
272.1733754260629
 21
67.42281279736409
 31
0.0
  0
LINE
  5
28FD
  8
0
 10
289.8057291044026
 20
42.41380511275412
 30
0.0
 11
274.8057291044026
 21
41.9424111221054
 31
0.0
  0
LINE
  5
28FE
  8
0
 10
288.6060269451739
 20
41.21410295352717
 30
0.0
 11
279.3370238837854
 21
40.92281279736409
 31
0.0
  0
LINE
  5
28FF
  8
0
 10
289.8057291044026
 20
42.41380511275412
 30
0.0
 11
288.6060269451739
 21
41.21410295352717
 31
0.0
  0
LINE
  5
2900
  8
0
 10
274.8057291044026
 20
54.17281279736227
 30
0.0
 11
274.8057291044026
 21
40.92281279736409
 31
0.0
  0
LINE
  5
2901
  8
0
 10
274.8057291044026
 20
41.9424111221054
 30
0.0
 11
272.173375426067
 21
40.92281279736409
 31
0.0
  0
CIRCLE
  5
2902
  8
0
  6
CONTINUOUS
 10
56.82175286675192
 20
54.17281279736227
 30
0.0
 40
15.1455
  0
LINE
  5
2903
  8
0
  6
CONTINUOUS
 10
37.82174784776453
 20
43.20315768275941
 30
0.0
 11
37.82174784776453
 21
65.14246791196518
 31
0.0
  0
LINE
  5
2904
  8
0
  6
CONTINUOUS
 10
56.82174784776453
 20
32.2335025681565
 30
0.0
 11
37.82174784776453
 21
43.20315768275941
 31
0.0
  0
LINE
  5
2905
  8
0
  6
CONTINUOUS
 10
75.82174784776453
 20
43.20315768275935
 30
0.0
 11
56.82174784776453
 21
32.2335025681565
 31
0.0
  0
LINE
  5
2906
  8
0
  6
CONTINUOUS
 10
75.82174784776453
 20
65.14246791196518
 30
0.0
 11
75.82174784776453
 21
43.20315768275935
 31
0.0
  0
LINE
  5
2907
  8
0
  6
CONTINUOUS
 10
56.82174784776453
 20
76.11212302656804
 30
0.0
 11
75.82174784776453
 21
65.14246791196518
 31
0.0
  0
LINE
  5
2908
  8
0
  6
CONTINUOUS
 10
37.82174784776453
 20
65.14246791196518
 30
0.0
 11
56.82174784776453
 21
76.11212302656804
 31
0.0
  0
CIRCLE
  5
2909
  8
0
  6
CONTINUOUS
 10
56.82174784776453
 20
54.17281279736227
 30
0.0
 40
18.75000000000003
  0
CIRCLE
  5
290A
  8
0
  6
CONTINUOUS
 10
56.82174784776453
 20
54.17281279736227
 30
0.0
 40
16.6245
  0
CIRCLE
  5
290B
  8
0
  6
CONTINUOUS
 10
56.82174784776453
 20
54.17281279736227
 30
0.0
 40
8.5
  0
CIRCLE
  5
290C
  8
0
  6
CONTINUOUS
 10
56.82174784776453
 20
54.17281279736227
 30
0.0
 40
8.999999999999616
  0
CIRCLE
  5
290D
  8
0
  6
CONTINUOUS
 10
56.82174784776453
 20
54.17281279736227
 30
0.0
 40
9.499999999999673
  0
CIRCLE
  5
290E
  8
0
  6
CONTINUOUS
 10
56.82174784776453
 20
54.17281279736227
 30
0.0
 40
10.29999999999968
  0
CIRCLE
  5
290F
  8
0
  6
CONTINUOUS
 10
56.82174784776453
 20
54.17281279736227
 30
0.0
 40
11.7674114272631
  0
CIRCLE
  5
2910
  8
0
  6
CONTINUOUS
 10
56.82174784776453
 20
54.17281279736227
 30
0.0
 40
12.96711358649152
  0
POINT
  5
2911
  8
0
 10
158.9339728611837
 20
267.7657893709268
 30
0.0
  0
LINE
  5
2912
  8
AM_7
 10
196.8057302994584
 20
302.2657841494092
 30
0.0
 11
196.8057302994584
 21
233.4717945936973
 31
0.0
1001
GENIUS_GENODEF_13
1002
{
1000
HIER
1070
     0
1002
}
1002
{
1000
MANEDIT
1070
     0
1002
}
1002
{
1000
NOSEL
1070
     0
1002
}
1002
{
1000
BEHIND
1070
     0
1002
}
1002
{
1000
OTHER
1070
     0
1002
}
1002
{
1000
REACTOR
1002
}
1001
GENIUS_GENOBJ-N-CEN_13
1002
{
1000
OWNER
1000
GEN
1002
}
1001
GENIUS_GENCEN_19
1002
{
1040
2.794
1002
}
  0
LINE
  5
2913
  8
0
 10
147.8057291044036
 20
254.5157893715515
 30
0.0
 11
114.1804985762467
 21
254.5157893715515
 31
0.0
  0
LINE
  5
2914
  8
0
 10
147.8057291044036
 20
281.0157893715515
 30
0.0
 11
114.1804985762521
 21
281.0157893715515
 31
0.0
  0
LINE
  5
2915
  8
0
 10
167.8057291044036
 20
248.7657893715515
 30
0.0
 11
167.8057291044036
 21
256.8113413851503
 31
0.0
  0
LINE
  5
2916
  8
0
 10
167.8057291044036
 20
260.8895433723357
 30
0.0
 11
167.8057291044036
 21
267.7657893715533
 31
0.0
  0
LINE
  5
2917
  8
0
 10
167.8057291044036
 20
267.7657893715533
 30
0.0
 11
167.8057291044036
 21
274.64203537077
 31
0.0
  0
LINE
  5
2918
  8
0
 10
167.8057291044036
 20
278.7202373579556
 30
0.0
 11
167.8057291044036
 21
286.7657893715515
 31
0.0
  0
LINE
  5
2919
  8
0
 10
147.8057291044036
 20
248.7657893715515
 30
0.0
 11
147.8057291044036
 21
286.7657893715515
 31
0.0
  0
LINE
  5
291A
  8
0
 10
103.8057291044036
 20
256.0067816869451
 30
0.0
 11
103.8057291044036
 21
279.5247970561614
 31
0.0
  0
LINE
  5
291B
  8
0
 10
118.8057291044036
 20
255.5353876962964
 30
0.0
 11
103.8057291044036
 21
256.0067816869451
 31
0.0
  0
LINE
  5
291C
  8
0
 10
114.2744343250681
 20
254.5157893715515
 30
0.0
 11
105.0054312636323
 21
254.8070795277182
 31
0.0
  0
LINE
  5
291D
  8
0
 10
105.0054312636323
 20
254.8070795277182
 30
0.0
 11
103.8057291044036
 21
256.0067816869451
 31
0.0
  0
LINE
  5
291E
  8
0
 10
118.8057291044036
 20
254.5157893715515
 30
0.0
 11
118.8057291044036
 21
267.7657893715533
 31
0.0
  0
LINE
  5
291F
  8
0
 10
118.8057291044036
 20
255.5353876962964
 30
0.0
 11
121.4380827827435
 21
254.5157893715515
 31
0.0
  0
LINE
  5
2920
  8
0
 10
103.8057291044036
 20
279.5247970561614
 30
0.0
 11
118.8057291044036
 21
279.9961910468102
 31
0.0
  0
LINE
  5
2921
  8
0
 10
105.0054312636323
 20
280.7244992153884
 30
0.0
 11
114.2744343250213
 21
281.0157893715515
 31
0.0
  0
LINE
  5
2922
  8
0
 10
103.8057291044036
 20
279.5247970561614
 30
0.0
 11
105.0054312636323
 21
280.7244992153884
 31
0.0
  0
LINE
  5
2923
  8
0
 10
118.8057291044036
 20
267.7657893715533
 30
0.0
 11
118.8057291044036
 21
281.0157893715515
 31
0.0
  0
LINE
  5
2924
  8
0
 10
118.8057291044036
 20
279.9961910468102
 30
0.0
 11
121.4380827827397
 21
281.0157893715515
 31
0.0
  0
LINE
  5
2925
  8
0
 10
245.8057291044026
 20
281.0157893715551
 30
0.0
 11
279.4309596325595
 21
281.0157893715551
 31
0.0
  0
LINE
  5
2926
  8
0
 10
245.8057291044026
 20
254.5157893715551
 30
0.0
 11
279.430959632554
 21
254.5157893715551
 31
0.0
  0
LINE
  5
2927
  8
0
 10
225.8057291044026
 20
286.7657893715551
 30
0.0
 11
225.8057291044029
 21
278.7202436853565
 31
0.0
  0
LINE
  5
2928
  8
0
 10
225.8057291044029
 20
274.6420334478878
 30
0.0
 11
225.8057291044031
 21
267.7657893715533
 31
0.0
  0
LINE
  5
2929
  8
0
 10
225.8057291044031
 20
267.7657893715533
 30
0.0
 11
225.8057291044029
 21
260.8895452952179
 31
0.0
  0
LINE
  5
292A
  8
0
 10
225.8057291044029
 20
256.8113350577494
 30
0.0
 11
225.8057291044026
 21
248.7657893715551
 31
0.0
  0
LINE
  5
292B
  8
0
 10
245.8057291044026
 20
286.7657893715551
 30
0.0
 11
245.8057291044026
 21
248.7657893715551
 31
0.0
  0
POINT
  5
292C
  8
0
 10
234.8057291044031
 20
267.7657893715533
 30
0.0
 50
180.0
  0
LINE
  5
292D
  8
0
 10
289.8057291044026
 20
279.5247970561614
 30
0.0
 11
289.8057291044026
 21
256.0067816869451
 31
0.0
  0
LINE
  5
292E
  8
0
 10
274.8057291044026
 20
279.9961910468102
 30
0.0
 11
289.8057291044026
 21
279.5247970561614
 31
0.0
  0
LINE
  5
292F
  8
0
 10
279.3370238837385
 20
281.0157893715551
 30
0.0
 11
288.6060269451739
 21
280.7244992153884
 31
0.0
  0
LINE
  5
2930
  8
0
 10
288.6060269451739
 20
280.7244992153884
 30
0.0
 11
289.8057291044026
 21
279.5247970561614
 31
0.0
  0
LINE
  5
2931
  8
0
 10
274.8057291044026
 20
281.0157893715551
 30
0.0
 11
274.8057291044026
 21
267.7657893715533
 31
0.0
  0
LINE
  5
2932
  8
0
 10
274.8057291044026
 20
279.9961910468102
 30
0.0
 11
272.1733754260629
 21
281.0157893715551
 31
0.0
  0
LINE
  5
2933
  8
0
 10
289.8057291044026
 20
256.0067816869451
 30
0.0
 11
274.8057291044026
 21
255.5353876962964
 31
0.0
  0
LINE
  5
2934
  8
0
 10
288.6060269451739
 20
254.8070795277182
 30
0.0
 11
279.3370238837854
 21
254.5157893715551
 31
0.0
  0
LINE
  5
2935
  8
0
 10
289.8057291044026
 20
256.0067816869451
 30
0.0
 11
288.6060269451739
 21
254.8070795277182
 31
0.0
  0
LINE
  5
2936
  8
0
 10
274.8057291044026
 20
267.7657893715533
 30
0.0
 11
274.8057291044026
 21
254.5157893715551
 31
0.0
  0
LINE
  5
2937
  8
0
 10
274.8057291044026
 20
255.5353876962964
 30
0.0
 11
272.173375426067
 21
254.5157893715551
 31
0.0
  0
LINE
  5
2938
  8
0
 10
147.8057291044036
 20
286.7657893715515
 30
0.0
 11
167.8057291044036
 21
286.7657893715515
 31
0.0
  0
LINE
  5
2939
  8
0
 10
147.8057291044036
 20
248.7657893715515
 30
0.0
 11
167.8057291044036
 21
248.7657893715515
 31
0.0
  0
LINE
  5
293A
  8
0
 10
225.8057291044026
 20
286.7657893715551
 30
0.0
 11
245.8057291044026
 21
286.7657893715551
 31
0.0
  0
LINE
  5
293B
  8
0
 10
245.8057291044026
 20
248.7657893715551
 30
0.0
 11
225.8057291044026
 21
248.7657893715551
 31
0.0
  0
POLYLINE
  5
293C
  8
0
 66
     1
 10
0.0
 20
0.0
 30
0.0
 70
     1
  0
VERTEX
  5
299B
  8
0
 10
203.8273719248064
 20
297.9601025593894
 30
0.0
 42
0.1147433684531263
  0
VERTEX
  5
299C
  8
0
 10
189.7840886741105
 20
297.9601025593894
 30
0.0
 42
0.3169980516087132
  0
VERTEX
  5
299D
  8
0
 10
188.2501706661305
 20
296.240381543532
 30
0.0
 42
-0.5034443575988989
  0
VERTEX
  5
299E
  8
0
 10
176.4237899327873
 20
289.4124174435975
 30
0.0
 42
0.3169980516087056
  0
VERTEX
  5
299F
  8
0
 10
174.1675088416423
 20
288.9438659892932
 30
0.0
 42
0.1147433684531285
  0
VERTEX
  5
29A0
  8
0
 10
167.1458672162944
 20
276.7820259416495
 30
0.0
 42
0.3169980516087055
  0
VERTEX
  5
29A1
  8
0
 10
167.8682302994584
 20
274.5937534714877
 30
0.0
 42
-0.5034443575988864
  0
VERTEX
  5
29A2
  8
0
 10
167.8682302994584
 20
260.937825271618
 30
0.0
 42
0.3169980516087206
  0
VERTEX
  5
29A3
  8
0
 10
167.1458672162944
 20
258.7495528014562
 30
0.0
 42
0.1147433684531274
  0
VERTEX
  5
29A4
  8
0
 10
174.1675088416423
 20
246.5877127538134
 30
0.0
 42
0.3169980516087066
  0
VERTEX
  5
29A5
  8
0
 10
176.4237899327873
 20
246.1191612995082
 30
0.0
 42
-0.503444357598898
  0
VERTEX
  5
29A6
  8
0
 10
188.2501706661305
 20
239.2911971995737
 30
0.0
 42
0.316998051608725
  0
VERTEX
  5
29A7
  8
0
 10
189.7840886741105
 20
237.5714761837163
 30
0.0
 42
0.1147433684531251
  0
VERTEX
  5
29A8
  8
0
 10
203.8273719248064
 20
237.5714761837163
 30
0.0
 42
0.3169980516087174
  0
VERTEX
  5
29A9
  8
0
 10
205.3612899327863
 20
239.2911971995737
 30
0.0
 42
-0.503444357598898
  0
VERTEX
  5
29AA
  8
0
 10
217.1876706661296
 20
246.1191612995082
 30
0.0
 42
0.3169980516087068
  0
VERTEX
  5
29AB
  8
0
 10
219.4439517572746
 20
246.5877127538134
 30
0.0
 42
0.1147433684531273
  0
VERTEX
  5
29AC
  8
0
 10
226.4655933826225
 20
258.7495528014562
 30
0.0
 42
0.3169980516087207
  0
VERTEX
  5
29AD
  8
0
 10
225.7432302994584
 20
260.937825271618
 30
0.0
 42
-0.5034443575988866
  0
VERTEX
  5
29AE
  8
0
 10
225.7432302994584
 20
274.5937534714877
 30
0.0
 42
0.3169980516087057
  0
VERTEX
  5
29AF
  8
0
 10
226.4655933826225
 20
276.7820259416495
 30
0.0
 42
0.1147433684531281
  0
VERTEX
  5
29B0
  8
0
 10
219.4439517572746
 20
288.9438659892932
 30
0.0
 42
0.3169980516087061
  0
VERTEX
  5
29B1
  8
0
 10
217.1876706661296
 20
289.4124174435975
 30
0.0
 42
-0.5034443575988988
  0
VERTEX
  5
29B2
  8
0
 10
205.3612899327863
 20
296.240381543532
 30
0.0
 42
0.3169980516087095
  0
SEQEND
  5
29B3
  8
0
  0
CIRCLE
  5
293D
  8
0
 10
196.8057302994584
 20
267.7657893715533
 30
0.0
 40
11.0
  0
ARC
  5
293E
  8
0
 10
54.78278494500069
 20
113.8763878139289
 30
0.0
 40
30.91919402524992
 50
78.72967692071798
 51
86.21889213639939
  0
LINE
  5
293F
  8
0
 10
43.82174784775725
 20
146.6728823621593
 30
0.0
 11
69.82174784776817
 21
146.672882362152
 31
0.0
  0
LINE
  5
2940
  8
0
 10
34.32174784775725
 20
105.6728823621593
 30
0.0
 11
79.32174784775634
 21
105.6728823621593
 31
0.0
  0
LINE
  5
2941
  8
0
 10
32.32174784775725
 20
113.4145521129617
 30
0.0
 11
81.32174784775634
 21
113.4145521129617
 31
0.0
  0
ARC
  5
2942
  8
0
 10
56.86657316638798
 20
118.8508412832853
 30
0.0
 40
3.704509570427573
 50
269.3066925052599
 51
329.9640267076171
  0
LINE
  5
2943
  8
0
 10
25.82174784775725
 20
139.1690359807039
 30
0.0
 11
25.82174784775725
 21
124.6728823621611
 31
0.0
  0
LINE
  5
2944
  8
0
 10
26.59671296882971
 20
124.6728823621611
 30
0.0
 11
26.59671296882971
 21
141.2528799023225
 31
0.0
  0
LINE
  5
2945
  8
0
 10
49.99378374783009
 20
142.3940245611434
 30
0.0
 11
49.99378374783009
 21
124.6728823621611
 31
0.0
  0
LINE
  5
2946
  8
0
 10
35.25972722494316
 20
124.6728823621611
 30
0.0
 11
35.25972722494316
 21
142.3940245611434
 31
0.0
  0
ARC
  5
2947
  8
0
 10
34.46829693881864
 20
115.7907798181637
 30
0.0
 40
0.5000000000001373
 50
246.2367264954113
 51
357.253232453353
1001
GENIUS_GENODEF_13
1002
{
1000
HIER
1070
     0
1002
}
1002
{
1000
MANEDIT
1070
     0
1002
}
1002
{
1000
NOSEL
1070
     0
1002
}
1002
{
1000
BEHIND
1070
     0
1002
}
1002
{
1000
REACTOR
1002
}
1001
GENIUS_GENOBJ-N-FIL_13
1002
{
1000
OWNER
1000
GEN
1002
}
  0
ARC
  5
2948
  8
0
 10
34.32174784775725
 20
107.6728823621593
 30
0.0
 40
2.0
 50
180.0
 51
270.0
1001
GENIUS_GENODEF_13
1002
{
1000
HIER
1070
     0
1002
}
1002
{
1000
MANEDIT
1070
     0
1002
}
1002
{
1000
NOSEL
1070
     0
1002
}
1002
{
1000
BEHIND
1070
     0
1002
}
1002
{
1000
REACTOR
1002
}
1001
GENIUS_GENOBJ-N-FIL_13
1002
{
1000
OWNER
1000
GEN
1002
}
  0
LINE
  5
2949
  8
0
 10
32.32174784775725
 20
113.4145521129617
 30
0.0
 11
32.32174784775725
 21
107.6728823621584
 31
0.0
  0
LINE
  5
294A
  8
0
 10
32.32174784775725
 20
113.4145521129617
 30
0.0
 11
25.82174784775725
 21
124.6728823621611
 31
0.0
  0
ARC
  5
294B
  8
0
 10
37.71018431402467
 20
122.656144704732
 30
0.0
 40
8.092139528442901
 50
218.3219467238773
 51
244.8164215542294
  0
ARC
  5
294C
  8
0
 10
63.17259439625172
 20
144.3167957395755
 30
0.0
 40
41.51720649287704
 50
208.2390387289536
 51
219.9850051421013
  0
LINE
  5
294D
  8
0
 10
36.25972722494316
 20
124.6840443879123
 30
0.0
 11
48.99378374783009
 21
124.6728823621584
 31
0.0
  0
ARC
  5
294E
  8
0
 10
-145.4900081544608
 20
124.4246209791301
 30
0.0
 40
180.6652985045642
 50
357.2532324534187
 51
0.0787330719278605
  0
ARC
  5
294F
  8
0
 10
56.77692252914107
 20
118.8508412832853
 30
0.0
 40
3.704509570427561
 50
210.0359732923834
 51
270.6933074947436
  0
ARC
  5
2950
  8
0
 10
66.14056040729679
 20
127.5239155247918
 30
0.0
 40
16.39654800819768
 50
190.0134925743618
 51
219.9445765225445
  0
ARC
  5
2951
  8
0
 10
43.82174784775725
 20
106.6728823621618
 30
0.0
 40
39.99999999999841
 50
90.0
 51
111.8037479893856
  0
ARC
  5
2952
  8
0
 10
31.37477617442164
 20
139.4588815561048
 30
0.0
 40
4.869076824715424
 50
37.07163361014624
 51
88.33534575517591
  0
ARC
  5
2953
  8
0
 10
30.82174784775702
 20
139.1690359807039
 30
0.0
 40
4.999999999999826
 50
111.803747989381
 51
180.0
1001
GENIUS_GENODEF_13
1002
{
1000
HIER
1070
     0
1002
}
1002
{
1000
MANEDIT
1070
     0
1002
}
1002
{
1000
NOSEL
1070
     0
1002
}
1002
{
1000
BEHIND
1070
     0
1002
}
1002
{
1000
REACTOR
1002
}
1001
GENIUS_GENOBJ-N-FIL_13
1002
{
1000
OWNER
1000
GEN
1002
}
  0
ARC
  5
2954
  8
0
 10
33.1703966853629
 20
136.2035294134072
 30
0.0
 40
8.289104774638442
 50
101.5112441720059
 51
142.4715634063257
  0
LINE
  5
2955
  8
0
 10
36.25972722494316
 20
142.3940245611434
 30
0.0
 11
48.99378374783009
 21
142.3940245611434
 31
0.0
  0
ARC
  5
2956
  8
0
 10
58.86071075052882
 20
113.8763878139255
 30
0.0
 40
30.91919402525333
 50
93.78110786360062
 51
101.2703230792816
  0
ARC
  5
2957
  8
0
 10
53.1790757183694
 20
140.5227417964236
 30
0.0
 40
3.694290746966676
 50
95.61023783028725
 51
149.5667841226169
  0
LINE
  5
2958
  8
0
 10
87.82174784775725
 20
139.169035980703
 30
0.0
 11
87.82174784775725
 21
124.6728823621611
 31
0.0
  0
LINE
  5
2959
  8
0
 10
78.38376847058589
 20
124.6728823621611
 30
0.0
 11
78.38376847058589
 21
142.3940245611434
 31
0.0
  0
LINE
  5
295A
  8
0
 10
87.04678272669935
 20
124.6728823621611
 30
0.0
 11
87.04678272669935
 21
141.2528799023225
 31
0.0
  0
LINE
  5
295B
  8
0
 10
63.64971194769987
 20
142.3940245611434
 30
0.0
 11
63.64971194769987
 21
124.6728823621611
 31
0.0
  0
LINE
  5
295C
  8
0
 10
81.32174784775634
 20
113.4145521129608
 30
0.0
 11
87.82174784775725
 21
124.6728823621611
 31
0.0
  0
ARC
  5
295D
  8
0
 10
50.47090129927096
 20
144.3167957395805
 30
0.0
 40
41.51720649288583
 50
320.0149948578999
 51
331.7609612710449
  0
ARC
  5
295E
  8
0
 10
79.32174784775657
 20
107.6728823621593
 30
0.0
 40
2.0
 50
269.9999999999935
 51
0.0
1001
GENIUS_GENODEF_13
1002
{
1000
HIER
1070
     0
1002
}
1002
{
1000
MANEDIT
1070
     0
1002
}
1002
{
1000
NOSEL
1070
     0
1002
}
1002
{
1000
BEHIND
1070
     0
1002
}
1002
{
1000
REACTOR
1002
}
1001
GENIUS_GENOBJ-N-FIL_13
1002
{
1000
OWNER
1000
GEN
1002
}
  0
LINE
  5
295F
  8
0
 10
77.46837591980966
 20
124.6728823621611
 30
0.0
 11
64.64971194769987
 21
124.6728823621611
 31
0.0
  0
ARC
  5
2960
  8
0
 10
47.5029352882359
 20
127.5239155247901
 30
0.0
 40
16.39654800819415
 50
320.0554234774518
 51
349.9865074256933
  0
LINE
  5
2961
  8
0
 10
81.32174784775634
 20
113.4145521129608
 30
0.0
 11
81.32174784775634
 21
107.6728823621584
 31
0.0
  0
ARC
  5
2962
  8
0
 10
259.1335038499899
 20
124.4246209791321
 30
0.0
 40
180.6652985045639
 50
179.9212669280768
 51
182.7467675465875
  0
ARC
  5
2963
  8
0
 10
75.93331138150552
 20
122.656144704732
 30
0.0
 40
8.092139528442887
 50
295.1835784457706
 51
321.6780532761227
  0
ARC
  5
2964
  8
0
 10
79.17519875671132
 20
115.7907798181636
 30
0.0
 40
0.5000000000000417
 50
182.7467675466345
 51
293.763273504594
1001
GENIUS_GENODEF_13
1002
{
1000
HIER
1070
     0
1002
}
1002
{
1000
MANEDIT
1070
     0
1002
}
1002
{
1000
NOSEL
1070
     0
1002
}
1002
{
1000
BEHIND
1070
     0
1002
}
1002
{
1000
REACTOR
1002
}
1001
GENIUS_GENOBJ-N-FIL_13
1002
{
1000
OWNER
1000
GEN
1002
}
  0
ARC
  5
2965
  8
0
 10
69.82174784775634
 20
106.6728823621603
 30
0.0
 40
39.99999999999903
 50
68.19625201061437
 51
90.0
  0
ARC
  5
2966
  8
0
 10
80.47309901016729
 20
136.2035294134072
 30
0.0
 40
8.289104774638432
 50
37.52843659367432
 51
78.48875582799408
  0
LINE
  5
2967
  8
0
 10
77.46837591980966
 20
142.3940245611425
 30
0.0
 11
64.64971194769987
 21
142.3940245611434
 31
0.0
  0
ARC
  5
2968
  8
0
 10
60.46441997715965
 20
140.5227417964236
 30
0.0
 40
3.69429074696669
 50
30.43321587738312
 51
84.38976216971277
  0
ARC
  5
2969
  8
0
 10
82.26871952110855
 20
139.4588815561048
 30
0.0
 40
4.869076824715402
 50
91.6646542448241
 51
142.9283663898537
  0
ARC
  5
296A
  8
0
 10
82.82174784775748
 20
139.1690359807031
 30
0.0
 40
4.999999999999716
 50
0.0
 51
68.19625201061855
1001
GENIUS_GENODEF_13
1002
{
1000
HIER
1070
     0
1002
}
1002
{
1000
MANEDIT
1070
     0
1002
}
1002
{
1000
NOSEL
1070
     0
1002
}
1002
{
1000
BEHIND
1070
     0
1002
}
1002
{
1000
REACTOR
1002
}
1001
GENIUS_GENOBJ-N-FIL_13
1002
{
1000
OWNER
1000
GEN
1002
}
  0
LINE
  5
296B
  8
0
 10
172.305730299453
 20
113.4145521129626
 30
0.0
 11
221.3057302994521
 21
113.4145521129626
 31
0.0
  0
LINE
  5
296C
  8
0
 10
174.305730299453
 20
105.6728823621611
 30
0.0
 11
219.3057302994521
 21
105.6728823621611
 31
0.0
  0
LINE
  5
296D
  8
0
 10
183.805730299453
 20
146.6728823621611
 30
0.0
 11
209.8057302994639
 21
146.6728823621529
 31
0.0
  0
ARC
  5
296E
  8
0
 10
183.5694676670466
 20
138.780330082818
 30
0.0
 40
5.951205005509391
 50
37.38880691368608
 51
97.21420027622548
  0
ARC
  5
296F
  8
0
 10
183.6998033201899
 20
117.6660994037007
 30
0.0
 40
2.565357953936887
 50
240.6774080382689
 51
316.5238775543743
  0
LINE
  5
2970
  8
0
 10
167.0594067700486
 20
122.5014510188371
 30
0.0
 11
167.0594067700495
 21
142.4803891803854
 31
0.0
  0
LINE
  5
2971
  8
0
 10
175.2437096766553
 20
124.672882362162
 30
0.0
 11
175.2437096766544
 21
142.3940245611443
 31
0.0
  0
ARC
  5
2972
  8
0
 10
174.3057302994528
 20
107.6728823621611
 30
0.0
 40
1.999999999999943
 50
180.0
 51
270.0000000000065
1001
GENIUS_GENODEF_13
1002
{
1000
HIER
1070
     0
1002
}
1002
{
1000
MANEDIT
1070
     0
1002
}
1002
{
1000
NOSEL
1070
     0
1002
}
1002
{
1000
BEHIND
1070
     0
1002
}
1002
{
1000
REACTOR
1002
}
1001
GENIUS_GENOBJ-N-FIL_13
1002
{
1000
OWNER
1000
GEN
1002
}
  0
LINE
  5
2973
  8
0
 10
168.4715772417767
 20
124.6728823621629
 30
0.0
 11
174.2437096766389
 21
124.6728823621629
 31
0.0
  0
LINE
  5
2974
  8
0
 10
172.305730299453
 20
113.4145521129626
 30
0.0
 11
167.0594067700486
 21
122.5014510188362
 31
0.0
  0
LINE
  5
2975
  8
0
 10
172.305730299453
 20
113.4145521129626
 30
0.0
 11
172.305730299453
 21
107.6728823621602
 31
0.0
  0
ARC
  5
2976
  8
0
 10
188.0343281416547
 20
127.2098567686204
 30
0.0
 40
13.03979140386123
 50
191.2188087997441
 51
244.6115597288426
  0
LINE
  5
2977
  8
0
 10
168.3275030240102
 20
142.3940245611443
 30
0.0
 11
174.2437096766389
 21
142.3940245611443
 31
0.0
  0
ARC
  5
2978
  8
0
 10
183.805730299453
 20
106.6728823621597
 30
0.0
 40
40.00000000000136
 50
90.0
 51
111.8037479893843
  0
ARC
  5
2979
  8
0
 10
170.8057302994519
 20
139.1690359807062
 30
0.0
 40
4.999999999998328
 50
111.8037479893795
 51
138.5267245313338
1001
GENIUS_GENODEF_13
1002
{
1000
HIER
1070
     0
1002
}
1002
{
1000
MANEDIT
1070
     0
1002
}
1002
{
1000
NOSEL
1070
     0
1002
}
1002
{
1000
BEHIND
1070
     0
1002
}
1002
{
1000
REACTOR
1002
}
1001
GENIUS_GENOBJ-N-FIL_13
1002
{
1000
OWNER
1000
GEN
1002
}
  0
ARC
  5
297A
  8
0
 10
182.2087006886466
 20
133.0312670425027
 30
0.0
 40
11.66928995911952
 50
86.98674223133781
 51
126.6456998178229
  0
LINE
  5
297B
  8
0
 10
226.552053828872
 20
122.5014510188371
 30
0.0
 11
226.552053828872
 21
142.4803891803854
 31
0.0
  0
LINE
  5
297C
  8
0
 10
188.2978979811051
 20
142.3940245611443
 30
0.0
 11
188.297897981106
 21
124.6728823621629
 31
0.0
  0
LINE
  5
297D
  8
0
 10
205.3135626178155
 20
142.3940245611443
 30
0.0
 11
205.3135626178155
 21
124.6728823621629
 31
0.0
  0
LINE
  5
297E
  8
0
 10
218.3677509222662
 20
124.672882362162
 30
0.0
 11
218.3677509222662
 21
142.3940245611443
 31
0.0
  0
ARC
  5
297F
  8
0
 10
209.9116572787307
 20
117.6660994037007
 30
0.0
 40
2.565357953936903
 50
223.4761224456221
 51
299.3225919617311
  0
LINE
  5
2980
  8
0
 10
189.2978979810905
 20
124.6728823621629
 30
0.0
 11
204.3135626178155
 21
124.6728823621629
 31
0.0
  0
ARC
  5
2981
  8
0
 10
164.551334714329
 20
127.2681723770494
 30
0.0
 40
23.88796343861021
 50
331.5850581069332
 51
353.7628312294631
  0
ARC
  5
2982
  8
0
 10
229.0601258845913
 20
127.2681723770495
 30
0.0
 40
23.88796343861022
 50
186.2371687705372
 51
208.4149418930671
  0
ARC
  5
2983
  8
0
 10
219.3057302994521
 20
107.6728823621611
 30
0.0
 40
2.0
 50
270.0
 51
0.0
1001
GENIUS_GENODEF_13
1002
{
1000
HIER
1070
     0
1002
}
1002
{
1000
MANEDIT
1070
     0
1002
}
1002
{
1000
NOSEL
1070
     0
1002
}
1002
{
1000
BEHIND
1070
     0
1002
}
1002
{
1000
REACTOR
1002
}
1001
GENIUS_GENOBJ-N-FIL_13
1002
{
1000
OWNER
1000
GEN
1002
}
  0
LINE
  5
2984
  8
0
 10
225.0182557949665
 20
124.6728823621629
 30
0.0
 11
219.3677509222662
 21
124.6728823621629
 31
0.0
  0
ARC
  5
2985
  8
0
 10
205.5771324572659
 20
127.2098567686204
 30
0.0
 40
13.03979140386123
 50
295.3884402711573
 51
348.7811912002559
  0
LINE
  5
2986
  8
0
 10
221.3057302994521
 20
113.4145521129626
 30
0.0
 11
221.3057302994521
 21
107.6728823621593
 31
0.0
  0
LINE
  5
2987
  8
0
 10
221.3057302994521
 20
113.4145521129626
 30
0.0
 11
226.552053828872
 21
122.5014510188626
 31
0.0
  0
ARC
  5
2988
  8
0
 10
210.041992931875
 20
138.7803300828176
 30
0.0
 40
5.951205005509814
 50
82.78579972377723
 51
142.6111930863149
  0
LINE
  5
2989
  8
0
 10
189.2978979810905
 20
142.3940245611443
 30
0.0
 11
204.3135626178155
 21
142.3940245611443
 31
0.0
  0
LINE
  5
298A
  8
0
 10
225.2839575748949
 20
142.3940245611443
 30
0.0
 11
219.3677509222662
 21
142.3940245611443
 31
0.0
  0
ARC
  5
298B
  8
0
 10
209.8057302994519
 20
106.6728823621597
 30
0.0
 40
40.00000000000134
 50
68.19625201061571
 51
89.99999999999969
  0
ARC
  5
298C
  8
0
 10
211.4027599102747
 20
133.0312670425027
 30
0.0
 40
11.66928995911953
 50
53.35430018217589
 51
93.01325776866108
  0
ARC
  5
298D
  8
0
 10
222.8057302994687
 20
139.1690359807066
 30
0.0
 40
4.99999999999799
 50
41.47327546866229
 51
68.19625201061902
1001
GENIUS_GENODEF_13
1002
{
1000
HIER
1070
     0
1002
}
1002
{
1000
MANEDIT
1070
     0
1002
}
1002
{
1000
NOSEL
1070
     0
1002
}
1002
{
1000
BEHIND
1070
     0
1002
}
1002
{
1000
REACTOR
1002
}
1001
GENIUS_GENOBJ-N-FIL_13
1002
{
1000
OWNER
1000
GEN
1002
}
  0
VIEWPORT
  5
22
 67
     1
  8
0
 10
5.269134197284911
 20
5.545311567251436
 30
0.0
 40
11.13808705479925
 41
12.32365374410561
 68
     1
 69
     1
1001
GENIUS_GENSCREG_15
1000
PF
1040
1.0
1000
DF
1040
1.0
1000
MIN
1011
-0.2999093301147138
1021
-0.6165153048013714
1031
0.0
1021
-0.6165153048013714
1031
0.0
1000
MAX
1011
10.83817772468454
1021
11.70713843930424
1031
0.0
1021
11.70713843930424
1031
0.0
1000
FLAGS
1070
     4
1001
GENIUS_GENODEF_13
1002
{
1000
HIER
1070
     0
1002
}
1002
{
1000
MANEDIT
1070
     0
1002
}
1002
{
1000
NOSEL
1070
     0
1002
}
1002
{
1000
BEHIND
1070
     0
1002
}
1002
{
1000
OTHER
1070
     0
1002
}
1002
{
1000
REACTOR
1002
}
1001
GENIUS_GENOBJ-N-SDF_13
1002
{
1000
OWNER
1000
GEN
1002
}
1001
ACAD
1000
MVIEW
1002
{
1070
    16
1010
0.0
1020
0.0
1030
0.0
1020
0.0
1030
0.0
1010
0.0
1020
0.0
1030
1.0
1020
0.0
1030
1.0
1040
0.0
1040
12.32365374410561
1040
5.269134197284911
1040
5.545311567251436
1040
50.0
1040
0.0
1040
0.0
1070
     0
1070
   100
1070
     0
1070
     1
1070
     0
1070
     0
1070
     0
1070
     0
1040
0.0
1040
0.0
1040
0.0
1040
1.0
1040
1.0
1040
10.0
1040
10.0
1070
     0
1002
{
1002
}
1002
}
  0
ENDSEC
  0
EOF
